  0
SECTION
  2
HEADER
  9
$ACADVER
  1
AC1015
  9
$ACADMAINTVER
 70
     6
  9
$DWGCODEPAGE
  3
DOS932
  9
$INSBASE
 10
0.0
 20
0.0
 30
0.0
  9
$EXTMIN
 10
0.0
 20
0.0
 30
0.0
  9
$EXTMAX
 10
1189.0
 20
1000.0
 30
0.0
  9
$LIMMIN
 10
0.0
 20
0.0
  9
$LIMMAX
 10
1189.0
 20
1000.0
  9
$ORTHOMODE
 70
     0
  9
$REGENMODE
 70
     1
  9
$FILLMODE
 70
     1
  9
$QTEXTMODE
 70
     0
  9
$MIRRTEXT
 70
     1
  9
$LTSCALE
 40
1.0
  9
$ATTMODE
 70
     1
  9
$TEXTSIZE
 40
3.5
  9
$TRACEWID
 40
1.0
  9
$TEXTSTYLE
  7
Standard
  9
$CLAYER
  8
0
  9
$CELTYPE
  6
ByLayer
  9
$CECOLOR
 62
   256
  9
$CELTSCALE
 40
1.0
  9
$DISPSILH
 70
     0
  9
$DIMSCALE
 40
1.0
  9
$DIMASZ
 40
2.0
  9
$DIMEXO
 40
1.0
  9
$DIMDLI
 40
3.75
  9
$DIMRND
 40
0.0
  9
$DIMDLE
 40
0.0
  9
$DIMEXE
 40
1.0
  9
$DIMTP
 40
0.0
  9
$DIMTM
 40
0.0
  9
$DIMTXT
 40
2.7999999523
  9
$DIMCEN
 40
2.5
  9
$DIMTSZ
 40
0.0
  9
$DIMTOL
 70
     0
  9
$DIMLIM
 70
     0
  9
$DIMTIH
 70
     1
  9
$DIMTOH
 70
     1
  9
$DIMSE1
 70
     0
  9
$DIMSE2
 70
     0
  9
$DIMTAD
 70
     1
  9
$DIMZIN
 70
     0
  9
$DIMBLK
  1

  9
$DIMASO
 70
     1
  9
$DIMSHO
 70
     1
  9
$DIMPOST
  1

  9
$DIMAPOST
  1

  9
$DIMALT
 70
     0
  9
$DIMALTD
 70
     3
  9
$DIMALTF
 40
0.0393700787
  9
$DIMLFAC
 40
1.0
  9
$DIMTOFL
 70
     1
  9
$DIMTVP
 40
0.0
  9
$DIMTIX
 70
     0
  9
$DIMSOXD
 70
     0
  9
$DIMSAH
 70
     0
  9
$DIMBLK1
  1

  9
$DIMBLK2
  1

  9
$DIMSTYLE
  2
ISO-25
  9
$DIMCLRD
 70
     0
  9
$DIMCLRE
 70
     0
  9
$DIMCLRT
 70
     0
  9
$DIMTFAC
 40
1.0
  9
$DIMGAP
 40
1.524
  9
$DIMJUST
 70
     0
  9
$DIMSD1
 70
     0
  9
$DIMSD2
 70
     0
  9
$DIMTOLJ
 70
     0
  9
$DIMTZIN
 70
     0
  9
$DIMALTZ
 70
     0
  9
$DIMALTTZ
 70
     0
  9
$DIMUPT
 70
     0
  9
$DIMDEC
 70
     3
  9
$DIMTDEC
 70
     3
  9
$DIMALTU
 70
     2
  9
$DIMALTTD
 70
     3
  9
$DIMTXSTY
  7
Standard
  9
$DIMAUNIT
 70
     0
  9
$DIMADEC
 70
     0
  9
$DIMALTRND
 40
0.0
  9
$DIMAZIN
 70
     0
  9
$DIMDSEP
 70
    44
  9
$DIMATFIT
 70
     3
  9
$DIMFRAC
 70
     0
  9
$DIMLDRBLK
  1

  9
$DIMLUNIT
 70
     2
  9
$DIMLWD
 70
    -2
  9
$DIMLWE
 70
    -2
  9
$DIMTMOVE
 70
     0
  9
$LUNITS
 70
     2
  9
$LUPREC
 70
     3
  9
$SKETCHINC
 40
1.0
  9
$FILLETRAD
 40
10.0
  9
$AUNITS
 70
     0
  9
$AUPREC
 70
     0
  9
$MENU
  1
.
  9
$ELEVATION
 40
0.0
  9
$PELEVATION
 40
0.0
  9
$THICKNESS
 40
0.0
  9
$LIMCHECK
 70
     0
  9
$CHAMFERA
 40
10.0
  9
$CHAMFERB
 40
10.0
  9
$CHAMFERC
 40
20.0
  9
$CHAMFERD
 40
0.0
  9
$SKPOLY
 70
     0
  9
$TDCREATE
 40
2456743.833644815
  9
$TDUCREATE
 40
2456743.458644815
  9
$TDUPDATE
 40
2456743.833646262
  9
$TDUUPDATE
 40
2456743.458646262
  9
$TDINDWG
 40
0.0000000116
  9
$TDUSRTIMER
 40
0.0000000116
  9
$USRTIMER
 70
     1
  9
$ANGBASE
 50
0.0
  9
$ANGDIR
 70
     0
  9
$PDMODE
 70
     0
  9
$PDSIZE
 40
-1.0
  9
$PLINEWID
 40
0.0
  9
$SPLFRAME
 70
     0
  9
$SPLINETYPE
 70
     6
  9
$SPLINESEGS
 70
     8
  9
$HANDSEED
  5
2F2
  9
$SURFTAB1
 70
     6
  9
$SURFTAB2
 70
     6
  9
$SURFTYPE
 70
     6
  9
$SURFU
 70
     6
  9
$SURFV
 70
     6
  9
$UCSBASE
  2

  9
$UCSNAME
  2

  9
$UCSORG
 10
0.0
 20
0.0
 30
0.0
  9
$UCSXDIR
 10
1.0
 20
0.0
 30
0.0
  9
$UCSYDIR
 10
0.0
 20
1.0
 30
0.0
  9
$UCSORTHOREF
  2

  9
$UCSORTHOVIEW
 70
     0
  9
$UCSORGTOP
 10
0.0
 20
0.0
 30
0.0
  9
$UCSORGBOTTOM
 10
0.0
 20
0.0
 30
0.0
  9
$UCSORGLEFT
 10
0.0
 20
0.0
 30
0.0
  9
$UCSORGRIGHT
 10
0.0
 20
0.0
 30
0.0
  9
$UCSORGFRONT
 10
0.0
 20
0.0
 30
0.0
  9
$UCSORGBACK
 10
0.0
 20
0.0
 30
0.0
  9
$PUCSBASE
  2

  9
$PUCSNAME
  2

  9
$PUCSORG
 10
0.0
 20
0.0
 30
0.0
  9
$PUCSXDIR
 10
1.0
 20
0.0
 30
0.0
  9
$PUCSYDIR
 10
0.0
 20
1.0
 30
0.0
  9
$PUCSORTHOREF
  2

  9
$PUCSORTHOVIEW
 70
     0
  9
$PUCSORGTOP
 10
0.0
 20
0.0
 30
0.0
  9
$PUCSORGBOTTOM
 10
0.0
 20
0.0
 30
0.0
  9
$PUCSORGLEFT
 10
0.0
 20
0.0
 30
0.0
  9
$PUCSORGRIGHT
 10
0.0
 20
0.0
 30
0.0
  9
$PUCSORGFRONT
 10
0.0
 20
0.0
 30
0.0
  9
$PUCSORGBACK
 10
0.0
 20
0.0
 30
0.0
  9
$USERI1
 70
     0
  9
$USERI2
 70
     0
  9
$USERI3
 70
     0
  9
$USERI4
 70
     0
  9
$USERI5
 70
     0
  9
$USERR1
 40
0.0
  9
$USERR2
 40
0.0
  9
$USERR3
 40
0.0
  9
$USERR4
 40
0.0
  9
$USERR5
 40
0.0
  9
$WORLDVIEW
 70
     1
  9
$SHADEDGE
 70
     3
  9
$SHADEDIF
 70
    70
  9
$TILEMODE
 70
     1
  9
$MAXACTVP
 70
    64
  9
$PINSBASE
 10
0.0
 20
0.0
 30
0.0
  9
$PLIMCHECK
 70
     0
  9
$PEXTMIN
 10
1.0000000000E+20
 20
1.0000000000E+20
 30
1.0000000000E+20
  9
$PEXTMAX
 10
-1.0000000000E+20
 20
-1.0000000000E+20
 30
-1.0000000000E+20
  9
$PLIMMIN
 10
0.0
 20
0.0
  9
$PLIMMAX
 10
420.0
 20
297.0
  9
$UNITMODE
 70
     0
  9
$VISRETAIN
 70
     1
  9
$PLINEGEN
 70
     0
  9
$PSLTSCALE
 70
     1
  9
$TREEDEPTH
 70
  3020
  9
$CMLSTYLE
  2
Standard
  9
$CMLJUST
 70
     0
  9
$CMLSCALE
 40
20.0
  9
$PROXYGRAPHICS
 70
     1
  9
$MEASUREMENT
 70
     1
  9
$CELWEIGHT
370
    -1
  9
$ENDCAPS
280
     0
  9
$JOINSTYLE
280
     0
  9
$LWDISPLAY
290
     1
  9
$INSUNITS
 70
     4
  9
$HYPERLINKBASE
  1

  9
$STYLESHEET
  1

  9
$XEDIT
290
     1
  9
$CEPSNTYPE
380
     0
  9
$PSTYLEMODE
290
     1
  9
$FINGERPRINTGUID
  2
{F866EF83-F2A8-4B74-8214-2A01A4D4A2F2}
  9
$VERSIONGUID
  2
{FAEB1C32-E019-11D5-929B-00C0DF256EC4}
  9
$EXTNAMES
290
     1
  9
$PSVPSCALE
 40
0.0
  9
$OLESTARTUP
290
     0
  0
ENDSEC
  0
SECTION
  2
CLASSES
  0
CLASS
  1
ACDBDICTIONARYWDFLT
  2
AcDbDictionaryWithDefault
  3
ObjectDBX Classes
 90
        0
280
     0
281
     0
  0
CLASS
  1
VISUALSTYLE
  2
AcDbVisualStyle
  3
ObjectDBX Classes
 90
     4095
280
     0
281
     0
  0
CLASS
  1
MATERIAL
  2
AcDbMaterial
  3
ObjectDBX Classes
 90
     1153
280
     0
281
     0
  0
CLASS
  1
ACDBPLACEHOLDER
  2
AcDbPlaceHolder
  3
ObjectDBX Classes
 90
        0
280
     0
281
     0
  0
CLASS
  1
LAYOUT
  2
AcDbLayout
  3
ObjectDBX Classes
 90
        0
280
     0
281
     0
  0
ENDSEC
  0
SECTION
  2
TABLES
  0
TABLE
  2
VPORT
  5
8
330
0
100
AcDbSymbolTable
 70
     1
  0
VPORT
  5
29
330
8
100
AcDbSymbolTableRecord
100
AcDbViewportTableRecord
  2
*Active
 70
     0
 10
0.0
 20
0.0
 11
1.0
 21
1.0
 12
594.5
 22
500.0
 13
0.0
 23
0.0
 14
10.0
 24
10.0
 15
10.0
 25
10.0
 16
0.0
 26
0.0
 36
1.0
 17
0.0
 27
0.0
 37
0.0
 40
1000.0
 41
1.189
 42
50.0
 43
0.0
 44
0.0
 50
0.0
 51
0.0
 71
     0
 72
  2000
 73
     1
 74
     3
 75
     0
 76
     0
 77
     0
 78
     0
281
     0
 65
     1
110
0.0
120
0.0
130
0.0
111
1.0
121
0.0
131
0.0
112
0.0
122
1.0
132
0.0
 79
     0
146
0.0
  0
ENDTAB
  0
TABLE
  2
LTYPE
  5
5
330
0
100
AcDbSymbolTable
 70
     6
  0
LTYPE
  5
14
330
5
100
AcDbSymbolTableRecord
100
AcDbLinetypeTableRecord
  2
ByBlock
 70
     0
  3

 72
    65
 73
     0
 40
0.0
  0
LTYPE
  5
15
330
5
100
AcDbSymbolTableRecord
100
AcDbLinetypeTableRecord
  2
ByLayer
 70
     0
  3

 72
    65
 73
     0
 40
0.0
  0
LTYPE
  5
16
330
5
100
AcDbSymbolTableRecord
100
AcDbLinetypeTableRecord
  2
Continuous
 70
     0
  3
Solid line
 72
    65
 73
     0
 40
0.0
  0
LTYPE
  5
3F
330
5
100
AcDbSymbolTableRecord
100
AcDbLinetypeTableRecord
  2
HIDDEN
 70
     0
  3
Hidden __ __ __ __ __ __ __ __ __ __ __ __ __ __
 72
    65
 73
     2
 40
1.905
 49
1.27
 74
     0
 49
-0.635
 74
     0
  0
LTYPE
  5
40
330
5
100
AcDbSymbolTableRecord
100
AcDbLinetypeTableRecord
  2
PHANTOM
 70
     0
  3
Phantom ______  __  __  ______  __  __  ______
 72
    65
 73
     6
 40
12.7
 49
6.35
 74
     0
 49
-1.27
 74
     0
 49
1.27
 74
     0
 49
-1.27
 74
     0
 49
1.27
 74
     0
 49
-1.27
 74
     0
  0
LTYPE
  5
41
330
5
100
AcDbSymbolTableRecord
100
AcDbLinetypeTableRecord
  2
CENTER
 70
     0
  3
Center ____ _ ____ _ ____ _ ____ _ ____ _ ____
 72
    65
 73
     4
 40
10.16
 49
6.35
 74
     0
 49
-1.27
 74
     0
 49
1.27
 74
     0
 49
-1.27
 74
     0
  0
LTYPE
  5
42
330
5
100
AcDbSymbolTableRecord
100
AcDbLinetypeTableRecord
  2
CENTERX2
 70
     0
  3
Center (2x) ________  __  ________  __  _____
 72
    65
 73
     4
 40
20.32
 49
12.7
 74
     0
 49
-2.54
 74
     0
 49
2.54
 74
     0
 49
-2.54
 74
     0
  0
LTYPE
  5
43
330
5
100
AcDbSymbolTableRecord
100
AcDbLinetypeTableRecord
  2
DOT2
 70
     0
  3
Dot (.5x) ........................................
 72
    65
 73
     2
 40
0.635
 49
0.0
 74
     0
 49
-0.635
 74
     0
  0
ENDTAB
  0
TABLE
  2
LAYER
  5
2
330
0
100
AcDbSymbolTable
 70
    22
  0
LAYER
  5
10
330
2
100
AcDbSymbolTableRecord
100
AcDbLayerTableRecord
  2
0
 70
     0
 62
     7
  6
Continuous
370
    -3
390
F
  0
LAYER
  5
44
330
2
100
AcDbSymbolTableRecord
100
AcDbLayerTableRecord
  2
SLD-0
 70
     0
 62
     3
  6
Continuous
370
    -3
390
F
  0
LAYER
  5
45
330
2
100
AcDbSymbolTableRecord
100
AcDbLayerTableRecord
  2
1
 70
     0
 62
   179
  6
Continuous
370
    -3
390
F
  0
LAYER
  5
46
330
2
100
AcDbSymbolTableRecord
100
AcDbLayerTableRecord
  2
2
 70
     0
 62
     1
  6
Continuous
370
    -3
390
F
  0
LAYER
  5
47
330
2
100
AcDbSymbolTableRecord
100
AcDbLayerTableRecord
  2
3
 70
     0
 62
     4
  6
Continuous
370
    -3
390
F
  0
LAYER
  5
48
330
2
100
AcDbSymbolTableRecord
100
AcDbLayerTableRecord
  2
4
 70
     0
 62
     2
  6
Continuous
370
    -3
390
F
  0
LAYER
  5
49
330
2
100
AcDbSymbolTableRecord
100
AcDbLayerTableRecord
  2
5
 70
     0
 62
     6
  6
Continuous
370
    -3
390
F
  0
LAYER
  5
4A
330
2
100
AcDbSymbolTableRecord
100
AcDbLayerTableRecord
  2
6
 70
     0
 62
     1
  6
Continuous
370
    -3
390
F
  0
LAYER
  5
4B
330
2
100
AcDbSymbolTableRecord
100
AcDbLayerTableRecord
  2
7
 70
     0
 62
   179
  6
Continuous
370
    -3
390
F
  0
LAYER
  5
4C
330
2
100
AcDbSymbolTableRecord
100
AcDbLayerTableRecord
  2
9
 70
     0
 62
     3
  6
Continuous
370
    -3
390
F
  0
LAYER
  5
4D
330
2
100
AcDbSymbolTableRecord
100
AcDbLayerTableRecord
  2
11
 70
     0
 62
     3
  6
Continuous
370
    -3
390
F
  0
LAYER
  5
4E
330
2
100
AcDbSymbolTableRecord
100
AcDbLayerTableRecord
  2
18
 70
     0
 62
   179
  6
Continuous
370
    -3
390
F
  0
LAYER
  5
4F
330
2
100
AcDbSymbolTableRecord
100
AcDbLayerTableRecord
  2
20
 70
     0
 62
     2
  6
Continuous
370
    -3
390
F
  0
LAYER
  5
50
330
2
100
AcDbSymbolTableRecord
100
AcDbLayerTableRecord
  2
22
 70
     0
 62
   179
  6
Continuous
370
    -3
390
F
  0
LAYER
  5
51
330
2
100
AcDbSymbolTableRecord
100
AcDbLayerTableRecord
  2
25
 70
     0
 62
     2
  6
Continuous
370
    -3
390
F
  0
LAYER
  5
52
330
2
100
AcDbSymbolTableRecord
100
AcDbLayerTableRecord
  2
32
 70
     0
 62
     1
  6
Continuous
370
    -3
390
F
  0
LAYER
  5
53
330
2
100
AcDbSymbolTableRecord
100
AcDbLayerTableRecord
  2
33
 70
     0
 62
   179
  6
Continuous
370
    -3
390
F
  0
LAYER
  5
54
330
2
100
AcDbSymbolTableRecord
100
AcDbLayerTableRecord
  2
34
 70
     0
 62
     4
  6
Continuous
370
    -3
390
F
  0
LAYER
  5
55
330
2
100
AcDbSymbolTableRecord
100
AcDbLayerTableRecord
  2
35
 70
     0
 62
     3
  6
Continuous
370
    -3
390
F
  0
LAYER
  5
56
330
2
100
AcDbSymbolTableRecord
100
AcDbLayerTableRecord
  2
99
 70
     0
 62
   179
  6
Continuous
370
    -3
390
F
  0
LAYER
  5
57
330
2
100
AcDbSymbolTableRecord
100
AcDbLayerTableRecord
  2
SLD-DEFPOINTS
 70
     0
 62
   179
  6
Continuous
370
    -3
390
F
  0
LAYER
  5
58
330
2
100
AcDbSymbolTableRecord
100
AcDbLayerTableRecord
  2
FORMAT
 70
     0
 62
     7
  6
Continuous
370
    -3
390
F
  0
ENDTAB
  0
TABLE
  2
STYLE
  5
3
330
0
100
AcDbSymbolTable
 70
     1
  0
STYLE
  5
11
330
3
100
AcDbSymbolTableRecord
100
AcDbTextStyleTableRecord
  2
Standard
 70
     0
 40
0.0
 41
1.0
 50
0.0
 71
     0
 42
3.5
  3
txt
  4
bigfont
  0
ENDTAB
  0
TABLE
  2
VIEW
  5
6
330
0
100
AcDbSymbolTable
 70
     0
  0
ENDTAB
  0
TABLE
  2
UCS
  5
7
330
0
100
AcDbSymbolTable
 70
     0
  0
ENDTAB
  0
TABLE
  2
APPID
  5
9
330
0
100
AcDbSymbolTable
 70
     1
  0
APPID
  5
12
330
9
100
AcDbSymbolTableRecord
100
AcDbRegAppTableRecord
  2
ACAD
 70
     0
  0
ENDTAB
  0
TABLE
  2
DIMSTYLE
  5
A
330
0
100
AcDbSymbolTable
 70
     1
100
AcDbDimStyleTable
  0
DIMSTYLE
105
27
330
A
100
AcDbSymbolTableRecord
100
AcDbDimStyleTableRecord
  2
ISO-25
 70
     0
 41
2.5
 42
0.625
 43
3.75
 44
1.25
 73
     0
 74
     0
 77
     1
 78
     8
140
2.5
141
2.5
143
0.0393700787
147
0.625
171
     3
172
     1
178
     0
271
     2
272
     2
274
     3
278
    44
283
     0
284
     8
340
11
  0
ENDTAB
  0
TABLE
  2
BLOCK_RECORD
  5
1
330
0
100
AcDbSymbolTable
 70
     2
  0
BLOCK_RECORD
  5
1F
330
1
100
AcDbSymbolTableRecord
100
AcDbBlockTableRecord
  2
*Model_Space
340
22
  0
BLOCK_RECORD
  5
1B
330
1
100
AcDbSymbolTableRecord
100
AcDbBlockTableRecord
  2
*Paper_Space
340
1E
  0
BLOCK_RECORD
  5
23
330
1
100
AcDbSymbolTableRecord
100
AcDbBlockTableRecord
  2
*Paper_Space0
340
26
  0
BLOCK_RECORD
  5
2D1
330
1
100
AcDbSymbolTableRecord
100
AcDbBlockTableRecord
  2
SW_CENTERMARKSYMBOL_0
340
0
102
{BLKREFS
331
2F1
102
}
  0
ENDTAB
  0
ENDSEC
  0
SECTION
  2
BLOCKS
  0
BLOCK
  5
20
330
1F
100
AcDbEntity
  8
0
100
AcDbBlockBegin
  2
*Model_Space
 70
     0
 10
0.0
 20
0.0
 30
0.0
  3
*Model_Space
  1

  0
ENDBLK
  5
21
330
1F
100
AcDbEntity
  8
0
100
AcDbBlockEnd
  0
BLOCK
  5
1C
330
1B
100
AcDbEntity
 67
     1
  8
0
100
AcDbBlockBegin
  2
*Paper_Space
 70
     0
 10
0.0
 20
0.0
 30
0.0
  3
*Paper_Space
  1

  0
ENDBLK
  5
1D
330
1B
100
AcDbEntity
 67
     1
  8
0
100
AcDbBlockEnd
  0
BLOCK
  5
24
330
23
100
AcDbEntity
  8
0
100
AcDbBlockBegin
  2
*Paper_Space0
 70
     0
 10
0.0
 20
0.0
 30
0.0
  3
*Paper_Space0
  1

  0
ENDBLK
  5
25
330
23
100
AcDbEntity
  8
0
100
AcDbBlockEnd
  0
BLOCK
  5
2D2
330
2D1
100
AcDbEntity
  8
0
100
AcDbBlockBegin
  2
SW_CENTERMARKSYMBOL_0
 70
     0
 10
0.0
 20
0.0
 30
0.0
  3
SW_CENTERMARKSYMBOL_0
  1

  0
ARC
  5
2D4
330
2D1
100
AcDbEntity
  8
22
 62
     0
100
AcDbCircle
 10
103.75
 20
-179.7002712853
 30
0.0
 40
207.5
100
AcDbArc
 50
120.0
 51
120.6903105965
  0
ARC
  5
2D5
330
2D1
100
AcDbEntity
  8
22
 62
     0
100
AcDbCircle
 10
103.75
 20
-179.7002712853
 30
0.0
 40
207.5
100
AcDbArc
 50
119.3096894035
 51
120.0
  0
ARC
  5
2D6
330
2D1
100
AcDbEntity
  8
22
 62
     0
100
AcDbCircle
 10
103.75
 20
-179.7002712853
 30
0.0
 40
207.5
100
AcDbArc
 50
240.0
 51
240.6903105965
  0
ARC
  5
2D7
330
2D1
100
AcDbEntity
  8
22
 62
     0
100
AcDbCircle
 10
103.75
 20
-179.7002712853
 30
0.0
 40
207.5
100
AcDbArc
 50
239.3096894035
 51
240.0
  0
ARC
  5
2D8
330
2D1
100
AcDbEntity
  8
22
 62
     0
100
AcDbCircle
 10
103.75
 20
-179.7002712853
 30
0.0
 40
207.5
100
AcDbArc
 50
0.0
 51
0.6903105965
  0
ARC
  5
2D9
330
2D1
100
AcDbEntity
  8
22
 62
     0
100
AcDbCircle
 10
103.75
 20
-179.7002712853
 30
0.0
 40
207.5
100
AcDbArc
 50
359.3096894035
 51
0.0
  0
ARC
  5
2DA
330
2D1
100
AcDbEntity
  8
22
 62
     0
100
AcDbCircle
 10
103.75
 20
-179.7002712853
 30
0.0
 40
207.5
100
AcDbArc
 50
121.3806211931
 51
238.6193788069
  0
ARC
  5
2DB
330
2D1
100
AcDbEntity
  8
22
 62
     0
100
AcDbCircle
 10
103.75
 20
-179.7002712853
 30
0.0
 40
207.5
100
AcDbArc
 50
241.3806211931
 51
358.6193788069
  0
ARC
  5
2DC
330
2D1
100
AcDbEntity
  8
22
 62
     0
100
AcDbCircle
 10
103.75
 20
-179.7002712853
 30
0.0
 40
207.5
100
AcDbArc
 50
1.3806211931
 51
118.6193788069
  0
LINE
  5
2DD
330
2D1
100
AcDbEntity
  8
22
 62
     0
100
AcDbLine
 10
0.0
 20
0.0
 30
0.0
 11
-1.25
 21
2.1650635095
 31
0.0
  0
LINE
  5
2DE
330
2D1
100
AcDbEntity
  8
22
 62
     0
100
AcDbLine
 10
0.0
 20
0.0
 30
0.0
 11
1.25
 21
-2.1650635095
 31
0.0
  0
LINE
  5
2DF
330
2D1
100
AcDbEntity
  8
22
 62
     0
100
AcDbLine
 10
-2.5
 20
4.3301270189
 30
0.0
 11
-4.0
 21
6.9282032303
 31
0.0
  0
LINE
  5
2E0
330
2D1
100
AcDbEntity
  8
22
 62
     0
100
AcDbLine
 10
2.5
 20
-4.3301270189
 30
0.0
 11
4.0
 21
-6.9282032303
 31
0.0
  0
LINE
  5
2E1
330
2D1
100
AcDbEntity
  8
22
 62
     0
100
AcDbLine
 10
0.0
 20
-359.4005425705
 30
0.0
 11
-1.25
 21
-361.56560608
 31
0.0
  0
LINE
  5
2E2
330
2D1
100
AcDbEntity
  8
22
 62
     0
100
AcDbLine
 10
0.0
 20
-359.4005425705
 30
0.0
 11
1.25
 21
-357.2354790611
 31
0.0
  0
LINE
  5
2E3
330
2D1
100
AcDbEntity
  8
22
 62
     0
100
AcDbLine
 10
-2.5
 20
-363.7306695895
 30
0.0
 11
-4.0
 21
-366.3287458008
 31
0.0
  0
LINE
  5
2E4
330
2D1
100
AcDbEntity
  8
22
 62
     0
100
AcDbLine
 10
2.5
 20
-355.0704155516
 30
0.0
 11
4.0
 21
-352.4723393403
 31
0.0
  0
LINE
  5
2E5
330
2D1
100
AcDbEntity
  8
22
 62
     0
100
AcDbLine
 10
311.25
 20
-179.7002712853
 30
0.0
 11
313.75
 21
-179.7002712853
 31
0.0
  0
LINE
  5
2E6
330
2D1
100
AcDbEntity
  8
22
 62
     0
100
AcDbLine
 10
311.25
 20
-179.7002712853
 30
0.0
 11
308.75
 21
-179.7002712853
 31
0.0
  0
LINE
  5
2E7
330
2D1
100
AcDbEntity
  8
22
 62
     0
100
AcDbLine
 10
316.25
 20
-179.7002712853
 30
0.0
 11
319.25
 21
-179.7002712853
 31
0.0
  0
LINE
  5
2E8
330
2D1
100
AcDbEntity
  8
22
 62
     0
100
AcDbLine
 10
306.25
 20
-179.7002712853
 30
0.0
 11
303.25
 21
-179.7002712853
 31
0.0
  0
LINE
  5
2E9
330
2D1
100
AcDbEntity
  8
22
 62
     0
100
AcDbLine
 10
103.75
 20
-179.7002712853
 30
0.0
 11
103.75
 21
-177.2002712853
 31
0.0
  0
LINE
  5
2EA
330
2D1
100
AcDbEntity
  8
22
 62
     0
100
AcDbLine
 10
103.75
 20
-179.7002712853
 30
0.0
 11
101.25
 21
-179.7002712853
 31
0.0
  0
LINE
  5
2EB
330
2D1
100
AcDbEntity
  8
22
 62
     0
100
AcDbLine
 10
103.75
 20
-179.7002712853
 30
0.0
 11
103.75
 21
-182.2002712853
 31
0.0
  0
LINE
  5
2EC
330
2D1
100
AcDbEntity
  8
22
 62
     0
100
AcDbLine
 10
103.75
 20
-179.7002712853
 30
0.0
 11
106.25
 21
-179.7002712853
 31
0.0
  0
LINE
  5
2ED
330
2D1
100
AcDbEntity
  8
22
 62
     0
100
AcDbLine
 10
103.75
 20
-174.7002712853
 30
0.0
 11
103.75
 21
37.1219102355
 31
0.0
  0
LINE
  5
2EE
330
2D1
100
AcDbEntity
  8
22
 62
     0
100
AcDbLine
 10
98.75
 20
-179.7002712853
 30
0.0
 11
-200.6710182087
 21
-179.7002712853
 31
0.0
  0
LINE
  5
2EF
330
2D1
100
AcDbEntity
  8
22
 62
     0
100
AcDbLine
 10
103.75
 20
-184.7002712853
 30
0.0
 11
103.75
 21
-394.8660670789
 31
0.0
  0
LINE
  5
2F0
330
2D1
100
AcDbEntity
  8
22
 62
     0
100
AcDbLine
 10
108.75
 20
-179.7002712853
 30
0.0
 11
339.7583855098
 21
-179.7002712853
 31
0.0
  0
ENDBLK
  5
2D3
330
2D1
100
AcDbEntity
  8
0
100
AcDbBlockEnd
  0
ENDSEC
  0
SECTION
  2
ENTITIES
  0
LINE
  5
59
330
1F
100
AcDbEntity
  8
0
  6
Continuous
 62
     7
370
    15
100
AcDbLine
 10
343.6545264572
 20
149.3242292387
 30
0.0
 11
342.1205562204
 21
153.1146078092
 31
0.0
  0
LINE
  5
5A
330
1F
100
AcDbEntity
  8
0
  6
Continuous
 62
     7
370
    15
100
AcDbLine
 10
333.1205677837
 20
153.1146078092
 30
0.0
 11
331.5865826458
 21
149.3242292387
 31
0.0
  0
LINE
  5
5B
330
1F
100
AcDbEntity
  8
0
  6
Continuous
 62
     7
370
    15
100
AcDbLine
 10
342.1205562204
 20
153.1146078092
 30
0.0
 11
342.1205562204
 21
160.114607094
 31
0.0
  0
LINE
  5
5C
330
1F
100
AcDbEntity
  8
0
  6
Continuous
 62
     7
370
    15
100
AcDbLine
 10
333.1205677837
 20
160.114607094
 30
0.0
 11
333.1205677837
 21
153.1146078092
 31
0.0
  0
LINE
  5
5D
330
1F
100
AcDbEntity
  8
0
  6
Continuous
 62
     7
370
    15
100
AcDbLine
 10
343.120558247
 20
137.1146051866
 30
0.0
 11
343.120558247
 21
138.1146072132
 31
0.0
  0
LINE
  5
5E
330
1F
100
AcDbEntity
  8
0
  6
Continuous
 62
     7
370
    15
100
AcDbLine
 10
332.120550856
 20
138.1146072132
 30
0.0
 11
332.120550856
 21
137.1146051866
 31
0.0
  0
LINE
  5
5F
330
1F
100
AcDbEntity
  8
0
  6
Continuous
 62
     7
370
    15
100
AcDbLine
 10
748.0582129807
 20
261.9801296574
 30
0.0
 11
751.1881869883
 21
262.5544502122
 31
0.0
  0
LINE
  5
60
330
1F
100
AcDbEntity
  8
0
  6
Continuous
 62
     7
370
    15
100
AcDbLine
 10
750.8693617434
 20
275.4700689298
 30
0.0
 11
747.7148604244
 21
275.8892534954
 31
0.0
  0
LINE
  5
61
330
1F
100
AcDbEntity
  8
0
  6
Continuous
 62
     7
370
    15
100
AcDbLine
 10
800.0205588192
 20
137.163078664
 30
0.0
 11
798.0205547661
 21
137.163078664
 31
0.0
  0
LINE
  5
62
330
1F
100
AcDbEntity
  8
0
  6
Continuous
 62
     7
370
    15
100
AcDbLine
 10
798.0205547661
 20
117.1630679351
 30
0.0
 11
800.0205588192
 21
117.1630679351
 31
0.0
  0
LINE
  5
63
330
1F
100
AcDbEntity
  8
0
  6
Continuous
 62
     7
370
    15
100
AcDbLine
 10
398.6205589622
 20
117.1630679351
 30
0.0
 11
400.6205481142
 21
117.1630679351
 31
0.0
  0
LINE
  5
64
330
1F
100
AcDbEntity
  8
0
  6
Continuous
 62
     7
370
    15
100
AcDbLine
 10
400.6205481142
 20
137.163078664
 30
0.0
 11
398.6205589622
 21
137.163078664
 31
0.0
  0
SPLINE
  5
65
330
1F
100
AcDbEntity
  8
0
  6
Continuous
 62
     7
370
    15
100
AcDbSpline
210
0.0
220
0.0
230
1.0
 70
     8
 71
     3
 72
    12
 73
     8
 74
     0
 42
0.00000001
 43
0.00000001
 12
1.0
 22
0.0
 32
0.0
 13
1.0
 23
0.0
 33
0.0
 40
0.0
 40
0.0
 40
0.0
 40
0.0
 40
0.1304193694456451
 40
0.3388812496612795
 40
0.554562584734955
 40
0.7843778393525666
 40
1.0
 40
1.0
 40
1.0
 40
1.0
 10
395.5390286296845
 20
78.11460482899349
 30
0.0
 10
395.5348877019856
 20
78.04237276938234
 30
0.0
 10
395.5241279294204
 20
77.85468522932845
 30
0.0
 10
395.415092296158
 20
77.56733908299077
 30
0.0
 10
395.2058569819815
 20
77.30737062147521
 30
0.0
 10
394.9405816940184
 20
77.14357159438609
 30
0.0
 10
394.7512843557437
 20
77.12406178506639
 30
0.0
 10
394.6596515029908
 20
77.11461770359676
 30
0.0
  0
SPLINE
  5
66
330
1F
100
AcDbEntity
  8
0
  6
Continuous
 62
     7
370
    15
100
AcDbSpline
210
0.0
220
0.0
230
1.0
 70
     8
 71
     3
 72
    12
 73
     8
 74
     0
 42
0.00000001
 43
0.00000001
 12
1.0
 22
0.0
 32
0.0
 13
1.0
 23
0.0
 33
0.0
 40
0.0
 40
0.0
 40
0.0
 40
0.0
 40
0.131047799691523
 40
0.3844016360679766
 40
0.6075256321788028
 40
0.8148983279603017
 40
1.0
 40
1.0
 40
1.0
 40
1.0
 10
394.6596515029908
 20
87.1146081668536
 30
0.0
 10
394.7151463863227
 20
87.11099176611323
 30
0.0
 10
394.877929157162
 20
87.1003838019617
 30
0.0
 10
395.1308223569637
 20
86.98393872407026
 30
0.0
 10
395.3674372572502
 20
86.73848595920694
 30
0.0
 10
395.5132156780463
 20
86.43523707547482
 30
0.0
 10
395.5307560903498
 20
86.21735187382676
 30
0.0
 10
395.5390286296845
 20
86.11459123913448
 30
0.0
  0
LINE
  5
67
330
1F
100
AcDbEntity
  8
0
  6
Continuous
 62
     7
370
    15
100
AcDbLine
 10
395.5390286297
 20
86.1145912391
 30
0.0
 11
395.5390286297
 21
78.114604829
 31
0.0
  0
ARC
  5
68
330
1F
100
AcDbEntity
  8
0
  6
Continuous
 62
     7
370
    15
100
AcDbCircle
 10
391.8405726841
 20
74.0317010896
 30
0.0
 40
1.0
100
AcDbArc
 50
180.0
 51
210.642342048
  0
LINE
  5
69
330
1F
100
AcDbEntity
  8
0
  6
Continuous
 62
     7
370
    15
100
AcDbLine
 10
390.840573296
 20
90.1975094062
 30
0.0
 11
390.840573296
 21
88.1145952923
 31
0.0
  0
ARC
  5
6A
330
1F
100
AcDbEntity
  8
0
  6
Continuous
 62
     7
370
    15
100
AcDbCircle
 10
391.8405726841
 20
88.1146048583
 30
0.0
 40
1.0
100
AcDbArc
 50
180.0
 51
270.0
  0
ARC
  5
6B
330
1F
100
AcDbEntity
  8
0
  6
Continuous
 62
     7
370
    15
100
AcDbCircle
 10
391.8405726841
 20
90.1975086269
 30
0.0
 40
1.0
100
AcDbArc
 50
149.357657952
 51
180.0
  0
ARC
  5
6C
330
1F
100
AcDbEntity
  8
0
  6
Continuous
 62
     7
370
    15
100
AcDbCircle
 10
391.8405726841
 20
76.1146048583
 30
0.0
 40
1.0
100
AcDbArc
 50
90.0
 51
180.0
  0
LINE
  5
6D
330
1F
100
AcDbEntity
  8
0
  6
Continuous
 62
     7
370
    15
100
AcDbLine
 10
390.840573296
 20
76.1146007759
 30
0.0
 11
390.840573296
 21
74.0316866619
 31
0.0
  0
LINE
  5
6E
330
1F
100
AcDbEntity
  8
0
  6
Continuous
 62
     7
370
    15
100
AcDbLine
 10
390.9802120775
 20
73.5220371467
 30
0.0
 11
395.7684916109
 21
65.4391108734
 31
0.0
  0
LINE
  5
6F
330
1F
100
AcDbEntity
  8
0
  6
Continuous
 62
     7
370
    15
100
AcDbLine
 10
395.7684916109
 20
98.7900851947
 30
0.0
 11
390.9802120775
 21
90.7071887237
 31
0.0
  0
LINE
  5
70
330
1F
100
AcDbEntity
  8
0
  6
Continuous
 62
     7
370
    15
100
AcDbLine
 10
396.6288548559
 20
64.9488030655
 30
0.0
 11
409.6205514521
 21
64.9488030655
 31
0.0
  0
LINE
  5
71
330
1F
100
AcDbEntity
  8
0
  6
Continuous
 62
     7
370
    15
100
AcDbLine
 10
411.2039190382
 20
99.280422805
 30
0.0
 11
396.6288548559
 21
99.280422805
 31
0.0
  0
ARC
  5
72
330
1F
100
AcDbEntity
  8
0
  6
Continuous
 62
     7
370
    15
100
AcDbCircle
 10
396.6288546907
 20
65.948797321
 30
0.0
 40
1.000000000000014
100
AcDbArc
 50
210.642342048
 51
270.0
  0
ARC
  5
73
330
1F
100
AcDbEntity
  8
0
  6
Continuous
 62
     7
370
    15
100
AcDbCircle
 10
396.6288546907
 20
98.2804123956
 30
0.0
 40
1.000000000000014
100
AcDbArc
 50
90.0
 51
149.357657952
  0
LINE
  5
74
330
1F
100
AcDbEntity
  8
0
  6
Continuous
 62
     7
370
    15
100
AcDbLine
 10
391.1205512136
 20
169.6146039945
 30
0.0
 11
391.1205512136
 21
177.6146053058
 31
0.0
  0
LINE
  5
75
330
1F
100
AcDbEntity
  8
0
  6
Continuous
 62
     7
370
    15
100
AcDbLine
 10
344.1205602736
 20
177.6146053058
 30
0.0
 11
344.1205602736
 21
169.6146039945
 31
0.0
  0
ARC
  5
76
330
1F
100
AcDbEntity
  8
0
  6
Continuous
 62
     7
370
    15
100
AcDbCircle
 10
346.292001644
 20
183.6146048583
 30
0.0
 40
1.0
100
AcDbArc
 50
90.0
 51
180.0
  0
SPLINE
  5
77
330
1F
100
AcDbEntity
  8
0
  6
Continuous
 62
     7
370
    15
100
AcDbSpline
210
0.0
220
0.0
230
1.0
 70
     8
 71
     3
 72
    12
 73
     8
 74
     0
 42
0.00000001
 43
0.00000001
 12
1.0
 22
0.0
 32
0.0
 13
1.0
 23
0.0
 33
0.0
 40
0.0
 40
0.0
 40
0.0
 40
0.0
 40
0.1974157961327338
 40
0.5824909663803414
 40
0.8337547515074755
 40
0.9983496366879449
 40
1.0
 40
1.0
 40
1.0
 40
1.0
 10
345.2601265758515
 20
179.3738214952151
 30
0.0
 10
345.2358234942004
 20
179.2697183288799
 30
0.0
 10
345.1641153239609
 20
178.9625536786858
 30
0.0
 10
345.0506785273717
 20
178.5908029592064
 30
0.0
 10
344.9694457178535
 20
178.3733762804328
 30
0.0
 10
344.9219030209368
 20
178.3010845676295
 30
0.0
 10
344.9335119874593
 20
178.31573828239
 30
0.0
 10
344.9336272329331
 20
178.3158837539355
 30
0.0
  0
LINE
  5
78
330
1F
100
AcDbEntity
  8
0
  6
Continuous
 62
     7
370
    15
100
AcDbLine
 10
345.2920001596
 20
183.614602564
 30
0.0
 11
345.2920001596
 21
179.6146093589
 31
0.0
  0
ARC
  5
79
330
1F
100
AcDbEntity
  8
0
  6
Continuous
 62
     7
370
    15
100
AcDbCircle
 10
344.292001644
 20
179.6146048583
 30
0.0
 40
1.000000000000018
100
AcDbArc
 50
346.6262226238
 51
0.0
  0
ARC
  5
7A
330
1F
100
AcDbEntity
  8
0
  6
Continuous
 62
     7
370
    15
100
AcDbCircle
 10
388.9491043445
 20
183.6146048583
 30
0.0
 40
1.0
100
AcDbArc
 50
0.0
 51
90.0
  0
ARC
  5
7B
330
1F
100
AcDbEntity
  8
0
  6
Continuous
 62
     7
370
    15
100
AcDbCircle
 10
390.9491043445
 20
179.6146048583
 30
0.0
 40
1.0
100
AcDbArc
 50
180.0
 51
193.4348076328
  0
SPLINE
  5
7C
330
1F
100
AcDbEntity
  8
0
  6
Continuous
 62
     7
370
    15
100
AcDbSpline
210
0.0
220
0.0
230
1.0
 70
     8
 71
     3
 72
    12
 73
     8
 74
     0
 42
0.00000001
 43
0.00000001
 12
1.0
 22
0.0
 32
0.0
 13
1.0
 23
0.0
 33
0.0
 40
0.0
 40
0.0
 40
0.0
 40
0.0
 40
0.0181592066444372
 40
0.1555709355757532
 40
0.3576199932547655
 40
0.6722612704441459
 40
1.0
 40
1.0
 40
1.0
 40
1.0
 10
390.3049957603455
 20
178.3193855268161
 30
0.0
 10
390.3059097266251
 20
178.3181205649442
 30
0.0
 10
390.3137397266905
 20
178.3072835660748
 30
0.0
 10
390.2789292539016
 20
178.3645076140865
 30
0.0
 10
390.2133426571073
 20
178.5264737614511
 30
0.0
 10
390.1003408301887
 20
178.875477981898
 30
0.0
 10
390.0209324062779
 20
179.2070331601321
 30
0.0
 10
389.9804186672211
 20
179.3761907798449
 30
0.0
  0
LINE
  5
7D
330
1F
100
AcDbEntity
  8
0
  6
Continuous
 62
     7
370
    15
100
AcDbLine
 10
389.9491113276
 20
179.6146093589
 30
0.0
 11
389.9491113276
 21
183.614602564
 31
0.0
  0
ARC
  5
7E
330
1F
100
AcDbEntity
  8
0
  6
Continuous
 62
     7
370
    15
100
AcDbCircle
 10
345.1205529942
 20
177.6146048583
 30
0.0
 40
1.0
100
AcDbArc
 50
90.0
 51
180.0
  0
ARC
  5
7F
330
1F
100
AcDbEntity
  8
0
  6
Continuous
 62
     7
370
    15
100
AcDbCircle
 10
390.1205529942
 20
177.6146048583
 30
0.0
 40
1.0
100
AcDbArc
 50
0.0
 51
90.0
  0
LINE
  5
80
330
1F
100
AcDbEntity
  8
0
  6
Continuous
 62
     7
370
    15
100
AcDbLine
 10
788.0205494017
 20
102.1145938617
 30
0.0
 11
793.6205547899
 21
102.1145938617
 31
0.0
  0
LINE
  5
81
330
1F
100
AcDbEntity
  8
0
  6
Continuous
 62
     7
370
    15
100
AcDbLine
 10
793.6205547899
 20
152.1146057827
 30
0.0
 11
788.0205494017
 21
152.1146057827
 31
0.0
  0
ARC
  5
82
330
1F
100
AcDbEntity
  8
0
  6
Continuous
 62
     7
370
    15
100
AcDbCircle
 10
793.6205529942
 20
103.1146048583
 30
0.0
 40
1.0
100
AcDbArc
 50
270.0
 51
0.0
  0
ARC
  5
83
330
1F
100
AcDbEntity
  8
0
  6
Continuous
 62
     7
370
    15
100
AcDbCircle
 10
793.6205529942
 20
151.1146048583
 30
0.0
 40
1.0
100
AcDbArc
 50
0.0
 51
90.0
  0
LINE
  5
84
330
1F
100
AcDbEntity
  8
0
  6
Continuous
 62
     7
370
    15
100
AcDbLine
 10
795.620558843
 20
105.6146084053
 30
0.0
 11
808.620555386
 21
105.6146084053
 31
0.0
  0
LINE
  5
85
330
1F
100
AcDbEntity
  8
0
  6
Continuous
 62
     7
370
    15
100
AcDbLine
 10
808.620555386
 20
148.6146061403
 30
0.0
 11
795.620558843
 21
148.6146061403
 31
0.0
  0
ARC
  5
86
330
1F
100
AcDbEntity
  8
0
  6
Continuous
 62
     7
370
    15
100
AcDbCircle
 10
808.6205529942
 20
147.6146048583
 30
0.0
 40
1.0
100
AcDbArc
 50
0.0
 51
90.0
  0
ARC
  5
87
330
1F
100
AcDbEntity
  8
0
  6
Continuous
 62
     7
370
    15
100
AcDbCircle
 10
808.6205529942
 20
106.6146048583
 30
0.0
 40
1.000000000000057
100
AcDbArc
 50
270.0
 51
360.0
  0
ARC
  5
88
330
1F
100
AcDbEntity
  8
0
  6
Continuous
 62
     7
370
    15
100
AcDbCircle
 10
795.6205529942
 20
104.6146048583
 30
0.0
 40
1.000000000000114
100
AcDbArc
 50
90.0
 51
180.0
  0
ARC
  5
89
330
1F
100
AcDbEntity
  8
0
  6
Continuous
 62
     7
370
    15
100
AcDbCircle
 10
795.6205529942
 20
149.6146048583
 30
0.0
 40
1.000000000000114
100
AcDbArc
 50
180.0
 51
270.0
  0
LINE
  5
8A
330
1F
100
AcDbEntity
  8
0
  6
Continuous
 62
     7
370
    15
100
AcDbLine
 10
390.2205508799
 20
252.9144569022
 30
0.0
 11
390.3252762407
 21
246.9144521934
 31
0.0
  0
LINE
  5
8B
330
1F
100
AcDbEntity
  8
0
  6
Continuous
 62
     7
370
    15
100
AcDbLine
 10
808.3158266396
 20
246.9144521934
 30
0.0
 11
808.4205520004
 21
252.9144569022
 31
0.0
  0
ARC
  5
8C
330
1F
100
AcDbEntity
  8
0
  6
Continuous
 62
     7
370
    15
100
AcDbCircle
 10
354.5066903064
 20
229.1091683376
 30
0.0
 40
40.00000000000003
100
AcDbArc
 50
1.0
 51
26.4318020975
  0
ARC
  5
8D
330
1F
100
AcDbEntity
  8
0
  6
Continuous
 62
     7
370
    15
100
AcDbCircle
 10
844.1344156821
 20
229.1091683376
 30
0.0
 40
39.99999999999997
100
AcDbArc
 50
153.5681979025
 51
179.0
  0
LINE
  5
8E
330
1F
100
AcDbEntity
  8
0
  6
Continuous
 62
     7
370
    15
100
AcDbLine
 10
394.5005965084
 20
229.8072634918
 30
0.0
 11
394.6748059839
 21
219.827195881
 31
0.0
  0
LINE
  5
8F
330
1F
100
AcDbEntity
  8
0
  6
Continuous
 62
     7
370
    15
100
AcDbLine
 10
803.9663117975
 20
219.827195881
 30
0.0
 11
804.1405063719
 21
229.8072634918
 31
0.0
  0
ARC
  5
90
330
1F
100
AcDbEntity
  8
0
  6
Continuous
 62
     7
370
    15
100
AcDbCircle
 10
798.9670666786
 20
219.9144594037
 30
0.0
 40
5.000000000000066
100
AcDbArc
 50
331.6935716211
 51
359.0
  0
ARC
  5
91
330
1F
100
AcDbEntity
  8
0
  6
Continuous
 62
     7
370
    15
100
AcDbCircle
 10
399.6740393098
 20
219.9144594037
 30
0.0
 40
4.999999999999966
100
AcDbArc
 50
181.0
 51
208.3064283789
  0
LINE
  5
92
330
1F
100
AcDbEntity
  8
0
  6
Continuous
 62
     7
370
    15
100
AcDbLine
 10
395.2719253153
 20
217.5435184223
 30
0.0
 11
404.4835400433
 21
200.4402785284
 31
0.0
  0
LINE
  5
93
330
1F
100
AcDbEntity
  8
0
  6
Continuous
 62
     7
370
    15
100
AcDbLine
 10
794.157562837
 20
200.4402785284
 30
0.0
 11
803.3691924662
 21
217.5435184223
 31
0.0
  0
ARC
  5
94
330
1F
100
AcDbEntity
  8
0
  6
Continuous
 62
     7
370
    15
100
AcDbCircle
 10
793.2771355057
 20
200.9144594037
 30
0.0
 40
1.0
100
AcDbArc
 50
270.0
 51
331.6935716211
  0
ARC
  5
95
330
1F
100
AcDbEntity
  8
0
  6
Continuous
 62
     7
370
    15
100
AcDbCircle
 10
405.3639704827
 20
200.9144594037
 30
0.0
 40
1.000000000000009
100
AcDbArc
 50
208.3064283789
 51
270.0
  0
LINE
  5
96
330
1F
100
AcDbEntity
  8
0
  6
Continuous
 62
     7
370
    15
100
AcDbLine
 10
469.028903231
 20
32.9758285267
 30
0.0
 11
469.028903231
 21
21.6146169883
 31
0.0
  0
SPLINE
  5
97
330
1F
100
AcDbEntity
  8
0
  6
Continuous
 62
     7
370
    15
100
AcDbSpline
210
0.0
220
0.0
230
1.0
 70
     8
 71
     3
 72
    16
 73
    12
 74
     0
 42
0.00000001
 43
0.00000001
 12
1.0
 22
0.0
 32
0.0
 13
1.0
 23
0.0
 33
0.0
 40
0.0
 40
0.0
 40
0.0
 40
0.0
 40
0.0579746277603137
 40
0.1229623153078718
 40
0.193321907232286
 40
0.2960522862503725
 40
0.4559456576866266
 40
0.6060728642844924
 40
0.743775482219533
 40
0.8893574771351329
 40
1.0
 40
1.0
 40
1.0
 40
1.0
 10
473.8720935434342
 20
37.99272167507809
 30
0.0
 10
473.7802814926615
 20
37.98638228845794
 30
0.0
 10
473.5855510946874
 20
37.97293665393545
 30
0.0
 10
473.1928921633474
 20
37.91894610532884
 30
0.0
 10
472.5907734872802
 20
37.78495953580826
 30
0.0
 10
471.7577093434618
 20
37.47405672662726
 30
0.0
 10
470.8150895997807
 20
36.87489795705148
 30
0.0
 10
469.9841636365329
 20
35.99353372143613
 30
0.0
 10
469.4062826795704
 20
34.98038496610498
 30
0.0
 10
469.0712547669584
 20
33.9625824082008
 30
0.0
 10
469.0604972691456
 20
33.27389991698623
 30
0.0
 10
469.0558519810677
 20
32.97651398007076
 30
0.0
  0
LINE
  5
98
330
1F
100
AcDbEntity
  8
0
  6
Continuous
 62
     7
370
    15
100
AcDbLine
 10
786.720557198
 20
43.9492820484
 30
0.0
 11
786.720557198
 21
49.1145907623
 31
0.0
  0
LINE
  5
99
330
1F
100
AcDbEntity
  8
0
  6
Continuous
 62
     7
370
    15
100
AcDbLine
 10
485.3745606393
 20
38.9288126213
 30
0.0
 11
473.8741126508
 21
37.9933177215
 31
0.0
  0
ARC
  5
9A
330
1F
100
AcDbEntity
  8
0
  6
Continuous
 62
     7
370
    15
100
AcDbCircle
 10
791.7205529942
 20
43.9492704509
 30
0.0
 40
5.000000000000114
100
AcDbArc
 50
180.0
 51
268.0737379655
  0
LINE
  5
9B
330
1F
100
AcDbEntity
  8
0
  6
Continuous
 62
     7
370
    15
100
AcDbLine
 10
794.9746829123
 20
38.836991666
 30
0.0
 11
791.5524822325
 21
38.9520882351
 31
0.0
  0
ARC
  5
9C
330
1F
100
AcDbEntity
  8
0
  6
Continuous
 62
     7
370
    15
100
AcDbCircle
 10
819.5205529942
 20
30.7073383845
 30
0.0
 40
7.300000000230403
100
AcDbArc
 50
0.0
 51
71.1204456926
  0
LINE
  5
9D
330
1F
100
AcDbEntity
  8
0
  6
Continuous
 62
     7
370
    15
100
AcDbLine
 10
826.8205505461
 20
21.6146169883
 30
0.0
 11
826.8205505461
 21
30.7073353511
 31
0.0
  0
LINE
  5
9E
330
1F
100
AcDbEntity
  8
0
  6
Continuous
 62
     7
370
    15
100
AcDbLine
 10
409.6205514521
 20
91.8048380596
 30
0.0
 11
409.6205514521
 21
49.1145907623
 31
0.0
  0
LINE
  5
9F
330
1F
100
AcDbEntity
  8
0
  6
Continuous
 62
     7
370
    15
100
AcDbLine
 10
409.6205514521
 20
199.9144612533
 30
0.0
 11
409.6205514521
 21
162.424376486
 31
0.0
  0
LINE
  5
A0
330
1F
100
AcDbEntity
  8
0
  6
Continuous
 62
     7
370
    15
100
AcDbLine
 10
789.0205514282
 20
162.4179838878
 30
0.0
 11
789.0205514282
 21
199.9144612533
 31
0.0
  0
LINE
  5
A1
330
1F
100
AcDbEntity
  8
0
  6
Continuous
 62
     7
370
    15
100
AcDbLine
 10
789.0205514282
 20
49.1145907623
 30
0.0
 11
789.0205514282
 21
91.8112455589
 31
0.0
  0
SPLINE
  5
A2
330
1F
100
AcDbEntity
  8
0
  6
Continuous
 62
     7
370
    15
100
AcDbSpline
210
0.0
220
0.0
230
1.0
 70
     8
 71
     3
 72
    12
 73
     8
 74
     0
 42
0.00000001
 43
0.00000001
 12
1.0
 22
0.0
 32
0.0
 13
1.0
 23
0.0
 33
0.0
 40
0.0
 40
0.0
 40
0.0
 40
0.0
 40
0.0723604916313677
 40
0.457024220866099
 40
0.7458781174311749
 40
0.9520928448888376
 40
1.0
 40
1.0
 40
1.0
 40
1.0
 10
786.0139888376236
 20
135.3355853540103
 30
0.0
 10
786.0135735298826
 20
135.6917331726156
 30
0.0
 10
786.0109504728451
 20
137.9411399364682
 30
0.0
 10
786.0121143348624
 20
141.5190865602981
 30
0.0
 10
786.1341259688511
 20
145.7287620303236
 30
0.0
 10
786.3131080843885
 20
148.2895508200389
 30
0.0
 10
786.5000739804622
 20
149.4138839314791
 30
0.0
 10
786.5353208631516
 20
149.6258436423938
 30
0.0
  0
SPLINE
  5
A3
330
1F
100
AcDbEntity
  8
0
  6
Continuous
 62
     7
370
    15
100
AcDbSpline
210
0.0
220
0.0
230
1.0
 70
     8
 71
     3
 72
    12
 73
     8
 74
     0
 42
0.00000001
 43
0.00000001
 12
1.0
 22
0.0
 32
0.0
 13
1.0
 23
0.0
 33
0.0
 40
0.0
 40
0.0
 40
0.0
 40
0.0
 40
0.0723609272778075
 40
0.4570275449227127
 40
0.7458826204640062
 40
0.9520980435730492
 40
0.9999999999999999
 40
0.9999999999999999
 40
0.9999999999999999
 40
0.9999999999999999
 10
412.6271289438248
 20
118.8936291915576
 30
0.0
 10
412.6275388370104
 20
118.5374814097276
 30
0.0
 10
412.6301276993065
 20
116.2880720601967
 30
0.0
 10
412.6289954200853
 20
112.7101186896882
 30
0.0
 10
412.5069777003463
 20
108.5004406032196
 30
0.0
 10
412.327993102038
 20
105.9397195011202
 30
0.0
 10
412.1410384761854
 20
104.8153859562039
 30
0.0
 10
412.1057969182968
 20
104.6034454089801
 30
0.0
  0
SPLINE
  5
A4
330
1F
100
AcDbEntity
  8
0
  6
Continuous
 62
     7
370
    15
100
AcDbSpline
210
0.0
220
0.0
230
1.0
 70
     8
 71
     3
 72
    12
 73
     8
 74
     0
 42
0.00000001
 43
0.00000001
 12
1.0
 22
0.0
 32
0.0
 13
1.0
 23
0.0
 33
0.0
 40
0.0
 40
0.0
 40
0.0
 40
0.0
 40
0.1246095577367255
 40
0.3364864253193854
 40
0.6127899193952592
 40
0.9448826568748413
 40
1.0
 40
1.0
 40
1.0
 40
1.0
 10
786.5412962287903
 20
104.6059488040606
 30
0.0
 10
786.4585545786275
 20
105.1977247789015
 30
0.0
 10
786.2351251515918
 20
106.7957128143361
 30
0.0
 10
786.0777705020638
 20
109.8225778670905
 30
0.0
 10
785.9885542356449
 20
113.9615361030969
 30
0.0
 10
785.960801379971
 20
117.261804693039
 30
0.0
 10
785.9708761925414
 20
119.2507817376701
 30
0.0
 10
785.9723102897644
 20
119.5339022857348
 30
0.0
  0
SPLINE
  5
A5
330
1F
100
AcDbEntity
  8
0
  6
Continuous
 62
     7
370
    15
100
AcDbSpline
210
0.0
220
0.0
230
1.0
 70
     8
 71
     3
 72
    12
 73
     8
 74
     0
 42
0.00000001
 43
0.00000001
 12
1.0
 22
0.0
 32
0.0
 13
1.0
 23
0.0
 33
0.0
 40
0.0
 40
0.0
 40
0.0
 40
0.0
 40
0.1246058331289299
 40
0.3364830400394912
 40
0.6127877146678194
 40
0.9448824189074646
 40
1.0
 40
1.0
 40
1.0
 40
1.0
 10
412.0998215526581
 20
149.6231912357013
 30
0.0
 10
412.1825639977475
 20
149.0314345819079
 30
0.0
 10
412.4060000020247
 20
147.4334670322989
 30
0.0
 10
412.5633260798527
 20
144.4066368957543
 30
0.0
 10
412.6525370925652
 20
140.2676767651846
 30
0.0
 10
412.6803451930976
 20
136.967397412663
 30
0.0
 10
412.6702321304625
 20
134.9784178723022
 30
0.0
 10
412.6687925905228
 20
134.6952973586718
 30
0.0
  0
SPLINE
  5
A6
330
1F
100
AcDbEntity
  8
0
  6
Continuous
 62
     7
370
    15
100
AcDbSpline
210
0.0
220
0.0
230
1.0
 70
     8
 71
     3
 72
    11
 73
     7
 74
     0
 42
0.00000001
 43
0.00000001
 12
1.0
 22
0.0
 32
0.0
 13
1.0
 23
0.0
 33
0.0
 40
0.0
 40
0.0
 40
0.0
 40
0.0
 40
0.1944460274475455
 40
0.5208085592397431
 40
0.7833231599359243
 40
1.0
 40
1.0
 40
1.0
 40
1.0
 10
411.0618215650559
 20
155.6480734330813
 30
0.0
 10
411.1284881292896
 20
155.3289317511511
 30
0.0
 10
411.30704933583
 20
154.4741355810198
 30
0.0
 10
411.5984857571424
 20
153.0075493483384
 30
0.0
 10
411.8946044488958
 20
151.3554466543687
 30
0.0
 10
412.0612261756889
 20
150.2023779516874
 30
0.0
 10
412.1365678161621
 20
149.6809928399722
 30
0.0
  0
SPLINE
  5
A7
330
1F
100
AcDbEntity
  8
0
  6
Continuous
 62
     7
370
    15
100
AcDbSpline
210
0.0
220
0.0
230
1.0
 70
     8
 71
     3
 72
    12
 73
     8
 74
     0
 42
0.00000001
 43
0.00000001
 12
1.0
 22
0.0
 32
0.0
 13
1.0
 23
0.0
 33
0.0
 40
0.0
 40
0.0
 40
0.0
 40
0.0
 40
0.0149110470771708
 40
0.3681941658966112
 40
0.7052858965577947
 40
0.9513812771598237
 40
1.0
 40
1.0
 40
1.0
 40
1.0
 10
787.5614744276047
 20
98.66226303402584
 30
0.0
 10
787.556665165744
 20
98.68529477838814
 30
0.0
 10
787.4379114558136
 20
99.25401096986123
 30
0.0
 10
787.1796706878033
 20
100.5365399844692
 30
0.0
 10
786.8450616202059
 20
102.3482640053353
 30
0.0
 10
786.617940237109
 20
103.7058928466113
 30
0.0
 10
786.5225639791713
 20
104.4427554011444
 30
0.0
 10
786.506829842949
 20
104.564314959685
 30
0.0
  0
SPLINE
  5
A8
330
1F
100
AcDbEntity
  8
0
  6
Continuous
 62
     7
370
    15
100
AcDbSpline
210
0.0
220
0.0
230
1.0
 70
     8
 71
     3
 72
    11
 73
     7
 74
     0
 42
0.00000001
 43
0.00000001
 12
1.0
 22
0.0
 32
0.0
 13
1.0
 23
0.0
 33
0.0
 40
0.0
 40
0.0
 40
0.0
 40
0.0
 40
0.1490225682025427
 40
0.4061360015134811
 40
0.6895350394966784
 40
1.0
 40
1.0
 40
1.0
 40
1.0
 10
786.514444336319
 20
149.6245919448535
 30
0.0
 10
786.5656861432493
 20
149.9955210550429
 30
0.0
 10
786.7053370889283
 20
151.0064260976439
 30
0.0
 10
786.957592467093
 20
152.4852390986516
 30
0.0
 10
787.2680963751187
 20
154.1464114633528
 30
0.0
 10
787.4755602593908
 20
155.1503085901755
 30
0.0
 10
787.584019884491
 20
155.6751339418093
 30
0.0
  0
SPLINE
  5
A9
330
1F
100
AcDbEntity
  8
0
  6
Continuous
 62
     7
370
    15
100
AcDbSpline
210
0.0
220
0.0
230
1.0
 70
     8
 71
     3
 72
    12
 73
     8
 74
     0
 42
0.00000001
 43
0.00000001
 12
1.0
 22
0.0
 32
0.0
 13
1.0
 23
0.0
 33
0.0
 40
0.0
 40
0.0
 40
0.0
 40
0.0
 40
0.1306170808683407
 40
0.3739797393885804
 40
0.6538395430003822
 40
0.9917477202288355
 40
1.0
 40
1.0
 40
1.0
 40
1.0
 10
412.1337067932129
 20
104.57161652867
 30
0.0
 10
412.0892772495753
 20
104.247512260635
 30
0.0
 10
411.9620676301266
 20
103.3195445791595
 30
0.0
 10
411.7206233635199
 20
101.9211454136849
 30
0.0
 10
411.4058190054333
 20
100.2664163238602
 30
0.0
 10
411.1698725584573
 20
99.08256183555788
 30
0.0
 10
411.0591852794034
 20
98.56274741075435
 30
0.0
 10
411.0565465539933
 20
98.55035531346005
 30
0.0
  0
SPLINE
  5
AA
330
1F
100
AcDbEntity
  8
0
  6
Continuous
 62
     7
370
    15
100
AcDbSpline
210
0.0
220
0.0
230
1.0
 70
     8
 71
     3
 72
    16
 73
    12
 74
     0
 42
0.00000001
 43
0.00000001
 12
1.0
 22
0.0
 32
0.0
 13
1.0
 23
0.0
 33
0.0
 40
0.0
 40
0.0
 40
0.0
 40
0.0
 40
0.0462994626330578
 40
0.0839359646337535
 40
0.1166119650127529
 40
0.1628886587620898
 40
0.2396463838213562
 40
0.371562965679313
 40
0.6154497529267322
 40
0.944729867958877
 40
1.0
 40
1.0
 40
1.0
 40
1.0
 10
789.0152168125153
 20
91.82116973225277
 30
0.0
 10
789.0066405952939
 20
91.98956800926025
 30
0.0
 10
788.9910928324379
 20
92.29485604111728
 30
0.0
 10
788.9400736117583
 20
92.63550409587477
 30
0.0
 10
788.8985003837341
 20
92.8622956794419
 30
0.0
 10
788.8577750988586
 20
93.04863333066041
 30
0.0
 10
788.8152625193638
 20
93.22456511902458
 30
0.0
 10
788.7344158924212
 20
93.52446220470253
 30
0.0
 10
788.6485902834172
 20
93.82093297073071
 30
0.0
 10
788.5505576269339
 20
94.15445655471159
 30
0.0
 10
788.4609436378529
 20
94.49533395896661
 30
0.0
 10
788.4480637163163
 20
94.54432713810604
 30
0.0
  0
SPLINE
  5
AB
330
1F
100
AcDbEntity
  8
0
  6
Continuous
 62
     7
370
    15
100
AcDbSpline
210
0.0
220
0.0
230
1.0
 70
     8
 71
     3
 72
    15
 73
    11
 74
     0
 42
0.00000001
 43
0.00000001
 12
1.0
 22
0.0
 32
0.0
 13
1.0
 23
0.0
 33
0.0
 40
0.0
 40
0.0
 40
0.0
 40
0.0
 40
0.0011605453845727
 40
0.0982182639741164
 40
0.2395423074017146
 40
0.411880538010701
 40
0.5948214335265603
 40
0.7775184271048886
 40
0.9569778360062612
 40
1.0
 40
1.0
 40
1.0
 40
1.0
 10
788.7134682983399
 20
93.53486287419003
 30
0.0
 10
788.7135586998036
 20
93.53459153225694
 30
0.0
 10
788.7212094775697
 20
93.51162755861989
 30
0.0
 10
788.687752345646
 20
93.61917843571324
 30
0.0
 10
788.6141020483635
 20
93.89023155583794
 30
0.0
 10
788.4591730622594
 20
94.48980871118248
 30
0.0
 10
788.2389291024739
 20
95.40397947232468
 30
0.0
 10
787.9607049351653
 20
96.6530810684603
 30
0.0
 10
787.7288720351283
 20
97.73655252695787
 30
0.0
 10
787.5830929151377
 20
98.48898613196974
 30
0.0
 10
787.5549030155182
 20
98.63448726956051
 30
0.0
  0
SPLINE
  5
AC
330
1F
100
AcDbEntity
  8
0
  6
Continuous
 62
     7
370
    15
100
AcDbSpline
210
0.0
220
0.0
230
1.0
 70
     8
 71
     3
 72
    19
 73
    15
 74
     0
 42
0.00000001
 43
0.00000001
 12
1.0
 22
0.0
 32
0.0
 13
1.0
 23
0.0
 33
0.0
 40
0.0
 40
0.0
 40
0.0
 40
0.0
 40
0.0243364165473118
 40
0.04382515966341
 40
0.060745343928144
 40
0.0847080599823777
 40
0.1244543953717488
 40
0.1927628858818889
 40
0.3190509975573833
 40
0.4895572124835212
 40
0.6504857010109375
 40
0.8029183206244838
 40
0.9632169388165563
 40
1.0
 40
1.0
 40
1.0
 40
1.0
 10
409.6253943294525
 20
162.4153910857837
 30
0.0
 10
409.6340900704078
 20
162.2444144099964
 30
0.0
 10
409.6497494110101
 20
161.9365186234279
 30
0.0
 10
409.7010138005775
 20
161.5936849992413
 30
0.0
 10
409.7426314278904
 20
161.3669310637497
 30
0.0
 10
409.7833133290737
 20
161.1805578031217
 30
0.0
 10
409.82584262338
 20
161.0048065383082
 30
0.0
 10
409.9069796904784
 20
160.7033366804732
 30
0.0
 10
409.990120900913
 20
160.4198232793415
 30
0.0
 10
410.1422501888613
 20
159.8819927901754
 30
0.0
 10
410.3559854356161
 20
159.0834278617996
 30
0.0
 10
410.6170516427805
 20
158.0092284644168
 30
0.0
 10
410.8342937102304
 20
157.0743062933938
 30
0.0
 10
410.973708277831
 20
156.3765404380175
 30
0.0
 10
410.9997284263611
 20
156.2463103515307
 30
0.0
  0
SPLINE
  5
AD
330
1F
100
AcDbEntity
  8
0
  6
Continuous
 62
     7
370
    15
100
AcDbSpline
210
0.0
220
0.0
230
1.0
 70
     8
 71
     3
 72
    14
 73
    10
 74
     0
 42
0.00000001
 43
0.00000001
 12
1.0
 22
0.0
 32
0.0
 13
1.0
 23
0.0
 33
0.0
 40
0.0
 40
0.0
 40
0.0
 40
0.0
 40
0.1435212702636943
 40
0.3199813696567784
 40
0.5005676264661403
 40
0.6849498539026351
 40
0.8716756289045307
 40
0.988051237534801
 40
1.0
 40
1.0
 40
1.0
 40
1.0
 10
411.0629540533066
 20
98.51334082905453
 30
0.0
 10
410.974652244501
 20
98.07460077705774
 30
0.0
 10
410.7777829325664
 20
97.09642769857766
 30
0.0
 10
410.5130855935041
 20
95.89320079477872
 30
0.0
 10
410.2699489759846
 20
94.84699530157128
 30
0.0
 10
410.0746695944031
 20
94.06911230030876
 30
0.0
 10
409.9696755119655
 20
93.67589816374858
 30
0.0
 10
409.9197980132363
 20
93.51030945433168
 30
0.0
 10
409.9292571970232
 20
93.53999624174011
 30
0.0
 10
409.9301379770279
 20
93.54276048962276
 30
0.0
  0
SPLINE
  5
AE
330
1F
100
AcDbEntity
  8
0
  6
Continuous
 62
     7
370
    15
100
AcDbSpline
210
0.0
220
0.0
230
1.0
 70
     8
 71
     3
 72
    14
 73
    10
 74
     0
 42
0.00000001
 43
0.00000001
 12
1.0
 22
0.0
 32
0.0
 13
1.0
 23
0.0
 33
0.0
 40
0.0
 40
0.0
 40
0.0
 40
0.0
 40
0.2126507632116261
 40
0.569210136360468
 40
0.8050248613242504
 40
0.869709433685132
 40
0.9231933735042968
 40
0.9653241672061416
 40
1.0
 40
1.0
 40
1.0
 40
1.0
 10
410.1783466190338
 20
94.4908915740649
 30
0.0
 10
410.1353158654895
 20
94.332581252728
 30
0.0
 10
410.0201338613304
 20
93.90882618016424
 30
0.0
 10
409.9250668845755
 20
93.58917413349153
 30
0.0
 10
409.8271825477223
 20
93.23560762155861
 30
0.0
 10
409.7529589218217
 20
92.91653112493034
 30
0.0
 10
409.6970104956216
 20
92.6160075304979
 30
0.0
 10
409.6399742546261
 20
92.21506836157926
 30
0.0
 10
409.6359453407717
 20
91.93787841994424
 30
0.0
 10
409.6341264099121
 20
91.81273567501705
 30
0.0
  0
SPLINE
  5
AF
330
1F
100
AcDbEntity
  8
0
  6
Continuous
 62
     7
370
    15
100
AcDbSpline
210
0.0
220
0.0
230
1.0
 70
     8
 71
     3
 72
    18
 73
    14
 74
     0
 42
0.00000001
 43
0.00000001
 12
1.0
 22
0.0
 32
0.0
 13
1.0
 23
0.0
 33
0.0
 40
0.0
 40
0.0
 40
0.0
 40
0.0
 40
0.0239848506351958
 40
0.1628766911687562
 40
0.308057567610716
 40
0.4602158197287024
 40
0.6203529743629095
 40
0.7924320873844756
 40
0.9062383245352353
 40
0.9374557206740254
 40
0.9632679887649654
 40
0.9836006559453986
 40
0.9999999999999999
 40
0.9999999999999999
 40
0.9999999999999999
 40
0.9999999999999999
 10
787.5510138124466
 20
155.8073370439212
 30
0.0
 10
787.5690997788727
 20
155.9007692986037
 30
0.0
 10
787.6919182367765
 20
156.5352504851907
 30
0.0
 10
787.9018751806321
 20
157.4774259216895
 30
0.0
 10
788.1718831966463
 20
158.6340517929731
 30
0.0
 10
788.4065718431901
 20
159.5433044843048
 30
0.0
 10
788.6007492192558
 20
160.2458468989562
 30
0.0
 10
788.7171900418108
 20
160.6450493575223
 30
0.0
 10
788.8138571069996
 20
160.9933491669697
 30
0.0
 10
788.8881525917749
 20
161.3126778368136
 30
0.0
 10
788.944085360211
 20
161.6132430891908
 30
0.0
 10
789.0009028193672
 20
162.0118973606556
 30
0.0
 10
789.0049369687308
 20
162.2865130141609
 30
0.0
 10
789.006738051796
 20
162.409117696921
 30
0.0
  0
SPLINE
  5
B0
330
1F
100
AcDbEntity
  8
0
  6
Continuous
 62
     7
370
    15
100
AcDbSpline
210
0.0
220
0.0
230
1.0
 70
     8
 71
     3
 72
    11
 73
     7
 74
     0
 42
0.00000001
 43
0.00000001
 12
1.0
 22
0.0
 32
0.0
 13
1.0
 23
0.0
 33
0.0
 40
0.0
 40
0.0
 40
0.0
 40
0.0
 40
0.2870681382118391
 40
0.585819331644983
 40
0.8478190434396116
 40
1.0
 40
1.0
 40
1.0
 40
1.0
 10
411.0593330711365
 20
155.6587873679797
 30
0.0
 10
411.1585477903933
 20
155.1811806316228
 30
0.0
 10
411.3610150543899
 20
154.2065295929372
 30
0.0
 10
411.6710462302495
 20
152.5571729077798
 30
0.0
 10
411.9317335811038
 20
151.0325248443119
 30
0.0
 10
412.0743695261037
 20
150.003665296703
 30
0.0
 10
412.1267777532578
 20
149.625635026137
 30
0.0
  0
SPLINE
  5
B1
330
1F
100
AcDbEntity
  8
0
  6
Continuous
 62
     7
370
    15
100
AcDbSpline
210
0.0
220
0.0
230
1.0
 70
     8
 71
     3
 72
    14
 73
    10
 74
     0
 42
0.00000001
 43
0.00000001
 12
1.0
 22
0.0
 32
0.0
 13
1.0
 23
0.0
 33
0.0
 40
0.0
 40
0.0
 40
0.0
 40
0.0
 40
0.083503117106694
 40
0.2400749927591517
 40
0.3966642860037725
 40
0.5532645200131866
 40
0.7098755224992296
 40
0.8664980848980264
 40
1.0
 40
1.0
 40
1.0
 40
1.0
 10
370.4516869634629
 20
241.4568572026889
 30
0.0
 10
371.3991733032599
 20
241.904641421468
 30
0.0
 10
374.1232365963166
 20
243.1920399858078
 30
0.0
 10
378.5241114548497
 20
245.5393699242649
 30
0.0
 10
383.5957419198375
 20
248.5822621825854
 30
0.0
 10
388.5080374049416
 20
251.8968688311129
 30
0.0
 10
393.2425982901435
 20
255.477122767968
 30
0.0
 10
397.5875981086911
 20
259.0975810295676
 30
0.0
 10
400.2515308793284
 20
261.6360636819605
 30
0.0
 10
401.4773499816895
 20
262.8041564208666
 30
0.0
  0
SPLINE
  5
B2
330
1F
100
AcDbEntity
  8
0
  6
Continuous
 62
     7
370
    15
100
AcDbSpline
210
0.0
220
0.0
230
1.0
 70
     8
 71
     3
 72
    15
 73
    11
 74
     0
 42
0.00000001
 43
0.00000001
 12
1.0
 22
0.0
 32
0.0
 13
1.0
 23
0.0
 33
0.0
 40
0.0
 40
0.0
 40
0.0
 40
0.0
 40
0.0469241094979946
 40
0.1840496728563106
 40
0.3211863927470073
 40
0.4583348173852347
 40
0.5954948859489959
 40
0.7326667562309395
 40
0.8698507661783116
 40
1.0
 40
1.0
 40
1.0
 40
1.0
 10
401.6392361968994
 20
271.5839280468622
 30
0.0
 10
401.1971489365658
 20
271.0896834205188
 30
0.0
 10
399.4631572527852
 20
269.1511157468285
 30
0.0
 10
396.2138936711517
 20
265.9939733320847
 30
0.0
 10
391.9048777870976
 20
262.1284066995152
 30
0.0
 10
387.3889893865492
 20
258.5231629651328
 30
0.0
 10
382.6990019645132
 20
255.1677377605919
 30
0.0
 10
377.8401958593433
 20
252.0836244217818
 30
0.0
 10
372.9242449716546
 20
249.3011381486041
 30
0.0
 10
369.5683272161201
 20
247.6884375918149
 30
0.0
 10
367.9345232099533
 20
246.9033061248462
 30
0.0
  0
SPLINE
  5
B3
330
1F
100
AcDbEntity
  8
0
  6
Continuous
 62
     7
370
    15
100
AcDbSpline
210
0.0
220
0.0
230
1.0
 70
     8
 71
     3
 72
    21
 73
    17
 74
     0
 42
0.00000001
 43
0.00000001
 12
1.0
 22
0.0
 32
0.0
 13
1.0
 23
0.0
 33
0.0
 40
0.0
 40
0.0
 40
0.0
 40
0.0
 40
0.0394072589589876
 40
0.1163616878805917
 40
0.1933324661858906
 40
0.2703083792216857
 40
0.3472925176944503
 40
0.4242871690414734
 40
0.5012956061305037
 40
0.5783199328060178
 40
0.6553632633043815
 40
0.7324270485975027
 40
0.8095136765716998
 40
0.8866240885749958
 40
0.9637585226583457
 40
0.9999999999999999
 40
0.9999999999999999
 40
0.9999999999999999
 40
0.9999999999999999
 10
343.0597913116455
 20
202.2923885566393
 30
0.0
 10
343.1353686897143
 20
202.9546625090716
 30
0.0
 10
343.358533444381
 20
204.910223920348
 30
0.0
 10
343.9545212418885
 20
208.1271064150123
 30
0.0
 10
344.9463376487256
 20
211.8988026993432
 30
0.0
 10
346.2308990375439
 20
215.5745111282044
 30
0.0
 10
347.7946470763024
 20
219.1305617825689
 30
0.0
 10
349.6287716170202
 20
222.5437790719878
 30
0.0
 10
351.721006000038
 20
225.7920393138262
 30
0.0
 10
354.0578749289128
 20
228.8542532085084
 30
0.0
 10
356.6241821043551
 20
231.7106229808485
 30
0.0
 10
359.4034648373299
 20
234.3422461938378
 30
0.0
 10
362.377212685212
 20
236.7332968462353
 30
0.0
 10
365.5280216413934
 20
238.86346560189
 30
0.0
 10
368.2450707589102
 20
240.405194583571
 30
0.0
 10
369.9171833750882
 20
241.202115375579
 30
0.0
 10
370.4516869634629
 20
241.4568572026889
 30
0.0
  0
SPLINE
  5
B4
330
1F
100
AcDbEntity
  8
0
  6
Continuous
 62
     7
370
    15
100
AcDbSpline
210
0.0
220
0.0
230
1.0
 70
     8
 71
     3
 72
    22
 73
    18
 74
     0
 42
0.00000001
 43
0.00000001
 12
1.0
 22
0.0
 32
0.0
 13
1.0
 23
0.0
 33
0.0
 40
0.0
 40
0.0
 40
0.0
 40
0.0
 40
0.0394147324871691
 40
0.1121757116408734
 40
0.1849565440331272
 40
0.2577524732268454
 40
0.330564257605223
 40
0.403392782232163
 40
0.476237723024801
 40
0.5490988210570135
 40
0.6219750616495803
 40
0.6948656071895188
 40
0.7677693804873951
 40
0.8406847056786539
 40
0.9136103319126496
 40
0.9827234981119362
 40
1.0
 40
1.0
 40
1.0
 40
1.0
 10
367.9345232099533
 20
246.9033061248462
 30
0.0
 10
367.2783652588088
 20
246.5898634811439
 30
0.0
 10
365.4109167066106
 20
245.6977947191058
 30
0.0
 10
362.4355392196605
 20
244.0055130831809
 30
0.0
 10
359.0736146830789
 20
241.7515031641724
 30
0.0
 10
355.8886069242944
 20
239.2346721786325
 30
0.0
 10
352.8970023669939
 20
236.4747441477087
 30
0.0
 10
350.1167435127768
 20
233.4862875930375
 30
0.0
 10
347.5638265211064
 20
230.2869617540093
 30
0.0
 10
345.2531400943134
 20
226.8951967154029
 30
0.0
 10
343.1982114535909
 20
223.3306274330361
 30
0.0
 10
341.4108903515026
 20
219.6139558075933
 30
0.0
 10
339.9018811366545
 20
215.7666960648149
 30
0.0
 10
338.6791934236279
 20
211.8112281276499
 30
0.0
 10
337.7691436411969
 20
207.8409208877406
 30
0.0
 10
337.300879507614
 20
204.8551724353156
 30
0.0
 10
337.1257639705042
 20
203.2267322401109
 30
0.0
 10
337.0907437652588
 20
202.9010711890857
 30
0.0
  0
SPLINE
  5
B5
330
1F
100
AcDbEntity
  8
0
  6
Continuous
 62
     7
370
    15
100
AcDbSpline
210
0.0
220
0.0
230
1.0
 70
     8
 71
     3
 72
    12
 73
     8
 74
     0
 42
0.00000001
 43
0.00000001
 12
1.0
 22
0.0
 32
0.0
 13
1.0
 23
0.0
 33
0.0
 40
0.0
 40
0.0
 40
0.0
 40
0.0
 40
0.011712280927724
 40
0.2954283246865425
 40
0.5791504292848156
 40
0.8628727710279475
 40
1.0
 40
1.0
 40
1.0
 40
1.0
 10
340.6591099351883
 20
160.11460709397
 30
0.0
 10
340.6601554191419
 20
160.2796131509689
 30
0.0
 10
340.6865265055917
 20
164.4416942420185
 30
0.0
 10
340.9336769199221
 20
172.5989449393999
 30
0.0
 10
341.5378015011247
 20
184.5746326364779
 30
0.0
 10
342.2920293241295
 20
194.4718315546811
 30
0.0
 10
342.8711077070276
 20
200.3704245765999
 30
0.0
 10
343.0597913116455
 20
202.2923885566394
 30
0.0
  0
SPLINE
  5
B6
330
1F
100
AcDbEntity
  8
0
  6
Continuous
 62
     7
370
    15
100
AcDbSpline
210
0.0
220
0.0
230
1.0
 70
     8
 71
     3
 72
    12
 73
     8
 74
     0
 42
0.00000001
 43
0.00000001
 12
1.0
 22
0.0
 32
0.0
 13
1.0
 23
0.0
 33
0.0
 40
0.0
 40
0.0
 40
0.0
 40
0.0
 40
0.1486201795800375
 40
0.4301987264718476
 40
0.7117836668088913
 40
0.9933690368188275
 40
0.9999999999999999
 40
0.9999999999999999
 40
0.9999999999999999
 40
0.9999999999999999
 10
337.0907437652588
 20
202.9010711890857
 30
0.0
 10
336.8839287591346
 20
200.7878841962424
 30
0.0
 10
336.2852782091131
 20
194.6710139590589
 30
0.0
 10
335.5227119447504
 20
184.5273849048693
 30
0.0
 10
334.9244016780227
 20
172.4699230291682
 30
0.0
 10
334.6830975248467
 20
164.3284248462671
 30
0.0
 10
334.6579332908927
 20
160.2093736755579
 30
0.0
 10
334.6573543399811
 20
160.11460709397
 30
0.0
  0
LINE
  5
B7
330
1F
100
AcDbEntity
  8
0
  6
Continuous
 62
     7
370
    15
100
AcDbLine
 10
400.6205481142
 20
102.1145938617
 30
0.0
 11
410.6205534786
 21
102.1145938617
 31
0.0
  0
LINE
  5
B8
330
1F
100
AcDbEntity
  8
0
  6
Continuous
 62
     7
370
    15
100
AcDbLine
 10
410.6205534786
 20
152.1146057827
 30
0.0
 11
400.6205481142
 21
152.1146057827
 31
0.0
  0
LINE
  5
B9
330
1F
100
AcDbEntity
  8
0
  6
Continuous
 62
     7
370
    15
100
AcDbLine
 10
307.6205384583
 20
105.1146148426
 30
0.0
 11
400.6205481142
 21
105.1146148426
 31
0.0
  0
LINE
  5
BA
330
1F
100
AcDbEntity
  8
0
  6
Continuous
 62
     7
370
    15
100
AcDbLine
 10
315.6205546707
 20
149.114599703
 30
0.0
 11
307.6205384583
 21
149.114599703
 31
0.0
  0
LINE
  5
BB
330
1F
100
AcDbEntity
  8
0
  6
Continuous
 62
     7
370
    15
100
AcDbLine
 10
400.6205481142
 20
149.114599703
 30
0.0
 11
389.6205556244
 21
149.114599703
 31
0.0
  0
LINE
  5
BC
330
1F
100
AcDbEntity
  8
0
  6
Continuous
 62
     7
370
    15
100
AcDbLine
 10
389.6205556244
 20
149.114599703
 30
0.0
 11
389.6205556244
 21
166.6145979149
 31
0.0
  0
LINE
  5
BD
330
1F
100
AcDbEntity
  8
0
  6
Continuous
 62
     7
370
    15
100
AcDbLine
 10
345.6205558628
 20
166.6145979149
 30
0.0
 11
345.6205558628
 21
156.7723660452
 31
0.0
  0
LINE
  5
BE
330
1F
100
AcDbEntity
  8
0
  6
Continuous
 62
     7
370
    15
100
AcDbLine
 10
347.1205514521
 20
169.6146039945
 30
0.0
 11
347.1205514521
 21
166.6145979149
 31
0.0
  0
LINE
  5
BF
330
1F
100
AcDbEntity
  8
0
  6
Continuous
 62
     7
370
    15
100
AcDbLine
 10
388.1205600351
 20
166.6145979149
 30
0.0
 11
388.1205600351
 21
169.6146039945
 31
0.0
  0
LINE
  5
C0
330
1F
100
AcDbEntity
  8
0
  6
Continuous
 62
     7
370
    15
100
AcDbLine
 10
345.6520122141
 20
156.7851959449
 30
0.0
 11
340.7451045364
 21
163.792988537
 31
0.0
  0
LINE
  5
C1
330
1F
100
AcDbEntity
  8
0
  6
Continuous
 62
     7
370
    15
100
AcDbLine
 10
806.0052227825
 20
278.2942934615
 30
0.0
 11
797.4328827709
 21
441.8640940172
 31
0.0
  0
LINE
  5
C2
330
1F
100
AcDbEntity
  8
0
  6
Continuous
 62
     7
370
    15
100
AcDbLine
 10
401.2082201094
 20
441.8640940172
 30
0.0
 11
392.6358949989
 21
278.2942934615
 31
0.0
  0
LINE
  5
C3
330
1F
100
AcDbEntity
  8
0
  6
Continuous
 62
     7
370
    15
100
AcDbLine
 10
807.7396136374
 20
276.1966495496
 30
0.0
 11
806.296734199
 21
277.6395215375
 31
0.0
  0
LINE
  5
C4
330
1F
100
AcDbEntity
  8
0
  6
Continuous
 62
     7
370
    15
100
AcDbLine
 10
392.3443686813
 20
277.6395215375
 30
0.0
 11
390.9014892429
 21
276.1966495496
 31
0.0
  0
ARC
  5
C5
330
1F
100
AcDbEntity
  8
0
  6
Continuous
 62
     7
370
    15
100
AcDbCircle
 10
807.0038468496
 20
278.3466303113
 30
0.0
 40
0.9999999999999679
100
AcDbArc
 50
183.0
 51
225.0
  0
ARC
  5
C6
330
1F
100
AcDbEntity
  8
0
  6
Continuous
 62
     7
370
    15
100
AcDbCircle
 10
391.6372591389
 20
278.3466303113
 30
0.0
 40
0.9999999999999959
100
AcDbArc
 50
315.0
 51
357.0
  0
ARC
  5
C7
330
1F
100
AcDbEntity
  8
0
  6
Continuous
 62
     7
370
    15
100
AcDbCircle
 10
782.4534442503
 20
441.0790562982
 30
0.0
 40
15.00000000000001
100
AcDbArc
 50
3.0
 51
82.9161471287
  0
ARC
  5
C8
330
1F
100
AcDbEntity
  8
0
  6
Continuous
 62
     7
370
    15
100
AcDbCircle
 10
416.1876617382
 20
441.0790562982
 30
0.0
 40
15.00000000000001
100
AcDbArc
 50
97.0838528713
 51
177.0
  0
ARC
  5
C9
330
1F
100
AcDbEntity
  8
0
  6
Continuous
 62
     7
370
    15
100
AcDbCircle
 10
599.3205529942
 20
-1032.5855405963
 30
0.0
 40
1500.0
100
AcDbArc
 50
92.8659839826
 51
97.0838528713
  0
ARC
  5
CA
330
1F
100
AcDbEntity
  8
0
  6
Continuous
 62
     7
370
    15
100
AcDbCircle
 10
599.3205529942
 20
-1032.5855405963
 30
0.0
 40
1500.0
100
AcDbArc
 50
82.9161471287
 51
87.1340160174
  0
LINE
  5
CB
330
1F
100
AcDbEntity
  8
0
  6
Continuous
 62
     7
370
    15
100
AcDbLine
 10
746.786056146
 20
276.9099606854
 30
0.0
 11
746.1474966854
 21
276.8941952569
 31
0.0
  0
ARC
  5
CC
330
1F
100
AcDbEntity
  8
0
  6
Continuous
 62
     7
370
    15
100
AcDbCircle
 10
807.0325107409
 20
275.4895392952
 30
0.0
 40
1.000000000000026
100
AcDbArc
 50
1.0
 51
45.0
  0
LINE
  5
CD
330
1F
100
AcDbEntity
  8
0
  6
Continuous
 62
     7
370
    15
100
AcDbLine
 10
808.42670618
 20
252.9144569022
 30
0.0
 11
808.0323618502
 21
275.5069940073
 31
0.0
  0
ARC
  5
CE
330
1F
100
AcDbEntity
  8
0
  6
Continuous
 62
     7
370
    15
100
AcDbCircle
 10
599.3205529942
 20
-1032.5855405963
 30
0.0
 40
1500.2
100
AcDbArc
 50
87.1343984166
 51
92.8656015834
  0
LINE
  5
CF
330
1F
100
AcDbEntity
  8
0
  6
Continuous
 62
     7
370
    15
100
AcDbLine
 10
524.3205559105
 20
465.7385333163
 30
0.0
 11
524.3205559105
 21
465.5382840616
 31
0.0
  0
LINE
  5
D0
330
1F
100
AcDbEntity
  8
0
  6
Continuous
 62
     7
370
    15
100
AcDbLine
 10
674.3205544204
 20
465.5382840616
 30
0.0
 11
674.3205544204
 21
465.7385333163
 31
0.0
  0
SPLINE
  5
D1
330
1F
100
AcDbEntity
  8
0
  6
Continuous
 62
     7
370
    15
100
AcDbSpline
210
0.0
220
0.0
230
1.0
 70
     8
 71
     3
 72
     9
 73
     5
 74
     0
 42
0.00000001
 43
0.00000001
 12
1.0
 22
0.0
 32
0.0
 13
1.0
 23
0.0
 33
0.0
 40
0.0
 40
0.0
 40
0.0
 40
0.0
 40
0.4019784288800267
 40
1.0
 40
1.0
 40
1.0
 40
1.0
 10
404.4750761837006
 20
290.4764248711268
 30
0.0
 10
404.4831313551906
 20
290.346512428277
 30
0.0
 10
404.5031701704881
 20
290.0233298057373
 30
0.0
 10
404.4774025544185
 20
289.6772153329165
 30
0.0
 10
404.4619929641724
 20
289.4702314120928
 30
0.0
  0
SPLINE
  5
D2
330
1F
100
AcDbEntity
  8
0
  6
Continuous
 62
     7
370
    15
100
AcDbSpline
210
0.0
220
0.0
230
1.0
 70
     8
 71
     3
 72
    12
 73
     8
 74
     0
 42
0.00000001
 43
0.00000001
 12
1.0
 22
0.0
 32
0.0
 13
1.0
 23
0.0
 33
0.0
 40
0.0
 40
0.0
 40
0.0
 40
0.0
 40
0.1760279998547567
 40
0.3848786156037162
 40
0.6045972458338543
 40
0.8468447916279894
 40
1.0
 40
1.0
 40
1.0
 40
1.0
 10
403.9448928684235
 20
292.9936333281199
 30
0.0
 10
403.9573663474951
 20
292.9817869860395
 30
0.0
 10
403.9846391413735
 20
292.9558854036569
 30
0.0
 10
404.1684535147218
 20
292.5884349712087
 30
0.0
 10
404.3330990146721
 20
291.9731770292673
 30
0.0
 10
404.4544285376372
 20
291.2409453866155
 30
0.0
 10
404.4693114427777
 20
290.689875968095
 30
0.0
 10
404.4750761837006
 20
290.4764248711268
 30
0.0
  0
SPLINE
  5
D3
330
1F
100
AcDbEntity
  8
0
  6
Continuous
 62
     7
370
    15
100
AcDbSpline
210
0.0
220
0.0
230
1.0
 70
     8
 71
     3
 72
    10
 73
     6
 74
     0
 42
0.00000001
 43
0.00000001
 12
1.0
 22
0.0
 32
0.0
 13
1.0
 23
0.0
 33
0.0
 40
0.0
 40
0.0
 40
0.0
 40
0.0
 40
0.1149024447221773
 40
0.5794064582144924
 40
0.9999999999999999
 40
0.9999999999999999
 40
0.9999999999999999
 40
0.9999999999999999
 10
403.8492870182038
 20
278.2974599582354
 30
0.0
 10
403.8486833754517
 20
278.2698086383874
 30
0.0
 10
403.8456394497128
 20
278.1303742396082
 30
0.0
 10
403.7596422189861
 20
277.8926312918257
 30
0.0
 10
403.6115892690062
 20
277.7380492745729
 30
0.0
 10
403.5412353128434
 20
277.6645927411715
 30
0.0
  0
LINE
  5
D4
330
1F
100
AcDbEntity
  8
0
  6
Continuous
 62
     7
370
    15
100
AcDbLine
 10
401.7115813345
 20
275.5079700333
 30
0.0
 11
401.2950044722
 21
252.9144792539
 31
0.0
  0
LWPOLYLINE
  5
D5
330
1F
100
AcDbEntity
  8
0
  6
Continuous
 62
     7
370
    15
100
AcDbPolyline
 90
        3
 70
   128
 43
0.0
 10
404.4736754745
 20
289.4698216302
 10
404.0400367826
 20
281.6490589363
 10
403.8543236107
 20
278.2972960455
  0
ARC
  5
D6
330
1F
100
AcDbEntity
  8
0
  6
Continuous
 62
     7
370
    15
100
AcDbCircle
 10
402.711149885
 20
275.4895392952
 30
0.0
 40
0.9999999999999678
100
AcDbArc
 50
133.4270687426
 51
178.9435423464
  0
SPLINE
  5
D7
330
1F
100
AcDbEntity
  8
0
  6
Continuous
 62
     7
370
    15
100
AcDbSpline
210
0.0
220
0.0
230
1.0
 70
     8
 71
     3
 72
     9
 73
     5
 74
     0
 42
0.00000001
 43
0.00000001
 12
1.0
 22
0.0
 32
0.0
 13
1.0
 23
0.0
 33
0.0
 40
0.0
 40
0.0
 40
0.0
 40
0.0
 40
0.6999959956465677
 40
1.0
 40
1.0
 40
1.0
 40
1.0
 10
403.5490733236313
 20
277.6588557941118
 30
0.0
 10
403.193026082005
 20
277.3222805198011
 30
0.0
 10
402.684384255708
 20
276.8414559487978
 30
0.0
 10
402.1763742990209
 20
276.359963948014
 30
0.0
 10
402.0239692777634
 20
276.2155144197146
 30
0.0
  0
ARC
  5
D8
330
1F
100
AcDbEntity
  8
0
  6
Continuous
 62
     7
370
    15
100
AcDbCircle
 10
391.6085952475
 20
275.4895392952
 30
0.0
 40
1.000000000000008
100
AcDbArc
 50
135.0
 51
179.0
  0
LINE
  5
D9
330
1F
100
AcDbEntity
  8
0
  6
Continuous
 62
     7
370
    15
100
AcDbLine
 10
390.6087410301
 20
275.5069940073
 30
0.0
 11
390.3548252434
 21
260.9597875458
 31
0.0
  0
LINE
  5
DA
330
1F
100
AcDbEntity
  8
0
  6
Continuous
 62
     7
370
    15
100
AcDbLine
 10
390.2203422636
 20
253.2554476244
 30
0.0
 11
390.2143967003
 21
252.9144569022
 31
0.0
  0
LINE
  5
DB
330
1F
100
AcDbEntity
  8
0
  6
Continuous
 62
     7
370
    15
100
AcDbLine
 10
331.9369387478
 20
138.1146072132
 30
0.0
 11
338.2098209709
 21
138.1146072132
 31
0.0
  0
LINE
  5
DC
330
1F
100
AcDbEntity
  8
0
  6
Continuous
 62
     7
370
    15
100
AcDbLine
 10
331.9369387478
 20
147.114610551
 30
0.0
 11
331.9369387478
 21
138.1146072132
 31
0.0
  0
SPLINE
  5
DD
330
1F
100
AcDbEntity
  8
0
  6
Continuous
 62
     7
370
    15
100
AcDbSpline
210
0.0
220
0.0
230
1.0
 70
     8
 71
     3
 72
    13
 73
     9
 74
     0
 42
0.00000001
 43
0.00000001
 12
1.0
 22
0.0
 32
0.0
 13
1.0
 23
0.0
 33
0.0
 40
0.0
 40
0.0
 40
0.0
 40
0.0
 40
0.296970890140444
 40
0.4133497825769404
 40
0.5124845301658344
 40
0.6116649113865474
 40
0.761199561814766
 40
1.0
 40
1.0
 40
1.0
 40
1.0
 10
338.2098209709168
 20
147.1146105510394
 30
0.0
 10
337.700910755106
 20
147.7621135303197
 30
0.0
 10
336.9925654793886
 20
148.6633642070337
 30
0.0
 10
335.7930332501821
 20
149.3330524859539
 30
0.0
 10
334.9720271674701
 20
149.4576515047947
 30
0.0
 10
334.0813268747023
 20
149.2309017816811
 30
0.0
 10
332.9997366254314
 20
148.4721552887007
 30
0.0
 10
332.3416305377412
 20
147.6315359433297
 30
0.0
 10
331.9369387477875
 20
147.1146105510394
 30
0.0
  0
LINE
  5
DE
330
1F
100
AcDbEntity
  8
0
  6
Continuous
 62
     7
370
    15
100
AcDbLine
 10
338.2098209709
 20
147.114610551
 30
0.0
 11
338.2098209709
 21
138.1146072132
 31
0.0
  0
SPLINE
  5
DF
330
1F
100
AcDbEntity
  8
0
  6
Continuous
 62
     7
370
    15
100
AcDbSpline
210
0.0
220
0.0
230
1.0
 70
     8
 71
     3
 72
    13
 73
     9
 74
     0
 42
0.00000001
 43
0.00000001
 12
1.0
 22
0.0
 32
0.0
 13
1.0
 23
0.0
 33
0.0
 40
0.0
 40
0.0
 40
0.0
 40
0.0
 40
0.296972285669395
 40
0.4133505792996035
 40
0.5124854639570748
 40
0.6116648364301248
 40
0.7612001548095361
 40
1.0
 40
1.0
 40
1.0
 40
1.0
 10
331.9369387477875
 20
147.1146105510394
 30
0.0
 10
331.8891445995587
 20
147.7621121917589
 30
0.0
 10
331.8226207526855
 20
148.6633585073387
 30
0.0
 10
331.709870467419
 20
149.3330534360269
 30
0.0
 10
331.6327924795376
 20
149.4576520141333
 30
0.0
 10
331.5490763953273
 20
149.2308984306287
 30
0.0
 10
331.4474903062563
 20
148.4721601377506
 30
0.0
 10
331.3856716916512
 20
147.6315369331048
 30
0.0
 10
331.3476574272156
 20
147.1146105510394
 30
0.0
  0
SPLINE
  5
E0
330
1F
100
AcDbEntity
  8
0
  6
Continuous
 62
     7
370
    15
100
AcDbSpline
210
0.0
220
0.0
230
1.0
 70
     8
 71
     3
 72
    10
 73
     6
 74
     0
 42
0.00000001
 43
0.00000001
 12
1.0
 22
0.0
 32
0.0
 13
1.0
 23
0.0
 33
0.0
 40
0.0
 40
0.0
 40
0.0
 40
0.0
 40
0.1160363801396086
 40
0.4564226276299529
 40
1.0
 40
1.0
 40
1.0
 40
1.0
 10
343.6423671096802
 20
149.3193118554751
 30
0.0
 10
343.6545984130782
 20
149.2940441715426
 30
0.0
 10
343.7027095626123
 20
149.1946551464736
 30
0.0
 10
343.7932243387833
 20
148.4495766283932
 30
0.0
 10
343.8552872288281
 20
147.6229373567007
 30
0.0
 10
343.8934516757965
 20
147.1146105510394
 30
0.0
  0
SPLINE
  5
E1
330
1F
100
AcDbEntity
  8
0
  6
Continuous
 62
     7
370
    15
100
AcDbSpline
210
0.0
220
0.0
230
1.0
 70
     8
 71
     3
 72
    14
 73
    10
 74
     0
 42
0.00000001
 43
0.00000001
 12
1.0
 22
0.0
 32
0.0
 13
1.0
 23
0.0
 33
0.0
 40
0.0
 40
0.0
 40
0.0
 40
0.0
 40
0.133962925996571
 40
0.318633203260492
 40
0.4324476080597918
 40
0.5473837961131027
 40
0.6448651040131803
 40
0.8215115038948622
 40
1.0
 40
1.0
 40
1.0
 40
1.0
 10
343.8934516757965
 20
147.1146105510394
 30
0.0
 10
343.6909157960927
 20
147.4060240171156
 30
0.0
 10
343.2091806022311
 20
148.0991561316792
 30
0.0
 10
342.4319038454586
 20
148.9128415758319
 30
0.0
 10
341.5358310442538
 20
149.4018149992779
 30
0.0
 10
340.7497657174083
 20
149.4385644319034
 30
0.0
 10
339.8788336684335
 20
149.0674744846771
 30
0.0
 10
339.0220372936317
 20
148.2708214238591
 30
0.0
 10
338.4814943497489
 20
147.5013446090442
 30
0.0
 10
338.2098209709167
 20
147.1146105510394
 30
0.0
  0
LINE
  5
E2
330
1F
100
AcDbEntity
  8
0
  6
Continuous
 62
     7
370
    15
100
AcDbLine
 10
340.1938658804
 20
153.1146078092
 30
0.0
 11
333.1205677837
 21
153.1146078092
 31
0.0
  0
LINE
  5
E3
330
1F
100
AcDbEntity
  8
0
  6
Continuous
 62
     7
370
    15
100
AcDbLine
 10
342.1205562204
 20
153.1146078092
 30
0.0
 11
340.1938658804
 21
153.1146078092
 31
0.0
  0
LINE
  5
E4
330
1F
100
AcDbEntity
  8
0
  6
Continuous
 62
     7
370
    15
100
AcDbLine
 10
343.8934516758
 20
147.114610551
 30
0.0
 11
343.8934516758
 21
138.1146072132
 31
0.0
  0
LINE
  5
E5
330
1F
100
AcDbEntity
  8
0
  6
Continuous
 62
     7
370
    15
100
AcDbLine
 10
338.2098209709
 20
138.1146072132
 30
0.0
 11
343.8934516758
 21
138.1146072132
 31
0.0
  0
LINE
  5
E6
330
1F
100
AcDbEntity
  8
0
  6
Continuous
 62
     7
370
    15
100
AcDbLine
 10
340.1938658804
 20
160.114607094
 30
0.0
 11
333.1205677837
 21
160.114607094
 31
0.0
  0
LINE
  5
E7
330
1F
100
AcDbEntity
  8
0
  6
Continuous
 62
     7
370
    15
100
AcDbLine
 10
342.1205562204
 20
160.114607094
 30
0.0
 11
340.1938658804
 21
160.114607094
 31
0.0
  0
LINE
  5
E8
330
1F
100
AcDbEntity
  8
0
  6
Continuous
 62
     7
370
    15
100
AcDbLine
 10
331.3476574272
 20
147.114610551
 30
0.0
 11
331.3476574272
 21
138.1146072132
 31
0.0
  0
LINE
  5
E9
330
1F
100
AcDbEntity
  8
0
  6
Continuous
 62
     7
370
    15
100
AcDbLine
 10
331.3476574272
 20
138.1146072132
 30
0.0
 11
331.9369387478
 21
138.1146072132
 31
0.0
  0
LINE
  5
EA
330
1F
100
AcDbEntity
  8
0
  6
Continuous
 62
     7
370
    15
100
AcDbLine
 10
337.6205396503
 20
137.1146051866
 30
0.0
 11
343.6205518097
 21
137.1146051866
 31
0.0
  0
LINE
  5
EB
330
1F
100
AcDbEntity
  8
0
  6
Continuous
 62
     7
370
    15
100
AcDbLine
 10
343.6205518097
 20
127.1145998222
 30
0.0
 11
343.6205518097
 21
137.1146051866
 31
0.0
  0
LINE
  5
EC
330
1F
100
AcDbEntity
  8
0
  6
Continuous
 62
     7
370
    15
100
AcDbLine
 10
337.6205396503
 20
123.6504970771
 30
0.0
 11
337.6205396503
 21
137.1146051866
 31
0.0
  0
LINE
  5
ED
330
1F
100
AcDbEntity
  8
0
  6
Continuous
 62
     7
370
    15
100
AcDbLine
 10
343.6205518097
 20
123.6504970771
 30
0.0
 11
337.6205396503
 21
120.1863943321
 31
0.0
  0
LINE
  5
EE
330
1F
100
AcDbEntity
  8
0
  6
Continuous
 62
     7
370
    15
100
AcDbLine
 10
337.6205396503
 20
123.6504970771
 30
0.0
 11
337.6205396503
 21
120.1863943321
 31
0.0
  0
LINE
  5
EF
330
1F
100
AcDbEntity
  8
0
  6
Continuous
 62
     7
370
    15
100
AcDbLine
 10
343.6205518097
 20
127.1145998222
 30
0.0
 11
343.6205518097
 21
123.6504970771
 31
0.0
  0
LINE
  5
F0
330
1F
100
AcDbEntity
  8
0
  6
Continuous
 62
     7
370
    15
100
AcDbLine
 10
337.6205396503
 20
120.1863943321
 30
0.0
 11
331.6205572933
 21
123.6504970771
 31
0.0
  0
LINE
  5
F1
330
1F
100
AcDbEntity
  8
0
  6
Continuous
 62
     7
370
    15
100
AcDbLine
 10
331.6205572933
 20
123.6504970771
 30
0.0
 11
331.6205572933
 21
127.1145998222
 31
0.0
  0
LINE
  5
F2
330
1F
100
AcDbEntity
  8
0
  6
Continuous
 62
     7
370
    15
100
AcDbLine
 10
331.6205572933
 20
127.1145998222
 30
0.0
 11
331.6205572933
 21
137.1146051866
 31
0.0
  0
LINE
  5
F3
330
1F
100
AcDbEntity
  8
0
  6
Continuous
 62
     7
370
    15
100
AcDbLine
 10
331.6205572933
 20
137.1146051866
 30
0.0
 11
337.6205396503
 21
137.1146051866
 31
0.0
  0
ARC
  5
F4
330
1F
100
AcDbEntity
  8
0
  6
Continuous
 62
     7
370
    15
100
AcDbCircle
 10
337.6205529942
 20
127.1146048583
 30
0.0
 40
6.499999999999953
100
AcDbArc
 50
337.380135052
 51
22.619864948
  0
ARC
  5
F5
330
1F
100
AcDbEntity
  8
0
  6
Continuous
 62
     7
370
    15
100
AcDbCircle
 10
337.6205529942
 20
127.1146048583
 30
0.0
 40
6.499999999999999
100
AcDbArc
 50
277.380135052
 51
322.619864948
  0
ARC
  5
F6
330
1F
100
AcDbEntity
  8
0
  6
Continuous
 62
     7
370
    15
100
AcDbCircle
 10
337.6205529942
 20
127.1146048583
 30
0.0
 40
6.500000000000008
100
AcDbArc
 50
217.380135052
 51
262.619864948
  0
ARC
  5
F7
330
1F
100
AcDbEntity
  8
0
  6
Continuous
 62
     7
370
    15
100
AcDbCircle
 10
337.6205529942
 20
127.1146048583
 30
0.0
 40
6.500000000000005
100
AcDbArc
 50
157.380135052
 51
202.619864948
  0
LWPOLYLINE
  5
F8
330
1F
100
AcDbEntity
  8
0
  6
Continuous
 62
     7
370
    15
100
AcDbPolyline
 90
       28
 70
   128
 43
0.0
 10
753.7117582411
 20
273.5951526744
 10
752.8630924076
 20
274.5310722572
 10
751.8880349249
 20
275.1687972528
 10
750.8391570896
 20
275.4739357812
 10
749.7729790062
 20
275.4300518614
 10
748.7469893545
 20
275.0394998771
 10
747.8165012449
 20
274.323335169
 10
747.031671986
 20
273.3201740963
 10
746.4348357767
 20
272.0840929729
 10
746.0581344217
 20
270.6817297918
 10
745.9218931049
 20
269.1886855942
 10
746.0334580988
 20
267.6854490024
 10
746.3868093342
 20
266.2530599815
 10
746.9629031271
 20
264.9687437994
 10
747.7306705564
 20
263.9017312509
 10
748.6487459988
 20
263.1095557195
 10
749.6675979942
 20
262.6349164826
 10
750.732330665
 20
262.5033988339
 10
751.7855447382
 20
262.7220957262
 10
752.7704369873
 20
263.2792203409
 10
753.6339294762
 20
264.1447393877
 10
754.3294709772
 20
265.2719824297
 10
754.8195552677
 20
266.6001825315
 10
755.0777625889
 20
268.0577470643
 10
755.0901901573
 20
269.5660873038
 10
754.8561525196
 20
271.0438876135
 10
754.3882560581
 20
272.4114863855
 10
753.7117582411
 20
273.5951526744
  0
LWPOLYLINE
  5
F9
330
1F
100
AcDbEntity
  8
0
  6
Continuous
 62
     7
370
    15
100
AcDbPolyline
 90
       17
 70
   128
 43
0.0
 10
747.7148604244
 20
275.8892534954
 10
746.6969472021
 20
275.8760510666
 10
745.6206512302
 20
275.52730429
 10
744.6304094643
 20
274.8472897989
 10
743.7759023756
 20
273.8701163513
 10
743.0999559015
 20
272.6447789652
 10
742.6364701838
 20
271.2327225787
 10
742.4086761326
 20
269.7047575099
 10
742.428032741
 20
268.1374906284
 10
742.69352673
 20
266.6095255596
 10
743.1918662638
 20
265.1974691731
 10
743.8980620951
 20
263.972131787
 10
744.7766941637
 20
262.9949583394
 10
745.7837146372
 20
262.3149438483
 10
746.8686234802
 20
261.9661970717
 10
747.9770165533
 20
261.9661970717
 10
748.0582129807
 20
261.9801296574
  0
LINE
  5
FA
330
1F
100
AcDbEntity
  8
0
  6
Continuous
 62
     7
370
    15
100
AcDbLine
 10
800.0205588192
 20
127.1630732996
 30
0.0
 11
800.0205588192
 21
137.163078664
 31
0.0
  0
LINE
  5
FB
330
1F
100
AcDbEntity
  8
0
  6
Continuous
 62
     7
370
    15
100
AcDbLine
 10
800.0205588192
 20
117.1630679351
 30
0.0
 11
800.0205588192
 21
127.1630732996
 31
0.0
  0
LINE
  5
FC
330
1F
100
AcDbEntity
  8
0
  6
Continuous
 62
     7
370
    15
100
AcDbLine
 10
798.0205547661
 20
136.6146116239
 30
0.0
 11
798.0205547661
 21
137.163078664
 31
0.0
  0
LINE
  5
FD
330
1F
100
AcDbEntity
  8
0
  6
Continuous
 62
     7
370
    15
100
AcDbLine
 10
798.0205547661
 20
117.1630679351
 30
0.0
 11
798.0205547661
 21
117.6146029216
 31
0.0
  0
LINE
  5
FE
330
1F
100
AcDbEntity
  8
0
  6
Continuous
 62
     7
370
    15
100
AcDbLine
 10
807.0205581039
 20
136.9295625669
 30
0.0
 11
800.0205588192
 21
136.9295625669
 31
0.0
  0
LINE
  5
FF
330
1F
100
AcDbEntity
  8
0
  6
Continuous
 62
     7
370
    15
100
AcDbLine
 10
807.0205581039
 20
136.9295625669
 30
0.0
 11
807.0205581039
 21
132.0220886451
 31
0.0
  0
LINE
  5
100
330
1F
100
AcDbEntity
  8
0
  6
Continuous
 62
     7
370
    15
100
AcDbLine
 10
807.0205581039
 20
132.0220886451
 30
0.0
 11
800.0205588192
 21
132.0220886451
 31
0.0
  0
LINE
  5
101
330
1F
100
AcDbEntity
  8
0
  6
Continuous
 62
     7
370
    15
100
AcDbLine
 10
807.0205581039
 20
122.2071408016
 30
0.0
 11
800.0205588192
 21
122.2071408016
 31
0.0
  0
LINE
  5
102
330
1F
100
AcDbEntity
  8
0
  6
Continuous
 62
     7
370
    15
100
AcDbLine
 10
807.0205581039
 20
122.2071408016
 30
0.0
 11
807.0205581039
 21
117.2996519787
 31
0.0
  0
LINE
  5
103
330
1F
100
AcDbEntity
  8
0
  6
Continuous
 62
     7
370
    15
100
AcDbLine
 10
807.0205581039
 20
117.2996519787
 30
0.0
 11
800.0205588192
 21
117.2996519787
 31
0.0
  0
LINE
  5
104
330
1F
100
AcDbEntity
  8
0
  6
Continuous
 62
     7
370
    15
100
AcDbLine
 10
807.0205581039
 20
132.0220886451
 30
0.0
 11
807.0205581039
 21
122.2071408016
 31
0.0
  0
LINE
  5
105
330
1F
100
AcDbEntity
  8
0
  6
Continuous
 62
     7
370
    15
100
AcDbLine
 10
628.3412967474
 20
134.8542778474
 30
0.0
 11
624.5816890747
 21
125.78793454
 31
0.0
  0
LINE
  5
106
330
1F
100
AcDbEntity
  8
0
  6
Continuous
 62
     7
370
    15
100
AcDbLine
 10
638.0727869123
 20
136.1315457803
 30
0.0
 11
628.3412967474
 21
134.8542778474
 31
0.0
  0
LINE
  5
107
330
1F
100
AcDbEntity
  8
0
  6
Continuous
 62
     7
370
    15
100
AcDbLine
 10
644.0446731299
 20
128.3424555046
 30
0.0
 11
638.0727869123
 21
136.1315457803
 31
0.0
  0
LINE
  5
108
330
1F
100
AcDbEntity
  8
0
  6
Continuous
 62
     7
370
    15
100
AcDbLine
 10
640.2850654572
 20
119.2761121971
 30
0.0
 11
644.0446731299
 21
128.3424555046
 31
0.0
  0
LINE
  5
109
330
1F
100
AcDbEntity
  8
0
  6
Continuous
 62
     7
370
    15
100
AcDbLine
 10
630.553571567
 20
117.9988442642
 30
0.0
 11
640.2850654572
 21
119.2761121971
 31
0.0
  0
LINE
  5
10A
330
1F
100
AcDbEntity
  8
0
  6
Continuous
 62
     7
370
    15
100
AcDbLine
 10
624.5816890747
 20
125.78793454
 30
0.0
 11
630.553571567
 21
117.9988442642
 31
0.0
  0
CIRCLE
  5
10B
330
1F
100
AcDbEntity
  8
0
  6
Continuous
 62
     7
370
    15
100
AcDbCircle
 10
634.3205529942
 20
127.1146048583
 30
0.0
 40
9.999999999999947
  0
LINE
  5
10C
330
1F
100
AcDbEntity
  8
0
  6
Continuous
 62
     7
370
    15
100
AcDbLine
 10
558.3412964493
 20
134.8542778474
 30
0.0
 11
554.5816887766
 21
125.78793454
 31
0.0
  0
LINE
  5
10D
330
1F
100
AcDbEntity
  8
0
  6
Continuous
 62
     7
370
    15
100
AcDbLine
 10
568.072788477
 20
136.1315457803
 30
0.0
 11
558.3412964493
 21
134.8542778474
 31
0.0
  0
LINE
  5
10E
330
1F
100
AcDbEntity
  8
0
  6
Continuous
 62
     7
370
    15
100
AcDbLine
 10
570.2850632966
 20
119.2761121971
 30
0.0
 11
574.0446728319
 21
128.3424555046
 31
0.0
  0
LINE
  5
10F
330
1F
100
AcDbEntity
  8
0
  6
Continuous
 62
     7
370
    15
100
AcDbLine
 10
554.5816887766
 20
125.78793454
 30
0.0
 11
560.5535712689
 21
117.9988442642
 31
0.0
  0
LINE
  5
110
330
1F
100
AcDbEntity
  8
0
  6
Continuous
 62
     7
370
    15
100
AcDbLine
 10
560.5535712689
 20
117.9988442642
 30
0.0
 11
570.2850632966
 21
119.2761121971
 31
0.0
  0
LINE
  5
111
330
1F
100
AcDbEntity
  8
0
  6
Continuous
 62
     7
370
    15
100
AcDbLine
 10
574.0446728319
 20
128.3424555046
 30
0.0
 11
568.072788477
 21
136.1315457803
 31
0.0
  0
CIRCLE
  5
112
330
1F
100
AcDbEntity
  8
0
  6
Continuous
 62
     7
370
    15
100
AcDbCircle
 10
564.3205529942
 20
127.1146048583
 30
0.0
 40
10.00000000000005
  0
LINE
  5
113
330
1F
100
AcDbEntity
  8
0
  6
Continuous
 62
     7
370
    15
100
AcDbLine
 10
398.6205589622
 20
137.163078664
 30
0.0
 11
398.6205589622
 21
117.1630679351
 31
0.0
  0
LINE
  5
114
330
1F
100
AcDbEntity
  8
0
  6
Continuous
 62
     7
370
    15
100
AcDbLine
 10
391.6205596775
 20
132.0220886451
 30
0.0
 11
398.6205589622
 21
132.0220886451
 31
0.0
  0
LINE
  5
115
330
1F
100
AcDbEntity
  8
0
  6
Continuous
 62
     7
370
    15
100
AcDbLine
 10
391.6205596775
 20
132.0220886451
 30
0.0
 11
391.6205596775
 21
136.9295625669
 31
0.0
  0
LINE
  5
116
330
1F
100
AcDbEntity
  8
0
  6
Continuous
 62
     7
370
    15
100
AcDbLine
 10
391.6205596775
 20
136.9295625669
 30
0.0
 11
398.6205589622
 21
136.9295625669
 31
0.0
  0
LINE
  5
117
330
1F
100
AcDbEntity
  8
0
  6
Continuous
 62
     7
370
    15
100
AcDbLine
 10
391.6205596775
 20
122.2071408016
 30
0.0
 11
398.6205589622
 21
122.2071408016
 31
0.0
  0
LINE
  5
118
330
1F
100
AcDbEntity
  8
0
  6
Continuous
 62
     7
370
    15
100
AcDbLine
 10
391.6205596775
 20
122.2071408016
 30
0.0
 11
391.6205596775
 21
132.0220886451
 31
0.0
  0
LINE
  5
119
330
1F
100
AcDbEntity
  8
0
  6
Continuous
 62
     7
370
    15
100
AcDbLine
 10
391.6205596775
 20
117.2996519787
 30
0.0
 11
398.6205589622
 21
117.2996519787
 31
0.0
  0
LINE
  5
11A
330
1F
100
AcDbEntity
  8
0
  6
Continuous
 62
     7
370
    15
100
AcDbLine
 10
391.6205596775
 20
117.2996519787
 30
0.0
 11
391.6205596775
 21
122.2071408016
 31
0.0
  0
LINE
  5
11B
330
1F
100
AcDbEntity
  8
0
  6
Continuous
 62
     7
370
    15
100
AcDbLine
 10
409.6205514521
 20
73.0022250396
 30
0.0
 11
409.5237237066
 21
73.1656609756
 31
0.0
  0
ARC
  5
11C
330
1F
100
AcDbEntity
  8
0
  6
Continuous
 62
     7
370
    15
100
AcDbCircle
 10
411.2092458738
 20
73.9483810221
 30
0.0
 40
1.858395987766826
100
AcDbArc
 50
177.4307620301
 51
204.9091362805
  0
LINE
  5
11D
330
1F
100
AcDbEntity
  8
0
  6
Continuous
 62
     7
370
    15
100
AcDbLine
 10
409.3527179808
 20
74.0316866619
 30
0.0
 11
409.3527179808
 21
90.1975094062
 31
0.0
  0
ARC
  5
11E
330
1F
100
AcDbEntity
  8
0
  6
Continuous
 62
     7
370
    15
100
AcDbCircle
 10
411.2091016157
 20
90.2808435313
 30
0.0
 40
1.858253151880932
100
AcDbArc
 50
155.0897869267
 51
182.5703147627
  0
LINE
  5
11F
330
1F
100
AcDbEntity
  8
0
  6
Continuous
 62
     7
370
    15
100
AcDbLine
 10
409.5237237066
 20
91.0635350925
 30
0.0
 11
409.6205514521
 21
91.2270008308
 31
0.0
  0
LINE
  5
120
330
1F
100
AcDbEntity
  8
0
  6
Continuous
 62
     7
370
    15
100
AcDbLine
 10
391.8405753225
 20
77.1146177036
 30
0.0
 11
394.659651503
 21
77.1146177036
 31
0.0
  0
LINE
  5
121
330
1F
100
AcDbEntity
  8
0
  6
Continuous
 62
     7
370
    15
100
AcDbLine
 10
394.659651503
 20
87.1146081669
 30
0.0
 11
391.8405753225
 21
87.1146081669
 31
0.0
  0
LINE
  5
122
330
1F
100
AcDbEntity
  8
0
  6
Continuous
 62
     7
370
    15
100
AcDbLine
 10
367.6205557436
 20
169.6146039945
 30
0.0
 11
344.1205602736
 21
169.6146039945
 31
0.0
  0
LINE
  5
123
330
1F
100
AcDbEntity
  8
0
  6
Continuous
 62
     7
370
    15
100
AcDbLine
 10
391.1205512136
 20
169.6146039945
 30
0.0
 11
367.6205557436
 21
169.6146039945
 31
0.0
  0
LINE
  5
124
330
1F
100
AcDbEntity
  8
0
  6
Continuous
 62
     7
370
    15
100
AcDbLine
 10
363.0856853575
 20
178.6146073324
 30
0.0
 11
372.1554112286
 21
178.6146073324
 31
0.0
  0
ARC
  5
125
330
1F
100
AcDbEntity
  8
0
  6
Continuous
 62
     7
370
    15
100
AcDbCircle
 10
363.6205529942
 20
179.6146048583
 30
0.0
 40
1.0
100
AcDbArc
 50
180.0
 51
270.0
  0
ARC
  5
126
330
1F
100
AcDbEntity
  8
0
  6
Continuous
 62
     7
370
    15
100
AcDbCircle
 10
371.6205529942
 20
179.6146048583
 30
0.0
 40
1.0
100
AcDbArc
 50
270.0
 51
0.0
  0
LINE
  5
127
330
1F
100
AcDbEntity
  8
0
  6
Continuous
 62
     7
370
    15
100
AcDbLine
 10
360.2949660868
 20
184.6146045906
 30
0.0
 11
361.6205584854
 21
184.6146045906
 31
0.0
  0
ARC
  5
128
330
1F
100
AcDbEntity
  8
0
  6
Continuous
 62
     7
370
    15
100
AcDbCircle
 10
361.6205529942
 20
183.6146048583
 30
0.0
 40
1.0
100
AcDbArc
 50
0.0
 51
90.0
  0
LINE
  5
129
330
1F
100
AcDbEntity
  8
0
  6
Continuous
 62
     7
370
    15
100
AcDbLine
 10
362.6205456108
 20
183.614602564
 30
0.0
 11
362.6205456108
 21
179.6146093589
 31
0.0
  0
LINE
  5
12A
330
1F
100
AcDbEntity
  8
0
  6
Continuous
 62
     7
370
    15
100
AcDbLine
 10
372.6205509752
 20
179.6146093589
 30
0.0
 11
372.6205509752
 21
183.614602564
 31
0.0
  0
LINE
  5
12B
330
1F
100
AcDbEntity
  8
0
  6
Continuous
 62
     7
370
    15
100
AcDbLine
 10
373.6205530018
 20
184.6146045906
 30
0.0
 11
374.9461304993
 21
184.6146045906
 31
0.0
  0
ARC
  5
12C
330
1F
100
AcDbEntity
  8
0
  6
Continuous
 62
     7
370
    15
100
AcDbCircle
 10
373.6205529942
 20
183.6146048583
 30
0.0
 40
1.000000000000057
100
AcDbArc
 50
90.0
 51
180.0
  0
LINE
  5
12D
330
1F
100
AcDbEntity
  8
0
  6
Continuous
 62
     7
370
    15
100
AcDbLine
 10
346.3464808315
 20
184.6146045906
 30
0.0
 11
360.2949660868
 21
184.6146045906
 31
0.0
  0
LINE
  5
12E
330
1F
100
AcDbEntity
  8
0
  6
Continuous
 62
     7
370
    15
100
AcDbLine
 10
374.9461304993
 20
184.6146045906
 30
0.0
 11
388.8946157545
 21
184.6146045906
 31
0.0
  0
LINE
  5
12F
330
1F
100
AcDbEntity
  8
0
  6
Continuous
 62
     7
370
    15
100
AcDbLine
 10
346.2920021862
 20
184.6146045906
 30
0.0
 11
346.3464808315
 21
184.6146045906
 31
0.0
  0
LINE
  5
130
330
1F
100
AcDbEntity
  8
0
  6
Continuous
 62
     7
370
    15
100
AcDbLine
 10
388.8946157545
 20
184.6146045906
 30
0.0
 11
388.949109301
 21
184.6146045906
 31
0.0
  0
SPLINE
  5
131
330
1F
100
AcDbEntity
  8
0
  6
Continuous
 62
     7
370
    15
100
AcDbSpline
210
0.0
220
0.0
230
1.0
 70
     8
 71
     3
 72
    13
 73
     9
 74
     0
 42
0.00000001
 43
0.00000001
 12
1.0
 22
0.0
 32
0.0
 13
1.0
 23
0.0
 33
0.0
 40
0.0
 40
0.0
 40
0.0
 40
0.0
 40
0.0146059262549903
 40
0.1417718535779936
 40
0.3564633689690161
 40
0.5710167572379432
 40
0.7855086567620617
 40
0.9999999999999999
 40
0.9999999999999999
 40
0.9999999999999999
 40
0.9999999999999999
 10
556.6109847873688
 20
136.7940365058581
 30
0.0
 10
556.606628529731
 20
136.8002853039405
 30
0.0
 10
556.5643446848585
 20
136.8609390188304
 30
0.0
 10
556.4581361831648
 20
137.0132696406274
 30
0.0
 10
556.3011888950813
 20
137.2381789083747
 30
0.0
 10
556.1559374289169
 20
137.4461600096689
 30
0.0
 10
556.0572198934437
 20
137.5874368843327
 30
0.0
 10
556.0445542283267
 20
137.6055448021513
 30
0.0
 10
556.0382214039803
 20
137.6145987493197
 30
0.0
  0
ARC
  5
132
330
1F
100
AcDbEntity
  8
0
  6
Continuous
 62
     7
370
    15
100
AcDbCircle
 10
599.3205529942
 20
80.2659811077
 30
0.0
 40
71.848623750626
100
AcDbArc
 50
124.5564748747
 51
127.0426974229
  0
ARC
  5
133
330
1F
100
AcDbEntity
  8
0
  6
Continuous
 62
     7
370
    15
100
AcDbCircle
 10
599.3205529942
 20
80.2659811077
 30
0.0
 40
71.84862375062593
100
AcDbArc
 50
52.9573025771
 51
55.4435251253
  0
SPLINE
  5
134
330
1F
100
AcDbEntity
  8
0
  6
Continuous
 62
     7
370
    15
100
AcDbSpline
210
0.0
220
0.0
230
1.0
 70
     8
 71
     3
 72
    13
 73
     9
 74
     0
 42
0.00000001
 43
0.00000001
 12
1.0
 22
0.0
 32
0.0
 13
1.0
 23
0.0
 33
0.0
 40
0.0
 40
0.0
 40
0.0
 40
0.0
 40
0.0146059296001053
 40
0.1417718860472225
 40
0.3564634506078636
 40
0.5710168880147746
 40
0.7855088366627947
 40
1.0
 40
1.0
 40
1.0
 40
1.0
 10
642.0301218182087
 20
136.7940365058581
 30
0.0
 10
642.034478075864
 20
136.8002853039404
 30
0.0
 10
642.0767619209049
 20
136.8609390188299
 30
0.0
 10
642.1829704106864
 20
137.0132696406548
 30
0.0
 10
642.3399177837025
 20
137.2381789082037
 30
0.0
 10
642.4851689091367
 20
137.4461600102945
 30
0.0
 10
642.5838876736537
 20
137.587436831724
 30
0.0
 10
642.5965502164828
 20
137.6055447878375
 30
0.0
 10
642.602881476307
 20
137.6145987493197
 30
0.0
  0
ARC
  5
135
330
1F
100
AcDbEntity
  8
0
  6
Continuous
 62
     7
370
    15
100
AcDbCircle
 10
635.8205529942
 20
127.1146048583
 30
0.0
 40
12.49999999999999
100
AcDbArc
 50
302.8598803789
 51
57.1401196211
  0
SPLINE
  5
136
330
1F
100
AcDbEntity
  8
0
  6
Continuous
 62
     7
370
    15
100
AcDbSpline
210
0.0
220
0.0
230
1.0
 70
     8
 71
     3
 72
    13
 73
     9
 74
     0
 42
0.00000001
 43
0.00000001
 12
1.0
 22
0.0
 32
0.0
 13
1.0
 23
0.0
 33
0.0
 40
0.0
 40
0.0
 40
0.0
 40
0.0
 40
0.014621406602633
 40
0.1417782934169244
 40
0.3564676362066135
 40
0.5710188532720042
 40
0.785512366618035
 40
1.0
 40
1.0
 40
1.0
 40
1.0
 10
642.0301218182087
 20
117.4351929408709
 30
0.0
 10
642.0344777937671
 20
117.4289340103026
 30
0.0
 10
642.0767160542583
 20
117.3682435091282
 30
0.0
 10
642.183006662882
 20
117.2159658320573
 30
0.0
 10
642.3399066397694
 20
116.9910263697766
 30
0.0
 10
642.4851731884244
 20
116.7830610929439
 30
0.0
 10
642.5838859337248
 20
116.6417546824953
 30
0.0
 10
642.5965496866395
 20
116.6236620089996
 30
0.0
 10
642.602881476307
 20
116.6146157962481
 30
0.0
  0
SPLINE
  5
137
330
1F
100
AcDbEntity
  8
0
  6
Continuous
 62
     7
370
    15
100
AcDbSpline
210
0.0
220
0.0
230
1.0
 70
     8
 71
     3
 72
    13
 73
     9
 74
     0
 42
0.00000001
 43
0.00000001
 12
1.0
 22
0.0
 32
0.0
 13
1.0
 23
0.0
 33
0.0
 40
0.0
 40
0.0
 40
0.0
 40
0.0
 40
0.0146214032539875
 40
0.1417782609463658
 40
0.3564675545671537
 40
0.5710187224952772
 40
0.7855121867172565
 40
1.0
 40
1.0
 40
1.0
 40
1.0
 10
556.6109847873688
 20
117.4351929408709
 30
0.0
 10
556.6066288118279
 20
117.4289340103026
 30
0.0
 10
556.5643905515054
 20
117.368243509128
 30
0.0
 10
556.4580999309702
 20
117.2159658320845
 30
0.0
 10
556.3012000390152
 20
116.9910263696062
 30
0.0
 10
556.155933149625
 20
116.783061093567
 30
0.0
 10
556.0572216334008
 20
116.6417546298848
 30
0.0
 10
556.0445547581671
 20
116.6236619946827
 30
0.0
 10
556.0382214039803
 20
116.6146157962481
 30
0.0
  0
ARC
  5
138
330
1F
100
AcDbEntity
  8
0
  6
Continuous
 62
     7
370
    15
100
AcDbCircle
 10
562.8205529942
 20
127.1146048583
 30
0.0
 40
12.50000000000014
100
AcDbArc
 50
122.8598803789
 51
237.1401196211
  0
ARC
  5
139
330
1F
100
AcDbEntity
  8
0
  6
Continuous
 62
     7
370
    15
100
AcDbCircle
 10
599.3205529942
 20
173.9632286089
 30
0.0
 40
71.84862375062593
100
AcDbArc
 50
304.5564748747
 51
307.0426974229
  0
ARC
  5
13A
330
1F
100
AcDbEntity
  8
0
  6
Continuous
 62
     7
370
    15
100
AcDbCircle
 10
599.3205529942
 20
173.9632286089
 30
0.0
 40
71.848623750626
100
AcDbArc
 50
232.9573025771
 51
235.4435251253
  0
ARC
  5
13B
330
1F
100
AcDbEntity
  8
0
  6
Continuous
 62
     7
370
    15
100
AcDbCircle
 10
599.3205529942
 20
80.2659811077
 30
0.0
 40
71.84862375062593
100
AcDbArc
 50
55.4435251253
 51
124.5564748747
  0
ARC
  5
13C
330
1F
100
AcDbEntity
  8
0
  6
Continuous
 62
     7
370
    15
100
AcDbCircle
 10
599.3205529942
 20
173.9632286089
 30
0.0
 40
71.84862375062595
100
AcDbArc
 50
235.4435251253
 51
304.5564748747
  0
SPLINE
  5
13D
330
1F
100
AcDbEntity
  8
0
  6
Continuous
 62
     7
370
    15
100
AcDbSpline
210
0.0
220
0.0
230
1.0
 70
     8
 71
     3
 72
    10
 73
     6
 74
     0
 42
0.00000001
 43
0.00000001
 12
1.0
 22
0.0
 32
0.0
 13
1.0
 23
0.0
 33
0.0
 40
0.0
 40
0.0
 40
0.0
 40
0.0
 40
0.3881274681127306
 40
0.7805032160575209
 40
1.0
 40
1.0
 40
1.0
 40
1.0
 10
794.745041117096
 20
116.6146157962481
 30
0.0
 10
794.7542145828496
 20
116.6143970902942
 30
0.0
 10
794.77266192325
 20
116.6139572845232
 30
0.0
 10
794.7961533094405
 20
116.6096903675812
 30
0.0
 10
794.806373645305
 20
116.6040373268685
 30
0.0
 10
794.8100399822235
 20
116.6020094138781
 30
0.0
  0
LINE
  5
13E
330
1F
100
AcDbEntity
  8
0
  6
Continuous
 62
     7
370
    15
100
AcDbLine
 10
794.7450411171
 20
116.6146157962
 30
0.0
 11
788.0205494017
 21
116.6146157962
 31
0.0
  0
LINE
  5
13F
330
1F
100
AcDbEntity
  8
0
  6
Continuous
 62
     7
370
    15
100
AcDbLine
 10
788.0205494017
 20
116.6146157962
 30
0.0
 11
788.0205494017
 21
137.6145987493
 31
0.0
  0
LINE
  5
140
330
1F
100
AcDbEntity
  8
0
  6
Continuous
 62
     7
370
    15
100
AcDbLine
 10
794.7450411171
 20
137.6145987493
 30
0.0
 11
788.0205494017
 21
137.6145987493
 31
0.0
  0
SPLINE
  5
141
330
1F
100
AcDbEntity
  8
0
  6
Continuous
 62
     7
370
    15
100
AcDbSpline
210
0.0
220
0.0
230
1.0
 70
     8
 71
     3
 72
    10
 73
     6
 74
     0
 42
0.00000001
 43
0.00000001
 12
1.0
 22
0.0
 32
0.0
 13
1.0
 23
0.0
 33
0.0
 40
0.0
 40
0.0
 40
0.0
 40
0.0
 40
0.2543807528916987
 40
0.581363711502433
 40
1.0
 40
1.0
 40
1.0
 40
1.0
 10
794.8100399822235
 20
137.6272051316897
 30
0.0
 10
794.8057157435022
 20
137.6248845160993
 30
0.0
 10
794.79583309537
 20
137.6195809635414
 30
0.0
 10
794.7726201055808
 20
137.615304850276
 30
0.0
 10
794.7549578106625
 20
137.6148526450278
 30
0.0
 10
794.745041117096
 20
137.6145987493197
 30
0.0
  0
LINE
  5
142
330
1F
100
AcDbEntity
  8
0
  6
Continuous
 62
     7
370
    15
100
AcDbLine
 10
798.0205547661
 20
136.6146116239
 30
0.0
 11
798.0205547661
 21
117.6146029216
 31
0.0
  0
ARC
  5
143
330
1F
100
AcDbEntity
  8
0
  6
Continuous
 62
     7
370
    15
100
AcDbCircle
 10
797.0205529942
 20
117.6146048583
 30
0.0
 40
1.000000000000114
100
AcDbArc
 50
270.0
 51
0.0
  0
SPLINE
  5
144
330
1F
100
AcDbEntity
  8
0
  6
Continuous
 62
     7
370
    15
100
AcDbSpline
210
0.0
220
0.0
230
1.0
 70
    24
 71
     3
 72
    12
 73
     8
 74
     0
 42
0.00000001
 43
0.00000001
 12
1.0
 22
0.0
 32
0.0
 13
1.0
 23
0.0
 33
0.0
 40
0.0
 40
0.0
 40
0.0
 40
0.0
 40
0.4090165511837209
 40
0.6622099330104629
 40
0.8095569548565313
 40
0.9044120804010238
 40
1.0
 40
1.0
 40
1.0
 40
1.0
 10
797.0205527395249
 20
116.6146157962481
 30
0.0
 10
797.0047444408627
 20
116.6146157962481
 30
0.0
 10
796.9791503362534
 20
116.6146157962481
 30
0.0
 10
796.7422283918876
 20
116.6146157962482
 30
0.0
 10
796.4882985891279
 20
116.6146157962481
 30
0.0
 10
796.2543207633435
 20
116.6146157962481
 30
0.0
 10
796.0986736980087
 20
116.6146157962481
 30
0.0
 10
796.020550712967
 20
116.6146157962481
 30
0.0
  0
SPLINE
  5
145
330
1F
100
AcDbEntity
  8
0
  6
Continuous
 62
     7
370
    15
100
AcDbSpline
210
0.0
220
0.0
230
1.0
 70
    24
 71
     3
 72
    13
 73
     9
 74
     0
 42
0.00000001
 43
0.00000001
 12
1.0
 22
0.0
 32
0.0
 13
1.0
 23
0.0
 33
0.0
 40
0.0
 40
0.0
 40
0.0
 40
0.0
 40
0.0830629468491742
 40
0.174673115100133
 40
0.3146455845857457
 40
0.4537355757915228
 40
0.8351883335300113
 40
1.0
 40
1.0
 40
1.0
 40
1.0
 10
796.020550712967
 20
137.6145987493197
 30
0.0
 10
796.0884167272342
 20
137.6145987493198
 30
0.0
 10
796.2311322047266
 20
137.6145987493198
 30
0.0
 10
796.455896952494
 20
137.6145987493198
 30
0.0
 10
796.6569494018572
 20
137.6145987493197
 30
0.0
 10
796.9015014051834
 20
137.6145987493198
 30
0.0
 10
797.0074981284699
 20
137.6145987493197
 30
0.0
 10
797.0175269702278
 20
137.6145987493197
 30
0.0
 10
797.0205527395249
 20
137.6145987493197
 30
0.0
  0
ARC
  5
146
330
1F
100
AcDbEntity
  8
0
  6
Continuous
 62
     7
370
    15
100
AcDbCircle
 10
797.0205529942
 20
136.6146048583
 30
0.0
 40
1.000000000000114
100
AcDbArc
 50
0.0
 51
90.0
  0
SPLINE
  5
147
330
1F
100
AcDbEntity
  8
0
  6
Continuous
 62
     7
370
    15
100
AcDbSpline
210
0.0
220
0.0
230
1.0
 70
     8
 71
     3
 72
    10
 73
     6
 74
     0
 42
0.00000001
 43
0.00000001
 12
1.0
 22
0.0
 32
0.0
 13
1.0
 23
0.0
 33
0.0
 40
0.0
 40
0.0
 40
0.0
 40
0.0
 40
0.5447736801150812
 40
0.9680162754311115
 40
0.9999999999999999
 40
0.9999999999999999
 40
0.9999999999999999
 40
0.9999999999999999
 10
794.8100399822235
 20
137.6272051316897
 30
0.0
 10
794.8889078230046
 20
137.6694572844178
 30
0.0
 10
795.029049236349
 20
137.7445357491192
 30
0.0
 10
795.1536409882167
 20
137.7274397529579
 30
0.0
 10
795.2030998545899
 20
137.705836465242
 30
0.0
 10
795.206574782753
 20
137.7043186408679
 30
0.0
  0
SPLINE
  5
148
330
1F
100
AcDbEntity
  8
0
  6
Continuous
 62
     7
370
    15
100
AcDbSpline
210
0.0
220
0.0
230
1.0
 70
     8
 71
     3
 72
    10
 73
     6
 74
     0
 42
0.00000001
 43
0.00000001
 12
1.0
 22
0.0
 32
0.0
 13
1.0
 23
0.0
 33
0.0
 40
0.0
 40
0.0
 40
0.0
 40
0.0
 40
0.5377345227852285
 40
0.7874260053299897
 40
1.0
 40
1.0
 40
1.0
 40
1.0
 10
795.206574782753
 20
137.7043186408679
 30
0.0
 10
795.263873433787
 20
137.68110809447
 30
0.0
 10
795.3477781227788
 20
137.6471199701127
 30
0.0
 10
795.5030382153832
 20
137.618601114226
 30
0.0
 10
795.5835399217739
 20
137.6158594916618
 30
0.0
 10
795.6205588430405
 20
137.6145987493197
 30
0.0
  0
SPLINE
  5
149
330
1F
100
AcDbEntity
  8
0
  6
Continuous
 62
     7
370
    15
100
AcDbSpline
210
0.0
220
0.0
230
1.0
 70
     8
 71
     3
 72
    11
 73
     7
 74
     0
 42
0.00000001
 43
0.00000001
 12
1.0
 22
0.0
 32
0.0
 13
1.0
 23
0.0
 33
0.0
 40
0.0
 40
0.0
 40
0.0
 40
0.0
 40
0.229896258682727
 40
0.4617202949814128
 40
0.8918674752436341
 40
1.0
 40
1.0
 40
1.0
 40
1.0
 10
795.6205588430405
 20
116.6146157962481
 30
0.0
 10
795.5804107393478
 20
116.6131410491145
 30
0.0
 10
795.499777873088
 20
116.6101791884674
 30
0.0
 10
795.3634009570426
 20
116.5843616123913
 30
0.0
 10
795.2705820841326
 20
116.5531710777988
 30
0.0
 10
795.2172819921501
 20
116.5296133972256
 30
0.0
 10
795.206574782753
 20
116.5248810035388
 30
0.0
  0
SPLINE
  5
14A
330
1F
100
AcDbEntity
  8
0
  6
Continuous
 62
     7
370
    15
100
AcDbSpline
210
0.0
220
0.0
230
1.0
 70
     8
 71
     3
 72
    10
 73
     6
 74
     0
 42
0.00000001
 43
0.00000001
 12
1.0
 22
0.0
 32
0.0
 13
1.0
 23
0.0
 33
0.0
 40
0.0
 40
0.0
 40
0.0
 40
0.0
 40
0.4959518445300491
 40
0.9680273148663346
 40
1.0
 40
1.0
 40
1.0
 40
1.0
 10
794.8100399822235
 20
116.6020094138781
 30
0.0
 10
794.8817637133553
 20
116.5627134633941
 30
0.0
 10
795.0217582140825
 20
116.486013368714
 30
0.0
 10
795.1483201819893
 20
116.4995159805781
 30
0.0
 10
795.2030999999336
 20
116.523368025253
 30
0.0
 10
795.206574782753
 20
116.5248810035388
 30
0.0
  0
LINE
  5
14B
330
1F
100
AcDbEntity
  8
0
  6
Continuous
 62
     7
370
    15
100
AcDbLine
 10
796.020550713
 20
116.6146157962
 30
0.0
 11
795.620558843
 21
116.6146157962
 31
0.0
  0
LINE
  5
14C
330
1F
100
AcDbEntity
  8
0
  6
Continuous
 62
     7
370
    15
100
AcDbLine
 10
795.620558843
 20
137.6145987493
 30
0.0
 11
796.020550713
 21
137.6145987493
 31
0.0
  0
SPLINE
  5
14D
330
1F
100
AcDbEntity
  8
0
  6
Continuous
 62
     7
370
    15
100
AcDbSpline
210
0.0
220
0.0
230
1.0
 70
     8
 71
     3
 72
    10
 73
     6
 74
     0
 42
0.00000001
 43
0.00000001
 12
1.0
 22
0.0
 32
0.0
 13
1.0
 23
0.0
 33
0.0
 40
0.0
 40
0.0
 40
0.0
 40
0.0
 40
0.1693500699567145
 40
0.3942922467575128
 40
1.0
 40
1.0
 40
1.0
 40
1.0
 10
795.206574782753
 20
116.5248810035388
 30
0.0
 10
795.1245440793333
 20
116.4775734856822
 30
0.0
 10
794.9335546669126
 20
116.3674289341687
 30
0.0
 10
794.6843463847507
 20
116.0545371334179
 30
0.0
 10
794.6474566872638
 20
115.8001195233716
 30
0.0
 10
794.6205568164826
 20
115.614598868529
 30
0.0
  0
SPLINE
  5
14E
330
1F
100
AcDbEntity
  8
0
  6
Continuous
 62
     7
370
    15
100
AcDbSpline
210
0.0
220
0.0
230
1.0
 70
     8
 71
     3
 72
    11
 73
     7
 74
     0
 42
0.00000001
 43
0.00000001
 12
1.0
 22
0.0
 32
0.0
 13
1.0
 23
0.0
 33
0.0
 40
0.0
 40
0.0
 40
0.0
 40
0.0
 40
0.3572477801563003
 40
0.7425232585504533
 40
0.9554223317316752
 40
1.0
 40
1.0
 40
1.0
 40
1.0
 10
794.6205568164826
 20
138.6146007758776
 30
0.0
 10
794.6303856294685
 20
138.5057336449875
 30
0.0
 10
794.6508143701114
 20
138.2794582661953
 30
0.0
 10
794.8204953062467
 20
137.9810027824647
 30
0.0
 10
795.0425205404664
 20
137.7845289657563
 30
0.0
 10
795.1823633977992
 20
137.7161562076755
 30
0.0
 10
795.206574782753
 20
137.7043186408679
 30
0.0
  0
LINE
  5
14F
330
1F
100
AcDbEntity
  8
0
  6
Continuous
 62
     7
370
    15
100
AcDbLine
 10
788.0205494017
 20
102.1145938617
 30
0.0
 11
788.0205494017
 21
116.6146157962
 31
0.0
  0
LINE
  5
150
330
1F
100
AcDbEntity
  8
0
  6
Continuous
 62
     7
370
    15
100
AcDbLine
 10
788.0205494017
 20
137.6145987493
 30
0.0
 11
788.0205494017
 21
152.1146057827
 31
0.0
  0
LINE
  5
151
330
1F
100
AcDbEntity
  8
0
  6
Continuous
 62
     7
370
    15
100
AcDbLine
 10
794.6205568165
 20
115.6145988685
 30
0.0
 11
794.6205568165
 21
103.1146107895
 31
0.0
  0
LINE
  5
152
330
1F
100
AcDbEntity
  8
0
  6
Continuous
 62
     7
370
    15
100
AcDbLine
 10
794.6205568165
 20
151.1146037561
 30
0.0
 11
794.6205568165
 21
138.6146007759
 31
0.0
  0
LINE
  5
153
330
1F
100
AcDbEntity
  8
0
  6
Continuous
 62
     7
370
    15
100
AcDbLine
 10
809.6205574125
 20
147.6146041137
 30
0.0
 11
809.6205574125
 21
106.6145955307
 31
0.0
  0
LINE
  5
154
330
1F
100
AcDbEntity
  8
0
  6
Continuous
 62
     7
370
    15
100
AcDbLine
 10
752.729548201
 20
252.9144569022
 30
0.0
 11
741.4431702942
 21
252.9144569022
 31
0.0
  0
LINE
  5
155
330
1F
100
AcDbEntity
  8
0
  6
Continuous
 62
     7
370
    15
100
AcDbLine
 10
401.3500344604
 20
252.9144569022
 30
0.0
 11
398.4997850508
 21
252.9144569022
 31
0.0
  0
LINE
  5
156
330
1F
100
AcDbEntity
  8
0
  6
Continuous
 62
     7
370
    15
100
AcDbLine
 10
808.3158266396
 20
246.9144521934
 30
0.0
 11
390.3252762407
 21
246.9144521934
 31
0.0
  0
LINE
  5
157
330
1F
100
AcDbEntity
  8
0
  6
Continuous
 62
     7
370
    15
100
AcDbLine
 10
744.9608725161
 20
260.9144582135
 30
0.0
 11
747.114224419
 21
260.9144582135
 31
0.0
  0
SPLINE
  5
158
330
1F
100
AcDbEntity
  8
0
  6
Continuous
 62
     7
370
    15
100
AcDbSpline
210
0.0
220
0.0
230
1.0
 70
    11
 71
     3
 72
    28
 73
    24
 74
     0
 42
0.00000001
 43
0.00000001
 12
1.0
 22
0.0
 32
0.0
 13
1.0
 23
0.0
 33
0.0
 40
0.0
 40
0.0
 40
0.0
 40
0.0
 40
0.0509026320768992
 40
0.1382721972354619
 40
0.2827115678749729
 40
0.3380865681532716
 40
0.3937802192162388
 40
0.4164008645058629
 40
0.4392041955021602
 40
0.4556584920109526
 40
0.4721286451473099
 40
0.4931964972978958
 40
0.5263102575410904
 40
0.5888207789883108
 40
0.7097078115709622
 40
0.8396585609427047
 40
0.9012002111940056
 40
0.9219511565258542
 40
0.9428665606661676
 40
0.9589444244881178
 40
0.9750123504726722
 40
0.9972823366942062
 40
1.0
 40
1.0
 40
1.0
 40
1.0
 10
404.4519048780442
 20
202.3752986175219
 30
0.0
 10
404.3401060489962
 20
202.554273063748
 30
0.0
 10
404.0364150784099
 20
203.0404402601963
 30
0.0
 10
403.3347981265744
 20
204.2908973025575
 30
0.0
 10
402.6457296189861
 20
205.5763761333565
 30
0.0
 10
402.0918690352839
 20
206.6704149205642
 30
0.0
 10
401.8339643210957
 20
207.2082261333246
 30
0.0
 10
401.6945030777638
 20
207.5348136814915
 30
0.0
 10
401.6460921382262
 20
207.6774027410372
 30
0.0
 10
401.6532901039764
 20
207.7186120975127
 30
0.0
 10
401.7065413195717
 20
207.6724485539521
 30
0.0
 10
401.8270010221009
 20
207.5092560847099
 30
0.0
 10
402.082547324774
 20
207.1097553222094
 30
0.0
 10
402.608213471701
 20
206.2163286282694
 30
0.0
 10
403.3750162186678
 20
204.8227346139215
 30
0.0
 10
404.0938464519351
 20
203.4329843365671
 30
0.0
 10
404.4977795270244
 20
202.5766768048202
 30
0.0
 10
404.6246839921339
 20
202.26289939087
 30
0.0
 10
404.6588485620923
 20
202.1464936243319
 30
0.0
 10
404.6418447299997
 20
202.1251990826731
 30
0.0
 10
404.5802980514824
 20
202.1881798269982
 30
0.0
 10
404.5067836596887
 20
202.2922988459914
 30
0.0
 10
404.4572880351317
 20
202.3671570226287
 30
0.0
 10
404.4519048780442
 20
202.3752986175219
 30
0.0
  0
SPLINE
  5
159
330
1F
100
AcDbEntity
  8
0
  6
Continuous
 62
     7
370
    15
100
AcDbSpline
210
0.0
220
0.0
230
1.0
 70
    11
 71
     3
 72
    28
 73
    24
 74
     0
 42
0.00000001
 43
0.00000001
 12
1.0
 22
0.0
 32
0.0
 13
1.0
 23
0.0
 33
0.0
 40
0.0
 40
0.0
 40
0.0
 40
0.0
 40
0.0509026361586124
 40
0.1382722083230508
 40
0.2827120560265678
 40
0.3380866369223238
 40
0.3937802924511801
 40
0.4164009395546788
 40
0.4392042723794995
 40
0.4556585702077074
 40
0.4721287246647516
 40
0.4931962564542236
 40
0.5263104371120672
 40
0.5888209635717989
 40
0.7097080058479805
 40
0.8396587656400428
 40
0.9012004208261645
 40
0.9219513678219625
 40
0.9428666698466899
 40
0.958944471208471
 40
0.975012398481459
 40
0.9972827255415303
 40
1.0
 40
1.0
 40
1.0
 40
1.0
 10
794.1891980022431
 20
202.3752986175219
 30
0.0
 10
794.3009969860408
 20
202.5542729885708
 30
0.0
 10
794.60468837699
 20
203.0404399808074
 30
0.0
 10
795.3063003394482
 20
204.2909020670635
 30
0.0
 10
795.9954004120435
 20
205.5763658061931
 30
0.0
 10
796.5492303717991
 20
206.6704186143423
 30
0.0
 10
796.8071389132162
 20
207.2082259516206
 30
0.0
 10
796.9465998322746
 20
207.5348136928573
 30
0.0
 10
796.995010406733
 20
207.677402810034
 30
0.0
 10
796.987813680603
 20
207.7186119032467
 30
0.0
 10
796.9345580485406
 20
207.6724496550017
 30
0.0
 10
796.8141259256984
 20
207.5092519576583
 30
0.0
 10
796.5585422451863
 20
207.1097606810779
 30
0.0
 10
796.0328989958541
 20
206.2163261469269
 30
0.0
 10
795.2660846753552
 20
204.8227355201021
 30
0.0
 10
794.5472517594384
 20
203.4329842863623
 30
0.0
 10
794.143329512395
 20
202.5766767297096
 30
0.0
 10
794.016411961602
 20
202.2628997983742
 30
0.0
 10
793.9822793037346
 20
202.146493803427
 30
0.0
 10
793.9992552613047
 20
202.125198318035
 30
0.0
 10
794.0607937052831
 20
202.1881838510889
 30
0.0
 10
794.1343660138936
 20
202.2922875819455
 30
0.0
 10
794.183820119968
 20
202.3671569544107
 30
0.0
 10
794.1891980022431
 20
202.3752986175219
 30
0.0
  0
SPLINE
  5
15A
330
1F
100
AcDbEntity
  8
0
  6
Continuous
 62
     7
370
    15
100
AcDbSpline
210
0.0
220
0.0
230
1.0
 70
    11
 71
     3
 72
    27
 73
    23
 74
     0
 42
0.00000001
 43
0.00000001
 12
1.0
 22
0.0
 32
0.0
 13
1.0
 23
0.0
 33
0.0
 40
0.0
 40
0.0
 40
0.0
 40
0.0
 40
0.0241688790045368
 40
0.0610036672095501
 40
0.1324739251632744
 40
0.2655405549605279
 40
0.3628343079184471
 40
0.4025983531971197
 40
0.442675935045245
 40
0.4619319962908998
 40
0.481354349719074
 40
0.4983898938686703
 40
0.5192671344057984
 40
0.5519107644065727
 40
0.6133121403538505
 40
0.7325134556606765
 40
0.8610714455262475
 40
0.9238772512291289
 40
0.9453480838548807
 40
0.9669845113074356
 40
0.9831865622158529
 40
1.0
 40
1.0
 40
1.0
 40
1.0
 10
413.2114928812027
 20
202.1815686208407
 30
0.0
 10
413.2181451695547
 20
202.2336479417451
 30
0.0
 10
413.2349359352633
 20
202.3650992002152
 30
0.0
 10
413.1076531544575
 20
202.8565137208187
 30
0.0
 10
412.7228001526323
 20
203.8654102110597
 30
0.0
 10
412.0599635297097
 20
205.2214542398158
 30
0.0
 10
411.3730113633653
 20
206.4097122822892
 30
0.0
 10
410.8911120234858
 20
207.1235630205151
 30
0.0
 10
410.6125587215608
 20
207.4773774059906
 30
0.0
 10
410.4106141958467
 20
207.6664169468014
 30
0.0
 10
410.295480433274
 20
207.7215887419195
 30
0.0
 10
410.2294530981018
 20
207.6762191684442
 30
0.0
 10
410.2162442586888
 20
207.5156214925518
 30
0.0
 10
410.299850788688
 20
207.1248114307235
 30
0.0
 10
410.619608541274
 20
206.2475479597346
 30
0.0
 10
411.2667341452001
 20
204.873437270525
 30
0.0
 10
412.0380729768519
 20
203.4911386602945
 30
0.0
 10
412.6264133362276
 20
202.6248068440648
 30
0.0
 10
412.9138279934161
 20
202.2891852610285
 30
0.0
 10
413.0617265127204
 20
202.1590719594317
 30
0.0
 10
413.1678776787767
 20
202.1197319583122
 30
0.0
 10
413.1967760983161
 20
202.160703493861
 30
0.0
 10
413.2114928812027
 20
202.1815686208407
 30
0.0
  0
SPLINE
  5
15B
330
1F
100
AcDbEntity
  8
0
  6
Continuous
 62
     7
370
    15
100
AcDbSpline
210
0.0
220
0.0
230
1.0
 70
    11
 71
     3
 72
    28
 73
    24
 74
     0
 42
0.00000001
 43
0.00000001
 12
1.0
 22
0.0
 32
0.0
 13
1.0
 23
0.0
 33
0.0
 40
0.0
 40
0.0
 40
0.0
 40
0.0
 40
0.019663187604209
 40
0.0467242135527589
 40
0.0948609579907694
 40
0.191106081393275
 40
0.3359714847962364
 40
0.4051960390410084
 40
0.436343734394125
 40
0.467822955209216
 40
0.4848988330729215
 40
0.5020445211478428
 40
0.5181939404957259
 40
0.5442918395523112
 40
0.5897977974187485
 40
0.6799799110152174
 40
0.8248184455394786
 40
0.8752829910580977
 40
0.9385141034840111
 40
0.9591656042911225
 40
0.979986126497527
 40
0.9960338578123856
 40
1.0
 40
1.0
 40
1.0
 40
1.0
 10
441.0305303186417
 20
202.1470277291934
 30
0.0
 10
441.0745352384043
 20
202.17413719045
 30
0.0
 10
441.1791009532694
 20
202.2385554466633
 30
0.0
 10
441.2568956624914
 20
202.5384770857615
 30
0.0
 10
441.2214128980988
 20
203.2030591171002
 30
0.0
 10
440.8607293487615
 20
204.4703709376297
 30
0.0
 10
440.2145336179055
 20
205.8644997143527
 30
0.0
 10
439.5238059576808
 20
206.9031795053398
 30
0.0
 10
439.093659897921
 20
207.3896209051593
 30
0.0
 10
438.8064701785967
 20
207.6248366494759
 30
0.0
 10
438.5790410718726
 20
207.7143407195837
 30
0.0
 10
438.4328175216338
 20
207.7015055604663
 30
0.0
 10
438.3134929683717
 20
207.599600626424
 30
0.0
 10
438.2282681939929
 20
207.3409062642621
 30
0.0
 10
438.2532967953148
 20
206.7185163254541
 30
0.0
 10
438.5817771368268
 20
205.503108359265
 30
0.0
 10
439.1634023469858
 20
204.2121984995744
 30
0.0
 10
439.8454827259312
 20
203.1112597379683
 30
0.0
 10
440.2680768106682
 20
202.5672315392804
 30
0.0
 10
440.6347768342083
 20
202.2533494185269
 30
0.0
 10
440.8395855578083
 20
202.1425807017678
 30
0.0
 10
440.9683514628995
 20
202.1294728659928
 30
0.0
 10
441.0202463310862
 20
202.1441242663918
 30
0.0
 10
441.0305303186417
 20
202.1470277291934
 30
0.0
  0
SPLINE
  5
15C
330
1F
100
AcDbEntity
  8
0
  6
Continuous
 62
     7
370
    15
100
AcDbSpline
210
0.0
220
0.0
230
1.0
 70
    11
 71
     3
 72
    28
 73
    24
 74
     0
 42
0.00000001
 43
0.00000001
 12
1.0
 22
0.0
 32
0.0
 13
1.0
 23
0.0
 33
0.0
 40
0.0
 40
0.0
 40
0.0
 40
0.0
 40
0.0160307560490759
 40
0.0320319040887259
 40
0.0557201216315545
 40
0.0957398490685777
 40
0.1747203744774228
 40
0.3145942066159956
 40
0.3908932089438422
 40
0.4415977856346358
 40
0.4692197424306573
 40
0.4904316928822799
 40
0.5071569888192595
 40
0.5239190717709005
 40
0.5441234366805229
 40
0.5750483671831604
 40
0.6323705668537305
 40
0.7449659967500155
 40
0.8678311817503866
 40
0.9118329491486115
 40
0.9560677064744358
 40
0.9793013880412166
 40
1.0
 40
1.0
 40
1.0
 40
1.0
 10
484.1477331370354
 20
202.1470277291934
 30
0.0
 10
484.2153335944363
 20
202.1403868043468
 30
0.0
 10
484.3504096545542
 20
202.1271172201116
 30
0.0
 10
484.5437453852236
 20
202.2099063266624
 30
0.0
 10
484.7379269132399
 20
202.4255111722973
 30
0.0
 10
484.9028510520668
 20
202.95626774067
 30
0.0
 10
484.8720090668555
 20
204.0626161408819
 30
0.0
 10
484.4883146380348
 20
205.391659127787
 30
0.0
 10
483.8847800890581
 20
206.5500181525308
 30
0.0
 10
483.4106798682571
 20
207.172708359859
 30
0.0
 10
483.0353451697407
 20
207.5071375304484
 30
0.0
 10
482.7561334473014
 20
207.6646163832644
 30
0.0
 10
482.517813504889
 20
207.7186011560443
 30
0.0
 10
482.3080958336326
 20
207.6845755411209
 30
0.0
 10
482.1076246248714
 20
207.538937535683
 30
0.0
 10
481.9197578253624
 20
207.1801349475055
 30
0.0
 10
481.8319038546381
 20
206.3640710941055
 30
0.0
 10
482.0652857016404
 20
205.0680105730002
 30
0.0
 10
482.5726749985128
 20
203.818333256311
 30
0.0
 10
483.141072111313
 20
202.9346001550411
 30
0.0
 10
483.5135747034477
 20
202.5103032610711
 30
0.0
 10
483.8672971406873
 20
202.2375169192662
 30
0.0
 10
484.0579210599156
 20
202.1760076826343
 30
0.0
 10
484.1477331370354
 20
202.1470277291934
 30
0.0
  0
SPLINE
  5
15D
330
1F
100
AcDbEntity
  8
0
  6
Continuous
 62
     7
370
    15
100
AcDbSpline
210
0.0
220
0.0
230
1.0
 70
    11
 71
     3
 72
    27
 73
    23
 74
     0
 42
0.00000001
 43
0.00000001
 12
1.0
 22
0.0
 32
0.0
 13
1.0
 23
0.0
 33
0.0
 40
0.0
 40
0.0
 40
0.0
 40
0.0
 40
0.0184111577151328
 40
0.0368583783907502
 40
0.0584115591494805
 40
0.0931505891995987
 40
0.1600190149132742
 40
0.2875863247654603
 40
0.3979416584514522
 40
0.4530274025381042
 40
0.4784091355609117
 40
0.5040662124215587
 40
0.5204309149696448
 40
0.5368008962964256
 40
0.5584014052255732
 40
0.5928584783481881
 40
0.6585196529062702
 40
0.7839108436711761
 40
0.9174405794585399
 40
0.9544434737964967
 40
0.9847613306489519
 40
1.0
 40
1.0
 40
1.0
 40
1.0
 10
538.5652352720738
 20
202.1815686208407
 30
0.0
 10
538.6546782150073
 20
202.1594292989609
 30
0.0
 10
538.8337392977504
 20
202.115107289678
 30
0.0
 10
539.1060562878056
 20
202.1737003000641
 30
0.0
 10
539.3807411053497
 20
202.3543317436547
 30
0.0
 10
539.6814912949883
 20
202.7880189972438
 30
0.0
 10
539.9249273277882
 20
203.7449157149458
 30
0.0
 10
539.8333093564515
 20
205.1065662079345
 30
0.0
 10
539.3949525183278
 20
206.4008603298565
 30
0.0
 10
538.868433697531
 20
207.1730131170914
 30
0.0
 10
538.4701120369924
 20
207.5252223491076
 30
0.0
 10
538.1595737933595
 20
207.6827027236927
 30
0.0
 10
537.8718500901368
 20
207.7178821876534
 30
0.0
 10
537.622774991469
 20
207.6648621344501
 30
0.0
 10
537.3543981491767
 20
207.4909464006097
 30
0.0
 10
537.0550166058013
 20
207.0665993667551
 30
0.0
 10
536.8107567450969
 20
206.1275601328228
 30
0.0
 10
536.9051205202124
 20
204.6865222444975
 30
0.0
 10
537.3665562409049
 20
203.3549702627022
 30
0.0
 10
537.9655021922006
 20
202.5780279746399
 30
0.0
 10
538.2838194495424
 20
202.3006122399861
 30
0.0
 10
538.4946967594399
 20
202.211407596338
 30
0.0
 10
538.5652352720738
 20
202.1815686208407
 30
0.0
  0
SPLINE
  5
15E
330
1F
100
AcDbEntity
  8
0
  6
Continuous
 62
     7
370
    15
100
AcDbSpline
210
0.0
220
0.0
230
1.0
 70
    11
 71
     3
 72
    28
 73
    24
 74
     0
 42
0.00000001
 43
0.00000001
 12
1.0
 22
0.0
 32
0.0
 13
1.0
 23
0.0
 33
0.0
 40
0.0
 40
0.0
 40
0.0
 40
0.0
 40
0.0510646931402329
 40
0.1345298240307655
 40
0.27756598923843
 40
0.341017284908394
 40
0.4050307931150354
 40
0.4260046041541503
 40
0.447149735529987
 40
0.4633886266280446
 40
0.4796126978441516
 40
0.5024009540135842
 40
0.5398204191043935
 40
0.6123198952161955
 40
0.7460074836418698
 40
0.8411597304316726
 40
0.881272404692191
 40
0.9217301632481868
 40
0.9404622309291066
 40
0.9593506648313496
 40
0.9760016085221753
 40
0.9970363520081637
 40
1.0
 40
1.0
 40
1.0
 40
1.0
 10
599.8850977644563
 20
202.341711400191
 30
0.0
 10
600.0503865594918
 20
202.5170840838828
 30
0.0
 10
600.4858395338064
 20
202.9791030411312
 30
0.0
 10
600.8333933420726
 20
204.2031003777109
 30
0.0
 10
600.8600714239271
 20
205.500313783046
 30
0.0
 10
600.5328753503339
 20
206.6625992652106
 30
0.0
 10
600.1863630392963
 20
207.2636602890342
 30
0.0
 10
599.7906834246883
 20
207.5830096539426
 30
0.0
 10
599.5204988507179
 20
207.6973283698529
 30
0.0
 10
599.2466068968813
 20
207.7148234339907
 30
0.0
 10
598.9749471604127
 20
207.6477414439184
 30
0.0
 10
598.655198313677
 20
207.4505415559868
 30
0.0
 10
598.2543766712105
 20
206.9717036291239
 30
0.0
 10
597.846866690684
 20
205.9425585074857
 30
0.0
 10
597.7587797609186
 20
204.5932142985067
 30
0.0
 10
598.0169597295759
 20
203.409887092077
 30
0.0
 10
598.3881365828183
 20
202.7020434735872
 30
0.0
 10
598.7046893398415
 20
202.3485842723503
 30
0.0
 10
599.044650453577
 20
202.1674516368088
 30
0.0
 10
599.3193507921338
 20
202.1197587694831
 30
0.0
 10
599.6032540364905
 20
202.1698012065274
 30
0.0
 10
599.7816200355352
 20
202.264866054826
 30
0.0
 10
599.8737235668975
 20
202.333264615083
 30
0.0
 10
599.8850977644563
 20
202.341711400191
 30
0.0
  0
SPLINE
  5
15F
330
1F
100
AcDbEntity
  8
0
  6
Continuous
 62
     7
370
    15
100
AcDbSpline
210
0.0
220
0.0
230
1.0
 70
    11
 71
     3
 72
    28
 73
    24
 74
     0
 42
0.00000001
 43
0.00000001
 12
1.0
 22
0.0
 32
0.0
 13
1.0
 23
0.0
 33
0.0
 40
0.0
 40
0.0
 40
0.0
 40
0.0
 40
0.0505766816372535
 40
0.1479412162533965
 40
0.2925291329090018
 40
0.3615213391139668
 40
0.3915852423327459
 40
0.4219499648408123
 40
0.4390497963453717
 40
0.4562206193371948
 40
0.4723669802467286
 40
0.4984224684808495
 40
0.5438259607710368
 40
0.633793928449991
 40
0.7785886864088329
 40
0.8294374732991777
 40
0.8925317711606945
 40
0.9132211008104815
 40
0.9340810847907738
 40
0.9501277604253737
 40
0.9661578552423263
 40
0.988861863017233
 40
1.0
 40
1.0
 40
1.0
 40
1.0
 10
660.540191516304
 20
202.4687587005297
 30
0.0
 10
660.7066708094416
 20
202.6556122171714
 30
0.0
 10
661.193637298948
 20
203.2021750919652
 30
0.0
 10
661.6787449607233
 20
204.5058765842574
 30
0.0
 10
661.8540292272602
 20
205.894364059593
 30
0.0
 10
661.6367088754985
 20
206.9252441699708
 30
0.0
 10
661.365940664368
 20
207.3991055350344
 30
0.0
 10
661.113075054113
 20
207.6255754116285
 30
0.0
 10
660.8286757752562
 20
207.7142048931959
 30
0.0
 10
660.5806152085771
 20
207.7017668590524
 30
0.0
 10
660.2980365211552
 20
207.6002137102246
 30
0.0
 10
659.9334486076772
 20
207.3422737673453
 30
0.0
 10
659.4286617885391
 20
206.7216295180864
 30
0.0
 10
658.8962397698044
 20
205.5080273545483
 30
0.0
 10
658.7116311984286
 20
204.2165438230391
 30
0.0
 10
658.8585068065712
 20
203.1143762270247
 30
0.0
 10
659.0711217098284
 20
202.5690492529602
 30
0.0
 10
659.3917223027246
 20
202.2548130500616
 30
0.0
 10
659.6273338279375
 20
202.1426929466591
 30
0.0
 10
659.882085362949
 20
202.1265318432039
 30
0.0
 10
660.1487008079821
 20
202.1945945785757
 30
0.0
 10
660.3696162246171
 20
202.3232463130396
 30
0.0
 10
660.4979532089576
 20
202.4327265361714
 30
0.0
 10
660.540191516304
 20
202.4687587005297
 30
0.0
  0
SPLINE
  5
160
330
1F
100
AcDbEntity
  8
0
  6
Continuous
 62
     7
370
    15
100
AcDbSpline
210
0.0
220
0.0
230
1.0
 70
    11
 71
     3
 72
    28
 73
    24
 74
     0
 42
0.00000001
 43
0.00000001
 12
1.0
 22
0.0
 32
0.0
 13
1.0
 23
0.0
 33
0.0
 40
0.0
 40
0.0
 40
0.0
 40
0.0
 40
0.0196631896571608
 40
0.0467242184310402
 40
0.0948606425236625
 40
0.1911060086599618
 40
0.3359714271877187
 40
0.4051959985250047
 40
0.4363435824210132
 40
0.467823728137246
 40
0.4848996077837731
 40
0.5020443300828854
 40
0.5181937511168623
 40
0.544292050100478
 40
0.5897976795542879
 40
0.6799798025662969
 40
0.8248183522125483
 40
0.8752823782838405
 40
0.9385134973114517
 40
0.9591650002747008
 40
0.979986209607928
 40
0.9960333388134625
 40
1.0
 40
1.0
 40
1.0
 40
1.0
 10
714.4933697432518
 20
202.1470277291934
 30
0.0
 10
714.5785820243617
 20
202.1741372196243
 30
0.0
 10
714.7810658179379
 20
202.2385555451622
 30
0.0
 10
715.1610642945708
 20
202.5384752929563
 30
0.0
 10
715.7174470649504
 20
203.2030649536195
 30
0.0
 10
716.3780700188503
 20
204.4703659253591
 30
0.0
 10
716.7672247484065
 20
205.8645025279105
 30
0.0
 10
716.7727534112096
 20
206.9031761593514
 30
0.0
 10
716.6292645322995
 20
207.3896278296478
 30
0.0
 10
716.451041418227
 20
207.6248332890763
 30
0.0
 10
716.2206583540882
 20
207.7143404174444
 30
0.0
 10
716.007558343478
 20
207.7015042139578
 30
0.0
 10
715.7492306880056
 20
207.5995990355035
 30
0.0
 10
715.3932027553551
 20
207.3409116760947
 30
0.0
 10
714.8538236328445
 20
206.7185106728416
 30
0.0
 10
714.1878754174767
 20
205.5031091642616
 30
0.0
 10
713.806115712116
 20
204.2122081984631
 30
0.0
 10
713.7400401070224
 20
203.1112545717963
 30
0.0
 10
713.8261947825436
 20
202.5672325860539
 30
0.0
 10
714.0453347461329
 20
202.2533464523331
 30
0.0
 10
714.2265198727608
 20
202.1425826092417
 30
0.0
 10
714.3918015134851
 20
202.1294745293744
 30
0.0
 10
714.476569110725
 20
202.1441242143787
 30
0.0
 10
714.4933697432518
 20
202.1470277291934
 30
0.0
  0
SPLINE
  5
161
330
1F
100
AcDbEntity
  8
0
  6
Continuous
 62
     7
370
    15
100
AcDbSpline
210
0.0
220
0.0
230
1.0
 70
    11
 71
     3
 72
    28
 73
    24
 74
     0
 42
0.00000001
 43
0.00000001
 12
1.0
 22
0.0
 32
0.0
 13
1.0
 23
0.0
 33
0.0
 40
0.0
 40
0.0
 40
0.0
 40
0.0
 40
0.0160307554176133
 40
0.0320315625414628
 40
0.0557200236997766
 40
0.0957397495603948
 40
0.174720271858142
 40
0.3145942221634886
 40
0.3908929940395418
 40
0.4415978751271995
 40
0.4692198308351729
 40
0.4904313661786658
 40
0.5071566614568244
 40
0.5239191216485329
 40
0.5441231936917138
 40
0.5750481229761969
 40
0.6323703203888055
 40
0.7449656782149923
 40
0.8678308583756181
 40
0.911832892250557
 40
0.9560673149868447
 40
0.9793013888565492
 40
0.9999999999999999
 40
0.9999999999999999
 40
0.9999999999999999
 40
0.9999999999999999
 10
757.6105725616455
 20
202.1470277291934
 30
0.0
 10
757.6552969848996
 20
202.1403865653246
 30
0.0
 10
757.7446622782539
 20
202.1271166444587
 30
0.0
 10
757.9398344580659
 20
202.2099086333892
 30
0.0
 10
758.2233974079643
 20
202.4255088361041
 30
0.0
 10
758.6942973390038
 20
202.9562686116681
 30
0.0
 10
759.4050882131296
 20
204.0626170220465
 30
0.0
 10
760.0106283185245
 20
205.3916540748027
 30
0.0
 10
760.3459658981646
 20
206.5500228435195
 30
0.0
 10
760.4183935431778
 20
207.1727073100295
 30
0.0
 10
760.3698401327774
 20
207.507134945501
 30
0.0
 10
760.2726176701171
 20
207.6646178865676
 30
0.0
 10
760.1356705785942
 20
207.7186007382911
 30
0.0
 10
759.960472665297
 20
207.6845773107265
 30
0.0
 10
759.717144447585
 20
207.5389356139178
 30
0.0
 10
759.3401339911238
 20
207.1801355336455
 30
0.0
 10
758.7299925208652
 20
206.364070901314
 30
0.0
 10
758.0344383510953
 20
205.0680118749088
 30
0.0
 10
757.5725907228488
 20
203.8183266969141
 30
0.0
 10
757.4000213195991
 20
202.934605795904
 30
0.0
 10
757.3899019940147
 20
202.5102975967637
 30
0.0
 10
757.46660583254
 20
202.2375186938274
 30
0.0
 10
757.5644662397775
 20
202.176008074635
 30
0.0
 10
757.6105725616455
 20
202.1470277291934
 30
0.0
  0
SPLINE
  5
162
330
1F
100
AcDbEntity
  8
0
  6
Continuous
 62
     7
370
    15
100
AcDbSpline
210
0.0
220
0.0
230
1.0
 70
    11
 71
     3
 72
    27
 73
    23
 74
     0
 42
0.00000001
 43
0.00000001
 12
1.0
 22
0.0
 32
0.0
 13
1.0
 23
0.0
 33
0.0
 40
0.0
 40
0.0
 40
0.0
 40
0.0
 40
0.0184111563825968
 40
0.0368583757230682
 40
0.0584115549218538
 40
0.093150582457681
 40
0.1600190033316511
 40
0.2875862932928709
 40
0.397941697476948
 40
0.4530274375766841
 40
0.4784089819097639
 40
0.5040662801937645
 40
0.5204309815574301
 40
0.5368009616994082
 40
0.5584014690651857
 40
0.5928585396939167
 40
0.65851970949967
 40
0.783910891189195
 40
0.917440617312138
 40
0.9544435089719533
 40
0.9847615556930666
 40
1.0
 40
1.0
 40
1.0
 40
1.0
 10
785.4296099990845
 20
202.1815686208407
 30
0.0
 10
785.446230873329
 20
202.1594292989573
 30
0.0
 10
785.4795051780503
 20
202.1151072896673
 30
0.0
 10
785.6009271761615
 20
202.1737003001099
 30
0.0
 10
785.7916864538428
 20
202.3543317433975
 30
0.0
 10
786.1333820473931
 20
202.7880189995276
 30
0.0
 10
786.7515783164822
 20
203.7449156461802
 30
0.0
 10
787.4916393756805
 20
205.1065666303929
 30
0.0
 10
788.0842263871099
 20
206.400861076951
 30
0.0
 10
788.3528892193698
 20
207.173010661403
 30
0.0
 10
788.4242832870483
 20
207.5252246502777
 30
0.0
 10
788.413236752221
 20
207.6827020767824
 30
0.0
 10
788.3398150401182
 20
207.7178822973359
 30
0.0
 10
788.2286413456522
 20
207.6648620948921
 30
0.0
 10
788.0422161853073
 20
207.490946420645
 30
0.0
 10
787.7030268842702
 20
207.0665993486425
 30
0.0
 10
787.0890877443346
 20
206.1275602024923
 30
0.0
 10
786.3022208956162
 20
204.6865217728551
 30
0.0
 10
785.700435632056
 20
203.3549715298002
 30
0.0
 10
785.4576806273839
 20
202.5780261553311
 30
0.0
 10
785.4051021702389
 20
202.3006143700005
 30
0.0
 10
785.4234670336732
 20
202.2114078172895
 30
0.0
 10
785.4296099990845
 20
202.1815686208407
 30
0.0
  0
LINE
  5
163
330
1F
100
AcDbEntity
  8
0
  6
Continuous
 62
     7
370
    15
100
AcDbLine
 10
793.2771426291
 20
199.9144612533
 30
0.0
 11
405.3639751524
 21
199.9144612533
 31
0.0
  0
LINE
  5
164
330
1F
100
AcDbEntity
  8
0
  6
Continuous
 62
     7
370
    15
100
AcDbLine
 10
509.0590324849
 20
21.6146169883
 30
0.0
 11
499.0848582834
 21
21.6146169883
 31
0.0
  0
LINE
  5
165
330
1F
100
AcDbEntity
  8
0
  6
Continuous
 62
     7
370
    15
100
AcDbLine
 10
477.7560067028
 20
37.928467868
 30
0.0
 11
476.9633245319
 21
37.6146196109
 31
0.0
  0
LINE
  5
166
330
1F
100
AcDbEntity
  8
0
  6
Continuous
 62
     7
370
    15
100
AcDbLine
 10
476.9633245319
 20
37.6146196109
 30
0.0
 11
497.7479335517
 21
37.6146196109
 31
0.0
  0
LINE
  5
167
330
1F
100
AcDbEntity
  8
0
  6
Continuous
 62
     7
370
    15
100
AcDbLine
 10
497.7479335517
 20
37.6146196109
 30
0.0
 11
498.5406157226
 21
37.928467868
 31
0.0
  0
LINE
  5
168
330
1F
100
AcDbEntity
  8
0
  6
Continuous
 62
     7
370
    15
100
AcDbLine
 10
499.0848582834
 20
21.6146169883
 30
0.0
 11
472.5718033165
 21
21.6146169883
 31
0.0
  0
LINE
  5
169
330
1F
100
AcDbEntity
  8
0
  6
Continuous
 62
     7
370
    15
100
AcDbLine
 10
527.2412580103
 20
21.6146169883
 30
0.0
 11
509.0590324849
 21
21.6146169883
 31
0.0
  0
LINE
  5
16A
330
1F
100
AcDbEntity
  8
0
  6
Continuous
 62
     7
370
    15
100
AcDbLine
 10
498.5406157226
 20
37.928467868
 30
0.0
 11
505.9628543109
 21
38.4269415123
 31
0.0
  0
SPLINE
  5
16B
330
1F
100
AcDbEntity
  8
0
  6
Continuous
 62
     7
370
    15
100
AcDbSpline
210
0.0
220
0.0
230
1.0
 70
     8
 71
     3
 72
    17
 73
    13
 74
     0
 42
0.00000001
 43
0.00000001
 12
1.0
 22
0.0
 32
0.0
 13
1.0
 23
0.0
 33
0.0
 40
0.0
 40
0.0
 40
0.0
 40
0.0
 40
0.10744457288089
 40
0.2148959759901984
 40
0.3223226811714932
 40
0.429689652565331
 40
0.5369954376715076
 40
0.6442698970866304
 40
0.7515594837634578
 40
0.858902272321498
 40
0.9663091873769392
 40
1.0
 40
1.0
 40
1.0
 40
1.0
 10
505.962854310894
 20
38.42694151226681
 30
0.0
 10
506.522824200477
 20
38.47252428337441
 30
0.0
 10
507.6427995768084
 20
38.56369272327662
 30
0.0
 10
507.6463351565612
 20
38.68818548734962
 30
0.0
 10
506.3713039309953
 20
38.78419163456512
 30
0.0
 10
503.8557835210121
 20
38.83979025143727
 30
0.0
 10
500.4131943146648
 20
38.84743063307719
 30
0.0
 10
496.4254823796696
 20
38.80621393493941
 30
0.0
 10
492.3388530733072
 20
38.7216452024681
 30
0.0
 10
488.6276786544641
 20
38.60481510999639
 30
0.0
 10
486.3326960784066
 20
38.50044049856047
 30
0.0
 10
485.4007678037082
 20
38.44110857705804
 30
0.0
 10
485.1782452911377
 20
38.42694151226681
 30
0.0
  0
LINE
  5
16C
330
1F
100
AcDbEntity
  8
0
  6
Continuous
 62
     7
370
    15
100
AcDbLine
 10
485.1782452911
 20
38.4269415123
 30
0.0
 11
477.7560067028
 21
37.928467868
 31
0.0
  0
LINE
  5
16D
330
1F
100
AcDbEntity
  8
0
  6
Continuous
 62
     7
370
    15
100
AcDbLine
 10
472.5718033165
 20
21.6146169883
 30
0.0
 11
469.028903231
 21
21.6146169883
 31
0.0
  0
LINE
  5
16E
330
1F
100
AcDbEntity
  8
0
  6
Continuous
 62
     7
370
    15
100
AcDbLine
 10
473.8725182265
 20
37.9969238025
 30
0.0
 11
474.1869178266
 21
38.0109308941
 31
0.0
  0
LINE
  5
16F
330
1F
100
AcDbEntity
  8
0
  6
Continuous
 62
     7
370
    15
100
AcDbLine
 10
743.4953135103
 20
21.6146169883
 30
0.0
 11
784.2640113682
 21
21.6146169883
 31
0.0
  0
LINE
  5
170
330
1F
100
AcDbEntity
  8
0
  6
Continuous
 62
     7
370
    15
100
AcDbLine
 10
743.4953135103
 20
31.6146074516
 30
0.0
 11
743.4953135103
 21
21.6146169883
 31
0.0
  0
SPLINE
  5
171
330
1F
100
AcDbEntity
  8
0
  6
Continuous
 62
     7
370
    15
100
AcDbSpline
210
0.0
220
0.0
230
1.0
 70
     8
 71
     3
 72
    17
 73
    13
 74
     0
 42
0.00000001
 43
0.00000001
 12
1.0
 22
0.0
 32
0.0
 13
1.0
 23
0.0
 33
0.0
 40
0.0
 40
0.0
 40
0.0
 40
0.0
 40
0.0983063476703596
 40
0.2096233123684847
 40
0.3209403592072489
 40
0.4340020360772
 40
0.5470404648650409
 40
0.6579566155660115
 40
0.768836623548719
 40
0.8738608460002755
 40
0.9788681911502348
 40
1.0
 40
1.0
 40
1.0
 40
1.0
 10
731.0968619436264
 20
49.11459076229733
 30
0.0
 10
731.7492913601371
 20
49.07506610669424
 30
0.0
 10
733.1404977126933
 20
48.99078579902235
 30
0.0
 10
735.1796737881672
 20
48.27226756531536
 30
0.0
 10
737.1727727536444
 20
47.0684093731574
 30
0.0
 10
738.9749477780197
 20
45.36884431032686
 30
0.0
 10
740.5363302289214
 20
43.24854356956529
 30
0.0
 10
741.7983359134532
 20
40.75909697485644
 30
0.0
 10
742.7273226073835
 20
38.03736444488412
 30
0.0
 10
743.3026790478684
 20
35.15395179896194
 30
0.0
 10
743.4852926091481
 20
32.99381578104502
 30
0.0
 10
743.4938756181269
 20
31.81250910320635
 30
0.0
 10
743.4953135103226
 20
31.61460745159786
 30
0.0
  0
SPLINE
  5
172
330
1F
100
AcDbEntity
  8
0
  6
Continuous
 62
     7
370
    15
100
AcDbSpline
210
0.0
220
0.0
230
1.0
 70
     8
 71
     3
 72
    17
 73
    13
 74
     0
 42
0.00000001
 43
0.00000001
 12
1.0
 22
0.0
 32
0.0
 13
1.0
 23
0.0
 33
0.0
 40
0.0
 40
0.0
 40
0.0
 40
0.0
 40
0.0257619634856831
 40
0.1247710056727405
 40
0.2237936672580201
 40
0.3232341652560249
 40
0.4226985560732537
 40
0.5267388166420163
 40
0.6307990040502858
 40
0.7405189820615097
 40
0.8502433115153114
 40
1.0
 40
1.0
 40
1.0
 40
1.0
 10
630.91200409832
 20
31.61460745159786
 30
0.0
 10
630.9152607345086
 20
31.85587119084301
 30
0.0
 10
630.93103335885
 20
33.02436595230476
 30
0.0
 10
631.2101626368161
 20
35.11344435784034
 30
0.0
 10
632.0096317104967
 20
37.79068459070692
 30
0.0
 10
633.2443520130564
 20
40.29742088488933
 30
0.0
 10
634.874470554961
 20
42.61371289733254
 30
0.0
 10
636.8791129153121
 20
44.66104946627855
 30
0.0
 10
639.2422561893322
 20
46.4240230317797
 30
0.0
 10
641.8935721332699
 20
47.78529943698609
 30
0.0
 10
645.1124811012147
 20
48.8697753813149
 30
0.0
 10
647.4660861635808
 20
49.02500287689329
 30
0.0
 10
648.8244441002846
 20
49.11459076229727
 30
0.0
  0
LINE
  5
173
330
1F
100
AcDbEntity
  8
0
  6
Continuous
 62
     7
370
    15
100
AcDbLine
 10
630.9120040983
 20
21.6146169883
 30
0.0
 11
630.9120040983
 21
31.6146074516
 31
0.0
  0
LINE
  5
174
330
1F
100
AcDbEntity
  8
0
  6
Continuous
 62
     7
370
    15
100
AcDbLine
 10
423.5543441624
 20
31.6146074516
 30
0.0
 11
423.5543441624
 21
21.6146169883
 31
0.0
  0
SPLINE
  5
175
330
1F
100
AcDbEntity
  8
0
  6
Continuous
 62
     7
370
    15
100
AcDbSpline
210
0.0
220
0.0
230
1.0
 70
     8
 71
     3
 72
    16
 73
    12
 74
     0
 42
0.00000001
 43
0.00000001
 12
1.0
 22
0.0
 32
0.0
 13
1.0
 23
0.0
 33
0.0
 40
0.0
 40
0.0
 40
0.0
 40
0.0
 40
0.1127390095029249
 40
0.2254856143820741
 40
0.33822913888499
 40
0.450959967819059
 40
0.5633682250909601
 40
0.6757435989743107
 40
0.7835250976597654
 40
0.8912777924312716
 40
0.9999999999999999
 40
0.9999999999999999
 40
0.9999999999999999
 40
0.9999999999999999
 10
418.0403482765198
 20
49.11459076229727
 30
0.0
 10
418.3134700425356
 20
49.06178745556281
 30
0.0
 10
418.8597319751422
 20
48.95617728466519
 30
0.0
 10
419.7186763546648
 20
48.13509466423779
 30
0.0
 10
420.5706074146461
 20
46.84211856341278
 30
0.0
 10
421.3849831880448
 20
45.07997649215631
 30
0.0
 10
422.121593898244
 20
42.88898031307301
 30
0.0
 10
422.7389171698942
 20
40.37200984741021
 30
0.0
 10
423.1959788739119
 20
37.59944518524536
 30
0.0
 10
423.4975021138648
 20
34.66473029429548
 30
0.0
 10
423.5353403249798
 20
32.63434618453662
 30
0.0
 10
423.5543441623688
 20
31.61460745159786
 30
0.0
  0
LINE
  5
176
330
1F
100
AcDbEntity
  8
0
  6
Continuous
 62
     7
370
    15
100
AcDbLine
 10
533.0405440778
 20
21.6146169883
 30
0.0
 11
630.9120040983
 21
21.6146169883
 31
0.0
  0
LINE
  5
177
330
1F
100
AcDbEntity
  8
0
  6
Continuous
 62
     7
370
    15
100
AcDbLine
 10
423.5543441624
 20
21.6146169883
 30
0.0
 11
469.028903231
 21
21.6146169883
 31
0.0
  0
SPLINE
  5
178
330
1F
100
AcDbEntity
  8
0
  6
Continuous
 62
     7
370
    15
100
AcDbSpline
210
0.0
220
0.0
230
1.0
 70
     8
 71
     3
 72
    17
 73
    13
 74
     0
 42
0.00000001
 43
0.00000001
 12
1.0
 22
0.0
 32
0.0
 13
1.0
 23
0.0
 33
0.0
 40
0.0
 40
0.0
 40
0.0
 40
0.0
 40
0.0978373150756597
 40
0.2092478086318214
 40
0.3206584025560567
 40
0.433870304902208
 40
0.5470592434624719
 40
0.658081101961354
 40
0.7690655149404003
 40
0.8740357140960232
 40
0.9789883555668213
 40
1.0
 40
1.0
 40
1.0
 40
1.0
 10
729.9075257629395
 20
49.11459076229733
 30
0.0
 10
730.555101039872
 20
49.07545172825192
 30
0.0
 10
731.9400910870488
 20
48.99174381885532
 30
0.0
 10
733.9717153245288
 20
48.27621238982541
 30
0.0
 10
735.9609632995281
 20
47.07338770426353
 30
0.0
 10
737.7597190938092
 20
45.37375206190222
 30
0.0
 10
739.3180262097466
 20
43.25199554842399
 30
0.0
 10
740.5772723316329
 20
40.76003815296001
 30
0.0
 10
741.5034921181914
 20
38.03617802524936
 30
0.0
 10
742.0766317456473
 20
35.15126478540412
 30
0.0
 10
742.2582458506831
 20
32.99190355964657
 30
0.0
 10
742.2667283470022
 20
31.81150537927305
 30
0.0
 10
742.2681432813645
 20
31.61460745159786
 30
0.0
  0
LINE
  5
179
330
1F
100
AcDbEntity
  8
0
  6
Continuous
 62
     7
370
    15
100
AcDbLine
 10
742.2681432814
 20
31.6146074516
 30
0.0
 11
742.2681432814
 21
21.6146169883
 31
0.0
  0
LINE
  5
17A
330
1F
100
AcDbEntity
  8
0
  6
Continuous
 62
     7
370
    15
100
AcDbLine
 10
485.3744786829
 20
38.9384983761
 30
0.0
 11
485.6799226851
 21
38.9520882351
 31
0.0
  0
LINE
  5
17B
330
1F
100
AcDbEntity
  8
0
  6
Continuous
 62
     7
370
    15
100
AcDbLine
 10
533.0405440778
 20
21.6146169883
 30
0.0
 11
527.2412580103
 21
21.6146169883
 31
0.0
  0
LINE
  5
17C
330
1F
100
AcDbEntity
  8
0
  6
Continuous
 62
     7
370
    15
100
AcDbLine
 10
743.4953135103
 20
21.6146169883
 30
0.0
 11
742.2681432814
 21
21.6146169883
 31
0.0
  0
LINE
  5
17D
330
1F
100
AcDbEntity
  8
0
  6
Continuous
 62
     7
370
    15
100
AcDbLine
 10
788.6518817991
 20
21.6146169883
 30
0.0
 11
784.2640113682
 21
21.6146169883
 31
0.0
  0
LINE
  5
17E
330
1F
100
AcDbEntity
  8
0
  6
Continuous
 62
     7
370
    15
100
AcDbLine
 10
819.1976827234
 20
21.6146169883
 30
0.0
 11
788.6518817991
 21
21.6146169883
 31
0.0
  0
LINE
  5
17F
330
1F
100
AcDbEntity
  8
0
  6
Continuous
 62
     7
370
    15
100
AcDbLine
 10
826.3050001711
 20
21.6146169883
 30
0.0
 11
819.1976827234
 21
21.6146169883
 31
0.0
  0
SPLINE
  5
180
330
1F
100
AcDbEntity
  8
0
  6
Continuous
 62
     7
370
    15
100
AcDbSpline
210
0.0
220
0.0
230
1.0
 70
     8
 71
     3
 72
    13
 73
     9
 74
     0
 42
0.00000001
 43
0.00000001
 12
1.0
 22
0.0
 32
0.0
 13
1.0
 23
0.0
 33
0.0
 40
0.0
 40
0.0
 40
0.0
 40
0.0
 40
0.0743926791123899
 40
0.2888491150614008
 40
0.5033353327595325
 40
0.7179283233174756
 40
0.9326483241431651
 40
1.0
 40
1.0
 40
1.0
 40
1.0
 10
794.9746829122544
 20
38.83669364277523
 30
0.0
 10
794.9326520772453
 20
38.83819225268279
 30
0.0
 10
794.7694563213929
 20
38.84401099924176
 30
0.0
 10
795.885695769702
 20
38.80415702588444
 30
0.0
 10
798.2052860014444
 20
38.72219778473171
 30
0.0
 10
801.583951245879
 20
38.60466259913234
 30
0.0
 10
804.6346682310284
 20
38.5004508086452
 30
0.0
 10
806.399223067016
 20
38.44111049744234
 30
0.0
 10
806.8205547183991
 20
38.42694151226675
 30
0.0
  0
LINE
  5
181
330
1F
100
AcDbEntity
  8
0
  6
Continuous
 62
     7
370
    15
100
AcDbLine
 10
806.8205547184
 20
38.4269415123
 30
0.0
 11
819.4390815348
 21
38.0032120926
 31
0.0
  0
LINE
  5
182
330
1F
100
AcDbEntity
  8
0
  6
Continuous
 62
     7
370
    15
100
AcDbLine
 10
819.4390815348
 20
38.0032120926
 30
0.0
 11
821.5589505285
 21
37.6146196109
 31
0.0
  0
LINE
  5
183
330
1F
100
AcDbEntity
  8
0
  6
Continuous
 62
     7
370
    15
100
AcDbLine
 10
821.5589505285
 20
37.6146196109
 30
0.0
 11
821.8826782555
 21
37.6146196109
 31
0.0
  0
LINE
  5
184
330
1F
100
AcDbEntity
  8
0
  6
Continuous
 62
     7
370
    15
100
AcDbLine
 10
826.8205505461
 20
21.6146169883
 30
0.0
 11
826.3050001711
 21
21.6146169883
 31
0.0
  0
LINE
  5
185
330
1F
100
AcDbEntity
  8
0
  6
Continuous
 62
     7
370
    15
100
AcDbLine
 10
409.6578341574
 20
162.424376486
 30
0.0
 11
409.6595924944
 21
162.4176113588
 31
0.0
  0
LINE
  5
186
330
1F
100
AcDbEntity
  8
0
  6
Continuous
 62
     7
370
    15
100
AcDbLine
 10
788.9794987291
 20
162.4099223596
 30
0.0
 11
788.981614694
 21
162.4179838878
 31
0.0
  0
LINE
  5
187
330
1F
100
AcDbEntity
  8
0
  6
Continuous
 62
     7
370
    15
100
AcDbLine
 10
409.6205514521
 20
49.1145907623
 30
0.0
 11
789.0205514282
 21
49.1145907623
 31
0.0
  0
LINE
  5
188
330
1F
100
AcDbEntity
  8
0
  6
Continuous
 62
     7
370
    15
100
AcDbLine
 10
412.6205575317
 20
119.5806621296
 30
0.0
 11
412.6205575317
 21
134.6485375148
 31
0.0
  0
LINE
  5
189
330
1F
100
AcDbEntity
  8
0
  6
Continuous
 62
     7
370
    15
100
AcDbLine
 10
786.0205602497
 20
134.6485375148
 30
0.0
 11
786.0205602497
 21
119.5806621296
 31
0.0
  0
LINE
  5
18A
330
1F
100
AcDbEntity
  8
0
  6
Continuous
 62
     7
370
    15
100
AcDbLine
 10
412.6205575317
 20
134.6485375148
 30
0.0
 11
412.6205575317
 21
134.6996633989
 31
0.0
  0
LINE
  5
18B
330
1F
100
AcDbEntity
  8
0
  6
Continuous
 62
     7
370
    15
100
AcDbLine
 10
786.0205602497
 20
134.6996633989
 30
0.0
 11
786.0205602497
 21
134.6485375148
 31
0.0
  0
LINE
  5
18C
330
1F
100
AcDbEntity
  8
0
  6
Continuous
 62
     7
370
    15
100
AcDbLine
 10
412.6205575317
 20
119.5295511467
 30
0.0
 11
412.6205575317
 21
119.5806621296
 31
0.0
  0
LINE
  5
18D
330
1F
100
AcDbEntity
  8
0
  6
Continuous
 62
     7
370
    15
100
AcDbLine
 10
786.0205602497
 20
119.5806621296
 30
0.0
 11
786.0205602497
 21
119.5295511467
 31
0.0
  0
LINE
  5
18E
330
1F
100
AcDbEntity
  8
0
  6
Continuous
 62
     7
370
    15
100
AcDbLine
 10
786.0206198544
 20
135.3357492668
 30
0.0
 11
786.0205602497
 21
134.6996633989
 31
0.0
  0
LINE
  5
18F
330
1F
100
AcDbEntity
  8
0
  6
Continuous
 62
     7
370
    15
100
AcDbLine
 10
412.6204830259
 20
118.8934503776
 30
0.0
 11
412.6205575317
 21
119.5295511467
 31
0.0
  0
LWPOLYLINE
  5
190
330
1F
100
AcDbEntity
  8
0
  6
Continuous
 62
     7
370
    15
100
AcDbPolyline
 90
        3
 70
   128
 43
0.0
 10
411.0625070185
 20
155.6508450491
 10
411.040557608
 20
155.7600407583
 10
411.0382628292
 20
155.7723491174
  0
LWPOLYLINE
  5
191
330
1F
100
AcDbEntity
  8
0
  6
Continuous
 62
     7
370
    15
100
AcDbPolyline
 90
        3
 70
   128
 43
0.0
 10
787.6073103994
 20
155.7968317253
 10
787.6005452723
 20
155.7600407583
 10
787.5834685415
 20
155.6738822443
  0
LWPOLYLINE
  5
192
330
1F
100
AcDbEntity
  8
0
  6
Continuous
 62
     7
370
    15
100
AcDbPolyline
 90
        3
 70
   128
 43
0.0
 10
787.5808608383
 20
98.5677300674
 10
787.6005452723
 20
98.4691737873
 10
787.6028400511
 20
98.4568654281
  0
LINE
  5
193
330
1F
100
AcDbEntity
  8
0
  6
Continuous
 62
     7
370
    15
100
AcDbLine
 10
400.6205481142
 20
117.4426733238
 30
0.0
 11
400.6205481142
 21
136.7865561229
 31
0.0
  0
LINE
  5
194
330
1F
100
AcDbEntity
  8
0
  6
Continuous
 62
     7
370
    15
100
AcDbLine
 10
410.6205534786
 20
117.4426733238
 30
0.0
 11
410.6205534786
 21
136.7865561229
 31
0.0
  0
LINE
  5
195
330
1F
100
AcDbEntity
  8
0
  6
Continuous
 62
     7
370
    15
100
AcDbLine
 10
400.6205481142
 20
102.1145938617
 30
0.0
 11
400.6205481142
 21
117.4426733238
 31
0.0
  0
LINE
  5
196
330
1F
100
AcDbEntity
  8
0
  6
Continuous
 62
     7
370
    15
100
AcDbLine
 10
410.6205534786
 20
102.1145938617
 30
0.0
 11
410.6205534786
 21
117.4426733238
 31
0.0
  0
LINE
  5
197
330
1F
100
AcDbEntity
  8
0
  6
Continuous
 62
     7
370
    15
100
AcDbLine
 10
400.6205481142
 20
136.7865561229
 30
0.0
 11
400.6205481142
 21
152.1146057827
 31
0.0
  0
LINE
  5
198
330
1F
100
AcDbEntity
  8
0
  6
Continuous
 62
     7
370
    15
100
AcDbLine
 10
410.6205534786
 20
136.7865561229
 30
0.0
 11
410.6205534786
 21
152.1146057827
 31
0.0
  0
ARC
  5
199
330
1F
100
AcDbEntity
  8
0
  6
Continuous
 62
     7
370
    15
100
AcDbCircle
 10
337.6205529942
 20
127.1146048583
 30
0.0
 40
11.99999999999999
100
AcDbArc
 50
0.0
 51
62.720387264
  0
ARC
  5
19A
330
1F
100
AcDbEntity
  8
0
  6
Continuous
 62
     7
370
    15
100
AcDbCircle
 10
337.6205529942
 20
127.1146048583
 30
0.0
 40
11.99999999999997
100
AcDbArc
 50
117.279612736
 51
0.0
  0
LINE
  5
19B
330
1F
100
AcDbEntity
  8
0
  6
Continuous
 62
     7
370
    15
100
AcDbLine
 10
307.6205384583
 20
127.1145998222
 30
0.0
 11
307.6205384583
 21
149.114599703
 31
0.0
  0
LINE
  5
19C
330
1F
100
AcDbEntity
  8
0
  6
Continuous
 62
     7
370
    15
100
AcDbLine
 10
307.6205384583
 20
105.1146148426
 30
0.0
 11
307.6205384583
 21
127.1145998222
 31
0.0
  0
LWPOLYLINE
  5
19D
330
1F
100
AcDbEntity
  8
0
  6
Continuous
 62
     7
370
    15
100
AcDbPolyline
 90
       11
 70
   128
 43
0.0
 10
347.6839196533
 20
147.0512359125
 10
348.8648366779
 20
145.8703188879
 10
350.2868097872
 20
144.4483606798
 10
351.9315254539
 20
142.803645013
 10
353.7778538317
 20
140.9573017341
 10
355.8020871729
 20
138.9330683929
 10
357.9782080502
 20
136.7569624168
 10
360.2782320827
 20
134.4569234831
 10
362.672610268
 20
132.0625452978
 10
365.1305866093
 20
129.6045689565
 10
367.6205557436
 20
127.1145998222
  0
LWPOLYLINE
  5
19E
330
1F
100
AcDbEntity
  8
0
  6
Continuous
 62
     7
370
    15
100
AcDbPolyline
 90
       16
 70
   128
 43
0.0
 10
367.6205557436
 20
127.1145998222
 10
369.9991685003
 20
129.4932274801
 10
372.3499011845
 20
131.8439601642
 10
374.6451866478
 20
134.1392456276
 10
376.8581133932
 20
136.352172373
 10
378.9627384991
 20
138.4567825777
 10
380.9343856424
 20
140.4284446222
 10
382.7499431223
 20
142.2439872009
 10
384.3881171793
 20
143.8821761591
 10
385.8297151178
 20
145.3237591964
 10
387.0578241199
 20
146.5518681986
 10
388.0580347628
 20
147.5520937425
 10
388.8186496347
 20
148.3127086145
 10
389.3307429403
 20
148.8247870189
 10
389.5882946104
 20
149.082338689
 10
389.6205556244
 20
149.114599703
  0
LINE
  5
19F
330
1F
100
AcDbEntity
  8
0
  6
Continuous
 62
     7
370
    15
100
AcDbLine
 10
331.3476574272
 20
144.8628513796
 30
0.0
 11
309.6205425114
 21
144.8628513796
 31
0.0
  0
SPLINE
  5
1A0
330
1F
100
AcDbEntity
  8
0
  6
Continuous
 62
     7
370
    15
100
AcDbSpline
210
0.0
220
0.0
230
1.0
 70
     8
 71
     3
 72
    10
 73
     6
 74
     0
 42
0.00000001
 43
0.00000001
 12
1.0
 22
0.0
 32
0.0
 13
1.0
 23
0.0
 33
0.0
 40
0.0
 40
0.0
 40
0.0
 40
0.0
 40
0.1214428993410212
 40
0.5687686155813103
 40
1.0
 40
1.0
 40
1.0
 40
1.0
 10
343.8934516757965
 20
145.6149874908129
 30
0.0
 10
344.0739455330695
 20
145.6579847380338
 30
0.0
 10
344.919274834981
 20
145.8593590868705
 30
0.0
 10
346.2387453742684
 20
146.3659908768394
 30
0.0
 10
347.2081141990948
 20
146.8256276033903
 30
0.0
 10
347.6839196533203
 20
147.051235912482
 30
0.0
  0
LINE
  5
1A1
330
1F
100
AcDbEntity
  8
0
  6
Continuous
 62
     7
370
    15
100
AcDbLine
 10
345.6205558628
 20
166.6145979149
 30
0.0
 11
389.6205556244
 21
166.6145979149
 31
0.0
  0
SPLINE
  5
1A2
330
1F
100
AcDbEntity
  8
0
  6
Continuous
 62
     7
370
    15
100
AcDbSpline
210
0.0
220
0.0
230
1.0
 70
     8
 71
     3
 72
    13
 73
     9
 74
     0
 42
0.00000001
 43
0.00000001
 12
1.0
 22
0.0
 32
0.0
 13
1.0
 23
0.0
 33
0.0
 40
0.0
 40
0.0
 40
0.0
 40
0.0
 40
0.2730809966055042
 40
0.4370956084381372
 40
0.6033860469808332
 40
0.7788805237837844
 40
0.9173180278268025
 40
0.9999999999999999
 40
0.9999999999999999
 40
0.9999999999999999
 40
0.9999999999999999
 10
347.6839196533203
 20
147.051235912482
 30
0.0
 10
347.4534121047449
 20
148.2310759806433
 30
0.0
 10
347.0844598947903
 20
150.1195373487466
 30
0.0
 10
346.5729970748502
 20
152.5389373430333
 30
0.0
 10
346.1639002224557
 20
154.4197126943704
 30
0.0
 10
345.8333518370125
 20
155.8958770714881
 30
0.0
 10
345.6386830457691
 20
156.7508632571699
 30
0.0
 10
345.6350769111166
 20
156.7665138909707
 30
0.0
 10
345.6337284893036
 20
156.7723660451571
 30
0.0
  0
LWPOLYLINE
  5
1A3
330
1F
100
AcDbEntity
  8
0
  6
Continuous
 62
     7
370
    15
100
AcDbPolyline
 90
        5
 70
   128
 43
0.0
 10
328.7269902081
 20
158.2918225509
 10
330.4797541946
 20
159.5191268903
 10
332.1847152561
 20
160.7129483205
 10
333.7953519672
 20
161.8407278043
 10
334.7525429577
 20
162.5109820348
  0
LINE
  5
1A4
330
1F
100
AcDbEntity
  8
0
  6
Continuous
 62
     7
370
    15
100
AcDbLine
 10
309.6205425114
 20
144.913366316
 30
0.0
 11
309.6205425114
 21
144.8628513796
 31
0.0
  0
LINE
  5
1A5
330
1F
100
AcDbEntity
  8
0
  6
Continuous
 62
     7
370
    15
100
AcDbLine
 10
328.7269902081
 20
158.2918225509
 30
0.0
 11
309.6205425114
 21
144.913366316
 31
0.0
  0
SPLINE
  5
1A6
330
1F
100
AcDbEntity
  8
0
  6
Continuous
 62
     7
370
    15
100
AcDbSpline
210
0.0
220
0.0
230
1.0
 70
     8
 71
     3
 72
    10
 73
     6
 74
     0
 42
0.00000001
 43
0.00000001
 12
1.0
 22
0.0
 32
0.0
 13
1.0
 23
0.0
 33
0.0
 40
0.0
 40
0.0
 40
0.0
 40
0.0
 40
0.3435654980741873
 40
0.6912652900991598
 40
1.0
 40
1.0
 40
1.0
 40
1.0
 10
741.2182670682907
 20
268.9097209555308
 30
0.0
 10
741.2719545342034
 20
269.7954046945529
 30
0.0
 10
741.3799755139199
 20
271.5774300440803
 30
0.0
 10
742.2933870619652
 20
273.9160479774362
 30
0.0
 10
743.2275055503966
 20
274.9980881543167
 30
0.0
 10
743.666840776825
 20
275.5069940072695
 30
0.0
  0
LINE
  5
1A7
330
1F
100
AcDbEntity
  8
0
  6
Continuous
 62
     7
370
    15
100
AcDbLine
 10
741.4158266634
 20
252.9144569022
 30
0.0
 11
741.2182670683
 21
268.9097209555
 31
0.0
  0
LINE
  5
1A8
330
1F
100
AcDbEntity
  8
0
  6
Continuous
 62
     7
370
    15
100
AcDbLine
 10
741.4158266634
 20
252.9144569022
 30
0.0
 11
401.347963199
 21
252.9144569022
 31
0.0
  0
SPLINE
  5
1A9
330
1F
100
AcDbEntity
  8
0
  6
Continuous
 62
     7
370
    15
100
AcDbSpline
210
0.0
220
0.0
230
1.0
 70
     8
 71
     3
 72
     9
 73
     5
 74
     0
 42
0.00000001
 43
0.00000001
 12
1.0
 22
0.0
 32
0.0
 13
1.0
 23
0.0
 33
0.0
 40
0.0
 40
0.0
 40
0.0
 40
0.0
 40
0.7005506765632857
 40
1.0
 40
1.0
 40
1.0
 40
1.0
 10
743.666840776825
 20
275.5069940072695
 30
0.0
 10
743.8525062533179
 20
275.6894341397003
 30
0.0
 10
744.1175341559441
 20
275.9498580298401
 30
0.0
 10
744.29489274717
 20
276.1397781101018
 30
0.0
 10
744.3480026573181
 20
276.1966495496432
 30
0.0
  0
SPLINE
  5
1AA
330
1F
100
AcDbEntity
  8
0
  6
Continuous
 62
     7
370
    15
100
AcDbSpline
210
0.0
220
0.0
230
1.0
 70
     8
 71
     3
 72
     9
 73
     5
 74
     0
 42
0.00000001
 43
0.00000001
 12
1.0
 22
0.0
 32
0.0
 13
1.0
 23
0.0
 33
0.0
 40
0.0
 40
0.0
 40
0.0
 40
0.0
 40
0.6282872464881577
 40
0.9999999999999999
 40
0.9999999999999999
 40
0.9999999999999999
 40
0.9999999999999999
 10
744.3480026573181
 20
276.1966495496432
 30
0.0
 10
744.6221663117169
 20
276.4426219644334
 30
0.0
 10
745.0585330467277
 20
276.8341187139936
 30
0.0
 10
745.8544033552502
 20
276.8294493779576
 30
0.0
 10
746.1502384990692
 20
276.8277137262026
 30
0.0
  0
LINE
  5
1AB
330
1F
100
AcDbEntity
  8
0
  6
Continuous
 62
     7
370
    15
100
AcDbLine
 10
747.1651714891
 20
252.9144569022
 30
0.0
 11
747.0520865768
 21
262.0752735717
 31
0.0
  0
LINE
  5
1AC
330
1F
100
AcDbEntity
  8
0
  6
Continuous
 62
     7
370
    15
100
AcDbLine
 10
599.3205533028
 20
465.5382840616
 30
0.0
 11
674.3205544204
 21
465.5382840616
 31
0.0
  0
LINE
  5
1AD
330
1F
100
AcDbEntity
  8
0
  6
Continuous
 62
     7
370
    15
100
AcDbLine
 10
524.3205559105
 20
465.5382840616
 30
0.0
 11
599.3205533028
 21
465.5382840616
 31
0.0
  0
LWPOLYLINE
  5
1AE
330
1F
100
AcDbEntity
  8
0
  6
Continuous
 62
     7
370
    15
100
AcDbPolyline
 90
       11
 70
   128
 43
0.0
 10
741.3266283125
 20
268.912395714
 10
741.4464932531
 20
270.6922947151
 10
741.8439966291
 20
272.3829357607
 10
742.499215588
 20
273.8995535952
 10
743.3793079704
 20
275.1661001426
 10
744.4401216358
 20
276.1190517527
 10
745.6284594387
 20
276.7106353027
 10
746.8847614378
 20
276.9111825806
 10
748.1459957212
 20
276.7106353027
 10
749.3489515633
 20
276.1190517527
 10
750.1035016626
 20
275.5069940073
  0
LINE
  5
1AF
330
1F
100
AcDbEntity
  8
0
  6
Continuous
 62
     7
370
    15
100
AcDbLine
 10
741.5240835995
 20
252.9148368818
 30
0.0
 11
741.3266283125
 21
268.912395714
 31
0.0
  0
LINE
  5
1B0
330
1F
100
AcDbEntity
  8
0
  6
Continuous
 62
     7
370
    15
100
AcDbLine
 10
741.411445722
 20
252.9120578152
 30
0.0
 11
741.5240835995
 21
252.9148368818
 31
0.0
  0
LINE
  5
1B1
330
1F
100
AcDbEntity
  8
0
  6
Continuous
 62
     7
370
    15
100
AcDbLine
 10
745.0400423855
 20
252.9143525941
 30
0.0
 11
745.0596076101
 21
252.9148368818
 31
0.0
  0
LINE
  5
1B2
330
1F
100
AcDbEntity
  8
0
  6
Continuous
 62
     7
370
    15
100
AcDbLine
 10
745.0596076101
 20
252.9148368818
 30
0.0
 11
741.5240835995
 21
252.9148368818
 31
0.0
  0
LINE
  5
1B3
330
1F
100
AcDbEntity
  8
0
  6
Continuous
 62
     7
370
    15
100
AcDbLine
 10
752.71041511
 20
263.2338612062
 30
0.0
 11
752.8377902359
 21
252.9148368818
 31
0.0
  0
LINE
  5
1B4
330
1F
100
AcDbEntity
  8
0
  6
Continuous
 62
     7
370
    15
100
AcDbLine
 10
752.8377902359
 20
252.9148368818
 30
0.0
 11
749.3022513241
 21
252.9148368818
 31
0.0
  0
LINE
  5
1B5
330
1F
100
AcDbEntity
  8
0
  6
Continuous
 62
     7
370
    15
100
AcDbLine
 10
749.3022513241
 20
252.9148368818
 30
0.0
 11
749.1878104061
 21
262.1873973591
 31
0.0
  0
LINE
  5
1B6
330
1F
100
AcDbEntity
  8
0
  6
Continuous
 62
     7
370
    15
100
AcDbLine
 10
744.9368667454
 20
262.8599165661
 30
0.0
 11
745.0596076101
 21
252.9148368818
 31
0.0
  0
LINE
  5
1B7
330
1F
100
AcDbEntity
  8
0
  6
Continuous
 62
     7
370
    15
100
AcDbLine
 10
749.2826860994
 20
252.9143525941
 30
0.0
 11
749.3022513241
 21
252.9148368818
 31
0.0
  0
LINE
  5
1B8
330
1F
100
AcDbEntity
  8
0
  6
Continuous
 62
     7
370
    15
100
AcDbLine
 10
752.7251523584
 20
252.9120578152
 30
0.0
 11
752.8377902359
 21
252.9148368818
 31
0.0
  0
LINE
  5
1B9
330
1F
100
AcDbEntity
  8
0
  6
Continuous
 62
     7
370
    15
100
AcDbLine
 10
808.42670618
 20
252.9144569022
 30
0.0
 11
752.729548201
 21
252.9144569022
 31
0.0
  0
LINE
  5
1BA
330
1F
100
AcDbEntity
  8
0
  6
Continuous
 62
     7
370
    15
100
AcDbLine
 10
599.3205533028
 20
465.7385333163
 30
0.0
 11
524.3205559105
 21
465.7385333163
 31
0.0
  0
LINE
  5
1BB
330
1F
100
AcDbEntity
  8
0
  6
Continuous
 62
     7
370
    15
100
AcDbLine
 10
674.3205544204
 20
465.7385333163
 30
0.0
 11
599.3205533028
 21
465.7385333163
 31
0.0
  0
SPLINE
  5
1BC
330
1F
100
AcDbEntity
  8
0
  6
Continuous
 62
     7
370
    15
100
AcDbSpline
210
0.0
220
0.0
230
1.0
 70
     8
 71
     3
 72
    12
 73
     8
 74
     0
 42
0.00000001
 43
0.00000001
 12
1.0
 22
0.0
 32
0.0
 13
1.0
 23
0.0
 33
0.0
 40
0.0
 40
0.0
 40
0.0
 40
0.0
 40
0.0075575406784364
 40
0.1974002642806008
 40
0.558715007467657
 40
0.8946352982335956
 40
1.0
 40
1.0
 40
1.0
 40
1.0
 10
400.9048026651383
 20
275.0681250077883
 30
0.0
 10
400.9070973343888
 20
275.0671217037788
 30
0.0
 10
400.9670332759571
 20
275.040915761255
 30
0.0
 10
401.1373086808561
 20
274.9665067436509
 30
0.0
 10
401.3930570295272
 20
274.8547260075096
 30
0.0
 10
401.6053182126173
 20
274.7619393760305
 30
0.0
 10
401.6793952775978
 20
274.7295665219762
 30
0.0
 10
401.697082504654
 20
274.7218369228045
 30
0.0
  0
LINE
  5
1BD
330
1F
100
AcDbEntity
  8
0
  6
Continuous
 62
     7
370
    15
100
AcDbLine
 10
398.5450398773
 20
252.9144569022
 30
0.0
 11
398.4997850508
 21
252.9144569022
 31
0.0
  0
LINE
  5
1BE
330
1F
100
AcDbEntity
  8
0
  6
Continuous
 62
     7
370
    15
100
AcDbLine
 10
398.4997850508
 20
252.9144569022
 30
0.0
 11
390.2143967003
 21
252.9144569022
 31
0.0
  0
SPLINE
  5
1BF
330
1F
100
AcDbEntity
  8
0
  6
Continuous
 62
     7
370
    15
100
AcDbSpline
210
0.0
220
0.0
230
1.0
 70
     8
 71
     3
 72
    17
 73
    13
 74
     0
 42
0.00000001
 43
0.00000001
 12
1.0
 22
0.0
 32
0.0
 13
1.0
 23
0.0
 33
0.0
 40
0.0
 40
0.0
 40
0.0
 40
0.0
 40
0.1026352761314768
 40
0.2052787584267027
 40
0.3106881337876694
 40
0.420751532981577
 40
0.5348363251620672
 40
0.650482153359971
 40
0.7639191713922888
 40
0.8719453552461363
 40
0.9741166041053042
 40
1.0
 40
1.0
 40
1.0
 40
1.0
 10
401.6338866800309
 20
289.4667966944376
 30
0.0
 10
401.6751945588845
 20
289.9625668949438
 30
0.0
 10
401.7578136193473
 20
290.9541469350705
 30
0.0
 10
402.050629636389
 20
292.271101883245
 30
0.0
 10
402.4399170807222
 20
293.2971600792737
 30
0.0
 10
402.9131460034838
 20
293.9196753665626
 30
0.0
 10
403.423829185628
 20
294.0365109196365
 30
0.0
 10
403.9091145735098
 20
293.5971752155255
 30
0.0
 10
404.2956939810117
 20
292.6468560242511
 30
0.0
 10
404.5229640982403
 20
291.3369591348154
 30
0.0
 10
404.5627406728478
 20
290.2083084088317
 30
0.0
 10
404.5340687251433
 20
289.5914756963488
 30
0.0
 10
404.5282733291626
 20
289.4667966944376
 30
0.0
  0
LWPOLYLINE
  5
1C0
330
1F
100
AcDbEntity
  8
0
  6
Continuous
 62
     7
370
    15
100
AcDbPolyline
 90
        4
 70
   128
 43
0.0
 10
401.0232817978
 20
278.2942934615
 10
401.1324179024
 20
280.2913172824
 10
401.568992123
 20
288.2793902141
 10
401.63388668
 20
289.4667966944
  0
SPLINE
  5
1C1
330
1F
100
AcDbEntity
  8
0
  6
Continuous
 62
     7
370
    15
100
AcDbSpline
210
0.0
220
0.0
230
1.0
 70
     8
 71
     3
 72
    10
 73
     6
 74
     0
 42
0.00000001
 43
0.00000001
 12
1.0
 22
0.0
 32
0.0
 13
1.0
 23
0.0
 33
0.0
 40
0.0
 40
0.0
 40
0.0
 40
0.0
 40
0.4608949994469853
 40
0.908340035687528
 40
1.0
 40
1.0
 40
1.0
 40
1.0
 10
400.6951880306244
 20
277.6395215374628
 30
0.0
 10
400.773782903381
 20
277.7235526743252
 30
0.0
 10
400.9286790719448
 20
277.8891627285632
 30
0.0
 10
401.009984846873
 20
278.1365916437892
 30
0.0
 10
401.0213495439171
 20
278.271376933477
 30
0.0
 10
401.0232817977906
 20
278.2942934614817
 30
0.0
  0
LINE
  5
1C2
330
1F
100
AcDbEntity
  8
0
  6
Continuous
 62
     7
370
    15
100
AcDbLine
 10
399.1916906685
 20
276.1966495496
 30
0.0
 11
400.6951880306
 21
277.6395215375
 31
0.0
  0
ARC
  5
1C3
330
1F
100
AcDbEntity
  8
0
  6
Continuous
 62
     7
370
    15
100
AcDbCircle
 10
399.93084533
 20
275.4932653994
 30
0.0
 40
1.020342528992948
100
AcDbArc
 50
136.420467439
 51
179.2290676877
  0
LINE
  5
1C4
330
1F
100
AcDbEntity
  8
0
  6
Continuous
 62
     7
370
    15
100
AcDbLine
 10
398.7850081772
 20
268.6007975322
 30
0.0
 11
398.9105951637
 21
275.5069940073
 31
0.0
  0
LWPOLYLINE
  5
1C5
330
1F
100
AcDbEntity
  8
0
  6
Continuous
 62
     7
370
    15
100
AcDbPolyline
 90
        3
 70
   128
 43
0.0
 10
398.4997850508
 20
252.9144569022
 10
398.5361289829
 20
254.9141256792
 10
398.6312877983
 20
260.1469515545
  0
LINE
  5
1C6
330
1F
100
AcDbEntity
  8
0
  6
Continuous
 62
     7
370
    15
100
AcDbLine
 10
509.0590324849
 20
33.0137668831
 30
0.0
 11
509.0590324849
 21
21.6146169883
 31
0.0
  0
ARC
  5
1C7
330
1F
100
AcDbEntity
  8
0
  6
Continuous
 62
     7
370
    15
100
AcDbCircle
 10
504.3637625631
 20
33.3416527317
 30
0.0
 40
4.706704661317302
100
AcDbArc
 50
356.005335985
 51
82.7696892736
  0
LINE
  5
1C8
330
1F
100
AcDbEntity
  8
0
  6
Continuous
 62
     7
370
    15
100
AcDbLine
 10
499.0848582834
 20
21.6146169883
 30
0.0
 11
499.0848582834
 21
32.9312740547
 31
0.0
  0
LWPOLYLINE
  5
1C9
330
1F
100
AcDbEntity
  8
0
  6
Continuous
 62
     7
370
    15
100
AcDbPolyline
 90
        9
 70
   128
 43
0.0
 10
499.0848582834
 20
32.9312740547
 10
499.125404343
 20
33.8861106617
 10
499.2455375046
 20
34.8058103305
 10
499.4408470243
 20
35.6565176231
 10
499.7041356415
 20
36.4068804962
 10
500.0257176012
 20
37.0293616039
 10
500.393753931
 20
37.5009833557
 10
500.7946994752
 20
37.8044007999
 10
501.2137946338
 20
37.928467868
  0
LINE
  5
1CA
330
1F
100
AcDbEntity
  8
0
  6
Continuous
 62
     7
370
    15
100
AcDbLine
 10
533.0405440778
 20
43.9492820484
 30
0.0
 11
533.0405440778
 21
21.6146169883
 31
0.0
  0
LINE
  5
1CB
330
1F
100
AcDbEntity
  8
0
  6
Continuous
 62
     7
370
    15
100
AcDbLine
 10
480.6570988745
 20
43.9492820484
 30
0.0
 11
533.0405440778
 21
43.9492820484
 31
0.0
  0
LINE
  5
1CC
330
1F
100
AcDbEntity
  8
0
  6
Continuous
 62
     7
370
    15
100
AcDbLine
 10
480.6570988745
 20
38.5450779182
 30
0.0
 11
480.6570988745
 21
43.9492820484
 31
0.0
  0
LWPOLYLINE
  5
1CD
330
1F
100
AcDbEntity
  8
0
  6
Continuous
 62
     7
370
    15
100
AcDbPolyline
 90
        3
 70
   128
 43
0.0
 10
504.9561393112
 20
38.0109308941
 10
510.8708870262
 20
38.3407233936
 10
521.8680408448
 20
38.9520882351
  0
SPLINE
  5
1CE
330
1F
100
AcDbEntity
  8
0
  6
Continuous
 62
     7
370
    15
100
AcDbSpline
210
0.0
220
0.0
230
1.0
 70
     8
 71
     3
 72
    13
 73
     9
 74
     0
 42
0.00000001
 43
0.00000001
 12
1.0
 22
0.0
 32
0.0
 13
1.0
 23
0.0
 33
0.0
 40
0.0
 40
0.0
 40
0.0
 40
0.0
 40
0.0017191466866406
 40
0.2592122613069701
 40
0.6152466386739588
 40
0.8425015669001235
 40
0.8705623651904985
 40
1.0
 40
1.0
 40
1.0
 40
1.0
 10
480.6570988744736
 20
43.94928204838436
 30
0.0
 10
480.6617659347849
 20
43.94626206320615
 30
0.0
 10
481.3654634530601
 20
43.49090988572726
 30
0.0
 10
482.9526073989061
 20
42.41279297772429
 30
0.0
 10
484.8127739768072
 20
40.95428692782768
 30
0.0
 10
485.7234325233526
 20
39.9606978286273
 30
0.0
 10
486.0107052418338
 20
39.41182550583708
 30
0.0
 10
485.9624361283431
 20
39.2407946364807
 30
0.0
 10
485.9227669090271
 20
39.10023557964962
 30
0.0
  0
SPLINE
  5
1CF
330
1F
100
AcDbEntity
  8
0
  6
Continuous
 62
     7
370
    15
100
AcDbSpline
210
0.0
220
0.0
230
1.0
 70
     8
 71
     3
 72
    13
 73
     9
 74
     0
 42
0.00000001
 43
0.00000001
 12
1.0
 22
0.0
 32
0.0
 13
1.0
 23
0.0
 33
0.0
 40
0.0
 40
0.0
 40
0.0
 40
0.0
 40
0.1294376409650232
 40
0.1574982211975744
 40
0.3847525012429958
 40
0.7407874016760989
 40
0.9982808770775342
 40
1.0
 40
1.0
 40
1.0
 40
1.0
 10
522.7218550294876
 20
39.10023557964962
 30
0.0
 10
523.1279679463507
 20
39.24079400834898
 30
0.0
 10
523.6221214362819
 20
39.41182387515915
 30
0.0
 10
524.9610740581874
 20
39.9606997108691
 30
0.0
 10
527.168363457244
 20
40.9542889511402
 30
0.0
 10
530.1168771347578
 20
42.41279713680099
 30
0.0
 10
532.1843377590249
 20
43.4909029733839
 30
0.0
 10
533.0349030468526
 20
43.94626206303623
 30
0.0
 10
533.0405440777779
 20
43.9492820483843
 30
0.0
  0
SPLINE
  5
1D0
330
1F
100
AcDbEntity
  8
0
  6
Continuous
 62
     7
370
    15
100
AcDbSpline
210
0.0
220
0.0
230
1.0
 70
     8
 71
     3
 72
    13
 73
     9
 74
     0
 42
0.00000001
 43
0.00000001
 12
1.0
 22
0.0
 32
0.0
 13
1.0
 23
0.0
 33
0.0
 40
0.0
 40
0.0
 40
0.0
 40
0.0
 40
0.0017128382651044
 40
0.2572064678599232
 40
0.6120121407060023
 40
0.8405520291082439
 40
0.8686022101897543
 40
1.0
 40
1.0
 40
1.0
 40
1.0
 10
533.0405440777779
 20
43.94928204838436
 30
0.0
 10
533.0377876856896
 20
43.94322223872468
 30
0.0
 10
532.6238771095949
 20
43.03325760853213
 30
0.0
 10
531.5870455019714
 20
40.8686956231836
 30
0.0
 10
530.0108827662661
 20
37.94547218176522
 30
0.0
 10
528.7213103073149
 20
35.96961555397013
 30
0.0
 10
527.8751358708655
 20
34.87457251496481
 30
0.0
 10
527.5276302430796
 20
34.53280383818139
 30
0.0
 10
527.2412580102921
 20
34.25115930859249
 30
0.0
  0
LINE
  5
1D1
330
1F
100
AcDbEntity
  8
0
  6
Continuous
 62
     7
370
    15
100
AcDbLine
 10
525.9666350335
 20
33.9549242241
 30
0.0
 11
509.0590324849
 21
33.0137668831
 31
0.0
  0
SPLINE
  5
1D2
330
1F
100
AcDbEntity
  8
0
  6
Continuous
 62
     7
370
    15
100
AcDbSpline
210
0.0
220
0.0
230
1.0
 70
     8
 71
     3
 72
    12
 73
     8
 74
     0
 42
0.00000001
 43
0.00000001
 12
1.0
 22
0.0
 32
0.0
 13
1.0
 23
0.0
 33
0.0
 40
0.0
 40
0.0
 40
0.0
 40
0.0
 40
0.242073267945034
 40
0.4841829331812842
 40
0.7262468672926733
 40
0.9682065634193933
 40
0.9999999999999999
 40
0.9999999999999999
 40
0.9999999999999999
 40
0.9999999999999999
 10
509.0590324849129
 20
33.01376688305538
 30
0.0
 10
508.4553252586794
 20
33.00283490651248
 30
0.0
 10
507.2478200349022
 20
32.98096930973274
 30
0.0
 10
504.7172099862264
 20
32.95451160841342
 30
0.0
 10
502.0057862745403
 20
32.93669751130826
 30
0.0
 10
500.1065186460333
 20
32.9315484836479
 30
0.0
 10
499.1911664446361
 20
32.93130261020175
 30
0.0
 10
499.0848582834244
 20
32.93127405468624
 30
0.0
  0
LINE
  5
1D3
330
1F
100
AcDbEntity
  8
0
  6
Continuous
 62
     7
370
    15
100
AcDbLine
 10
499.0848582834
 20
32.9312740547
 30
0.0
 11
472.5718033165
 21
32.9312740547
 31
0.0
  0
LWPOLYLINE
  5
1D4
330
1F
100
AcDbEntity
  8
0
  6
Continuous
 62
     7
370
    15
100
AcDbPolyline
 90
        9
 70
   128
 43
0.0
 10
472.5718033165
 20
32.9312740547
 10
472.6230707616
 20
33.8861106617
 10
472.7749881
 20
34.8058103305
 10
473.021952495
 20
35.6565176231
 10
473.354881689
 20
36.4068804962
 10
473.7615269274
 20
37.0293616039
 10
474.2269050926
 20
37.5009833557
 10
474.7339096517
 20
37.8044007999
 10
475.2638545484
 20
37.928467868
  0
LINE
  5
1D5
330
1F
100
AcDbEntity
  8
0
  6
Continuous
 62
     7
370
    15
100
AcDbLine
 10
472.5718033165
 20
32.9312740547
 30
0.0
 11
472.5718033165
 21
21.6146169883
 31
0.0
  0
SPLINE
  5
1D6
330
1F
100
AcDbEntity
  8
0
  6
Continuous
 62
     7
370
    15
100
AcDbSpline
210
0.0
220
0.0
230
1.0
 70
     8
 71
     3
 72
    10
 73
     6
 74
     0
 42
0.00000001
 43
0.00000001
 12
1.0
 22
0.0
 32
0.0
 13
1.0
 23
0.0
 33
0.0
 40
0.0
 40
0.0
 40
0.0
 40
0.0
 40
0.344069663513368
 40
0.6881034882066844
 40
0.9999999999999999
 40
0.9999999999999999
 40
0.9999999999999999
 40
0.9999999999999999
 10
472.5718033164978
 20
32.93127405468624
 30
0.0
 10
471.8785549716815
 20
32.93241459626498
 30
0.0
 10
470.4921304918519
 20
32.93469556062187
 30
0.0
 10
469.2486385610795
 20
32.9508618788307
 30
0.0
 10
469.1256606281432
 20
32.96778265524644
 30
0.0
 10
469.0671843141556
 20
32.97582852665585
 30
0.0
  0
LINE
  5
1D7
330
1F
100
AcDbEntity
  8
0
  6
Continuous
 62
     7
370
    15
100
AcDbLine
 10
527.2412580103
 20
21.6146169883
 30
0.0
 11
527.2412580103
 21
34.2511593086
 31
0.0
  0
LINE
  5
1D8
330
1F
100
AcDbEntity
  8
0
  6
Continuous
 62
     7
370
    15
100
AcDbLine
 10
527.2412580103
 20
34.2511593086
 30
0.0
 11
525.9666350335
 21
33.9549242241
 31
0.0
  0
ARC
  5
1D9
330
1F
100
AcDbEntity
  8
0
  6
Continuous
 62
     7
370
    15
100
AcDbCircle
 10
521.8243141092
 20
33.7331059144
 30
0.0
 40
5.441659723550305
100
AcDbArc
 50
5.4629092899
 51
80.5063197249
  0
LINE
  5
1DA
330
1F
100
AcDbEntity
  8
0
  6
Continuous
 62
     7
370
    15
100
AcDbLine
 10
521.8680408448
 20
38.9520882351
 30
0.0
 11
522.7218550295
 21
39.1002355796
 31
0.0
  0
LINE
  5
1DB
330
1F
100
AcDbEntity
  8
0
  6
Continuous
 62
     7
370
    15
100
AcDbLine
 10
394.6748059839
 20
219.827195881
 30
0.0
 11
803.9663117975
 21
219.827195881
 31
0.0
  0
LINE
  5
1DC
330
1F
100
AcDbEntity
  8
22
 62
     1
370
    15
100
AcDbLine
 10
410.6205529942
 20
152.1146048583
 30
0.0
 11
411.7340983454
 21
152.1146048583
 31
0.0
  0
LINE
  5
1DD
330
1F
100
AcDbEntity
  8
22
 62
     1
370
    15
100
AcDbLine
 10
410.6205529942
 20
102.1146048583
 30
0.0
 11
411.7340983508
 21
102.1146048583
 31
0.0
  0
LINE
  5
1DE
330
1F
100
AcDbEntity
  8
22
 62
     1
370
    15
100
AcDbLine
 10
788.0205529942
 20
152.1146048583
 30
0.0
 11
786.7525123373
 21
152.1146048583
 31
0.0
  0
LINE
  5
1DF
330
1F
100
AcDbEntity
  8
22
 62
     1
370
    15
100
AcDbLine
 10
788.0205529942
 20
102.1146048583
 30
0.0
 11
786.8964260307
 21
102.1146048583
 31
0.0
  0
LINE
  5
1E0
330
1F
100
AcDbEntity
  8
22
 62
     1
370
    15
100
AcDbLine
 10
498.5406178262
 20
37.928459127
 30
0.0
 11
504.9561388191
 21
38.0109362821
 31
0.0
  0
LINE
  5
1E1
330
1F
100
AcDbEntity
  8
22
  6
CENTERX2
370
     0
100
AcDbLine
 10
599.3205529942
 20
15.5575047987
 30
0.0
 11
599.3205529942
 21
480.2119641035
 31
0.0
  0
LINE
  5
1E2
330
1F
100
AcDbEntity
  8
22
  6
CENTERX2
 62
     7
370
     0
100
AcDbLine
 10
305.6205529942
 20
127.1146048583
 30
0.0
 11
412.6205529942
 21
127.1146048583
 31
0.0
  0
LINE
  5
1E3
330
1F
100
AcDbEntity
  8
0
  6
Continuous
 62
     7
370
    15
100
AcDbLine
 10
344.1205602736
 20
724.694632562
 30
0.0
 11
343.9122122377
 21
729.6946333816
 31
0.0
  0
LINE
  5
1E4
330
1F
100
AcDbEntity
  8
0
  6
Continuous
 62
     7
370
    15
100
AcDbLine
 10
331.3288819641
 20
729.6946333816
 30
0.0
 11
331.1205637306
 21
724.694632562
 31
0.0
  0
LINE
  5
1E5
330
1F
100
AcDbEntity
  8
0
  6
Continuous
 62
     7
370
    15
100
AcDbLine
 10
456.2536907047
 20
911.660962375
 30
0.0
 11
452.7186584324
 21
914.4888898452
 31
0.0
  0
LINE
  5
1E6
330
1F
100
AcDbEntity
  8
0
  6
Continuous
 62
     7
370
    15
100
AcDbLine
 10
443.5262960047
 20
905.2965274175
 30
0.0
 11
446.3542234749
 21
901.7614951452
 31
0.0
  0
ARC
  5
1E7
330
1F
100
AcDbEntity
  8
0
  6
Continuous
 62
     7
370
    15
100
AcDbCircle
 10
462.704486365
 20
895.3106994718
 30
0.0
 40
21.62500000000006
100
AcDbArc
 50
117.5353905805
 51
152.4646094195
  0
LINE
  5
1E8
330
1F
100
AcDbEntity
  8
0
  6
Continuous
 62
     7
370
    15
100
AcDbLine
 10
447.4684727043
 20
902.7685305198
 30
0.0
 11
447.7685373873
 21
902.4684658368
 31
0.0
  0
LINE
  5
1E9
330
1F
100
AcDbEntity
  8
0
  6
Continuous
 62
     7
370
    15
100
AcDbLine
 10
455.546720013
 20
910.2466484626
 30
0.0
 11
455.2466553301
 21
910.5467131456
 31
0.0
  0
LINE
  5
1EA
330
1F
100
AcDbEntity
  8
0
  6
Continuous
 62
     7
370
    15
100
AcDbLine
 10
742.3874121756
 20
605.7283064445
 30
0.0
 11
745.9224444479
 21
602.9003640731
 31
0.0
  0
LINE
  5
1EB
330
1F
100
AcDbEntity
  8
0
  6
Continuous
 62
     7
370
    15
100
AcDbLine
 10
755.1148217768
 20
612.092741402
 30
0.0
 11
752.2868794054
 21
615.6277736743
 31
0.0
  0
ARC
  5
1EC
330
1F
100
AcDbEntity
  8
0
  6
Continuous
 62
     7
370
    15
100
AcDbCircle
 10
735.9366196234
 20
622.0785662134
 30
0.0
 40
21.62500000000004
100
AcDbArc
 50
297.5353905805
 51
332.4646094195
  0
LINE
  5
1ED
330
1F
100
AcDbEntity
  8
0
  6
Continuous
 62
     7
370
    15
100
AcDbLine
 10
751.172630176
 20
614.6207233985
 30
0.0
 11
750.872565493
 21
614.9207880815
 31
0.0
  0
LINE
  5
1EE
330
1F
100
AcDbEntity
  8
0
  6
Continuous
 62
     7
370
    15
100
AcDbLine
 10
743.0943977684
 20
607.1426203569
 30
0.0
 11
743.3944624514
 21
606.8425556739
 31
0.0
  0
ARC
  5
1EF
330
1F
100
AcDbEntity
  8
0
  6
Continuous
 62
     7
370
    15
100
AcDbCircle
 10
808.6205529942
 20
779.1946328426
 30
0.0
 40
1.0
100
AcDbArc
 50
0.0
 51
90.0
  0
ARC
  5
1F0
330
1F
100
AcDbEntity
  8
0
  6
Continuous
 62
     7
370
    15
100
AcDbCircle
 10
808.6205529942
 20
738.1946328426
 30
0.0
 40
1.0
100
AcDbArc
 50
270.0
 51
0.0
  0
LINE
  5
1F1
330
1F
100
AcDbEntity
  8
0
  6
Continuous
 62
     7
370
    15
100
AcDbLine
 10
807.3184770197
 20
737.1946336796
 30
0.0
 11
808.620555386
 21
737.1946336796
 31
0.0
  0
LINE
  5
1F2
330
1F
100
AcDbEntity
  8
0
  6
Continuous
 62
     7
370
    15
100
AcDbLine
 10
808.620555386
 20
780.1946332773
 30
0.0
 11
807.3184770197
 21
780.1946332773
 31
0.0
  0
LWPOLYLINE
  5
1F3
330
1F
100
AcDbEntity
  8
0
  6
Continuous
 62
     7
370
    15
100
AcDbPolyline
 90
        8
 70
   128
 43
0.0
 10
402.4241548628
 20
698.6007435342
 10
401.3140630573
 20
698.9126844426
 10
396.6302555651
 20
700.2288518568
 10
391.7102050632
 20
701.6114039441
 10
386.5702432245
 20
703.0557585975
 10
381.2274169773
 20
704.5571139177
 10
375.6994438023
 20
706.1104966422
 10
370.00468193
 20
707.710747244
  0
LWPOLYLINE
  5
1F4
330
1F
100
AcDbEntity
  8
0
  6
Continuous
 62
     7
370
    15
100
AcDbPolyline
 90
        8
 70
   128
 43
0.0
 10
368.3815282434
 20
701.9344722947
 10
374.0762901157
 20
700.3342216929
 10
379.6042632908
 20
698.7808389684
 10
384.947089538
 20
697.2794799229
 10
390.0870513767
 20
695.8351289948
 10
395.0070869774
 20
694.4525769075
 10
399.6908944696
 20
693.1364094933
 10
401.8830489964
 20
692.5204029401
  0
LWPOLYLINE
  5
1F5
330
1F
100
AcDbEntity
  8
0
  6
Continuous
 62
     7
370
    15
100
AcDbPolyline
 90
       13
 70
   128
 43
0.0
 10
339.2636906952
 20
710.1167073568
 10
339.9053346962
 20
709.9364033063
 10
340.9165274948
 20
709.6522567888
 10
342.2895800919
 20
709.266421022
 10
344.0140467733
 20
708.7818389853
 10
346.0768294186
 20
708.2021875401
 10
348.462252006
 20
707.531873705
 10
351.1521649212
 20
706.7759974023
 10
354.1261237711
 20
705.9403030296
 10
357.361508593
 20
705.0311459323
 10
360.8337324709
 20
704.0554327985
 10
364.5164054483
 20
703.0205881317
 10
368.3815282434
 20
701.9344722947
  0
LWPOLYLINE
  5
1F6
330
1F
100
AcDbEntity
  8
0
  6
Continuous
 62
     7
370
    15
100
AcDbPolyline
 90
       13
 70
   128
 43
0.0
 10
370.00468193
 20
707.710747244
 10
366.139574036
 20
708.7968630811
 10
362.4569010586
 20
709.8317077478
 10
358.9846622795
 20
710.8074208816
 10
355.7492774576
 20
711.7165817042
 10
352.7753186077
 20
712.5522723516
 10
350.0854056925
 20
713.3081486543
 10
347.6999980062
 20
713.9784624894
 10
345.637215361
 20
714.5581139346
 10
343.9127337784
 20
715.0426996966
 10
342.5396811813
 20
715.4285317381
 10
341.5284883827
 20
715.7126782556
 10
340.8868592829
 20
715.8929823061
  0
LWPOLYLINE
  5
1F7
330
1F
100
AcDbEntity
  8
0
  6
Continuous
 62
     7
370
    15
100
AcDbPolyline
 90
        9
 70
   128
 43
0.0
 10
336.8442785591
 20
710.7965765615
 10
336.8473780006
 20
710.7957085689
 10
336.9625341743
 20
710.7633469721
 10
337.1544313282
 20
710.7094159444
 10
337.4230694622
 20
710.6339266618
 10
337.7683889717
 20
710.5368940254
 10
338.1903302521
 20
710.4183329364
 10
338.688774094
 20
710.2782620211
 10
339.2636906952
 20
710.1167073568
  0
LWPOLYLINE
  5
1F8
330
1F
100
AcDbEntity
  8
0
  6
Continuous
 62
     7
370
    15
100
AcDbPolyline
 90
        9
 70
   128
 43
0.0
 10
340.8868592829
 20
715.8929823061
 10
340.3119426817
 20
716.0545369705
 10
339.8134839386
 20
716.1946078857
 10
339.3915426582
 20
716.3131689747
 10
339.046252951
 20
716.4102053364
 10
338.777614817
 20
716.4856908937
 10
338.5856878609
 20
716.5396219214
 10
338.4705316872
 20
716.5719835182
 10
338.4674322456
 20
716.5728515108
  0
LINE
  5
1F9
330
1F
100
AcDbEntity
  8
0
  6
Continuous
 62
     7
370
    15
100
AcDbLine
 10
375.8819085211
 20
736.6946326663
 30
0.0
 11
391.3749140352
 21
736.6946326663
 31
0.0
  0
LINE
  5
1FA
330
1F
100
AcDbEntity
  8
0
  6
Continuous
 62
     7
370
    15
100
AcDbLine
 10
349.6205490679
 20
736.6946326663
 30
0.0
 11
359.3592029661
 21
736.6946326663
 31
0.0
  0
LINE
  5
1FB
330
1F
100
AcDbEntity
  8
0
  6
Continuous
 62
     7
370
    15
100
AcDbLine
 10
307.6205384583
 20
736.6946326663
 30
0.0
 11
325.6628942341
 21
736.6946326663
 31
0.0
  0
LINE
  5
1FC
330
1F
100
AcDbEntity
  8
0
  6
Continuous
 62
     7
370
    15
100
AcDbLine
 10
359.3592029661
 20
780.6946324279
 30
0.0
 11
307.6205384583
 21
780.6946324279
 31
0.0
  0
LINE
  5
1FD
330
1F
100
AcDbEntity
  8
0
  6
Continuous
 62
     7
370
    15
100
AcDbLine
 10
391.3749140352
 20
780.6946324279
 30
0.0
 11
375.8819085211
 21
780.6946324279
 31
0.0
  0
LINE
  5
1FE
330
1F
100
AcDbEntity
  8
0
  6
Continuous
 62
     7
370
    15
100
AcDbLine
 10
325.620545134
 20
736.7177015265
 30
0.0
 11
325.620545134
 21
729.6946333816
 31
0.0
  0
LINE
  5
1FF
330
1F
100
AcDbEntity
  8
0
  6
Continuous
 62
     7
370
    15
100
AcDbLine
 10
349.6205490679
 20
729.6946333816
 30
0.0
 11
349.6205490679
 21
736.6946326663
 31
0.0
  0
LINE
  5
200
330
1F
100
AcDbEntity
  8
0
  6
Continuous
 62
     7
370
    15
100
AcDbLine
 10
509.3205553144
 20
578.2367369254
 30
0.0
 11
509.3205553144
 21
578.0502637943
 31
0.0
  0
SPLINE
  5
201
330
1F
100
AcDbEntity
  8
0
  6
Continuous
 62
     7
370
    15
100
AcDbSpline
210
0.0
220
0.0
230
1.0
 70
     8
 71
     3
 72
    15
 73
    11
 74
     0
 42
0.00000001
 43
0.00000001
 12
1.0
 22
0.0
 32
0.0
 13
1.0
 23
0.0
 33
0.0
 40
0.0
 40
0.0
 40
0.0
 40
0.0
 40
0.0035832441707116
 40
0.1863044813279455
 40
0.3691201335128416
 40
0.5502996687625188
 40
0.7264881578015542
 40
0.8708497357054855
 40
0.9735195085674462
 40
1.0
 40
1.0
 40
1.0
 40
1.0
 10
403.0569922775269
 20
696.5498967190608
 30
0.0
 10
403.0594355266625
 20
696.5424693459111
 30
0.0
 10
403.1864679702459
 20
696.1562961362772
 30
0.0
 10
403.446851550289
 20
695.3375268922562
 30
0.0
 10
403.8074917875908
 20
694.1861368626766
 30
0.0
 10
404.1199374045391
 20
693.1515757326332
 30
0.0
 10
404.3435798889927
 20
692.3573300887304
 30
0.0
 10
404.4601710481604
 20
691.905280392979
 30
0.0
 10
404.4939475981469
 20
691.6982924347336
 30
0.0
 10
404.4925695705497
 20
691.719269695974
 30
0.0
 10
404.4922870248795
 20
691.7235707958564
 30
0.0
  0
SPLINE
  5
202
330
1F
100
AcDbEntity
  8
0
  6
Continuous
 62
     7
370
    15
100
AcDbSpline
210
0.0
220
0.0
230
1.0
 70
     8
 71
     3
 72
    13
 73
     9
 74
     0
 42
0.00000001
 43
0.00000001
 12
1.0
 22
0.0
 32
0.0
 13
1.0
 23
0.0
 33
0.0
 40
0.0
 40
0.0
 40
0.0
 40
0.0
 40
0.0714120215065569
 40
0.2015770073730732
 40
0.3734428110870998
 40
0.5747348196995574
 40
0.7865074664551767
 40
1.0
 40
1.0
 40
1.0
 40
1.0
 10
401.7973077148438
 20
700.1111624856815
 30
0.0
 10
401.8019626386883
 20
700.1025981286416
 30
0.0
 10
401.8151022417738
 20
700.0784232428767
 30
0.0
 10
401.9168352824182
 20
699.8494719000714
 30
0.0
 10
402.09686829367
 20
699.38069460869
 30
0.0
 10
402.3652418138566
 20
698.6275935617366
 30
0.0
 10
402.6944307353816
 20
697.6586460600078
 30
0.0
 10
402.9358130251738
 20
696.9204749535528
 30
0.0
 10
403.0569922775269
 20
696.5498967190608
 30
0.0
  0
ARC
  5
203
330
1F
100
AcDbEntity
  8
0
  6
Continuous
 62
     7
370
    15
100
AcDbCircle
 10
337.6205529942
 20
713.6946328426
 30
0.0
 40
4.50000000000002
100
AcDbArc
 50
26.114726844
 51
302.4940970524
  0
SPLINE
  5
204
330
1F
100
AcDbEntity
  8
0
  6
Continuous
 62
     7
370
    15
100
AcDbSpline
210
0.0
220
0.0
230
1.0
 70
     8
 71
     3
 72
    13
 73
     9
 74
     0
 42
0.00000001
 43
0.00000001
 12
1.0
 22
0.0
 32
0.0
 13
1.0
 23
0.0
 33
0.0
 40
0.0
 40
0.0
 40
0.0
 40
0.0
 40
0.296972285669395
 40
0.4133505792996035
 40
0.5124854639570748
 40
0.6116648364301248
 40
0.7612001548095361
 40
1.0
 40
1.0
 40
1.0
 40
1.0
 10
331.9369387477875
 20
709.7327528615817
 30
0.0
 10
331.8891445995587
 20
710.2928015829058
 30
0.0
 10
331.8226207526855
 20
711.072323695124
 30
0.0
 10
331.709870467419
 20
712.3923576187177
 30
0.0
 10
331.6327924795376
 20
713.2958488773209
 30
0.0
 10
331.5490763953273
 20
714.2760210526621
 30
0.0
 10
331.4474903062563
 20
715.4662850485463
 30
0.0
 10
331.3856716916512
 20
716.1905041555021
 30
0.0
 10
331.3476574272156
 20
716.6358498950824
 30
0.0
  0
SPLINE
  5
205
330
1F
100
AcDbEntity
  8
0
  6
Continuous
 62
     7
370
    15
100
AcDbSpline
210
0.0
220
0.0
230
1.0
 70
     8
 71
     3
 72
    14
 73
    10
 74
     0
 42
0.00000001
 43
0.00000001
 12
1.0
 22
0.0
 32
0.0
 13
1.0
 23
0.0
 33
0.0
 40
0.0
 40
0.0
 40
0.0
 40
0.0
 40
0.1784868237160843
 40
0.3551332806448045
 40
0.4526176847412219
 40
0.5675537930371107
 40
0.6813672757391712
 40
0.8660378246746239
 40
1.0
 40
1.0
 40
1.0
 40
1.0
 10
331.3476574272156
 20
716.6358498950824
 30
0.0
 10
331.619319621334
 20
716.8252168616535
 30
0.0
 10
332.1598429172041
 20
717.201998243517
 30
0.0
 10
333.0166414998981
 20
717.7992613862461
 30
0.0
 10
333.887597372072
 20
718.4063576761006
 30
0.0
 10
334.6736679135895
 20
718.9543061370765
 30
0.0
 10
335.5697221540875
 20
719.5789287137071
 30
0.0
 10
336.3470055260096
 20
720.1207395996463
 30
0.0
 10
336.8287284423428
 20
720.456546832464
 30
0.0
 10
337.031258329773
 20
720.5977296551093
 30
0.0
  0
SPLINE
  5
206
330
1F
100
AcDbEntity
  8
0
  6
Continuous
 62
     7
370
    15
100
AcDbSpline
210
0.0
220
0.0
230
1.0
 70
     8
 71
     3
 72
    13
 73
     9
 74
     0
 42
0.00000001
 43
0.00000001
 12
1.0
 22
0.0
 32
0.0
 13
1.0
 23
0.0
 33
0.0
 40
0.0
 40
0.0
 40
0.0
 40
0.0
 40
0.2969725476994607
 40
0.4133511964458144
 40
0.5124857364527293
 40
0.6116643671139252
 40
0.7612000618479909
 40
1.0
 40
1.0
 40
1.0
 40
1.0
 10
337.031258329773
 20
720.5977296551093
 30
0.0
 10
337.5401803265448
 20
720.3591089716632
 30
0.0
 10
338.2485404692342
 20
720.02697677371
 30
0.0
 10
339.4480751544556
 20
719.4645462533355
 30
0.0
 10
340.2690794261135
 20
719.0795954540628
 30
0.0
 10
341.1597711845221
 20
718.6619705400881
 30
0.0
 10
342.2413742772795
 20
718.1548320505268
 30
0.0
 10
342.8994801265052
 20
717.846261953509
 30
0.0
 10
343.3041703552246
 20
717.6565123816356
 30
0.0
  0
SPLINE
  5
207
330
1F
100
AcDbEntity
  8
0
  6
Continuous
 62
     7
370
    15
100
AcDbSpline
210
0.0
220
0.0
230
1.0
 70
     8
 71
     3
 72
     9
 73
     5
 74
     0
 42
0.00000001
 43
0.00000001
 12
1.0
 22
0.0
 32
0.0
 13
1.0
 23
0.0
 33
0.0
 40
0.0
 40
0.0
 40
0.0
 40
0.0
 40
0.7717850842939525
 40
0.9999999999999999
 40
0.9999999999999999
 40
0.9999999999999999
 40
0.9999999999999999
 10
343.3041703552246
 20
717.6565123816356
 30
0.0
 10
343.3511441669899
 20
717.1061959353018
 30
0.0
 10
343.4120080172007
 20
716.3931522946135
 30
0.0
 10
343.4981616584473
 20
715.3839774061393
 30
0.0
 10
343.517823204422
 20
715.1536686440334
 30
0.0
  0
SPLINE
  5
208
330
1F
100
AcDbEntity
  8
0
  6
Continuous
 62
     7
370
    15
100
AcDbSpline
210
0.0
220
0.0
230
1.0
 70
     8
 71
     3
 72
    12
 73
     8
 74
     0
 42
0.00000001
 43
0.00000001
 12
1.0
 22
0.0
 32
0.0
 13
1.0
 23
0.0
 33
0.0
 40
0.0
 40
0.0
 40
0.0
 40
0.0
 40
0.0953580697717242
 40
0.2785589451273533
 40
0.4339378666017842
 40
0.7155008419784712
 40
1.0
 40
1.0
 40
1.0
 40
1.0
 10
341.9123273939133
 20
709.3724316080436
 30
0.0
 10
341.785293334442
 20
709.2838836004745
 30
0.0
 10
341.4142028364246
 20
709.025218134189
 30
0.0
 10
340.7474442182987
 20
708.5604320300508
 30
0.0
 10
339.8799526051342
 20
707.955721320788
 30
0.0
 10
339.0216892258254
 20
707.3574381872842
 30
0.0
 10
338.4813779266306
 20
706.9808209630855
 30
0.0
 10
338.2098209709168
 20
706.791535588108
 30
0.0
  0
SPLINE
  5
209
330
1F
100
AcDbEntity
  8
0
  6
Continuous
 62
     7
370
    15
100
AcDbSpline
210
0.0
220
0.0
230
1.0
 70
     8
 71
     3
 72
    13
 73
     9
 74
     0
 42
0.00000001
 43
0.00000001
 12
1.0
 22
0.0
 32
0.0
 13
1.0
 23
0.0
 33
0.0
 40
0.0
 40
0.0
 40
0.0
 40
0.0
 40
0.296970890140444
 40
0.4133497825769404
 40
0.5124845301658344
 40
0.6116649113865474
 40
0.761199561814766
 40
1.0
 40
1.0
 40
1.0
 40
1.0
 10
338.2098209709168
 20
706.791535588108
 30
0.0
 10
337.700910755106
 20
707.0301574225018
 30
0.0
 10
336.9925654793886
 20
707.362291940192
 30
0.0
 10
335.7930332501821
 20
707.9247182940056
 30
0.0
 10
334.9720271674701
 20
708.3096737233038
 30
0.0
 10
334.0813268747023
 20
708.7272874658601
 30
0.0
 10
332.9997366254314
 20
709.234438510117
 30
0.0
 10
332.3416305377412
 20
709.543004903766
 30
0.0
 10
331.9369387477875
 20
709.7327528615817
 30
0.0
  0
LINE
  5
20A
330
1F
100
AcDbEntity
  8
0
  6
Continuous
 62
     7
370
    15
100
AcDbLine
 10
337.6205396503
 20
720.6228343864
 30
0.0
 11
337.3324704021
 21
720.4565076252
 31
0.0
  0
LINE
  5
20B
330
1F
100
AcDbEntity
  8
0
  6
Continuous
 62
     7
370
    15
100
AcDbLine
 10
334.3991768211
 20
718.7629720291
 30
0.0
 11
331.6205572933
 21
717.1587353667
 31
0.0
  0
LINE
  5
20C
330
1F
100
AcDbEntity
  8
0
  6
Continuous
 62
     7
370
    15
100
AcDbLine
 10
343.6205518097
 20
717.1587353667
 30
0.0
 11
343.3324676603
 21
717.3250621279
 31
0.0
  0
LINE
  5
20D
330
1F
100
AcDbEntity
  8
0
  6
Continuous
 62
     7
370
    15
100
AcDbLine
 10
340.3991740793
 20
719.0186014493
 30
0.0
 11
337.6205396503
 21
720.6228343864
 31
0.0
  0
LINE
  5
20E
330
1F
100
AcDbEntity
  8
0
  6
Continuous
 62
     7
370
    15
100
AcDbLine
 10
337.6205396503
 20
706.7664308568
 30
0.0
 11
337.9086387009
 21
706.932757618
 31
0.0
  0
LINE
  5
20F
330
1F
100
AcDbEntity
  8
0
  6
Continuous
 62
     7
370
    15
100
AcDbLine
 10
340.8419322819
 20
708.6262969395
 30
0.0
 11
342.0616221279
 21
709.330481114
 31
0.0
  0
LINE
  5
210
330
1F
100
AcDbEntity
  8
0
  6
Continuous
 62
     7
370
    15
100
AcDbLine
 10
331.6205572933
 20
710.2305298766
 30
0.0
 11
331.9086563438
 21
710.0642031153
 31
0.0
  0
LINE
  5
211
330
1F
100
AcDbEntity
  8
0
  6
Continuous
 62
     7
370
    15
100
AcDbLine
 10
334.8419201225
 20
708.3706675192
 30
0.0
 11
337.6205396503
 21
706.7664308568
 31
0.0
  0
LINE
  5
212
330
1F
100
AcDbEntity
  8
0
  6
Continuous
 62
     7
370
    15
100
AcDbLine
 10
343.6205518097
 20
715.1248013695
 30
0.0
 11
343.6205518097
 21
717.1587353667
 31
0.0
  0
LINE
  5
213
330
1F
100
AcDbEntity
  8
0
  6
Continuous
 62
     7
370
    15
100
AcDbLine
 10
331.6205572933
 20
717.1587353667
 30
0.0
 11
331.6205572933
 21
716.8260781189
 31
0.0
  0
LINE
  5
214
330
1F
100
AcDbEntity
  8
0
  6
Continuous
 62
     7
370
    15
100
AcDbLine
 10
331.6205572933
 20
713.4390032013
 30
0.0
 11
331.6205572933
 21
710.2305298766
 31
0.0
  0
LINE
  5
215
330
1F
100
AcDbEntity
  8
0
  6
Continuous
 62
     7
370
    15
100
AcDbLine
 10
337.6205396503
 20
723.2209114452
 30
0.0
 11
337.6205396503
 21
720.6228343864
 31
0.0
  0
LINE
  5
216
330
1F
100
AcDbEntity
  8
0
  6
Continuous
 62
     7
370
    15
100
AcDbLine
 10
331.6205572933
 20
717.1587353667
 30
0.0
 11
331.6205572933
 21
719.7568124255
 31
0.0
  0
LINE
  5
217
330
1F
100
AcDbEntity
  8
0
  6
Continuous
 62
     7
370
    15
100
AcDbLine
 10
343.6205518097
 20
719.7568124255
 30
0.0
 11
343.6205518097
 21
717.1587353667
 31
0.0
  0
LINE
  5
218
330
1F
100
AcDbEntity
  8
0
  6
Continuous
 62
     7
370
    15
100
AcDbLine
 10
332.4554991573
 20
724.694632562
 30
0.0
 11
331.6205572933
 21
724.694632562
 31
0.0
  0
LINE
  5
219
330
1F
100
AcDbEntity
  8
0
  6
Continuous
 62
     7
370
    15
100
AcDbLine
 10
337.6205396503
 20
724.694632562
 30
0.0
 11
336.7856275887
 21
724.694632562
 31
0.0
  0
LINE
  5
21A
330
1F
100
AcDbEntity
  8
0
  6
Continuous
 62
     7
370
    15
100
AcDbLine
 10
337.6205396503
 20
723.2209114452
 30
0.0
 11
337.6205396503
 21
724.694632562
 31
0.0
  0
LINE
  5
21B
330
1F
100
AcDbEntity
  8
0
  6
Continuous
 62
     7
370
    15
100
AcDbLine
 10
331.6205572933
 20
719.7568124255
 30
0.0
 11
331.6205572933
 21
724.694632562
 31
0.0
  0
LINE
  5
21C
330
1F
100
AcDbEntity
  8
0
  6
Continuous
 62
     7
370
    15
100
AcDbLine
 10
338.4554815144
 20
724.694632562
 30
0.0
 11
337.6205396503
 21
724.694632562
 31
0.0
  0
LINE
  5
21D
330
1F
100
AcDbEntity
  8
0
  6
Continuous
 62
     7
370
    15
100
AcDbLine
 10
343.6205518097
 20
724.694632562
 30
0.0
 11
342.7856099457
 21
724.694632562
 31
0.0
  0
LINE
  5
21E
330
1F
100
AcDbEntity
  8
0
  6
Continuous
 62
     7
370
    15
100
AcDbLine
 10
343.6205518097
 20
719.7568124255
 30
0.0
 11
343.6205518097
 21
724.694632562
 31
0.0
  0
LINE
  5
21F
330
1F
100
AcDbEntity
  8
0
  6
Continuous
 62
     7
370
    15
100
AcDbLine
 10
331.1205637306
 20
724.694632562
 30
0.0
 11
331.6205572933
 21
724.694632562
 31
0.0
  0
LINE
  5
220
330
1F
100
AcDbEntity
  8
0
  6
Continuous
 62
     7
370
    15
100
AcDbLine
 10
343.6205518097
 20
724.694632562
 30
0.0
 11
344.1205602736
 21
724.694632562
 31
0.0
  0
LINE
  5
221
330
1F
100
AcDbEntity
  8
0
  6
Continuous
 62
     7
370
    15
100
AcDbLine
 10
338.4554815144
 20
724.694632562
 30
0.0
 11
342.7856099457
 21
724.694632562
 31
0.0
  0
LINE
  5
222
330
1F
100
AcDbEntity
  8
0
  6
Continuous
 62
     7
370
    15
100
AcDbLine
 10
332.4554991573
 20
724.694632562
 30
0.0
 11
336.7856275887
 21
724.694632562
 31
0.0
  0
LWPOLYLINE
  5
223
330
1F
100
AcDbEntity
  8
0
  6
Continuous
 62
     7
370
    15
100
AcDbPolyline
 90
       16
 70
   128
 43
0.0
 10
443.5290527195
 20
905.3078523
 10
443.5260426849
 20
905.300640138
 10
443.6376076788
 20
905.3751012405
 10
443.9909589142
 20
905.6930920204
 10
444.5670527071
 20
906.2374761422
 10
445.3348350376
 20
906.9789132198
 10
446.2528955788
 20
907.8774234374
 10
447.2717624754
 20
908.8845631202
 10
448.3364951462
 20
909.9460473379
 10
449.3896943182
 20
911.0046556314
 10
450.3745865673
 20
912.0033016523
 10
451.2380790562
 20
912.8881624063
 10
451.9336205572
 20
913.6115243753
 10
452.4237048477
 20
914.1344061216
 10
452.68192707
 20
914.428599747
 10
452.7073335499
 20
914.4861331304
  0
ARC
  5
224
330
1F
100
AcDbEntity
  8
0
  6
Continuous
 62
     7
370
    15
100
AcDbCircle
 10
346.0789842823
 20
1011.9362015675
 30
0.0
 40
148.9751305768137
100
AcDbArc
 50
312.3068185163
 51
317.6931814837
  0
ARC
  5
225
330
1F
100
AcDbEntity
  8
0
  6
Continuous
 62
     7
370
    15
100
AcDbCircle
 10
362.0201365002
 20
995.9950493496
 30
0.0
 40
126.8858151183922
100
AcDbArc
 50
312.5156728335
 51
317.4843271665
  0
LWPOLYLINE
  5
226
330
1F
100
AcDbEntity
  8
0
  6
Continuous
 62
     7
370
    15
100
AcDbPolyline
 90
       12
 70
   128
 43
0.0
 10
753.7117582411
 20
610.8034333309
 10
752.8630924076
 20
609.9778791984
 10
751.8880349249
 20
609.0185573419
 10
750.8391570896
 20
607.977204593
 10
749.7729790062
 20
606.9099387248
 10
748.7469893545
 20
605.8743080219
 10
747.8165012449
 20
604.9261471351
 10
747.031671986
 20
604.1165670474
 10
746.4348357767
 20
603.4891983589
 10
746.0581344217
 20
603.0778816064
 10
745.9218931049
 20
602.904789718
 10
745.9337842316
 20
602.9031356891
  0
ARC
  5
227
330
1F
100
AcDbEntity
  8
0
  6
Continuous
 62
     7
370
    15
100
AcDbCircle
 10
761.2694156569
 20
603.9285237612
 30
0.0
 40
10.21677870986947
100
AcDbArc
 50
127.0614994337
 51
137.7084182978
  0
ARC
  5
228
330
1F
100
AcDbEntity
  8
0
  6
Continuous
 62
     7
370
    15
100
AcDbCircle
 10
862.082553293
 20
496.1451544211
 30
0.0
 40
162.281835134147
100
AcDbArc
 50
133.3052351279
 51
137.5253113839
  0
ARC
  5
229
330
1F
100
AcDbEntity
  8
0
  6
Continuous
 62
     7
370
    15
100
AcDbCircle
 10
761.395865595
 20
604.1988454738
 30
0.0
 40
14.6148564554883
100
AcDbArc
 50
128.5552452349
 51
136.6067299117
  0
LINE
  5
22A
330
1F
100
AcDbEntity
  8
0
  6
Continuous
 62
     7
370
    15
100
AcDbLine
 10
391.6205596775
 20
793.6946345588
 30
0.0
 11
393.1643348783
 21
793.6946345588
 31
0.0
  0
LINE
  5
22B
330
1F
100
AcDbEntity
  8
0
  6
Continuous
 62
     7
370
    15
100
AcDbLine
 10
391.6205596775
 20
802.1946331581
 30
0.0
 11
394.7890531868
 21
802.1946331581
 31
0.0
  0
LINE
  5
22C
330
1F
100
AcDbEntity
  8
0
  6
Continuous
 62
     7
370
    15
100
AcDbLine
 10
391.6205596775
 20
793.6946345588
 30
0.0
 11
391.6205596775
 21
802.1946331581
 31
0.0
  0
LINE
  5
22D
330
1F
100
AcDbEntity
  8
0
  6
Continuous
 62
     7
370
    15
100
AcDbLine
 10
391.6205596775
 20
785.1946322342
 30
0.0
 11
391.9003587812
 21
785.1946322342
 31
0.0
  0
LINE
  5
22E
330
1F
100
AcDbEntity
  8
0
  6
Continuous
 62
     7
370
    15
100
AcDbLine
 10
391.6205596775
 20
785.1946322342
 30
0.0
 11
391.6205596775
 21
793.6946345588
 31
0.0
  0
LINE
  5
22F
330
1F
100
AcDbEntity
  8
0
  6
Continuous
 62
     7
370
    15
100
AcDbLine
 10
807.0205581039
 20
802.1946331581
 30
0.0
 11
803.8520496935
 21
802.1946331581
 31
0.0
  0
LINE
  5
230
330
1F
100
AcDbEntity
  8
0
  6
Continuous
 62
     7
370
    15
100
AcDbLine
 10
807.0205581039
 20
802.1946331581
 30
0.0
 11
807.0205581039
 21
793.6946345588
 31
0.0
  0
LINE
  5
231
330
1F
100
AcDbEntity
  8
0
  6
Continuous
 62
     7
370
    15
100
AcDbLine
 10
807.0205581039
 20
793.6946345588
 30
0.0
 11
805.4767680019
 21
793.6946345588
 31
0.0
  0
LINE
  5
232
330
1F
100
AcDbEntity
  8
0
  6
Continuous
 62
     7
370
    15
100
AcDbLine
 10
807.0205581039
 20
785.1946322342
 30
0.0
 11
806.740744099
 21
785.1946322342
 31
0.0
  0
LINE
  5
233
330
1F
100
AcDbEntity
  8
0
  6
Continuous
 62
     7
370
    15
100
AcDbLine
 10
807.0205581039
 20
793.6946345588
 30
0.0
 11
807.0205581039
 21
785.1946322342
 31
0.0
  0
LINE
  5
234
330
1F
100
AcDbEntity
  8
0
  6
Continuous
 62
     7
370
    15
100
AcDbLine
 10
807.0205581039
 20
732.19463286
 30
0.0
 11
806.740744099
 21
732.19463286
 31
0.0
  0
LINE
  5
235
330
1F
100
AcDbEntity
  8
0
  6
Continuous
 62
     7
370
    15
100
AcDbLine
 10
807.0205581039
 20
732.19463286
 30
0.0
 11
807.0205581039
 21
723.6946342607
 31
0.0
  0
LINE
  5
236
330
1F
100
AcDbEntity
  8
0
  6
Continuous
 62
     7
370
    15
100
AcDbLine
 10
807.0205581039
 20
723.6946342607
 30
0.0
 11
805.4767680019
 21
723.6946342607
 31
0.0
  0
LINE
  5
237
330
1F
100
AcDbEntity
  8
0
  6
Continuous
 62
     7
370
    15
100
AcDbLine
 10
807.0205581039
 20
715.1946319362
 30
0.0
 11
803.8520496935
 21
715.1946319362
 31
0.0
  0
LINE
  5
238
330
1F
100
AcDbEntity
  8
0
  6
Continuous
 62
     7
370
    15
100
AcDbLine
 10
807.0205581039
 20
723.6946342607
 30
0.0
 11
807.0205581039
 21
715.1946319362
 31
0.0
  0
LINE
  5
239
330
1F
100
AcDbEntity
  8
0
  6
Continuous
 62
     7
370
    15
100
AcDbLine
 10
391.6205596775
 20
723.6946342607
 30
0.0
 11
393.1643348783
 21
723.6946342607
 31
0.0
  0
LINE
  5
23A
330
1F
100
AcDbEntity
  8
0
  6
Continuous
 62
     7
370
    15
100
AcDbLine
 10
391.6205596775
 20
723.6946342607
 30
0.0
 11
391.6205596775
 21
732.19463286
 31
0.0
  0
LINE
  5
23B
330
1F
100
AcDbEntity
  8
0
  6
Continuous
 62
     7
370
    15
100
AcDbLine
 10
391.6205596775
 20
732.19463286
 30
0.0
 11
391.9003587812
 21
732.19463286
 31
0.0
  0
LINE
  5
23C
330
1F
100
AcDbEntity
  8
0
  6
Continuous
 62
     7
370
    15
100
AcDbLine
 10
391.6205596775
 20
715.1946319362
 30
0.0
 11
394.7890531868
 21
715.1946319362
 31
0.0
  0
LINE
  5
23D
330
1F
100
AcDbEntity
  8
0
  6
Continuous
 62
     7
370
    15
100
AcDbLine
 10
391.6205596775
 20
715.1946319362
 30
0.0
 11
391.6205596775
 21
723.6946342607
 31
0.0
  0
LINE
  5
23E
330
1F
100
AcDbEntity
  8
0
  6
Continuous
 62
     7
370
    15
100
AcDbLine
 10
395.6891578287
 20
832.8103950342
 30
0.0
 11
400.4774373621
 21
845.9660938104
 31
0.0
  0
LINE
  5
23F
330
1F
100
AcDbEntity
  8
0
  6
Continuous
 62
     7
370
    15
100
AcDbLine
 10
390.9008782953
 20
819.6546999832
 30
0.0
 11
395.6891578287
 21
832.8103950342
 31
0.0
  0
LINE
  5
240
330
1F
100
AcDbEntity
  8
0
  6
Continuous
 62
     7
370
    15
100
AcDbLine
 10
401.7591607422
 20
846.5637644847
 30
0.0
 11
408.4615540356
 21
844.1242953857
 31
0.0
  0
ARC
  5
241
330
1F
100
AcDbEntity
  8
0
  6
Continuous
 62
     7
370
    15
100
AcDbCircle
 10
401.4171366973
 20
845.6240744489
 30
0.0
 40
0.9999999999999706
100
AcDbArc
 50
70.0
 51
160.0
  0
ARC
  5
242
330
1F
100
AcDbEntity
  8
0
  6
Continuous
 62
     7
370
    15
100
AcDbCircle
 10
391.8405726841
 20
819.3126810669
 30
0.0
 40
0.99999999999999
100
AcDbArc
 50
160.0
 51
250.0
  0
LINE
  5
243
330
1F
100
AcDbEntity
  8
0
  6
Continuous
 62
     7
370
    15
100
AcDbLine
 10
398.200942263
 20
815.9335149546
 30
0.0
 11
391.4985489697
 21
818.372987779
 31
0.0
  0
ARC
  5
244
330
1F
100
AcDbEntity
  8
0
  6
Continuous
 62
     7
370
    15
100
AcDbCircle
 10
367.6205529942
 20
758.6946328426
 30
0.0
 40
23.50000000000017
100
AcDbArc
 50
19.0008023629
 51
70.9991976371
  0
ARC
  5
245
330
1F
100
AcDbEntity
  8
0
  6
Continuous
 62
     7
370
    15
100
AcDbCircle
 10
360.6205529942
 20
779.0231841928
 30
0.0
 40
2.000000000000013
100
AcDbArc
 50
0.0
 51
109.0008023629
  0
LINE
  5
246
330
1F
100
AcDbEntity
  8
0
  6
Continuous
 62
     7
370
    15
100
AcDbLine
 10
372.6205509752
 20
776.894907104
 30
0.0
 11
372.6205509752
 21
779.0231840779
 31
0.0
  0
LINE
  5
247
330
1F
100
AcDbEntity
  8
0
  6
Continuous
 62
     7
370
    15
100
AcDbLine
 10
362.6205456108
 20
779.0231840779
 30
0.0
 11
362.6205456108
 21
776.894907104
 31
0.0
  0
ARC
  5
248
330
1F
100
AcDbEntity
  8
0
  6
Continuous
 62
     7
370
    15
100
AcDbCircle
 10
367.6205529942
 20
758.6946328426
 30
0.0
 40
23.5000000000001
100
AcDbArc
 50
109.0008023629
 51
160.9991976371
  0
ARC
  5
249
330
1F
100
AcDbEntity
  8
0
  6
Continuous
 62
     7
370
    15
100
AcDbCircle
 10
374.6205529942
 20
779.0231841928
 30
0.0
 40
2.000000000000121
100
AcDbArc
 50
70.9991976371
 51
180.0
  0
ARC
  5
24A
330
1F
100
AcDbEntity
  8
0
  6
Continuous
 62
     7
370
    15
100
AcDbCircle
 10
367.6205529942
 20
758.6946328426
 30
0.0
 40
17.50000000000005
100
AcDbArc
 50
111.037221256
 51
158.962778744
  0
ARC
  5
24B
330
1F
100
AcDbEntity
  8
0
  6
Continuous
 62
     7
370
    15
100
AcDbCircle
 10
360.6205529942
 20
776.8949075658
 30
0.0
 40
2.000000000000079
100
AcDbArc
 50
291.037221256
 51
0.0
  0
ARC
  5
24C
330
1F
100
AcDbEntity
  8
0
  6
Continuous
 62
     7
370
    15
100
AcDbCircle
 10
367.6205529942
 20
758.6946328426
 30
0.0
 40
17.5000000000002
100
AcDbArc
 50
21.037221256
 51
68.962778744
  0
ARC
  5
24D
330
1F
100
AcDbEntity
  8
0
  6
Continuous
 62
     7
370
    15
100
AcDbCircle
 10
374.6205529942
 20
776.8949075658
 30
0.0
 40
2.000000000000114
100
AcDbArc
 50
180.0
 51
248.962778744
  0
ARC
  5
24E
330
1F
100
AcDbEntity
  8
0
  6
Continuous
 62
     7
370
    15
100
AcDbCircle
 10
387.9491043445
 20
765.6946328426
 30
0.0
 40
2.0
100
AcDbArc
 50
270.0
 51
19.0008023629
  0
LINE
  5
24F
330
1F
100
AcDbEntity
  8
0
  6
Continuous
 62
     7
370
    15
100
AcDbLine
 10
387.9491072744
 20
763.694632901
 30
0.0
 11
385.8208340258
 21
763.694632901
 31
0.0
  0
ARC
  5
250
330
1F
100
AcDbEntity
  8
0
  6
Continuous
 62
     7
370
    15
100
AcDbCircle
 10
385.8208277174
 20
765.6946328426
 30
0.0
 40
2.0
100
AcDbArc
 50
201.037221256
 51
270.0
  0
ARC
  5
251
330
1F
100
AcDbEntity
  8
0
  6
Continuous
 62
     7
370
    15
100
AcDbCircle
 10
349.420278271
 20
765.6946328426
 30
0.0
 40
2.0
100
AcDbArc
 50
270.0
 51
338.962778744
  0
ARC
  5
252
330
1F
100
AcDbEntity
  8
0
  6
Continuous
 62
     7
370
    15
100
AcDbCircle
 10
347.292001644
 20
765.6946328426
 30
0.0
 40
2.000000000000032
100
AcDbArc
 50
160.9991976371
 51
270.0
  0
LINE
  5
253
330
1F
100
AcDbEntity
  8
0
  6
Continuous
 62
     7
370
    15
100
AcDbLine
 10
349.4202774614
 20
763.694632901
 30
0.0
 11
347.2920042128
 21
763.694632901
 31
0.0
  0
ARC
  5
254
330
1F
100
AcDbEntity
  8
0
  6
Continuous
 62
     7
370
    15
100
AcDbCircle
 10
367.6205529942
 20
758.6946328426
 30
0.0
 40
23.49999999999988
100
AcDbArc
 50
199.0008023629
 51
250.9991976371
  0
ARC
  5
255
330
1F
100
AcDbEntity
  8
0
  6
Continuous
 62
     7
370
    15
100
AcDbCircle
 10
347.292001644
 20
751.6946328426
 30
0.0
 40
2.0
100
AcDbArc
 50
90.0
 51
199.0008023629
  0
ARC
  5
256
330
1F
100
AcDbEntity
  8
0
  6
Continuous
 62
     7
370
    15
100
AcDbCircle
 10
367.6205529942
 20
758.6946328426
 30
0.0
 40
17.49999999999998
100
AcDbArc
 50
291.037221256
 51
338.962778744
  0
ARC
  5
257
330
1F
100
AcDbEntity
  8
0
  6
Continuous
 62
     7
370
    15
100
AcDbCircle
 10
387.9491043445
 20
751.6946328426
 30
0.0
 40
2.0
100
AcDbArc
 50
340.9991976371
 51
90.0
  0
ARC
  5
258
330
1F
100
AcDbEntity
  8
0
  6
Continuous
 62
     7
370
    15
100
AcDbCircle
 10
349.420278271
 20
751.6946328426
 30
0.0
 40
2.000000000000114
100
AcDbArc
 50
21.037221256
 51
90.0
  0
LINE
  5
259
330
1F
100
AcDbEntity
  8
0
  6
Continuous
 62
     7
370
    15
100
AcDbLine
 10
347.2920042128
 20
753.6946326589
 30
0.0
 11
349.4202774614
 21
753.6946326589
 31
0.0
  0
ARC
  5
25A
330
1F
100
AcDbEntity
  8
0
  6
Continuous
 62
     7
370
    15
100
AcDbCircle
 10
385.8208277174
 20
751.6946328426
 30
0.0
 40
2.000000000000039
100
AcDbArc
 50
90.0
 51
158.962778744
  0
ARC
  5
25B
330
1F
100
AcDbEntity
  8
0
  6
Continuous
 62
     7
370
    15
100
AcDbCircle
 10
367.6205529942
 20
758.6946328426
 30
0.0
 40
23.49999999999999
100
AcDbArc
 50
289.0008023629
 51
340.9991976371
  0
LINE
  5
25C
330
1F
100
AcDbEntity
  8
0
  6
Continuous
 62
     7
370
    15
100
AcDbLine
 10
385.8208340258
 20
753.6946326589
 30
0.0
 11
387.9491072744
 21
753.6946326589
 31
0.0
  0
ARC
  5
25D
330
1F
100
AcDbEntity
  8
0
  6
Continuous
 62
     7
370
    15
100
AcDbCircle
 10
367.6205529942
 20
758.6946328426
 30
0.0
 40
17.49999999999995
100
AcDbArc
 50
201.037221256
 51
248.962778744
  0
ARC
  5
25E
330
1F
100
AcDbEntity
  8
0
  6
Continuous
 62
     7
370
    15
100
AcDbCircle
 10
360.6205529942
 20
740.4943581194
 30
0.0
 40
2.000000000000018
100
AcDbArc
 50
0.0
 51
68.962778744
  0
LINE
  5
25F
330
1F
100
AcDbEntity
  8
0
  6
Continuous
 62
     7
370
    15
100
AcDbLine
 10
372.6205509752
 20
738.3660810163
 30
0.0
 11
372.6205509752
 21
740.4943579902
 31
0.0
  0
LINE
  5
260
330
1F
100
AcDbEntity
  8
0
  6
Continuous
 62
     7
370
    15
100
AcDbLine
 10
362.6205456108
 20
740.4943579902
 30
0.0
 11
362.6205456108
 21
738.3660810163
 31
0.0
  0
ARC
  5
261
330
1F
100
AcDbEntity
  8
0
  6
Continuous
 62
     7
370
    15
100
AcDbCircle
 10
374.6205529942
 20
740.4943581194
 30
0.0
 40
2.000000000000057
100
AcDbArc
 50
111.037221256
 51
180.0
  0
ARC
  5
262
330
1F
100
AcDbEntity
  8
0
  6
Continuous
 62
     7
370
    15
100
AcDbCircle
 10
374.6205529942
 20
738.3660814923
 30
0.0
 40
2.000000000000057
100
AcDbArc
 50
180.0
 51
289.0008023629
  0
ARC
  5
263
330
1F
100
AcDbEntity
  8
0
  6
Continuous
 62
     7
370
    15
100
AcDbCircle
 10
360.6205529942
 20
738.3660814923
 30
0.0
 40
2.000000000000013
100
AcDbArc
 50
250.9991976371
 51
0.0
  0
SPLINE
  5
264
330
1F
100
AcDbEntity
  8
0
  6
Continuous
 62
     7
370
    15
100
AcDbSpline
210
0.0
220
0.0
230
1.0
 70
     8
 71
     3
 72
    13
 73
     9
 74
     0
 42
0.00000001
 43
0.00000001
 12
1.0
 22
0.0
 32
0.0
 13
1.0
 23
0.0
 33
0.0
 40
0.0
 40
0.0
 40
0.0
 40
0.0
 40
0.0023756518928912
 40
0.1025594500183908
 40
0.2027260417414933
 40
0.5623429016788245
 40
0.7895532099106386
 40
1.0
 40
1.0
 40
1.0
 40
1.0
 10
359.9693906158448
 20
780.9142122139558
 30
0.0
 10
359.9710893002338
 20
780.9147971432129
 30
0.0
 10
360.0444233342372
 20
780.9400491690208
 30
0.0
 10
360.189910767677
 20
780.9893155206057
 30
0.0
 10
360.6048185450972
 20
781.1253978654371
 30
0.0
 10
361.2016375785387
 20
781.3069463058096
 30
0.0
 10
362.0867141112373
 20
781.5398694995927
 30
0.0
 10
362.6252014054986
 20
781.6563587396497
 30
0.0
 10
362.8841322511673
 20
781.7123724242076
 30
0.0
  0
SPLINE
  5
265
330
1F
100
AcDbEntity
  8
0
  6
Continuous
 62
     7
370
    15
100
AcDbSpline
210
0.0
220
0.0
230
1.0
 70
     8
 71
     3
 72
    12
 73
     8
 74
     0
 42
0.00000001
 43
0.00000001
 12
1.0
 22
0.0
 32
0.0
 13
1.0
 23
0.0
 33
0.0
 40
0.0
 40
0.0
 40
0.0
 40
0.0
 40
0.1586881536440019
 40
0.6967038780731518
 40
0.8465632452802803
 40
0.9964462629329254
 40
1.0
 40
1.0
 40
1.0
 40
1.0
 10
390.3643917888642
 20
752.7938951832577
 30
0.0
 10
390.3340939627098
 20
752.6749252461932
 30
0.0
 10
390.2010744997301
 20
752.1526000780966
 30
0.0
 10
390.0512247953985
 20
751.6806827682751
 30
0.0
 10
389.9153089344404
 20
751.2637322106957
 30
0.0
 10
389.8658123178188
 20
751.1185404898805
 30
0.0
 10
389.8407202902933
 20
751.0451695520561
 30
0.0
 10
389.8401391357422
 20
751.0434702133164
 30
0.0
  0
SPLINE
  5
266
330
1F
100
AcDbEntity
  8
0
  6
Continuous
 62
     7
370
    15
100
AcDbSpline
210
0.0
220
0.0
230
1.0
 70
     8
 71
     3
 72
    12
 73
     8
 74
     0
 42
0.00000001
 43
0.00000001
 12
1.0
 22
0.0
 32
0.0
 13
1.0
 23
0.0
 33
0.0
 40
0.0
 40
0.0
 40
0.0
 40
0.0
 40
0.0032881303857862
 40
0.1419647590303958
 40
0.2806195055158285
 40
0.778409101629589
 40
1.0
 40
1.0
 40
1.0
 40
1.0
 10
389.8401391357422
 20
766.3457958122119
 30
0.0
 10
389.8407202894948
 20
766.3440963247458
 30
0.0
 10
389.8658115549769
 20
766.2707210931391
 30
0.0
 10
389.9153154804334
 20
766.1254491586939
 30
0.0
 10
390.0511783050391
 20
765.709218322637
 30
0.0
 10
390.2158958859075
 20
765.1844703043928
 30
0.0
 10
390.3646123252207
 20
764.597858321119
 30
0.0
 10
390.410421475792
 20
764.417164130263
 30
0.0
  0
SPLINE
  5
267
330
1F
100
AcDbEntity
  8
0
  6
Continuous
 62
     7
370
    15
100
AcDbSpline
210
0.0
220
0.0
230
1.0
 70
     8
 71
     3
 72
    13
 73
     9
 74
     0
 42
0.00000001
 43
0.00000001
 12
1.0
 22
0.0
 32
0.0
 13
1.0
 23
0.0
 33
0.0
 40
0.0
 40
0.0
 40
0.0
 40
0.0
 40
0.210446060147528
 40
0.4376590488266142
 40
0.7972746614206625
 40
0.8974409057125422
 40
0.997624356347138
 40
1.0
 40
1.0
 40
1.0
 40
1.0
 10
372.3569643348694
 20
781.7123724242076
 30
0.0
 10
372.6158948035873
 20
781.6563584505811
 30
0.0
 10
373.1543855815654
 20
781.5398676861486
 30
0.0
 10
374.0394726866596
 20
781.3069490522869
 30
0.0
 10
374.6362927991786
 20
781.1253977194357
 30
0.0
 10
375.0512007388207
 20
780.9893155403212
 30
0.0
 10
375.1966881528821
 20
780.9400491689411
 30
0.0
 10
375.2700221869624
 20
780.9147971432111
 30
0.0
 10
375.2717208713532
 20
780.9142122139558
 30
0.0
  0
SPLINE
  5
268
330
1F
100
AcDbEntity
  8
0
  6
Continuous
 62
     7
370
    15
100
AcDbSpline
210
0.0
220
0.0
230
1.0
 70
     8
 71
     3
 72
    13
 73
     9
 74
     0
 42
0.00000001
 43
0.00000001
 12
1.0
 22
0.0
 32
0.0
 13
1.0
 23
0.0
 33
0.0
 40
0.0
 40
0.0
 40
0.0
 40
0.0
 40
0.0023761231328806
 40
0.1025584489064122
 40
0.2027257362316947
 40
0.5623400643766162
 40
0.7895525085402064
 40
0.9999999999999999
 40
0.9999999999999999
 40
0.9999999999999999
 40
0.9999999999999999
 10
345.4009723514557
 20
751.0434702133164
 30
0.0
 10
345.4003861643595
 20
751.0451695226963
 30
0.0
 10
345.3750851020873
 20
751.1185152730935
 30
0.0
 10
345.325898739702
 20
751.2639814502662
 30
0.0
 10
345.1897625135257
 20
751.678909624654
 30
0.0
 10
345.0082529027671
 20
752.2757105365075
 30
0.0
 10
344.775316863546
 20
753.1607965776716
 30
0.0
 10
344.6588225168754
 20
753.6992865732949
 30
0.0
 10
344.6028065532685
 20
753.9582179022357
 30
0.0
  0
SPLINE
  5
269
330
1F
100
AcDbEntity
  8
0
  6
Continuous
 62
     7
370
    15
100
AcDbSpline
210
0.0
220
0.0
230
1.0
 70
     8
 71
     3
 72
    13
 73
     9
 74
     0
 42
0.00000001
 43
0.00000001
 12
1.0
 22
0.0
 32
0.0
 13
1.0
 23
0.0
 33
0.0
 40
0.0
 40
0.0
 40
0.0
 40
0.0
 40
0.0023756436466359
 40
0.1025589978043126
 40
0.2027252418336777
 40
0.5623409577279376
 40
0.7895538338317627
 40
0.9999999999999999
 40
0.9999999999999999
 40
0.9999999999999999
 40
0.9999999999999999
 10
375.2717208713532
 20
736.4750528802499
 30
0.0
 10
375.2700221869893
 20
736.4744679507619
 30
0.0
 10
375.1966882228667
 20
736.4492159386749
 30
0.0
 10
375.0512005837545
 20
736.3999521422417
 30
0.0
 10
374.6362927687798
 20
736.2638686334088
 30
0.0
 10
374.0394732339512
 20
736.0823145205073
 30
0.0
 10
373.1543850973591
 20
735.8494002929135
 30
0.0
 10
372.6158947370687
 20
735.7329075999887
 30
0.0
 10
372.3569643348694
 20
735.6768926699981
 30
0.0
  0
SPLINE
  5
26A
330
1F
100
AcDbEntity
  8
0
  6
Continuous
 62
     7
370
    15
100
AcDbSpline
210
0.0
220
0.0
230
1.0
 70
     8
 71
     3
 72
    13
 73
     9
 74
     0
 42
0.00000001
 43
0.00000001
 12
1.0
 22
0.0
 32
0.0
 13
1.0
 23
0.0
 33
0.0
 40
0.0
 40
0.0
 40
0.0
 40
0.0
 40
0.2104474766257819
 40
0.4376599047736333
 40
0.7972742075700793
 40
0.8974414878347752
 40
0.9976238065466604
 40
1.0
 40
1.0
 40
1.0
 40
1.0
 10
344.6028065532685
 20
763.4310476576313
 30
0.0
 10
344.6588225217466
 20
763.689978957215
 30
0.0
 10
344.7753168785478
 20
764.2284688917855
 30
0.0
 10
345.0082528210854
 20
765.1135555156221
 30
0.0
 10
345.1897628610084
 20
765.7103538410751
 30
0.0
 10
345.32589842254
 20
766.1252860210079
 30
0.0
 10
345.3750858452182
 20
766.2707459618684
 30
0.0
 10
345.4003861645857
 20
766.3440963462249
 30
0.0
 10
345.4009723514557
 20
766.3457958122119
 30
0.0
  0
SPLINE
  5
26B
330
1F
100
AcDbEntity
  8
0
  6
Continuous
 62
     7
370
    15
100
AcDbSpline
210
0.0
220
0.0
230
1.0
 70
     8
 71
     3
 72
    13
 73
     9
 74
     0
 42
0.00000001
 43
0.00000001
 12
1.0
 22
0.0
 32
0.0
 13
1.0
 23
0.0
 33
0.0
 40
0.0
 40
0.0
 40
0.0
 40
0.0
 40
0.2104468961107963
 40
0.4376570917656448
 40
0.7972740550041575
 40
0.8974406464649146
 40
0.9976243481133309
 40
1.0
 40
1.0
 40
1.0
 40
1.0
 10
362.8841322511673
 20
735.6768926699981
 30
0.0
 10
362.6252014720181
 20
735.7329073109242
 30
0.0
 10
362.0867145954458
 20
735.8493984794663
 30
0.0
 10
361.2016370312413
 20
736.0823172669782
 30
0.0
 10
360.6048185754974
 20
736.2638684874092
 30
0.0
 10
360.1899109227426
 20
736.3999521619569
 30
0.0
 10
360.0444232642538
 20
736.4492159385952
 30
0.0
 10
359.9710893002069
 20
736.4744679507601
 30
0.0
 10
359.9693906158448
 20
736.4750528802499
 30
0.0
  0
ARC
  5
26C
330
1F
100
AcDbEntity
  8
0
  6
Continuous
 62
     7
370
    15
100
AcDbCircle
 10
367.6205529942
 20
758.6946328426
 30
0.0
 40
23.50000000000012
100
AcDbArc
 50
78.3724117729
 51
101.6275882271
  0
ARC
  5
26D
330
1F
100
AcDbEntity
  8
0
  6
Continuous
 62
     7
370
    15
100
AcDbCircle
 10
367.6205529942
 20
758.6946328426
 30
0.0
 40
23.49999999999996
100
AcDbArc
 50
168.3724117729
 51
191.6275882271
  0
ARC
  5
26E
330
1F
100
AcDbEntity
  8
0
  6
Continuous
 62
     7
370
    15
100
AcDbCircle
 10
367.6205529942
 20
758.6946328426
 30
0.0
 40
23.49999999999986
100
AcDbArc
 50
258.3724117729
 51
281.6275882271
  0
LINE
  5
26F
330
1F
100
AcDbEntity
  8
0
  6
Continuous
 62
     7
370
    15
100
AcDbLine
 10
809.6205574125
 20
779.1946331133
 30
0.0
 11
809.6205574125
 21
738.1947530528
 31
0.0
  0
LINE
  5
270
330
1F
100
AcDbEntity
  8
0
  6
Continuous
 62
     7
370
    15
100
AcDbLine
 10
401.3180565685
 20
691.4798846563
 30
0.0
 11
400.8734655231
 21
692.8041061481
 31
0.0
  0
LINE
  5
271
330
1F
100
AcDbEntity
  8
0
  6
Continuous
 62
     7
370
    15
100
AcDbLine
 10
398.7336736769
 20
699.6377823969
 30
0.0
 11
398.5366803259
 21
700.3110205849
 31
0.0
  0
LWPOLYLINE
  5
272
330
1F
100
AcDbEntity
  8
0
  6
Continuous
 62
     7
370
    15
100
AcDbPolyline
 90
        3
 70
   128
 43
0.0
 10
750.1691114754
 20
903.4962883314
 10
753.8473141045
 20
899.5643934329
 10
759.172422871
 20
893.491484793
  0
LINE
  5
273
330
1F
100
AcDbEntity
  8
0
  6
Continuous
 62
     7
370
    15
100
AcDbLine
 10
477.7560067028
 20
945.2505936941
 30
0.0
 11
484.5576566309
 21
933.46981016
 31
0.0
  0
LINE
  5
274
330
1F
100
AcDbEntity
  8
0
  6
Continuous
 62
     7
370
    15
100
AcDbLine
 10
505.3694230169
 20
945.4227617105
 30
0.0
 11
498.5406157226
 21
957.2506031116
 31
0.0
  0
LINE
  5
275
330
1F
100
AcDbEntity
  8
0
  6
Continuous
 62
     7
370
    15
100
AcDbLine
 10
509.0590324849
 20
960.4743650277
 30
0.0
 11
516.3487252444
 21
950.5419662317
 31
0.0
  0
LINE
  5
276
330
1F
100
AcDbEntity
  8
0
  6
Continuous
 62
     7
370
    15
100
AcDbLine
 10
474.6791255325
 20
926.4345994314
 30
0.0
 11
469.7049465627
 21
937.7532681545
 31
0.0
  0
LINE
  5
277
330
1F
100
AcDbEntity
  8
0
  6
Continuous
 62
     7
370
    15
100
AcDbLine
 10
806.9464099258
 20
782.7631091793
 30
0.0
 11
819.1976827234
 21
781.4157256951
 31
0.0
  0
LINE
  5
278
330
1F
100
AcDbEntity
  8
0
  6
Continuous
 62
     7
370
    15
100
AcDbLine
 10
819.4390815348
 20
770.6946326514
 30
0.0
 11
809.6205574125
 21
770.6946326514
 31
0.0
  0
LINE
  5
279
330
1F
100
AcDbEntity
  8
0
  6
Continuous
 62
     7
370
    15
100
AcDbLine
 10
809.6205574125
 20
746.6946324428
 30
0.0
 11
819.4390815348
 21
746.6946324428
 31
0.0
  0
LINE
  5
27A
330
1F
100
AcDbEntity
  8
0
  6
Continuous
 62
     7
370
    15
100
AcDbLine
 10
819.1976827234
 20
735.9735412618
 30
0.0
 11
807.0180249065
 21
734.6340330412
 31
0.0
  0
LINE
  5
27B
330
1F
100
AcDbEntity
  8
0
  6
Continuous
 62
     7
370
    15
100
AcDbLine
 10
469.7049465627
 20
579.636000665
 30
0.0
 11
474.6301230639
 21
590.8431789001
 31
0.0
  0
LINE
  5
27C
330
1F
100
AcDbEntity
  8
0
  6
Continuous
 62
     7
370
    15
100
AcDbLine
 10
498.5406157226
 20
560.1386657079
 30
0.0
 11
505.3688791245
 21
571.9655683359
 31
0.0
  0
LINE
  5
27D
330
1F
100
AcDbEntity
  8
0
  6
Continuous
 62
     7
370
    15
100
AcDbLine
 10
484.6097734422
 20
584.009729894
 30
0.0
 11
477.7560067028
 21
572.1386602243
 31
0.0
  0
LINE
  5
27E
330
1F
100
AcDbEntity
  8
0
  6
Continuous
 62
     7
370
    15
100
AcDbLine
 10
516.3414683789
 20
566.8374082168
 30
0.0
 11
509.0590324849
 21
556.9149037917
 31
0.0
  0
LINE
  5
27F
330
1F
100
AcDbEntity
  8
0
  6
Continuous
 62
     7
370
    15
100
AcDbLine
 10
819.4390815348
 20
746.6946324428
 30
0.0
 11
821.5589505285
 21
746.6946324428
 31
0.0
  0
ARC
  5
280
330
1F
100
AcDbEntity
  8
0
  6
Continuous
 62
     7
370
    15
100
AcDbCircle
 10
599.3205529942
 20
758.6946328426
 30
0.0
 40
222.562132482968
100
AcDbArc
 50
356.9092544534
 51
3.0907455466
  0
LINE
  5
281
330
1F
100
AcDbEntity
  8
0
  6
Continuous
 62
     7
370
    15
100
AcDbLine
 10
821.5589505285
 20
770.6946326514
 30
0.0
 11
819.4390815348
 21
770.6946326514
 31
0.0
  0
ARC
  5
282
330
1F
100
AcDbEntity
  8
0
  6
Continuous
 62
     7
370
    15
100
AcDbCircle
 10
599.3205529942
 20
758.6946328426
 30
0.0
 40
227.5000000000001
100
AcDbArc
 50
356.1419433523
 51
3.8580566477
  0
SPLINE
  5
283
330
1F
100
AcDbEntity
  8
0
  6
Continuous
 62
     7
370
    15
100
AcDbSpline
210
0.0
220
0.0
230
1.0
 70
     8
 71
     3
 72
    15
 73
    11
 74
     0
 42
0.00000001
 43
0.00000001
 12
1.0
 22
0.0
 32
0.0
 13
1.0
 23
0.0
 33
0.0
 40
0.0
 40
0.0
 40
0.0
 40
0.0
 40
0.0016890075362614
 40
0.0673825285951506
 40
0.1463940921674639
 40
0.2329748919052805
 40
0.3879454404823218
 40
0.6419684787830737
 40
0.8154236822198575
 40
1.0
 40
1.0
 40
1.0
 40
1.0
 10
826.3050001710892
 20
743.3873141278848
 30
0.0
 10
826.3046048799496
 20
743.3815550359832
 30
0.0
 10
826.288834839882
 20
743.1517975207473
 30
0.0
 10
826.233067036491
 20
742.6537044914497
 30
0.0
 10
826.0721435429758
 20
741.8774666741261
 30
0.0
 10
825.735235552165
 20
740.828866385646
 30
0.0
 10
824.9642259813189
 20
739.2915169962948
 30
0.0
 10
823.5738458460208
 20
737.7548542470593
 30
0.0
 10
821.714532642456
 20
736.5724340431688
 30
0.0
 10
820.4641689323919
 20
736.2387980073231
 30
0.0
 10
819.8195677846909
 20
736.0667983164415
 30
0.0
  0
ARC
  5
284
330
1F
100
AcDbEntity
  8
0
  6
Continuous
 62
     7
370
    15
100
AcDbCircle
 10
599.3205529942
 20
758.6946328426
 30
0.0
 40
224.2511456165759
100
AcDbArc
 50
236.932555659
 51
243.067444341
  0
ARC
  5
285
330
1F
100
AcDbEntity
  8
0
  6
Continuous
 62
     7
370
    15
100
AcDbCircle
 10
599.3205529942
 20
758.6946328426
 30
0.0
 40
227.5
100
AcDbArc
 50
236.1419433523
 51
243.8580566477
  0
LINE
  5
286
330
1F
100
AcDbEntity
  8
0
  6
Continuous
 62
     7
370
    15
100
AcDbLine
 10
497.7479335517
 20
558.7657025178
 30
0.0
 11
498.5406157226
 21
560.1386657079
 31
0.0
  0
LINE
  5
287
330
1F
100
AcDbEntity
  8
0
  6
Continuous
 62
     7
370
    15
100
AcDbLine
 10
477.7560067028
 20
572.1386602243
 30
0.0
 11
476.9633245319
 21
570.7656970342
 31
0.0
  0
ARC
  5
288
330
1F
100
AcDbEntity
  8
0
  6
Continuous
 62
     7
370
    15
100
AcDbCircle
 10
599.3205529942
 20
758.6946328426
 30
0.0
 40
224.2511456152347
100
AcDbArc
 50
116.932555659
 51
123.067444341
  0
ARC
  5
289
330
1F
100
AcDbEntity
  8
0
  6
Continuous
 62
     7
370
    15
100
AcDbCircle
 10
599.3205529942
 20
758.6946328426
 30
0.0
 40
227.5000000000001
100
AcDbArc
 50
116.1419433523
 51
123.8580566477
  0
LINE
  5
28A
330
1F
100
AcDbEntity
  8
0
  6
Continuous
 62
     7
370
    15
100
AcDbLine
 10
476.9633245319
 20
946.6235717853
 30
0.0
 11
477.7560067028
 21
945.2505936941
 31
0.0
  0
LINE
  5
28B
330
1F
100
AcDbEntity
  8
0
  6
Continuous
 62
     7
370
    15
100
AcDbLine
 10
498.5406157226
 20
957.2506031116
 30
0.0
 11
497.7479335517
 21
958.6235663017
 31
0.0
  0
SPLINE
  5
28C
330
1F
100
AcDbEntity
  8
0
  6
Continuous
 62
     7
370
    15
100
AcDbSpline
210
0.0
220
0.0
230
1.0
 70
     8
 71
     3
 72
    12
 73
     8
 74
     0
 42
0.00000001
 43
0.00000001
 12
1.0
 22
0.0
 32
0.0
 13
1.0
 23
0.0
 33
0.0
 40
0.0
 40
0.0
 40
0.0
 40
0.0
 40
0.2420735900148411
 40
0.4841826628414931
 40
0.7262468931523934
 40
0.9682067755758181
 40
1.0
 40
1.0
 40
1.0
 40
1.0
 10
469.7049465626717
 20
937.7532681544646
 30
0.0
 10
469.4239328926074
 20
938.6126120299019
 30
0.0
 10
468.8618643618839
 20
940.3314257422123
 30
0.0
 10
469.1616305206352
 20
943.0804457125488
 30
0.0
 10
470.2894591740836
 20
945.5601757228629
 30
0.0
 10
471.6420982598735
 20
946.9723072939264
 30
0.0
 10
472.4750640711254
 20
947.5483574676495
 30
0.0
 10
472.5718033164978
 20
947.6152589639053
 30
0.0
  0
SPLINE
  5
28D
330
1F
100
AcDbEntity
  8
0
  6
Continuous
 62
     7
370
    15
100
AcDbSpline
210
0.0
220
0.0
230
1.0
 70
     8
 71
     3
 72
    12
 73
     8
 74
     0
 42
0.00000001
 43
0.00000001
 12
1.0
 22
0.0
 32
0.0
 13
1.0
 23
0.0
 33
0.0
 40
0.0
 40
0.0
 40
0.0
 40
0.0
 40
0.242073267945034
 40
0.4841829331812842
 40
0.7262468672926733
 40
0.9682065634193933
 40
0.9999999999999999
 40
0.9999999999999999
 40
0.9999999999999999
 40
0.9999999999999999
 10
509.0590324849129
 20
556.914903791748
 30
0.0
 10
508.4553252586794
 20
556.2418674295858
 30
0.0
 10
507.2478200349022
 20
554.8956935098644
 30
0.0
 10
504.7172099862264
 20
553.7807939789998
 30
0.0
 10
502.0057862745403
 20
553.5176517073678
 30
0.0
 10
500.1065186460333
 20
553.9830004259235
 30
0.0
 10
499.1911664446361
 20
554.4163579657301
 30
0.0
 10
499.0848582834244
 20
554.4666877110824
 30
0.0
  0
SPLINE
  5
28E
330
1F
100
AcDbEntity
  8
0
  6
Continuous
 62
     7
370
    15
100
AcDbSpline
210
0.0
220
0.0
230
1.0
 70
     8
 71
     3
 72
    12
 73
     8
 74
     0
 42
0.00000001
 43
0.00000001
 12
1.0
 22
0.0
 32
0.0
 13
1.0
 23
0.0
 33
0.0
 40
0.0
 40
0.0
 40
0.0
 40
0.0
 40
0.2418803957326143
 40
0.4837353050318471
 40
0.7256117986536411
 40
0.9675804606347725
 40
1.0
 40
1.0
 40
1.0
 40
1.0
 10
499.0848582834244
 20
962.9225811084136
 30
0.0
 10
499.9309416904795
 20
963.2394305549461
 30
0.0
 10
501.6230193545437
 20
963.8730960622449
 30
0.0
 10
504.379872592746
 20
963.6909055853648
 30
0.0
 10
506.9040671598623
 20
962.6711363912866
 30
0.0
 10
508.3744054473736
 20
961.3795864780732
 30
0.0
 10
508.9866898082174
 20
960.5700173159694
 30
0.0
 10
509.0590324849129
 20
960.474365027748
 30
0.0
  0
SPLINE
  5
28F
330
1F
100
AcDbEntity
  8
0
  6
Continuous
 62
     7
370
    15
100
AcDbSpline
210
0.0
220
0.0
230
1.0
 70
     8
 71
     3
 72
    12
 73
     8
 74
     0
 42
0.00000001
 43
0.00000001
 12
1.0
 22
0.0
 32
0.0
 13
1.0
 23
0.0
 33
0.0
 40
0.0
 40
0.0
 40
0.0
 40
0.0
 40
0.2418801746840287
 40
0.4837351547607618
 40
0.7256115506487784
 40
0.9675795669261569
 40
1.0
 40
1.0
 40
1.0
 40
1.0
 10
472.5718033164978
 20
569.7739949544296
 30
0.0
 10
471.8743645888437
 20
570.3483022169879
 30
0.0
 10
470.4795597798154
 20
571.496856921386
 30
0.0
 10
469.2589167833115
 20
573.9754579145213
 30
0.0
 10
468.8799637264931
 20
576.6713550355995
 30
0.0
 10
469.26329909699
 20
578.5904871529824
 30
0.0
 10
469.6582777635476
 20
579.525521461896
 30
0.0
 10
469.7049465626717
 20
579.6360006650314
 30
0.0
  0
SPLINE
  5
290
330
1F
100
AcDbEntity
  8
0
  6
Continuous
 62
     7
370
    15
100
AcDbSpline
210
0.0
220
0.0
230
1.0
 70
     8
 71
     3
 72
    12
 73
     8
 74
     0
 42
0.00000001
 43
0.00000001
 12
1.0
 22
0.0
 32
0.0
 13
1.0
 23
0.0
 33
0.0
 40
0.0
 40
0.0
 40
0.0
 40
0.0
 40
0.2420661721715605
 40
0.4841751622388259
 40
0.7262437629131843
 40
0.9682109591116843
 40
0.9999999999999999
 40
0.9999999999999999
 40
0.9999999999999999
 40
0.9999999999999999
 10
819.1976827234269
 20
781.415725695096
 30
0.0
 10
820.0824094167926
 20
781.2294136791975
 30
0.0
 10
821.8520192984814
 20
780.8567566915837
 30
0.0
 10
824.0828686224546
 20
779.2226112106744
 30
0.0
 10
825.666448756813
 20
777.0059963725386
 30
0.0
 10
826.2130475870028
 20
775.128537108142
 30
0.0
 10
826.2954333910864
 20
774.1191622291467
 30
0.0
 10
826.3050001710892
 20
774.0019518976435
 30
0.0
  0
LINE
  5
291
330
1F
100
AcDbEntity
  8
0
  6
Continuous
 62
     7
370
    15
100
AcDbLine
 10
819.8195677847
 20
736.0667983164
 30
0.0
 11
819.1976827234
 21
735.9735412618
 31
0.0
  0
ARC
  5
292
330
1F
100
AcDbEntity
  8
0
  6
Continuous
 62
     7
370
    15
100
AcDbCircle
 10
495.5705529942
 20
938.3949041278
 30
0.0
 40
5.500000000000046
100
AcDbArc
 50
46.187264951
 51
193.812735049
  0
ARC
  5
293
330
1F
100
AcDbEntity
  8
0
  6
Continuous
 62
     7
370
    15
100
AcDbCircle
 10
806.8205529942
 20
758.6946328426
 30
0.0
 40
5.500000000000094
100
AcDbArc
 50
300.6032946082
 51
59.3967053918
  0
ARC
  5
294
330
1F
100
AcDbEntity
  8
0
  6
Continuous
 62
     7
370
    15
100
AcDbCircle
 10
495.5705529942
 20
578.9943615573
 30
0.0
 40
5.500000000000073
100
AcDbArc
 50
166.187264951
 51
313.812735049
  0
LINE
  5
295
330
1F
100
AcDbEntity
  8
0
  6
Continuous
 62
     7
370
    15
100
AcDbLine
 10
309.6205425114
 20
745.6946332102
 30
0.0
 11
309.6205425114
 21
745.7638817002
 31
0.0
  0
ELLIPSE
  5
296
330
1F
100
AcDbEntity
  8
0
  6
Continuous
 62
     7
370
    15
100
AcDbEllipse
 10
284.2012968459
 20
758.6946328426
 30
0.0
 11
31.41925614832661
 21
0.0
 31
0.0
210
0.0
220
0.0
230
1.0
 40
0.7002075382
 41
5.654896232350422
 42
6.911474382008767
  0
LINE
  5
297
330
1F
100
AcDbEntity
  8
0
  6
Continuous
 62
     7
370
    15
100
AcDbLine
 10
309.6205425114
 20
771.6253843253
 30
0.0
 11
309.6205425114
 21
771.6946328153
 31
0.0
  0
LINE
  5
298
330
1F
100
AcDbEntity
  8
0
  6
Continuous
 62
     7
370
    15
100
AcDbLine
 10
328.7269902081
 20
771.6946328153
 30
0.0
 11
309.6205425114
 21
771.6946328153
 31
0.0
  0
LWPOLYLINE
  5
299
330
1F
100
AcDbEntity
  8
0
  6
Continuous
 62
     7
370
    15
100
AcDbPolyline
 90
       20
 70
   128
 43
0.0
 10
328.7269902081
 20
745.6946332102
 10
330.4797541946
 20
745.871935608
 10
332.1847152561
 20
746.3990083059
 10
333.7953519672
 20
747.2614744773
 10
335.2677357048
 20
748.4358061199
 10
336.5616929382
 20
749.8899722566
 10
337.6419377178
 20
751.5843069275
 10
338.479025349
 20
753.4725923186
 10
339.0500974506
 20
755.5033214019
 10
339.3395972103
 20
757.6211013227
 10
339.3395972103
 20
759.7681643536
 10
339.0500974506
 20
761.885944158
 10
338.479025349
 20
763.9166732413
 10
337.6419377178
 20
765.804959098
 10
336.5616929382
 20
767.4992928376
 10
335.2677357048
 20
768.9534599056
 10
333.7953519672
 20
770.1277915483
 10
332.1847152561
 20
770.9902567883
 10
330.4797541946
 20
771.5173294862
 10
328.7269902081
 20
771.6946328153
  0
LINE
  5
29A
330
1F
100
AcDbEntity
  8
0
  6
Continuous
 62
     7
370
    15
100
AcDbLine
 10
328.7269902081
 20
745.6946332102
 30
0.0
 11
309.6205425114
 21
745.6946332102
 31
0.0
  0
LWPOLYLINE
  5
29B
330
1F
100
AcDbEntity
  8
0
  6
Continuous
 62
     7
370
    15
100
AcDbPolyline
 90
       24
 70
   128
 43
0.0
 10
324.63122724
 20
758.6946328418
 10
324.7830998749
 20
757.3456489343
 10
325.227482304
 20
756.0967131147
 10
325.9314131588
 20
755.0404529182
 10
326.8426787704
 20
754.2552068924
 10
327.8936874718
 20
753.7992122677
 10
329.0064763874
 20
753.7062890922
 10
330.0985824913
 20
753.9833282215
 10
331.0889434666
 20
754.6097832826
 10
331.9041263908
 20
755.5391931535
 10
332.483662352
 20
756.7026273907
 10
332.7846062035
 20
758.0137995981
 10
332.7846062035
 20
759.3754660782
 10
332.483662352
 20
760.6866384019
 10
331.9041263908
 20
761.8500726392
 10
331.0889434666
 20
762.7794822772
 10
330.0985824913
 20
763.4059373384
 10
329.0064763874
 20
763.6829764677
 10
327.8936874718
 20
763.5900532921
 10
326.8426787704
 20
763.1340591331
 10
325.9314131588
 20
762.3488126417
 10
325.227482304
 20
761.292552678
 10
324.7830998749
 20
760.043616742
 10
324.63122724
 20
758.6946328418
  0
LINE
  5
29C
330
1F
100
AcDbEntity
  8
0
  6
Continuous
 62
     7
370
    15
100
AcDbLine
 10
338.1300699562
 20
771.6946328153
 30
0.0
 11
328.7269902081
 21
771.6946328153
 31
0.0
  0
SPLINE
  5
29D
330
1F
100
AcDbEntity
  8
0
  6
Continuous
 62
     7
370
    15
100
AcDbSpline
210
0.0
220
0.0
230
1.0
 70
     8
 71
     3
 72
    12
 73
     8
 74
     0
 42
0.00000001
 43
0.00000001
 12
1.0
 22
0.0
 32
0.0
 13
1.0
 23
0.0
 33
0.0
 40
0.0
 40
0.0
 40
0.0
 40
0.0
 40
0.1163104940588125
 40
0.3299853012465939
 40
0.5505413853948545
 40
0.962437641946405
 40
1.0
 40
1.0
 40
1.0
 40
1.0
 10
346.6439825147629
 20
768.8946310525164
 30
0.0
 10
346.3906899580153
 20
769.1278607763492
 30
0.0
 10
345.6720719062376
 20
769.7895584271195
 30
0.0
 10
344.1876926051866
 20
770.5537557101254
 30
0.0
 10
341.7609812799721
 20
771.4306362516415
 30
0.0
 10
339.6497803163628
 20
771.6856138553652
 30
0.0
 10
338.2472803185749
 20
771.6939372120084
 30
0.0
 10
338.1300699562073
 20
771.6946328153238
 30
0.0
  0
SPLINE
  5
29E
330
1F
100
AcDbEntity
  8
0
  6
Continuous
 62
     7
370
    15
100
AcDbSpline
210
0.0
220
0.0
230
1.0
 70
     8
 71
     3
 72
    13
 73
     9
 74
     0
 42
0.00000001
 43
0.00000001
 12
1.0
 22
0.0
 32
0.0
 13
1.0
 23
0.0
 33
0.0
 40
0.0
 40
0.0
 40
0.0
 40
0.0
 40
0.0085848206724387
 40
0.2385591523021525
 40
0.474400249286933
 40
0.7047411419211168
 40
0.9435034359803205
 40
1.0
 40
1.0
 40
1.0
 40
1.0
 10
338.1300699562073
 20
745.6946332102045
 30
0.0
 10
338.1565540256216
 20
745.6946687133085
 30
0.0
 10
338.8925061660369
 20
745.6956552907461
 30
0.0
 10
340.3572280277301
 20
745.7843359075375
 30
0.0
 10
342.4602632492238
 20
746.190422186612
 30
0.0
 10
344.4417226717472
 20
746.9486074311076
 30
0.0
 10
345.8259207033807
 20
747.6995189871495
 30
0.0
 10
346.4579692607194
 20
748.2866597995996
 30
0.0
 10
346.5789091438294
 20
748.3990067710504
 30
0.0
  0
LINE
  5
29F
330
1F
100
AcDbEntity
  8
0
  6
Continuous
 62
     7
370
    15
100
AcDbLine
 10
338.1300699562
 20
745.6946332102
 30
0.0
 11
328.7269902081
 21
745.6946332102
 31
0.0
  0
ARC
  5
2A0
330
1F
100
AcDbEntity
  8
0
  6
Continuous
 62
     7
370
    15
100
AcDbCircle
 10
330.4711633731
 20
758.3050158862
 30
0.0
 40
4.708931273689593
100
AcDbArc
 50
175.2539216792
 51
255.6058528559
  0
ARC
  5
2A1
330
1F
100
AcDbEntity
  8
0
  6
Continuous
 62
     7
370
    15
100
AcDbCircle
 10
330.4711633049
 20
759.084249732
 30
0.0
 40
4.708931200294917
100
AcDbArc
 50
104.3941465164
 51
184.7460775962
  0
SPLINE
  5
2A2
330
1F
100
AcDbEntity
  8
0
  6
Continuous
 62
     7
370
    15
100
AcDbSpline
210
0.0
220
0.0
230
1.0
 70
     8
 71
     3
 72
    21
 73
    17
 74
     0
 42
0.00000001
 43
0.00000001
 12
1.0
 22
0.0
 32
0.0
 13
1.0
 23
0.0
 33
0.0
 40
0.0
 40
0.0
 40
0.0
 40
0.0
 40
0.0970951247146912
 40
0.1939345071574136
 40
0.2974284524603427
 40
0.3534275972787271
 40
0.4112511324357685
 40
0.4634722283398682
 40
0.5177825755039929
 40
0.6080902966950471
 40
0.7004810581414789
 40
0.8071757579214225
 40
0.8631829454081786
 40
0.9211424560021761
 40
0.9719264616564981
 40
1.0
 40
1.0
 40
1.0
 40
1.0
 10
349.6205490678788
 20
736.6946326663121
 30
0.0
 10
349.5057360056613
 20
736.7583044014568
 30
0.0
 10
349.2764122913985
 20
736.8854801645183
 30
0.0
 10
347.5130813944606
 20
737.7985339908997
 30
0.0
 10
345.2972220774549
 20
738.7643911389717
 30
0.0
 10
343.002993637933
 20
739.5150339039593
 30
0.0
 10
341.0593157616001
 20
739.9726191809216
 30
0.0
 10
339.002143528308
 20
740.2411007635243
 30
0.0
 10
336.4672467667454
 20
740.2927442083759
 30
0.0
 10
333.4639121786114
 20
739.8843704207769
 30
0.0
 10
330.2704341775497
 20
738.9092714698345
 30
0.0
 10
328.0487781538039
 20
737.9369951644431
 30
0.0
 10
326.6686170550017
 20
737.2528618206459
 30
0.0
 10
325.9767054782489
 20
736.8882998200817
 30
0.0
 10
325.6359190962714
 20
736.7030314811861
 30
0.0
 10
325.6558122187426
 20
736.7138514467277
 30
0.0
 10
325.6628942340851
 20
736.7177033891305
 30
0.0
  0
LINE
  5
2A3
330
1F
100
AcDbEntity
  8
0
  6
Continuous
 62
     7
370
    15
100
AcDbLine
 10
307.6205384583
 20
736.6946326663
 30
0.0
 11
307.6205384583
 21
780.6946324279
 31
0.0
  0
LINE
  5
2A4
330
1F
100
AcDbEntity
  8
0
  6
Continuous
 62
     7
370
    15
100
AcDbLine
 10
349.6205490679
 20
729.6946333816
 30
0.0
 11
325.620545134
 21
729.6946333816
 31
0.0
  0
SPLINE
  5
2A5
330
1F
100
AcDbEntity
  8
0
  6
Continuous
 62
     7
370
    15
100
AcDbSpline
210
0.0
220
0.0
230
1.0
 70
    24
 71
     3
 72
    10
 73
     6
 74
     0
 42
0.00000001
 43
0.00000001
 12
1.0
 22
0.0
 32
0.0
 13
1.0
 23
0.0
 33
0.0
 40
0.0
 40
0.0
 40
0.0
 40
0.0
 40
0.0937510918579902
 40
0.5471100843487278
 40
1.0
 40
1.0
 40
1.0
 40
1.0
 10
401.9813966602326
 20
699.6946340521201
 30
0.0
 10
401.9778084338727
 20
699.6946340521201
 30
0.0
 10
401.9568683596024
 20
699.6946340521201
 30
0.0
 10
401.8123009720042
 20
699.6946340521201
 30
0.0
 10
401.5198879454618
 20
699.6946340521201
 30
0.0
 10
401.3737571090699
 20
699.6946340521201
 30
0.0
  0
LINE
  5
2A6
330
1F
100
AcDbEntity
  8
0
  6
Continuous
 62
     7
370
    15
100
AcDbLine
 10
402.7111512274
 20
692.6946347674
 30
0.0
 11
404.2361211628
 21
692.6946347674
 31
0.0
  0
SPLINE
  5
2A7
330
1F
100
AcDbEntity
  8
0
  6
Continuous
 62
     7
370
    15
100
AcDbSpline
210
0.0
220
0.0
230
1.0
 70
     8
 71
     3
 72
    11
 73
     7
 74
     0
 42
0.00000001
 43
0.00000001
 12
1.0
 22
0.0
 32
0.0
 13
1.0
 23
0.0
 33
0.0
 40
0.0
 40
0.0
 40
0.0
 40
0.0
 40
0.301262723991187
 40
0.603682884526979
 40
0.8904164595345473
 40
1.0
 40
1.0
 40
1.0
 40
1.0
 10
454.2931002229691
 20
908.3794584592208
 30
0.0
 10
454.0055398712565
 20
907.7809727406086
 30
0.0
 10
453.4293143751259
 20
906.5817019507364
 30
0.0
 10
451.9769391565841
 20
905.0441289794173
 30
0.0
 10
450.6381479547197
 20
904.1534565721046
 30
0.0
 10
449.8528625004091
 20
903.8155252279037
 30
0.0
 10
449.6357273906708
 20
903.7220856269225
 30
0.0
  0
SPLINE
  5
2A8
330
1F
100
AcDbEntity
  8
0
  6
Continuous
 62
     7
370
    15
100
AcDbSpline
210
0.0
220
0.0
230
1.0
 70
     8
 71
     3
 72
    11
 73
     7
 74
     0
 42
0.00000001
 43
0.00000001
 12
1.0
 22
0.0
 32
0.0
 13
1.0
 23
0.0
 33
0.0
 40
0.0
 40
0.0
 40
0.0
 40
0.0
 40
0.3012629741821042
 40
0.6036818081299034
 40
0.890417378659364
 40
1.0
 40
1.0
 40
1.0
 40
1.0
 10
744.3480026573181
 20
609.0098103602752
 30
0.0
 10
744.6355624608643
 20
609.6082962604696
 30
0.0
 10
745.2117853525807
 20
610.807564279882
 30
0.0
 10
746.6641674091195
 20
612.3451354763789
 30
0.0
 10
748.0029716724029
 20
613.2357804534942
 30
0.0
 10
748.7882458961
 20
613.5737375175175
 30
0.0
 10
749.0053754896164
 20
613.6671831925735
 30
0.0
  0
LINE
  5
2A9
330
1F
100
AcDbEntity
  8
0
  6
Continuous
 62
     7
370
    15
100
AcDbLine
 10
401.3737571091
 20
699.6946340521
 30
0.0
 11
399.8706620783
 21
699.6946340521
 31
0.0
  0
LINE
  5
2AA
330
1F
100
AcDbEntity
  8
0
  6
Continuous
 62
     7
370
    15
100
AcDbLine
 10
446.1091291756
 20
900.5923500379
 30
0.0
 11
446.0007679314
 21
900.7007112821
 31
0.0
  0
ARC
  5
2AB
330
1F
100
AcDbEntity
  8
0
  6
Continuous
 62
     7
370
    15
100
AcDbCircle
 10
330.3166448695
 20
1027.6985409804
 30
0.0
 40
171.7884311491448
100
AcDbArc
 50
312.3308330889
 51
317.6691669111
  0
LINE
  5
2AC
330
1F
100
AcDbEntity
  8
0
  6
Continuous
 62
     7
370
    15
100
AcDbLine
 10
457.422835812
 20
911.9060566743
 30
0.0
 11
457.3144745678
 21
912.0144179185
 31
0.0
  0
SPLINE
  5
2AD
330
1F
100
AcDbEntity
  8
0
  6
Continuous
 62
     7
370
    15
100
AcDbSpline
210
0.0
220
0.0
230
1.0
 70
     8
 71
     3
 72
    10
 73
     6
 74
     0
 42
0.00000001
 43
0.00000001
 12
1.0
 22
0.0
 32
0.0
 13
1.0
 23
0.0
 33
0.0
 40
0.0
 40
0.0
 40
0.0
 40
0.0
 40
0.3435654980741873
 40
0.6912652900991598
 40
1.0
 40
1.0
 40
1.0
 40
1.0
 10
457.4228358119965
 20
911.906056674324
 30
0.0
 10
457.3691483460839
 20
911.8352399122537
 30
0.0
 10
457.2611273663674
 20
911.6927542149098
 30
0.0
 10
456.3477158183221
 20
910.7878298700258
 30
0.0
 10
455.4135973298906
 20
909.8724893282588
 30
0.0
 10
454.9742621034623
 20
909.4419857581481
 30
0.0
  0
SPLINE
  5
2AE
330
1F
100
AcDbEntity
  8
0
  6
Continuous
 62
     7
370
    15
100
AcDbSpline
210
0.0
220
0.0
230
1.0
 70
     8
 71
     3
 72
     9
 73
     5
 74
     0
 42
0.00000001
 43
0.00000001
 12
1.0
 22
0.0
 32
0.0
 13
1.0
 23
0.0
 33
0.0
 40
0.0
 40
0.0
 40
0.0
 40
0.0
 40
0.7005506765632857
 40
1.0
 40
1.0
 40
1.0
 40
1.0
 10
454.9742621034623
 20
909.4419857581481
 30
0.0
 10
454.7885966269694
 20
909.2223492329882
 30
0.0
 10
454.5235687243432
 20
908.9088294085017
 30
0.0
 10
454.3462101331173
 20
908.5014484204685
 30
0.0
 10
454.2931002229691
 20
908.3794584592208
 30
0.0
  0
SPLINE
  5
2AF
330
1F
100
AcDbEntity
  8
0
  6
Continuous
 62
     7
370
    15
100
AcDbSpline
210
0.0
220
0.0
230
1.0
 70
     8
 71
     3
 72
     9
 73
     5
 74
     0
 42
0.00000001
 43
0.00000001
 12
1.0
 22
0.0
 32
0.0
 13
1.0
 23
0.0
 33
0.0
 40
0.0
 40
0.0
 40
0.0
 40
0.0
 40
0.6987853059400707
 40
1.0
 40
1.0
 40
1.0
 40
1.0
 10
449.6357273906708
 20
903.7220856269225
 30
0.0
 10
449.356272951598
 20
903.5888811896165
 30
0.0
 10
448.9563583616698
 20
903.398258352854
 30
0.0
 10
448.6618963703663
 20
903.1236421745585
 30
0.0
 10
448.5732000917435
 20
903.0409237464294
 30
0.0
  0
SPLINE
  5
2B0
330
1F
100
AcDbEntity
  8
0
  6
Continuous
 62
     7
370
    15
100
AcDbSpline
210
0.0
220
0.0
230
1.0
 70
     8
 71
     3
 72
    10
 73
     6
 74
     0
 42
0.00000001
 43
0.00000001
 12
1.0
 22
0.0
 32
0.0
 13
1.0
 23
0.0
 33
0.0
 40
0.0
 40
0.0
 40
0.0
 40
0.0
 40
0.3479068679388891
 40
0.6958607879711506
 40
1.0
 40
1.0
 40
1.0
 40
1.0
 10
448.5732000917435
 20
903.0409237464294
 30
0.0
 10
448.0913275649617
 20
902.5490898333472
 30
0.0
 10
447.1275173413389
 20
901.5653554899125
 30
0.0
 10
446.2881368442699
 20
900.7221427307345
 30
0.0
 10
446.1660643458144
 20
900.633631895355
 30
0.0
 10
446.1091291755677
 20
900.5923500378951
 30
0.0
  0
LINE
  5
2B1
330
1F
100
AcDbEntity
  8
0
  6
Continuous
 62
     7
370
    15
100
AcDbLine
 10
752.5319737047
 20
616.7969187816
 30
0.0
 11
752.6403349489
 21
616.6885575374
 31
0.0
  0
ARC
  5
2B2
330
1F
100
AcDbEntity
  8
0
  6
Continuous
 62
     7
370
    15
100
AcDbCircle
 10
868.3326139396
 20
489.6825719103
 30
0.0
 40
171.799952861332
100
AcDbArc
 50
132.3310122254
 51
137.6689877746
  0
LINE
  5
2B3
330
1F
100
AcDbEntity
  8
0
  6
Continuous
 62
     7
370
    15
100
AcDbLine
 10
741.2182670683
 20
605.4832121452
 30
0.0
 11
741.3266283125
 21
605.374850901
 31
0.0
  0
SPLINE
  5
2B4
330
1F
100
AcDbEntity
  8
0
  6
Continuous
 62
     7
370
    15
100
AcDbSpline
210
0.0
220
0.0
230
1.0
 70
     8
 71
     3
 72
    10
 73
     6
 74
     0
 42
0.00000001
 43
0.00000001
 12
1.0
 22
0.0
 32
0.0
 13
1.0
 23
0.0
 33
0.0
 40
0.0
 40
0.0
 40
0.0
 40
0.0
 40
0.3435654980741873
 40
0.6912652900991598
 40
1.0
 40
1.0
 40
1.0
 40
1.0
 10
741.2182670682907
 20
605.483212145172
 30
0.0
 10
741.2719545342034
 20
605.5540289072424
 30
0.0
 10
741.3799755139199
 20
605.6965146045861
 30
0.0
 10
742.2933870619652
 20
606.6014389494703
 30
0.0
 10
743.2275055503966
 20
607.5167794912371
 30
0.0
 10
743.666840776825
 20
607.9472830613479
 30
0.0
  0
SPLINE
  5
2B5
330
1F
100
AcDbEntity
  8
0
  6
Continuous
 62
     7
370
    15
100
AcDbSpline
210
0.0
220
0.0
230
1.0
 70
     8
 71
     3
 72
     9
 73
     5
 74
     0
 42
0.00000001
 43
0.00000001
 12
1.0
 22
0.0
 32
0.0
 13
1.0
 23
0.0
 33
0.0
 40
0.0
 40
0.0
 40
0.0
 40
0.0
 40
0.7005506765632857
 40
1.0
 40
1.0
 40
1.0
 40
1.0
 10
743.666840776825
 20
607.9472830613479
 30
0.0
 10
743.8525062533179
 20
608.1669195865078
 30
0.0
 10
744.1175341559441
 20
608.4804394109942
 30
0.0
 10
744.29489274717
 20
608.8878203990276
 30
0.0
 10
744.3480026573181
 20
609.0098103602752
 30
0.0
  0
SPLINE
  5
2B6
330
1F
100
AcDbEntity
  8
0
  6
Continuous
 62
     7
370
    15
100
AcDbSpline
210
0.0
220
0.0
230
1.0
 70
     8
 71
     3
 72
     9
 73
     5
 74
     0
 42
0.00000001
 43
0.00000001
 12
1.0
 22
0.0
 32
0.0
 13
1.0
 23
0.0
 33
0.0
 40
0.0
 40
0.0
 40
0.0
 40
0.0
 40
0.6987922916250027
 40
1.0
 40
1.0
 40
1.0
 40
1.0
 10
749.0053754896164
 20
613.6671831925735
 30
0.0
 10
749.2848383571289
 20
613.8003853362537
 30
0.0
 10
749.6847610106295
 20
613.9910029851269
 30
0.0
 10
749.9792119083979
 20
614.2656263874014
 30
0.0
 10
750.0679027885437
 20
614.3483450730666
 30
0.0
  0
SPLINE
  5
2B7
330
1F
100
AcDbEntity
  8
0
  6
Continuous
 62
     7
370
    15
100
AcDbSpline
210
0.0
220
0.0
230
1.0
 70
     8
 71
     3
 72
    10
 73
     6
 74
     0
 42
0.00000001
 43
0.00000001
 12
1.0
 22
0.0
 32
0.0
 13
1.0
 23
0.0
 33
0.0
 40
0.0
 40
0.0
 40
0.0
 40
0.0
 40
0.3479068671462354
 40
0.6958608047439683
 40
1.0
 40
1.0
 40
1.0
 40
1.0
 10
750.0679027885437
 20
614.3483450730666
 30
0.0
 10
750.5497812109126
 20
614.8401730987008
 30
0.0
 10
751.5136032519342
 20
615.8238956923958
 30
0.0
 10
752.3529846678337
 20
616.6671073901507
 30
0.0
 10
752.4750444626956
 20
616.7556309784487
 30
0.0
 10
752.5319737047196
 20
616.7969187816009
 30
0.0
  0
LINE
  5
2B8
330
1F
100
AcDbEntity
  8
0
  6
Continuous
 62
     7
370
    15
100
AcDbLine
 10
457.117034182
 20
912.2118732055
 30
0.0
 11
457.3144745678
 21
912.0144179185
 31
0.0
  0
LINE
  5
2B9
330
1F
100
AcDbEntity
  8
0
  6
Continuous
 62
     7
370
    15
100
AcDbLine
 10
446.0007679314
 20
900.7007112821
 30
0.0
 11
445.8033126444
 21
900.8981516679
 31
0.0
  0
LINE
  5
2BA
330
1F
100
AcDbEntity
  8
0
  6
Continuous
 62
     7
370
    15
100
AcDbLine
 10
445.8033126444
 20
900.8981516679
 30
0.0
 11
447.5710821003
 21
902.6659211238
 31
0.0
  0
LINE
  5
2BB
330
1F
100
AcDbEntity
  8
0
  6
Continuous
 62
     7
370
    15
100
AcDbLine
 10
455.3492647261
 20
910.4441037496
 30
0.0
 11
457.117034182
 21
912.2118732055
 31
0.0
  0
LINE
  5
2BC
330
1F
100
AcDbEntity
  8
0
  6
Continuous
 62
     7
370
    15
100
AcDbLine
 10
741.5240835995
 20
605.177395614
 30
0.0
 11
741.3266283125
 21
605.374850901
 31
0.0
  0
LINE
  5
2BD
330
1F
100
AcDbEntity
  8
0
  6
Continuous
 62
     7
370
    15
100
AcDbLine
 10
752.6403349489
 20
616.6885575374
 30
0.0
 11
752.8377902359
 21
616.4911022504
 31
0.0
  0
LINE
  5
2BE
330
1F
100
AcDbEntity
  8
0
  6
Continuous
 62
     7
370
    15
100
AcDbLine
 10
752.8377902359
 20
616.4911022504
 30
0.0
 11
751.07002078
 21
614.7233476957
 31
0.0
  0
LINE
  5
2BF
330
1F
100
AcDbEntity
  8
0
  6
Continuous
 62
     7
370
    15
100
AcDbLine
 10
743.2918381542
 20
606.9451650699
 30
0.0
 11
741.5240835995
 21
605.177395614
 31
0.0
  0
SPLINE
  5
2C0
330
1F
100
AcDbEntity
  8
0
  6
Continuous
 62
     7
370
    15
100
AcDbSpline
210
0.0
220
0.0
230
1.0
 70
     8
 71
     3
 72
    12
 73
     8
 74
     0
 42
0.00000001
 43
0.00000001
 12
1.0
 22
0.0
 32
0.0
 13
1.0
 23
0.0
 33
0.0
 40
0.0
 40
0.0
 40
0.0
 40
0.0
 40
0.2488571892350412
 40
0.4977185528981672
 40
0.7465768590428803
 40
0.9954649092984139
 40
1.0
 40
1.0
 40
1.0
 40
1.0
 10
401.3479631990433
 20
691.3727304061279
 30
0.0
 10
401.3223076061986
 20
691.4825632197166
 30
0.0
 10
401.2709959901524
 20
691.7022306892728
 30
0.0
 10
401.3366486715245
 20
692.0435989889542
 30
0.0
 10
401.5081902803852
 20
692.3310388061161
 30
0.0
 10
401.6706243303799
 20
692.506866002604
 30
0.0
 10
401.7765180395934
 20
692.5490553887512
 30
0.0
 10
401.77841304245
 20
692.5498103817329
 30
0.0
  0
LINE
  5
2C1
330
1F
100
AcDbEntity
  8
0
  6
Continuous
 62
     7
370
    15
100
AcDbLine
 10
402.6291352362
 20
692.6946347674
 30
0.0
 11
402.7111512274
 21
692.6946347674
 31
0.0
  0
ARC
  5
2C2
330
1F
100
AcDbEntity
  8
0
  6
Continuous
 62
     7
370
    15
100
AcDbCircle
 10
599.3205529942
 20
758.6946328426
 30
0.0
 40
209.1061595600001
100
AcDbArc
 50
43.8587343808
 51
132.807438443
  0
SPLINE
  5
2C3
330
1F
100
AcDbEntity
  8
0
  6
Continuous
 62
     7
370
    15
100
AcDbSpline
210
0.0
220
0.0
230
1.0
 70
     8
 71
     3
 72
    17
 73
    13
 74
     0
 42
0.00000001
 43
0.00000001
 12
1.0
 22
0.0
 32
0.0
 13
1.0
 23
0.0
 33
0.0
 40
0.0
 40
0.0
 40
0.0
 40
0.0
 40
0.094333880616462
 40
0.2049717038811801
 40
0.3157884388500909
 40
0.4267957053946859
 40
0.5378818082892304
 40
0.6489162444977548
 40
0.7598191976783804
 40
0.8705525190115597
 40
0.9811244517415346
 40
1.0
 40
1.0
 40
1.0
 40
1.0
 10
758.9769494384766
 20
893.3985015471801
 30
0.0
 10
758.9251950902919
 20
893.442447768667
 30
0.0
 10
758.8127415702915
 20
893.5379355386862
 30
0.0
 10
758.0578379058403
 20
894.376494674704
 30
0.0
 10
756.917996279434
 20
895.659950954866
 30
0.0
 10
755.4888132697124
 20
897.2658488820443
 30
0.0
 10
753.9409696597555
 20
898.9878727532518
 30
0.0
 10
752.4440776643258
 20
900.6356411635198
 30
0.0
 10
751.1691235709586
 20
902.030916277767
 30
0.0
 10
750.2824593830866
 20
903.0102290705752
 30
0.0
 10
749.9638227275191
 20
903.3823627696629
 30
0.0
 10
749.9503977581506
 20
903.4186256706367
 30
0.0
 10
749.9484401792527
 20
903.4239133914336
 30
0.0
  0
ARC
  5
2C4
330
1F
100
AcDbEntity
  8
0
  6
Continuous
 62
     7
370
    15
100
AcDbCircle
 10
599.3205529942
 20
758.6946328426
 30
0.0
 40
209.1061595600001
100
AcDbArc
 50
317.192561557
 51
40.1412656192
  0
ARC
  5
2C5
330
1F
100
AcDbEntity
  8
0
  6
Continuous
 62
     7
370
    15
100
AcDbCircle
 10
599.3205529942
 20
758.6946328426
 30
0.0
 40
209.10615956
100
AcDbArc
 50
137.192561557
 51
196.1828529619
  0
SPLINE
  5
2C6
330
1F
100
AcDbEntity
  8
0
  6
Continuous
 62
     7
370
    15
100
AcDbSpline
210
0.0
220
0.0
230
1.0
 70
     8
 71
     3
 72
    11
 73
     7
 74
     0
 42
0.00000001
 43
0.00000001
 12
1.0
 22
0.0
 32
0.0
 13
1.0
 23
0.0
 33
0.0
 40
0.0
 40
0.0
 40
0.0
 40
0.0
 40
0.2618148902951895
 40
0.5236299659179888
 40
0.7854243434945134
 40
1.0
 40
1.0
 40
1.0
 40
1.0
 10
399.4603288024903
 20
699.6946340521201
 30
0.0
 10
399.3477481959828
 20
699.7056682788833
 30
0.0
 10
399.122586903277
 20
699.7277367402206
 30
0.0
 10
398.824680914659
 20
699.9005348798108
 30
0.0
 10
398.6054531228783
 20
700.1378411283623
 30
0.0
 10
398.5326006486599
 20
700.3295982820192
 30
0.0
 10
398.4997850507737
 20
700.4159731884822
 30
0.0
  0
LINE
  5
2C7
330
1F
100
AcDbEntity
  8
0
  6
Continuous
 62
     7
370
    15
100
AcDbLine
 10
399.8706620783
 20
699.6946340521
 30
0.0
 11
399.4603288025
 21
699.6946340521
 31
0.0
  0
ARC
  5
2C8
330
1F
100
AcDbEntity
  8
0
  6
Continuous
 62
     7
370
    15
100
AcDbCircle
 10
599.3205529942
 20
758.6946328426
 30
0.0
 40
209.1061595599999
100
AcDbArc
 50
198.7809439644
 51
312.807438443
  0
SPLINE
  5
2C9
330
1F
100
AcDbEntity
  8
0
  6
Continuous
 62
     7
370
    15
100
AcDbSpline
210
0.0
220
0.0
230
1.0
 70
     8
 71
     3
 72
    10
 73
     6
 74
     0
 42
0.00000001
 43
0.00000001
 12
1.0
 22
0.0
 32
0.0
 13
1.0
 23
0.0
 33
0.0
 40
0.0
 40
0.0
 40
0.0
 40
0.0
 40
0.4607926370097785
 40
0.921594074012174
 40
1.0
 40
1.0
 40
1.0
 40
1.0
 10
750.0966173261643
 20
903.5806736071929
 30
0.0
 10
750.1646006724845
 20
903.4920667024326
 30
0.0
 10
750.3005686634377
 20
903.3148512007402
 30
0.0
 10
750.3818199244525
 20
903.0710066294134
 30
0.0
 10
750.368854404719
 20
902.940497955601
 30
0.0
 10
750.3669690937043
 20
902.9215207417831
 30
0.0
  0
SPLINE
  5
2CA
330
1F
100
AcDbEntity
  8
0
  6
Continuous
 62
     7
370
    15
100
AcDbSpline
210
0.0
220
0.0
230
1.0
 70
     8
 71
     3
 72
    10
 73
     6
 74
     0
 42
0.00000001
 43
0.00000001
 12
1.0
 22
0.0
 32
0.0
 13
1.0
 23
0.0
 33
0.0
 40
0.0
 40
0.0
 40
0.0
 40
0.0
 40
0.1805998488956594
 40
0.6479657626468754
 40
1.0
 40
1.0
 40
1.0
 40
1.0
 10
758.555425390625
 20
893.8309034427032
 30
0.0
 10
758.5987202685533
 20
893.8278365755273
 30
0.0
 10
758.7540559389153
 20
893.8168331060293
 30
0.0
 10
758.9756048066389
 20
893.6984436839605
 30
0.0
 10
759.1138805257782
 20
893.5596411865714
 30
0.0
 10
759.1732871383667
 20
893.5000082572326
 30
0.0
  0
LINE
  5
2CB
330
1F
100
AcDbEntity
  8
22
 62
     1
370
    15
100
AcDbLine
 10
757.1908402056
 20
895.3524467064
 30
0.0
 11
773.0745330784
 21
909.6541880075
 31
0.0
  0
LINE
  5
2CC
330
1F
100
AcDbEntity
  8
22
 62
     1
370
    15
100
AcDbLine
 10
751.9479016692
 20
901.1784197509
 30
0.0
 11
767.6064057714
 21
915.2774001721
 31
0.0
  0
CIRCLE
  5
2CD
330
1F
100
AcDbEntity
  8
22
  6
HIDDEN
100
AcDbCircle
 10
495.5705529942
 20
578.9943615573
 30
0.0
 40
5.499999999999969
  0
ARC
  5
2CE
330
1F
100
AcDbEntity
  8
22
  6
CENTER
100
AcDbCircle
 10
599.3205529942
 20
758.6946328426
 30
0.0
 40
207.4999999999994
100
AcDbArc
 50
222.8126948991
 51
249.374667219
  0
CIRCLE
  5
2CF
330
1F
100
AcDbEntity
  8
22
  6
HIDDEN
 62
     1
370
    15
100
AcDbCircle
 10
482.4820957261
 20
925.0647771089
 30
0.0
 40
2.500000000000872
  0
SPLINE
  5
2D0
330
1F
100
AcDbEntity
  8
22
 62
     1
370
    15
100
AcDbSpline
210
0.0
220
0.0
230
1.0
 70
     8
 71
     3
 72
     9
 73
     5
 74
     0
 42
0.00000001
 43
0.00000001
 12
1.0
 22
0.0
 32
0.0
 13
1.0
 23
0.0
 33
0.0
 40
0.0
 40
0.0
 40
0.0
 40
0.0
 40
0.507852378492552
 40
1.0
 40
1.0
 40
1.0
 40
1.0
 10
767.6064057713544
 20
915.2774001721011
 30
0.0
 10
770.444583058093
 20
916.3880480490594
 30
0.0
 10
769.7463318649164
 20
912.3649257829001
 30
0.0
 10
770.698269434753
 20
909.1881870018042
 30
0.0
 10
773.0745330784094
 20
909.6541880074705
 30
0.0
  0
INSERT
  5
2F1
330
1F
100
AcDbEntity
  8
22
 62
     1
100
AcDbBlockReference
  2
SW_CENTERMARKSYMBOL_0
 10
495.5705529942
 20
938.3949041278
 30
0.0
  0
ENDSEC
  0
SECTION
  2
OBJECTS
  0
DICTIONARY
  5
C
330
0
100
AcDbDictionary
281
     1
  3
ACAD_GROUP
350
D
  3
ACAD_LAYOUT
350
1A
  3
ACAD_MLINESTYLE
350
17
  3
ACAD_PLOTSETTINGS
350
19
  3
ACAD_PLOTSTYLENAME
350
E
  0
DICTIONARY
  5
D
102
{ACAD_REACTORS
330
C
102
}
330
C
100
AcDbDictionary
281
     1
  0
DICTIONARY
  5
1A
102
{ACAD_REACTORS
330
C
102
}
330
C
100
AcDbDictionary
281
     1
  3
Layout1
350
1E
  3
Layout2
350
26
  3
Model
350
22
  0
DICTIONARY
  5
17
102
{ACAD_REACTORS
330
C
102
}
330
C
100
AcDbDictionary
281
     1
  3
Standard
350
18
  0
DICTIONARY
  5
19
102
{ACAD_REACTORS
330
C
102
}
330
C
100
AcDbDictionary
281
     1
  0
ACDBDICTIONARYWDFLT
  5
E
102
{ACAD_REACTORS
330
C
102
}
330
C
100
AcDbDictionary
281
     1
  3
Normal
350
F
100
AcDbDictionaryWithDefault
340
F
  0
LAYOUT
  5
1E
102
{ACAD_REACTORS
330
1A
102
}
330
1A
100
AcDbPlotSettings
  1

  2
none_device
  4

  6

 40
0.0
 41
0.0
 42
0.0
 43
0.0
 44
0.0
 45
0.0
 46
0.0
 47
0.0
 48
0.0
 49
0.0
140
0.0
141
0.0
142
1.0
143
1.0
 70
   688
 72
     0
 73
     0
 74
     5
  7

 75
    16
147
1.0
148
0.0
149
0.0
100
AcDbLayout
  1
Layout1
 70
     1
 71
     1
 10
0.0
 20
0.0
 11
420.0
 21
297.0
 12
0.0
 22
0.0
 32
0.0
 14
1.0000000000E+20
 24
1.0000000000E+20
 34
1.0000000000E+20
 15
-1.0000000000E+20
 25
-1.0000000000E+20
 35
-1.0000000000E+20
146
0.0
 13
0.0
 23
0.0
 33
0.0
 16
1.0
 26
0.0
 36
0.0
 17
0.0
 27
1.0
 37
0.0
 76
     0
330
1B
  0
LAYOUT
  5
26
102
{ACAD_REACTORS
330
1A
102
}
330
1A
100
AcDbPlotSettings
  1

  2
none_device
  4

  6

 40
0.0
 41
0.0
 42
0.0
 43
0.0
 44
0.0
 45
0.0
 46
0.0
 47
0.0
 48
0.0
 49
0.0
140
0.0
141
0.0
142
1.0
143
1.0
 70
   688
 72
     0
 73
     0
 74
     5
  7

 75
    16
147
1.0
148
0.0
149
0.0
100
AcDbLayout
  1
Layout2
 70
     1
 71
     2
 10
0.0
 20
0.0
 11
0.0
 21
0.0
 12
0.0
 22
0.0
 32
0.0
 14
0.0
 24
0.0
 34
0.0
 15
0.0
 25
0.0
 35
0.0
146
0.0
 13
0.0
 23
0.0
 33
0.0
 16
1.0
 26
0.0
 36
0.0
 17
0.0
 27
1.0
 37
0.0
 76
     0
330
23
  0
LAYOUT
  5
22
102
{ACAD_REACTORS
330
1A
102
}
330
1A
100
AcDbPlotSettings
  1

  2
none_device
  4

  6

 40
0.0
 41
0.0
 42
0.0
 43
0.0
 44
0.0
 45
0.0
 46
0.0
 47
0.0
 48
0.0
 49
0.0
140
0.0
141
0.0
142
1.0
143
1.0
 70
  1712
 72
     0
 73
     0
 74
     0
  7

 75
     0
147
1.0
148
0.0
149
0.0
100
AcDbLayout
  1
Model
 70
     1
 71
     0
 10
0.0
 20
0.0
 11
1189.0
 21
1000.0
 12
0.0
 22
0.0
 32
0.0
 14
0.0
 24
0.0
 34
0.0
 15
1189.0
 25
1000.0
 35
0.0
146
0.0
 13
0.0
 23
0.0
 33
0.0
 16
1.0
 26
0.0
 36
0.0
 17
0.0
 27
1.0
 37
0.0
 76
     0
330
1F
331
29
  0
MLINESTYLE
  5
18
102
{ACAD_REACTORS
330
17
102
}
330
17
100
AcDbMlineStyle
  2
Standard
 70
     0
  3

 62
   256
 51
90.0
 52
90.0
 71
     2
 49
0.5
 62
   256
  6
BYLAYER
 49
-0.5
 62
   256
  6
BYLAYER
  0
ACDBPLACEHOLDER
  5
F
102
{ACAD_REACTORS
330
E
102
}
330
E
  0
ENDSEC
  0
EOF
