  0
SECTION
  2
HEADER
  9
$ACADVER
  1
AC1015
  9
$ACADMAINTVER
 70
     6
  9
$DWGCODEPAGE
  3
DOS932
  9
$INSBASE
 10
0.0
 20
0.0
 30
0.0
  9
$EXTMIN
 10
0.0
 20
0.0
 30
0.0
  9
$EXTMAX
 10
841.0
 20
594.0
 30
0.0
  9
$LIMMIN
 10
0.0
 20
0.0
  9
$LIMMAX
 10
841.0
 20
594.0
  9
$ORTHOMODE
 70
     0
  9
$REGENMODE
 70
     1
  9
$FILLMODE
 70
     1
  9
$QTEXTMODE
 70
     0
  9
$MIRRTEXT
 70
     1
  9
$LTSCALE
 40
1.0
  9
$ATTMODE
 70
     1
  9
$TEXTSIZE
 40
3.5
  9
$TRACEWID
 40
1.0
  9
$TEXTSTYLE
  7
STANDARD
  9
$CLAYER
  8
0
  9
$CELTYPE
  6
ByLayer
  9
$CECOLOR
 62
   256
  9
$CELTSCALE
 40
1.0
  9
$DISPSILH
 70
     0
  9
$DIMSCALE
 40
1.0
  9
$DIMASZ
 40
3.8637032976
  9
$DIMEXO
 40
1.0
  9
$DIMDLI
 40
3.75
  9
$DIMRND
 40
0.0
  9
$DIMDLE
 40
0.0
  9
$DIMEXE
 40
1.0
  9
$DIMTP
 40
0.0
  9
$DIMTM
 40
0.0
  9
$DIMTXT
 40
2.7999999523
  9
$DIMCEN
 40
2.5
  9
$DIMTSZ
 40
0.0
  9
$DIMTOL
 70
     0
  9
$DIMLIM
 70
     0
  9
$DIMTIH
 70
     1
  9
$DIMTOH
 70
     1
  9
$DIMSE1
 70
     0
  9
$DIMSE2
 70
     0
  9
$DIMTAD
 70
     1
  9
$DIMZIN
 70
     1
  9
$DIMBLK
  1

  9
$DIMASO
 70
     1
  9
$DIMSHO
 70
     1
  9
$DIMPOST
  1

  9
$DIMAPOST
  1

  9
$DIMALT
 70
     0
  9
$DIMALTD
 70
     3
  9
$DIMALTF
 40
0.0393700787
  9
$DIMLFAC
 40
1.0
  9
$DIMTOFL
 70
     1
  9
$DIMTVP
 40
0.0
  9
$DIMTIX
 70
     0
  9
$DIMSOXD
 70
     0
  9
$DIMSAH
 70
     0
  9
$DIMBLK1
  1

  9
$DIMBLK2
  1

  9
$DIMSTYLE
  2
ISO-25
  9
$DIMCLRD
 70
     0
  9
$DIMCLRE
 70
     0
  9
$DIMCLRT
 70
     0
  9
$DIMTFAC
 40
1.0
  9
$DIMGAP
 40
1.524
  9
$DIMJUST
 70
     0
  9
$DIMSD1
 70
     0
  9
$DIMSD2
 70
     0
  9
$DIMTOLJ
 70
     0
  9
$DIMTZIN
 70
     1
  9
$DIMALTZ
 70
     0
  9
$DIMALTTZ
 70
     0
  9
$DIMUPT
 70
     0
  9
$DIMDEC
 70
     3
  9
$DIMTDEC
 70
     3
  9
$DIMALTU
 70
     2
  9
$DIMALTTD
 70
     3
  9
$DIMTXSTY
  7
STANDARD
  9
$DIMAUNIT
 70
     0
  9
$DIMADEC
 70
     0
  9
$DIMALTRND
 40
0.0
  9
$DIMAZIN
 70
     0
  9
$DIMDSEP
 70
    44
  9
$DIMATFIT
 70
     3
  9
$DIMFRAC
 70
     0
  9
$DIMLDRBLK
  1

  9
$DIMLUNIT
 70
     2
  9
$DIMLWD
 70
    -2
  9
$DIMLWE
 70
    -2
  9
$DIMTMOVE
 70
     0
  9
$LUNITS
 70
     2
  9
$LUPREC
 70
     3
  9
$SKETCHINC
 40
1.0
  9
$FILLETRAD
 40
10.0
  9
$AUNITS
 70
     0
  9
$AUPREC
 70
     0
  9
$MENU
  1
.
  9
$ELEVATION
 40
0.0
  9
$PELEVATION
 40
0.0
  9
$THICKNESS
 40
0.0
  9
$LIMCHECK
 70
     0
  9
$CHAMFERA
 40
10.0
  9
$CHAMFERB
 40
10.0
  9
$CHAMFERC
 40
20.0
  9
$CHAMFERD
 40
0.0
  9
$SKPOLY
 70
     0
  9
$TDCREATE
 40
2457042.667898275
  9
$TDUCREATE
 40
2457042.292898275
  9
$TDUPDATE
 40
2457042.667899005
  9
$TDUUPDATE
 40
2457042.292899005
  9
$TDINDWG
 40
0.0000000116
  9
$TDUSRTIMER
 40
0.0000000116
  9
$USRTIMER
 70
     1
  9
$ANGBASE
 50
0.0
  9
$ANGDIR
 70
     0
  9
$PDMODE
 70
     0
  9
$PDSIZE
 40
-1.0
  9
$PLINEWID
 40
0.0
  9
$SPLFRAME
 70
     0
  9
$SPLINETYPE
 70
     6
  9
$SPLINESEGS
 70
     8
  9
$HANDSEED
  5
30E
  9
$SURFTAB1
 70
     6
  9
$SURFTAB2
 70
     6
  9
$SURFTYPE
 70
     6
  9
$SURFU
 70
     6
  9
$SURFV
 70
     6
  9
$UCSBASE
  2

  9
$UCSNAME
  2

  9
$UCSORG
 10
0.0
 20
0.0
 30
0.0
  9
$UCSXDIR
 10
1.0
 20
0.0
 30
0.0
  9
$UCSYDIR
 10
0.0
 20
1.0
 30
0.0
  9
$UCSORTHOREF
  2

  9
$UCSORTHOVIEW
 70
     0
  9
$UCSORGTOP
 10
0.0
 20
0.0
 30
0.0
  9
$UCSORGBOTTOM
 10
0.0
 20
0.0
 30
0.0
  9
$UCSORGLEFT
 10
0.0
 20
0.0
 30
0.0
  9
$UCSORGRIGHT
 10
0.0
 20
0.0
 30
0.0
  9
$UCSORGFRONT
 10
0.0
 20
0.0
 30
0.0
  9
$UCSORGBACK
 10
0.0
 20
0.0
 30
0.0
  9
$PUCSBASE
  2

  9
$PUCSNAME
  2

  9
$PUCSORG
 10
0.0
 20
0.0
 30
0.0
  9
$PUCSXDIR
 10
1.0
 20
0.0
 30
0.0
  9
$PUCSYDIR
 10
0.0
 20
1.0
 30
0.0
  9
$PUCSORTHOREF
  2

  9
$PUCSORTHOVIEW
 70
     0
  9
$PUCSORGTOP
 10
0.0
 20
0.0
 30
0.0
  9
$PUCSORGBOTTOM
 10
0.0
 20
0.0
 30
0.0
  9
$PUCSORGLEFT
 10
0.0
 20
0.0
 30
0.0
  9
$PUCSORGRIGHT
 10
0.0
 20
0.0
 30
0.0
  9
$PUCSORGFRONT
 10
0.0
 20
0.0
 30
0.0
  9
$PUCSORGBACK
 10
0.0
 20
0.0
 30
0.0
  9
$USERI1
 70
     0
  9
$USERI2
 70
     0
  9
$USERI3
 70
     0
  9
$USERI4
 70
     0
  9
$USERI5
 70
     0
  9
$USERR1
 40
0.0
  9
$USERR2
 40
0.0
  9
$USERR3
 40
0.0
  9
$USERR4
 40
0.0
  9
$USERR5
 40
0.0
  9
$WORLDVIEW
 70
     1
  9
$SHADEDGE
 70
     3
  9
$SHADEDIF
 70
    70
  9
$TILEMODE
 70
     1
  9
$MAXACTVP
 70
    64
  9
$PINSBASE
 10
0.0
 20
0.0
 30
0.0
  9
$PLIMCHECK
 70
     0
  9
$PEXTMIN
 10
1.0000000000E+20
 20
1.0000000000E+20
 30
1.0000000000E+20
  9
$PEXTMAX
 10
-1.0000000000E+20
 20
-1.0000000000E+20
 30
-1.0000000000E+20
  9
$PLIMMIN
 10
0.0
 20
0.0
  9
$PLIMMAX
 10
420.0
 20
297.0
  9
$UNITMODE
 70
     0
  9
$VISRETAIN
 70
     1
  9
$PLINEGEN
 70
     0
  9
$PSLTSCALE
 70
     1
  9
$TREEDEPTH
 70
  3020
  9
$CMLSTYLE
  2
Standard
  9
$CMLJUST
 70
     0
  9
$CMLSCALE
 40
20.0
  9
$PROXYGRAPHICS
 70
     1
  9
$MEASUREMENT
 70
     1
  9
$CELWEIGHT
370
    -1
  9
$ENDCAPS
280
     0
  9
$JOINSTYLE
280
     0
  9
$LWDISPLAY
290
     1
  9
$INSUNITS
 70
     4
  9
$HYPERLINKBASE
  1

  9
$STYLESHEET
  1

  9
$XEDIT
290
     1
  9
$CEPSNTYPE
380
     0
  9
$PSTYLEMODE
290
     1
  9
$FINGERPRINTGUID
  2
{35A493AA-25A5-4653-ADBA-2DEDDC70055B}
  9
$VERSIONGUID
  2
{FAEB1C32-E019-11D5-929B-00C0DF256EC4}
  9
$EXTNAMES
290
     1
  9
$PSVPSCALE
 40
0.0
  9
$OLESTARTUP
290
     0
  0
ENDSEC
  0
SECTION
  2
CLASSES
  0
CLASS
  1
ACDBDICTIONARYWDFLT
  2
AcDbDictionaryWithDefault
  3
ObjectDBX Classes
 90
        0
280
     0
281
     0
  0
CLASS
  1
VISUALSTYLE
  2
AcDbVisualStyle
  3
ObjectDBX Classes
 90
     4095
280
     0
281
     0
  0
CLASS
  1
MATERIAL
  2
AcDbMaterial
  3
ObjectDBX Classes
 90
     1153
280
     0
281
     0
  0
CLASS
  1
ACDBPLACEHOLDER
  2
AcDbPlaceHolder
  3
ObjectDBX Classes
 90
        0
280
     0
281
     0
  0
CLASS
  1
LAYOUT
  2
AcDbLayout
  3
ObjectDBX Classes
 90
        0
280
     0
281
     0
  0
ENDSEC
  0
SECTION
  2
TABLES
  0
TABLE
  2
VPORT
  5
8
330
0
100
AcDbSymbolTable
 70
     1
  0
VPORT
  5
29
330
8
100
AcDbSymbolTableRecord
100
AcDbViewportTableRecord
  2
*Active
 70
     0
 10
0.0
 20
0.0
 11
1.0
 21
1.0
 12
420.5
 22
297.0
 13
0.0
 23
0.0
 14
10.0
 24
10.0
 15
10.0
 25
10.0
 16
0.0
 26
0.0
 36
1.0
 17
0.0
 27
0.0
 37
0.0
 40
594.0
 41
1.4158249158
 42
50.0
 43
0.0
 44
0.0
 50
0.0
 51
0.0
 71
     0
 72
  2000
 73
     1
 74
     3
 75
     0
 76
     0
 77
     0
 78
     0
281
     0
 65
     1
110
0.0
120
0.0
130
0.0
111
1.0
121
0.0
131
0.0
112
0.0
122
1.0
132
0.0
 79
     0
146
0.0
  0
ENDTAB
  0
TABLE
  2
LTYPE
  5
5
330
0
100
AcDbSymbolTable
 70
     6
  0
LTYPE
  5
14
330
5
100
AcDbSymbolTableRecord
100
AcDbLinetypeTableRecord
  2
ByBlock
 70
     0
  3

 72
    65
 73
     0
 40
0.0
  0
LTYPE
  5
15
330
5
100
AcDbSymbolTableRecord
100
AcDbLinetypeTableRecord
  2
ByLayer
 70
     0
  3

 72
    65
 73
     0
 40
0.0
  0
LTYPE
  5
16
330
5
100
AcDbSymbolTableRecord
100
AcDbLinetypeTableRecord
  2
Continuous
 70
     0
  3
Solid line
 72
    65
 73
     0
 40
0.0
  0
LTYPE
  5
3F
330
5
100
AcDbSymbolTableRecord
100
AcDbLinetypeTableRecord
  2
HIDDEN
 70
     0
  3
Hidden __ __ __ __ __ __ __ __ __ __ __ __ __ __
 72
    65
 73
     2
 40
1.905
 49
1.27
 74
     0
 49
-0.635
 74
     0
  0
LTYPE
  5
40
330
5
100
AcDbSymbolTableRecord
100
AcDbLinetypeTableRecord
  2
PHANTOM
 70
     0
  3
Phantom ______  __  __  ______  __  __  ______
 72
    65
 73
     6
 40
12.7
 49
6.35
 74
     0
 49
-1.27
 74
     0
 49
1.27
 74
     0
 49
-1.27
 74
     0
 49
1.27
 74
     0
 49
-1.27
 74
     0
  0
LTYPE
  5
41
330
5
100
AcDbSymbolTableRecord
100
AcDbLinetypeTableRecord
  2
CENTER
 70
     0
  3
Center ____ _ ____ _ ____ _ ____ _ ____ _ ____
 72
    65
 73
     4
 40
10.16
 49
6.35
 74
     0
 49
-1.27
 74
     0
 49
1.27
 74
     0
 49
-1.27
 74
     0
  0
LTYPE
  5
42
330
5
100
AcDbSymbolTableRecord
100
AcDbLinetypeTableRecord
  2
CENTERX2
 70
     0
  3
Center (2x) ________  __  ________  __  _____
 72
    65
 73
     4
 40
20.32
 49
12.7
 74
     0
 49
-2.54
 74
     0
 49
2.54
 74
     0
 49
-2.54
 74
     0
  0
LTYPE
  5
43
330
5
100
AcDbSymbolTableRecord
100
AcDbLinetypeTableRecord
  2
DOT2
 70
     0
  3
Dot (.5x) ........................................
 72
    65
 73
     2
 40
0.635
 49
0.0
 74
     0
 49
-0.635
 74
     0
  0
ENDTAB
  0
TABLE
  2
LAYER
  5
2
330
0
100
AcDbSymbolTable
 70
     4
  0
LAYER
  5
10
330
2
100
AcDbSymbolTableRecord
100
AcDbLayerTableRecord
  2
0
 70
     0
 62
     7
  6
Continuous
370
    -3
390
F
  0
LAYER
  5
44
330
2
100
AcDbSymbolTableRecord
100
AcDbLayerTableRecord
  2
SLD-0
 70
     0
 62
     3
  6
Continuous
370
    -3
390
F
  0
LAYER
  5
45
330
2
100
AcDbSymbolTableRecord
100
AcDbLayerTableRecord
  2
SLD-DEFPOINTS
 70
     0
 62
   179
  6
Continuous
370
    -3
390
F
  0
LAYER
  5
46
330
2
100
AcDbSymbolTableRecord
100
AcDbLayerTableRecord
  2
AM_REFDIM
 70
     0
 62
     4
  6
Continuous
370
    15
390
F
  0
ENDTAB
  0
TABLE
  2
STYLE
  5
3
330
0
100
AcDbSymbolTable
 70
     1
  0
STYLE
  5
11
330
3
100
AcDbSymbolTableRecord
100
AcDbTextStyleTableRecord
  2
STANDARD
 70
     0
 40
0.0
 41
1.0
 50
0.0
 71
     0
 42
3.5
  3
MSGOTHIC.TTC
  4

1001
ACAD
1000
ＭＳ ゴシック
1071
    32817
  0
ENDTAB
  0
TABLE
  2
VIEW
  5
6
330
0
100
AcDbSymbolTable
 70
     0
  0
ENDTAB
  0
TABLE
  2
UCS
  5
7
330
0
100
AcDbSymbolTable
 70
     0
  0
ENDTAB
  0
TABLE
  2
APPID
  5
9
330
0
100
AcDbSymbolTable
 70
     1
  0
APPID
  5
12
330
9
100
AcDbSymbolTableRecord
100
AcDbRegAppTableRecord
  2
ACAD
 70
     0
  0
ENDTAB
  0
TABLE
  2
DIMSTYLE
  5
A
330
0
100
AcDbSymbolTable
 70
     1
100
AcDbDimStyleTable
  0
DIMSTYLE
105
27
330
A
100
AcDbSymbolTableRecord
100
AcDbDimStyleTableRecord
  2
ISO-25
 70
     0
 41
2.5
 42
0.625
 43
3.75
 44
1.25
 73
     0
 74
     0
 77
     1
 78
     8
140
2.5
141
2.5
143
0.0393700787
147
0.625
171
     3
172
     1
178
     0
271
     2
272
     2
274
     3
278
    44
283
     0
284
     8
340
11
  0
ENDTAB
  0
TABLE
  2
BLOCK_RECORD
  5
1
330
0
100
AcDbSymbolTable
 70
     2
  0
BLOCK_RECORD
  5
1F
330
1
100
AcDbSymbolTableRecord
100
AcDbBlockTableRecord
  2
*Model_Space
340
22
  0
BLOCK_RECORD
  5
1B
330
1
100
AcDbSymbolTableRecord
100
AcDbBlockTableRecord
  2
*Paper_Space
340
1E
  0
BLOCK_RECORD
  5
23
330
1
100
AcDbSymbolTableRecord
100
AcDbBlockTableRecord
  2
*Paper_Space0
340
26
  0
BLOCK_RECORD
  5
302
330
1
100
AcDbSymbolTableRecord
100
AcDbBlockTableRecord
  2
SW_CENTERMARKSYMBOL_0
340
0
102
{BLKREFS
331
30D
102
}
  0
ENDTAB
  0
ENDSEC
  0
SECTION
  2
BLOCKS
  0
BLOCK
  5
20
330
1F
100
AcDbEntity
  8
0
100
AcDbBlockBegin
  2
*Model_Space
 70
     0
 10
0.0
 20
0.0
 30
0.0
  3
*Model_Space
  1

  0
ENDBLK
  5
21
330
1F
100
AcDbEntity
  8
0
100
AcDbBlockEnd
  0
BLOCK
  5
1C
330
1B
100
AcDbEntity
 67
     1
  8
0
100
AcDbBlockBegin
  2
*Paper_Space
 70
     0
 10
0.0
 20
0.0
 30
0.0
  3
*Paper_Space
  1

  0
ENDBLK
  5
1D
330
1B
100
AcDbEntity
 67
     1
  8
0
100
AcDbBlockEnd
  0
BLOCK
  5
24
330
23
100
AcDbEntity
  8
0
100
AcDbBlockBegin
  2
*Paper_Space0
 70
     0
 10
0.0
 20
0.0
 30
0.0
  3
*Paper_Space0
  1

  0
ENDBLK
  5
25
330
23
100
AcDbEntity
  8
0
100
AcDbBlockEnd
  0
BLOCK
  5
303
330
302
100
AcDbEntity
  8
0
100
AcDbBlockBegin
  2
SW_CENTERMARKSYMBOL_0
 70
     0
 10
0.0
 20
0.0
 30
0.0
  3
SW_CENTERMARKSYMBOL_0
  1

  0
LINE
  5
305
330
302
100
AcDbEntity
  8
SLD-0
 62
     0
100
AcDbLine
 10
0.0
 20
0.0
 30
0.0
 11
0.0
 21
2.5
 31
0.0
  0
LINE
  5
306
330
302
100
AcDbEntity
  8
SLD-0
 62
     0
100
AcDbLine
 10
0.0
 20
0.0
 30
0.0
 11
-2.5
 21
0.0
 31
0.0
  0
LINE
  5
307
330
302
100
AcDbEntity
  8
SLD-0
 62
     0
100
AcDbLine
 10
0.0
 20
0.0
 30
0.0
 11
0.0
 21
-2.5
 31
0.0
  0
LINE
  5
308
330
302
100
AcDbEntity
  8
SLD-0
 62
     0
100
AcDbLine
 10
0.0
 20
0.0
 30
0.0
 11
2.5
 21
0.0
 31
0.0
  0
LINE
  5
309
330
302
100
AcDbEntity
  8
SLD-0
 62
     0
100
AcDbLine
 10
0.0
 20
5.0
 30
0.0
 11
0.0
 21
173.8560296291
 31
0.0
  0
LINE
  5
30A
330
302
100
AcDbEntity
  8
SLD-0
 62
     0
100
AcDbLine
 10
-5.0
 20
0.0
 30
0.0
 11
-99.2555268563
 21
0.0
 31
0.0
  0
LINE
  5
30B
330
302
100
AcDbEntity
  8
SLD-0
 62
     0
100
AcDbLine
 10
0.0
 20
-5.0
 30
0.0
 11
0.0
 21
-133.5472948143
 31
0.0
  0
LINE
  5
30C
330
302
100
AcDbEntity
  8
SLD-0
 62
     0
100
AcDbLine
 10
5.0
 20
0.0
 30
0.0
 11
101.9497712578
 21
0.0
 31
0.0
  0
ENDBLK
  5
304
330
302
100
AcDbEntity
  8
0
100
AcDbBlockEnd
  0
ENDSEC
  0
SECTION
  2
ENTITIES
  0
SPLINE
  5
47
330
1F
100
AcDbEntity
  8
0
  6
Continuous
 62
     7
370
    15
100
AcDbSpline
210
0.0
220
0.0
230
1.0
 70
     8
 71
     3
 72
    25
 73
    21
 74
     0
 42
0.00000001
 43
0.00000001
 12
1.0
 22
0.0
 32
0.0
 13
1.0
 23
0.0
 33
0.0
 40
0.0
 40
0.0
 40
0.0
 40
0.0
 40
0.0680498214818791
 40
0.1280120459457688
 40
0.180413488594187
 40
0.2248144182400536
 40
0.2612879333683148
 40
0.289880818179191
 40
0.3105509522362211
 40
0.3235274995554575
 40
0.3531453564406569
 40
0.3973110218473903
 40
0.4963694136718495
 40
0.5486280491602187
 40
0.5961576030697157
 40
0.6386280524502698
 40
0.6898500757500244
 40
0.7669829778895788
 40
0.8703622630901557
 40
1.0
 40
1.0
 40
1.0
 40
1.0
 10
197.9621255425952
 20
191.4769614662407
 30
0.0
 10
197.9623333737798
 20
191.4109821939398
 30
0.0
 10
197.9627243357921
 20
191.2868651653667
 30
0.0
 10
197.9618750675399
 20
190.540233131069
 30
0.0
 10
197.9624290928017
 20
189.4918803091694
 30
0.0
 10
197.9623912324575
 20
188.368521783823
 30
0.0
 10
197.9623816145179
 20
187.2826315983733
 30
0.0
 10
197.9624591741374
 20
186.3348148652843
 30
0.0
 10
197.9625227085314
 20
185.5967632024337
 30
0.0
 10
197.962611015934
 20
184.8137378721639
 30
0.0
 10
197.9627253452429
 20
183.676420681808
 30
0.0
 10
197.9629605712422
 20
181.2329075735462
 30
0.0
 10
197.9630075001624
 20
178.1463480648751
 30
0.0
 10
197.9631036182911
 20
174.8144393059206
 30
0.0
 10
197.9632273036418
 20
172.3841070557157
 30
0.0
 10
197.9631628691281
 20
169.9674128387935
 30
0.0
 10
197.962836116056
 20
167.0444290603255
 30
0.0
 10
197.9612083414007
 20
163.0789535694183
 30
0.0
 10
197.9638225610622
 20
157.771801973589
 30
0.0
 10
197.9623396206933
 20
153.7844418362948
 30
0.0
 10
197.9615145949863
 20
151.5660959842978
 30
0.0
  0
SPLINE
  5
48
330
1F
100
AcDbEntity
  8
0
  6
Continuous
 62
     7
370
    15
100
AcDbSpline
210
0.0
220
0.0
230
1.0
 70
     8
 71
     3
 72
    24
 73
    20
 74
     0
 42
0.00000001
 43
0.00000001
 12
1.0
 22
0.0
 32
0.0
 13
1.0
 23
0.0
 33
0.0
 40
0.0
 40
0.0
 40
0.0
 40
0.0
 40
0.1026279090852248
 40
0.1865253314342292
 40
0.252148064534971
 40
0.2999232793550223
 40
0.3410552578781972
 40
0.3815493626931961
 40
0.4217636275416359
 40
0.4630812939505726
 40
0.5499713691523316
 40
0.5991549930631145
 40
0.6586594769569839
 40
0.7285602051103474
 40
0.8087345925392687
 40
0.8528063410198754
 40
0.8993909728837532
 40
0.9484462307777094
 40
1.0
 40
1.0
 40
1.0
 40
1.0
 10
208.0626466898463
 20
151.5660959842978
 30
0.0
 10
208.0613458456829
 20
153.3237982818642
 30
0.0
 10
208.0589815727392
 20
156.5184069077108
 30
0.0
 10
208.0630313474058
 20
160.8369129172033
 30
0.0
 10
208.0621088890884
 20
164.2159706579283
 30
0.0
 10
208.0614889282587
 20
166.8626250201251
 30
0.0
 10
208.0610812919988
 20
169.0785723587703
 30
0.0
 10
208.0609328357475
 20
171.1655960774047
 30
0.0
 10
208.0609665194569
 20
173.2546572591504
 30
0.0
 10
208.0611110397348
 20
176.1220114556152
 30
0.0
 10
208.0611004783086
 20
179.0560296995242
 30
0.0
 10
208.061136903549
 20
182.0417202953994
 30
0.0
 10
208.0613434235856
 20
184.5520791978342
 30
0.0
 10
208.061730450058
 20
187.1094058653374
 30
0.0
 10
208.0619788833639
 20
188.9671117939434
 30
0.0
 10
208.0624294997863
 20
190.196764123801
 30
0.0
 10
208.062994333121
 20
190.9497727144842
 30
0.0
 10
208.0615440485696
 20
191.3490013312675
 30
0.0
 10
208.0618593005982
 20
191.4284228162979
 30
0.0
 10
208.0620208410762
 20
191.4691197301625
 30
0.0
  0
LINE
  5
49
330
1F
100
AcDbEntity
  8
0
  6
Continuous
 62
     7
370
    15
100
AcDbLine
 10
388.3539119391
 20
188.0660968448
 30
0.0
 11
389.0120664267
 21
189.2060952808
 31
0.0
  0
LINE
  5
4A
330
1F
100
AcDbEntity
  8
0
  6
Continuous
 62
     7
370
    15
100
AcDbLine
 10
389.0120664267
 20
203.9260956074
 30
0.0
 11
388.3539119391
 21
205.0660977687
 31
0.0
  0
LINE
  5
4B
330
1F
100
AcDbEntity
  8
0
  6
Continuous
 62
     7
370
    15
100
AcDbLine
 10
423.5120692877
 20
396.6769146349
 30
0.0
 11
420.0120845465
 21
396.5675401117
 31
0.0
  0
LINE
  5
4C
330
1F
100
AcDbEntity
  8
0
  6
Continuous
 62
     7
370
    15
100
AcDbLine
 10
420.0120845465
 20
380.564661565
 30
0.0
 11
423.5120692877
 21
380.4552870418
 31
0.0
  0
LINE
  5
4D
330
1F
100
AcDbEntity
  8
0
  6
Continuous
 62
     7
370
    15
100
AcDbLine
 10
402.5120714335
 20
410.5661081697
 30
0.0
 11
402.5120714335
 21
412.5660824205
 31
0.0
  0
LINE
  5
4E
330
1F
100
AcDbEntity
  8
0
  6
Continuous
 62
     7
370
    15
100
AcDbLine
 10
317.51207799
 20
412.5660824205
 30
0.0
 11
317.51207799
 21
410.5661081697
 31
0.0
  0
LINE
  5
4F
330
1F
100
AcDbEntity
  8
0
  6
Continuous
 62
     7
370
    15
100
AcDbLine
 10
392.5120809702
 20
428.5660850431
 30
0.0
 11
392.5120809702
 21
435.5660843279
 31
0.0
  0
LINE
  5
50
330
1F
100
AcDbEntity
  8
0
  6
Continuous
 62
     7
370
    15
100
AcDbLine
 10
327.5120833544
 20
435.5660843279
 30
0.0
 11
327.5120833544
 21
428.5660850431
 31
0.0
  0
LINE
  5
51
330
1F
100
AcDbEntity
  8
0
  6
Continuous
 62
     7
370
    15
100
AcDbLine
 10
402.0120778708
 20
236.0660972621
 30
0.0
 11
404.0120819239
 21
236.0660972621
 31
0.0
  0
LINE
  5
52
330
1F
100
AcDbEntity
  8
0
  6
Continuous
 62
     7
370
    15
100
AcDbLine
 10
404.0120819239
 20
321.0660981561
 30
0.0
 11
402.0120778708
 21
321.0660981561
 31
0.0
  0
LINE
  5
53
330
1F
100
AcDbEntity
  8
0
  6
Continuous
 62
     7
370
    15
100
AcDbLine
 10
420.0120845465
 20
246.0660951759
 30
0.0
 11
427.0120838313
 21
246.0660951759
 31
0.0
  0
LINE
  5
54
330
1F
100
AcDbEntity
  8
0
  6
Continuous
 62
     7
370
    15
100
AcDbLine
 10
427.0120838313
 20
311.0660927917
 30
0.0
 11
420.0120845465
 21
311.0660927917
 31
0.0
  0
LINE
  5
55
330
1F
100
AcDbEntity
  8
0
  6
Continuous
 62
     7
370
    15
100
AcDbLine
 10
405.0120690493
 20
408.5661041166
 30
0.0
 11
405.0120690493
 21
410.5661081697
 31
0.0
  0
LINE
  5
56
330
1F
100
AcDbEntity
  8
0
  6
Continuous
 62
     7
370
    15
100
AcDbLine
 10
315.0120803742
 20
410.5661081697
 30
0.0
 11
315.0120803742
 21
408.5661041166
 31
0.0
  0
LINE
  5
57
330
1F
100
AcDbEntity
  8
0
  6
Continuous
 62
     7
370
    15
100
AcDbLine
 10
400.0120738177
 20
233.5660996463
 30
0.0
 11
402.0120778708
 21
233.5660996463
 31
0.0
  0
LINE
  5
58
330
1F
100
AcDbEntity
  8
0
  6
Continuous
 62
     7
370
    15
100
AcDbLine
 10
402.0120778708
 20
323.566095772
 30
0.0
 11
400.0120738177
 21
323.566095772
 31
0.0
  0
LINE
  5
59
330
1F
100
AcDbEntity
  8
0
  6
Continuous
 62
     7
370
    15
100
AcDbLine
 10
97.0120781688
 20
208.0660963978
 30
0.0
 11
98.5120784147
 21
208.0660963978
 31
0.0
  0
ARC
  5
5A
330
1F
100
AcDbEntity
  8
0
  6
Continuous
 62
     7
370
    15
100
AcDbCircle
 10
94.4587588273
 20
216.0660960104
 30
0.0
 40
7.999999999999988
100
AcDbArc
 50
195.2555633432
 51
221.9837056292
  0
LWPOLYLINE
  5
5B
330
1F
100
AcDbEntity
  8
0
  6
Continuous
 62
     7
370
    15
100
AcDbPolyline
 90
        3
 70
   128
 43
0.0
 10
85.3559447108
 20
219.5660936262
 10
85.7540795235
 20
217.8310322191
 10
86.7406649171
 20
213.9610963489
  0
LINE
  5
5C
330
1F
100
AcDbEntity
  8
0
  6
Continuous
 62
     7
370
    15
100
AcDbLine
 10
243.9974823622
 20
347.1660929348
 30
0.0
 11
160.0266785948
 21
347.1660929348
 31
0.0
  0
LINE
  5
5D
330
1F
100
AcDbEntity
  8
0
  6
Continuous
 62
     7
370
    15
100
AcDbLine
 10
98.5120784147
 20
209.9660950329
 30
0.0
 11
147.0063643186
 21
209.9660950329
 31
0.0
  0
LINE
  5
5E
330
1F
100
AcDbEntity
  8
0
  6
Continuous
 62
     7
370
    15
100
AcDbLine
 10
268.0177965788
 20
209.9660950329
 30
0.0
 11
273.5120782284
 21
209.9660950329
 31
0.0
  0
LINE
  5
5F
330
1F
100
AcDbEntity
  8
0
  6
Continuous
 62
     7
370
    15
100
AcDbLine
 10
276.5120843081
 20
209.5660957124
 30
0.0
 11
277.5120714335
 21
208.5660974111
 31
0.0
  0
LINE
  5
60
330
1F
100
AcDbEntity
  8
0
  6
Continuous
 62
     7
370
    15
100
AcDbLine
 10
277.5120714335
 20
208.5660974111
 30
0.0
 11
291.5120849041
 21
208.5660974111
 31
0.0
  0
LINE
  5
61
330
1F
100
AcDbEntity
  8
0
  6
Continuous
 62
     7
370
    15
100
AcDbLine
 10
291.5120849041
 20
348.5661017324
 30
0.0
 11
285.0120791821
 21
348.5661017324
 31
0.0
  0
LINE
  5
62
330
1F
100
AcDbEntity
  8
0
  6
Continuous
 62
     7
370
    15
100
AcDbLine
 10
273.5120782284
 20
209.5660957124
 30
0.0
 11
276.5120843081
 21
209.5660957124
 31
0.0
  0
LINE
  5
63
330
1F
100
AcDbEntity
  8
0
  6
Continuous
 62
     7
370
    15
100
AcDbLine
 10
312.0120742945
 20
298.5660898115
 30
0.0
 11
291.5120849041
 21
298.5660898115
 31
0.0
  0
LINE
  5
64
330
1F
100
AcDbEntity
  8
0
  6
Continuous
 62
     7
370
    15
100
AcDbLine
 10
291.5120849041
 20
258.5660981561
 30
0.0
 11
312.0120742945
 21
258.5660981561
 31
0.0
  0
LINE
  5
65
330
1F
100
AcDbEntity
  8
0
  6
Continuous
 62
     7
370
    15
100
AcDbLine
 10
320.0120756058
 20
349.0660952951
 30
0.0
 11
312.0120742945
 21
349.0660952951
 31
0.0
  0
LINE
  5
66
330
1F
100
AcDbEntity
  8
0
  6
Continuous
 62
     7
370
    15
100
AcDbLine
 10
312.0120742945
 20
208.0660963978
 30
0.0
 11
320.0120756058
 21
208.0660963978
 31
0.0
  0
LINE
  5
67
330
1F
100
AcDbEntity
  8
0
  6
Continuous
 62
     7
370
    15
100
AcDbLine
 10
291.5120849041
 20
341.2581252481
 30
0.0
 11
312.0120742945
 21
341.2581252481
 31
0.0
  0
LINE
  5
68
330
1F
100
AcDbEntity
  8
0
  6
Continuous
 62
     7
370
    15
100
AcDbLine
 10
312.0120742945
 20
215.8740701701
 30
0.0
 11
291.5120849041
 21
215.8740701701
 31
0.0
  0
LINE
  5
69
330
1F
100
AcDbEntity
  8
0
  6
Continuous
 62
     7
370
    15
100
AcDbLine
 10
312.0120742945
 20
348.5661017324
 30
0.0
 11
289.512080851
 21
348.5661017324
 31
0.0
  0
LINE
  5
6A
330
1F
100
AcDbEntity
  8
0
  6
Continuous
 62
     7
370
    15
100
AcDbLine
 10
289.512080851
 20
208.5660974111
 30
0.0
 11
312.0120742945
 21
208.5660974111
 31
0.0
  0
LINE
  5
6B
330
1F
100
AcDbEntity
  8
0
  6
Continuous
 62
     7
370
    15
100
AcDbLine
 10
297.4486777215
 20
328.8660811807
 30
0.0
 11
309.6170553593
 21
298.5660898115
 31
0.0
  0
LINE
  5
6C
330
1F
100
AcDbEntity
  8
0
  6
Continuous
 62
     7
370
    15
100
AcDbLine
 10
293.4059181838
 20
333.5661011364
 30
0.0
 11
295.5927529959
 21
328.1207549001
 31
0.0
  0
SPLINE
  5
6D
330
1F
100
AcDbEntity
  8
0
  6
Continuous
 62
     7
370
    15
100
AcDbSpline
210
0.0
220
0.0
230
1.0
 70
     8
 71
     3
 72
    21
 73
    17
 74
     0
 42
0.00000001
 43
0.00000001
 12
1.0
 22
0.0
 32
0.0
 13
1.0
 23
0.0
 33
0.0
 40
0.0
 40
0.0
 40
0.0
 40
0.0
 40
0.0098834523543009
 40
0.0365486391344921
 40
0.0712711800969039
 40
0.1315449833847618
 40
0.2089220617835383
 40
0.29964064552827
 40
0.4230344503656239
 40
0.5358065182548682
 40
0.5930230734344097
 40
0.6525827794575361
 40
0.766940362377312
 40
0.8706202399515541
 40
0.9584977314212764
 40
1.0
 40
1.0
 40
1.0
 40
1.0
 10
345.5027321009181
 20
192.7800978149651
 30
0.0
 10
345.5441237478496
 20
192.6991410843693
 30
0.0
 10
345.6971885184026
 20
192.3997661062762
 30
0.0
 10
345.9796808135779
 20
191.8682243560909
 30
0.0
 10
346.4325896137797
 20
191.0713088567956
 30
0.0
 10
347.04871918197
 20
190.0998303075422
 30
0.0
 10
347.8625737064741
 20
189.0046144906379
 30
0.0
 10
348.8961859482895
 20
187.8393095331962
 30
0.0
 10
350.6026035587926
 20
186.3867269435712
 30
0.0
 10
352.820244015589
 20
185.1327484510561
 30
0.0
 10
354.8083234199039
 20
184.3676320393638
 30
0.0
 10
356.8852265387973
 20
183.7921594454836
 30
0.0
 10
359.4680598000546
 20
183.4731416840822
 30
0.0
 10
362.3112975088054
 20
183.6546260124015
 30
0.0
 10
364.4656407697923
 20
184.1045912839832
 30
0.0
 10
365.5596069729494
 20
184.533403013464
 30
0.0
 10
365.910528006985
 20
184.6709566737889
 30
0.0
  0
SPLINE
  5
6E
330
1F
100
AcDbEntity
  8
0
  6
Continuous
 62
     7
370
    15
100
AcDbSpline
210
0.0
220
0.0
230
1.0
 70
     8
 71
     3
 72
    31
 73
    27
 74
     0
 42
0.00000001
 43
0.00000001
 12
1.0
 22
0.0
 32
0.0
 13
1.0
 23
0.0
 33
0.0
 40
0.0
 40
0.0
 40
0.0
 40
0.0
 40
0.0113884550974702
 40
0.0263999700928657
 40
0.0876355796223935
 40
0.1508378091223734
 40
0.1940163364990079
 40
0.2375083470560342
 40
0.2788133706099786
 40
0.3356258130101931
 40
0.386180488321941
 40
0.4163802579873837
 40
0.4437502603730421
 40
0.4711441441872907
 40
0.5044331509453625
 40
0.5437294453664507
 40
0.5889712334716563
 40
0.6268836678776856
 40
0.6683411934176169
 40
0.7135240009750934
 40
0.762600313908395
 40
0.8156610144653841
 40
0.8727767619406587
 40
0.9131857171486462
 40
0.9555469557362127
 40
1.0
 40
1.0
 40
1.0
 40
1.0
 10
375.9255686430476
 20
204.7255652572392
 30
0.0
 10
375.9296077512266
 20
204.739930517221
 30
0.0
 10
375.9389709470434
 20
204.7732311212667
 30
0.0
 10
375.8527815337573
 20
205.9131676050145
 30
0.0
 10
375.7464314418172
 20
207.9310238663553
 30
0.0
 10
375.5714413685206
 20
211.5891044480364
 30
0.0
 10
375.4067654950629
 20
215.5114826971542
 30
0.0
 10
375.2550837510495
 20
219.322023531182
 30
0.0
 10
375.0769724735597
 20
223.9566110180371
 30
0.0
 10
374.8741017831551
 20
229.3186374543756
 30
0.0
 10
374.6720507579116
 20
234.7385343926111
 30
0.0
 10
374.5056305552498
 20
239.2256238443807
 30
0.0
 10
374.3707603233569
 20
242.8706683952059
 30
0.0
 10
374.2268498330756
 20
246.748214261945
 30
0.0
 10
374.0584490998722
 20
251.2440523160825
 30
0.0
 10
373.8532279823976
 20
256.6669705196597
 30
0.0
 10
373.6319120565662
 20
262.4239786346919
 30
0.0
 10
373.4003290586014
 20
268.3640704432478
 30
0.0
 10
373.1639183644077
 20
274.3492069626072
 30
0.0
 10
372.9021069154824
 20
280.8879003716175
 30
0.0
 10
372.6145698562839
 20
287.9596596120444
 30
0.0
 10
372.3004699127351
 20
295.5145509526906
 30
0.0
 10
372.0009646597933
 20
302.5018786515315
 30
0.0
 10
371.7218465009165
 20
308.7842929493225
 30
0.0
 10
371.4677638228155
 20
314.3258117633166
 30
0.0
 10
371.2955013492777
 20
317.8823858748881
 30
0.0
 10
371.2072947649501
 20
319.7035210754154
 30
0.0
  0
SPLINE
  5
6F
330
1F
100
AcDbEntity
  8
0
  6
Continuous
 62
     7
370
    15
100
AcDbSpline
210
0.0
220
0.0
230
1.0
 70
     8
 71
     3
 72
    21
 73
    17
 74
     0
 42
0.00000001
 43
0.00000001
 12
1.0
 22
0.0
 32
0.0
 13
1.0
 23
0.0
 33
0.0
 40
0.0
 40
0.0
 40
0.0
 40
0.0
 40
0.0712546527779902
 40
0.1386240904617336
 40
0.2023874558465159
 40
0.2941648352648018
 40
0.3826343592890393
 40
0.4678134597207942
 40
0.5546176495131655
 40
0.6161157841362955
 40
0.6806955562075777
 40
0.7485923582068169
 40
0.819883508827864
 40
0.8944987171430038
 40
0.971272093507747
 40
1.0
 40
1.0
 40
1.0
 40
1.0
 10
348.8170185713313
 20
319.706560912299
 30
0.0
 10
348.7252988134444
 20
317.8120708421145
 30
0.0
 10
348.5468603884609
 20
314.1263892391688
 30
0.0
 10
348.2847498202779
 20
308.3969448263898
 30
0.0
 10
347.9964791270846
 20
301.8906724580611
 30
0.0
 10
347.6820678629211
 20
294.5315306825522
 30
0.0
 10
347.3433024731014
 20
286.3483140098907
 30
0.0
 10
347.0148662237568
 20
278.2303317802564
 30
0.0
 10
346.7249667472518
 20
270.9417088337805
 30
0.0
 10
346.4667532149196
 20
264.3492493610501
 30
0.0
 10
346.2374276334261
 20
258.4153956207747
 30
0.0
 10
346.0049392948795
 20
252.3072905930848
 30
0.0
 10
345.7706729432048
 20
246.0725918713185
 30
0.0
 10
345.5387182769562
 20
239.849052037907
 30
0.0
 10
345.358335334945
 20
234.9879335980245
 30
0.0
 10
345.2608482347713
 20
232.3781536733836
 30
0.0
 10
345.2343025831721
 20
231.6675128962277
 30
0.0
  0
LINE
  5
70
330
1F
100
AcDbEntity
  8
0
  6
Continuous
 62
     7
370
    15
100
AcDbLine
 10
375.114200416
 20
222.9988666798
 30
0.0
 11
375.6113031535
 21
225.4429923918
 31
0.0
  0
LINE
  5
71
330
1F
100
AcDbEntity
  8
0
  6
Continuous
 62
     7
370
    15
100
AcDbLine
 10
374.9753215937
 20
334.8160999443
 30
0.0
 11
372.0968940882
 21
348.9683585788
 31
0.0
  0
SPLINE
  5
72
330
1F
100
AcDbEntity
  8
0
  6
Continuous
 62
     7
370
    15
100
AcDbSpline
210
0.0
220
0.0
230
1.0
 70
     8
 71
     3
 72
     9
 73
     5
 74
     0
 42
0.00000001
 43
0.00000001
 12
1.0
 22
0.0
 32
0.0
 13
1.0
 23
0.0
 33
0.0
 40
0.0
 40
0.0
 40
0.0
 40
0.0
 40
0.5023957278910763
 40
1.0
 40
1.0
 40
1.0
 40
1.0
 10
371.19868189378
 20
319.8280500795124
 30
0.0
 10
371.0911792032656
 20
321.7780913418787
 30
0.0
 10
370.8771990984471
 20
325.6595759049583
 30
0.0
 10
370.6588000523443
 20
328.7590397000733
 30
0.0
 10
370.550123753979
 20
330.3013461257694
 30
0.0
  0
LINE
  5
73
330
1F
100
AcDbEntity
  8
0
  6
Continuous
 62
     7
370
    15
100
AcDbLine
 10
349.082020822
 20
324.309246483
 30
0.0
 11
348.8254526286
 21
319.8280500795
 31
0.0
  0
SPLINE
  5
74
330
1F
100
AcDbEntity
  8
0
  6
Continuous
 62
     7
370
    15
100
AcDbSpline
210
0.0
220
0.0
230
1.0
 70
     8
 71
     3
 72
    11
 73
     7
 74
     0
 42
0.00000001
 43
0.00000001
 12
1.0
 22
0.0
 32
0.0
 13
1.0
 23
0.0
 33
0.0
 40
0.0
 40
0.0
 40
0.0
 40
0.0
 40
0.0781463481838988
 40
0.3993508275433194
 40
0.7048514908484071
 40
1.0
 40
1.0
 40
1.0
 40
1.0
 10
357.0119568733714
 20
350.5303429986714
 30
0.0
 10
356.7863298928251
 20
350.5175062016638
 30
0.0
 10
355.6333096495087
 20
350.4519063927524
 30
0.0
 10
353.69076158027
 20
350.1179752757178
 30
0.0
 10
351.2903494422046
 20
349.6220610920415
 30
0.0
 10
349.8356814745752
 20
349.3113528240118
 30
0.0
 10
349.1208830503962
 20
349.1586762096165
 30
0.0
  0
SPLINE
  5
75
330
1F
100
AcDbEntity
  8
0
  6
Continuous
 62
     7
370
    15
100
AcDbSpline
210
0.0
220
0.0
230
1.0
 70
     8
 71
     3
 72
    10
 73
     6
 74
     0
 42
0.00000001
 43
0.00000001
 12
1.0
 22
0.0
 32
0.0
 13
1.0
 23
0.0
 33
0.0
 40
0.0
 40
0.0
 40
0.0
 40
0.0
 40
0.3621151586135077
 40
0.7235106115051123
 40
1.0
 40
1.0
 40
1.0
 40
1.0
 10
370.9032812742732
 20
349.1586762096165
 30
0.0
 10
370.0038269907982
 20
349.352888495688
 30
0.0
 10
368.2067060938174
 20
349.7409270699235
 30
0.0
 10
365.5842002639033
 20
350.2809463014416
 30
0.0
 10
363.7897316831332
 20
350.4529862501497
 30
0.0
 10
363.0119243292353
 20
350.5275564815281
 30
0.0
  0
LINE
  5
76
330
1F
100
AcDbEntity
  8
0
  6
Continuous
 62
     7
370
    15
100
AcDbLine
 10
398.0120697646
 20
331.6891955759
 30
0.0
 11
373.2357302336
 21
331.6891955759
 31
0.0
  0
LINE
  5
77
330
1F
100
AcDbEntity
  8
0
  6
Continuous
 62
     7
370
    15
100
AcDbLine
 10
375.0213661818
 20
225.4429923918
 30
0.0
 11
398.0120697646
 21
225.4429923918
 31
0.0
  0
SPLINE
  5
78
330
1F
100
AcDbEntity
  8
0
  6
Continuous
 62
     7
370
    15
100
AcDbSpline
210
0.0
220
0.0
230
1.0
 70
     8
 71
     3
 72
    14
 73
    10
 74
     0
 42
0.00000001
 43
0.00000001
 12
1.0
 22
0.0
 32
0.0
 13
1.0
 23
0.0
 33
0.0
 40
0.0
 40
0.0
 40
0.0
 40
0.0
 40
0.2102611640723855
 40
0.3910031007807966
 40
0.544029621652309
 40
0.6706818810374781
 40
0.7719498847215749
 40
0.9085317527773433
 40
1.0
 40
1.0
 40
1.0
 40
1.0
 10
370.5704489378474
 20
329.7757970716236
 30
0.0
 10
370.5852273902798
 20
331.1409812160286
 30
0.0
 10
370.61270950164
 20
333.6796870010652
 30
0.0
 10
370.6517147512286
 20
336.7601345519755
 30
0.0
 10
370.684935153223
 20
339.0949408550693
 30
0.0
 10
370.7125063788306
 20
340.8033684658888
 30
0.0
 10
370.7385319590649
 20
342.2355785050037
 30
0.0
 10
370.7619713158728
 20
343.3559749715866
 30
0.0
 10
370.7718744941774
 20
343.7561505504023
 30
0.0
 10
370.7758465437434
 20
343.9166563178776
 30
0.0
  0
SPLINE
  5
79
330
1F
100
AcDbEntity
  8
0
  6
Continuous
 62
     7
370
    15
100
AcDbSpline
210
0.0
220
0.0
230
1.0
 70
     8
 71
     3
 72
     9
 73
     5
 74
     0
 42
0.00000001
 43
0.00000001
 12
1.0
 22
0.0
 32
0.0
 13
1.0
 23
0.0
 33
0.0
 40
0.0
 40
0.0
 40
0.0
 40
0.0
 40
0.90672444005974
 40
1.0
 40
1.0
 40
1.0
 40
1.0
 10
349.2641279129527
 20
343.335391822028
 30
0.0
 10
349.2698235476669
 20
343.0999933704423
 30
0.0
 10
349.2761050974549
 20
342.8403792680913
 30
0.0
 10
349.284422357768
 20
342.3636313590923
 30
0.0
 10
349.2851981548808
 20
342.31916243093
 30
0.0
  0
LINE
  5
7A
330
1F
100
AcDbEntity
  8
0
  6
Continuous
 62
     7
370
    15
100
AcDbLine
 10
317.51207799
 20
408.5661041166
 30
0.0
 11
317.51207799
 21
406.5661000635
 31
0.0
  0
LINE
  5
7B
330
1F
100
AcDbEntity
  8
0
  6
Continuous
 62
     7
370
    15
100
AcDbLine
 10
402.5120714335
 20
406.5661000635
 30
0.0
 11
402.5120714335
 21
408.5661041166
 31
0.0
  0
LINE
  5
7C
330
1F
100
AcDbEntity
  8
0
  6
Continuous
 62
     7
370
    15
100
AcDbLine
 10
400.0120738177
 20
321.0660981561
 30
0.0
 11
398.0120697646
 21
321.0660981561
 31
0.0
  0
LINE
  5
7D
330
1F
100
AcDbEntity
  8
0
  6
Continuous
 62
     7
370
    15
100
AcDbLine
 10
398.0120697646
 20
236.0660972621
 30
0.0
 11
400.0120738177
 21
236.0660972621
 31
0.0
  0
LINE
  5
7E
330
1F
100
AcDbEntity
  8
0
  6
Continuous
 62
     7
370
    15
100
AcDbLine
 10
320.0120756058
 20
208.0660963978
 30
0.0
 11
324.5120772748
 21
208.0660963978
 31
0.0
  0
LINE
  5
7F
330
1F
100
AcDbEntity
  8
0
  6
Continuous
 62
     7
370
    15
100
AcDbLine
 10
338.9721193938
 20
349.0660952951
 30
0.0
 11
320.0120756058
 21
349.0660952951
 31
0.0
  0
SPLINE
  5
80
330
1F
100
AcDbEntity
  8
0
  6
Continuous
 62
     7
370
    15
100
AcDbSpline
210
0.0
220
0.0
230
1.0
 70
     8
 71
     3
 72
    15
 73
    11
 74
     0
 42
0.00000001
 43
0.00000001
 12
1.0
 22
0.0
 32
0.0
 13
1.0
 23
0.0
 33
0.0
 40
0.0
 40
0.0
 40
0.0
 40
0.0
 40
0.1523578036144796
 40
0.2151930556806395
 40
0.3095588023776242
 40
0.4352980431580687
 40
0.6045662804960875
 40
0.7270903538845339
 40
0.8653069016232838
 40
1.0
 40
1.0
 40
1.0
 40
1.0
 10
379.3342986731074
 20
355.5173295165775
 30
0.0
 10
379.820378515836
 20
356.4960218269615
 30
0.0
 10
380.506926918215
 20
357.878345435246
 30
0.0
 10
381.0405384369471
 20
359.992699862746
 30
0.0
 10
381.3089759843191
 20
361.563249735741
 30
0.0
 10
381.5331384467332
 20
363.4724811369464
 30
0.0
 10
381.7424092436279
 20
365.7680297428301
 30
0.0
 10
381.9314507556136
 20
368.3152539612262
 30
0.0
 10
382.0957786536665
 20
370.808629027776
 30
0.0
 10
382.2022159124961
 20
372.6548836719463
 30
0.0
 10
382.2547474531672
 20
373.566092791724
 30
0.0
  0
LINE
  5
81
330
1F
100
AcDbEntity
  8
0
  6
Continuous
 62
     7
370
    15
100
AcDbLine
 10
381.9358626036
 20
373.5660927917
 30
0.0
 11
420.0120845465
 21
373.5660927917
 31
0.0
  0
LINE
  5
82
330
1F
100
AcDbEntity
  8
0
  6
Continuous
 62
     7
370
    15
100
AcDbLine
 10
376.501111093
 20
332.2310315992
 30
0.0
 11
375.9753385214
 21
334.8160999443
 31
0.0
  0
LINE
  5
83
330
1F
100
AcDbEntity
  8
0
  6
Continuous
 62
     7
370
    15
100
AcDbLine
 10
365.7275715498
 20
184.5660953398
 30
0.0
 11
382.012067142
 21
184.5660953398
 31
0.0
  0
LINE
  5
84
330
1F
100
AcDbEntity
  8
0
  6
Continuous
 62
     7
370
    15
100
AcDbLine
 10
382.012067142
 20
208.5660974111
 30
0.0
 11
375.718680921
 21
208.5660974111
 31
0.0
  0
SPLINE
  5
85
330
1F
100
AcDbEntity
  8
0
  6
Continuous
 62
     7
370
    15
100
AcDbSpline
210
0.0
220
0.0
230
1.0
 70
     8
 71
     3
 72
    13
 73
     9
 74
     0
 42
0.00000001
 43
0.00000001
 12
1.0
 22
0.0
 32
0.0
 13
1.0
 23
0.0
 33
0.0
 40
0.0
 40
0.0
 40
0.0
 40
0.0
 40
0.0959981033115738
 40
0.3066992803596201
 40
0.5005984682079687
 40
0.678458412783352
 40
0.8408170118857737
 40
1.0
 40
1.0
 40
1.0
 40
1.0
 10
377.4570205835841
 20
208.566097411084
 30
0.0
 10
377.480568018418
 20
208.9596889757862
 30
0.0
 10
377.5557984768202
 20
210.2171539202545
 30
0.0
 10
377.6744385805952
 20
212.7054277496824
 30
0.0
 10
377.8082158931305
 20
215.8353212361361
 30
0.0
 10
377.9249454761862
 20
218.9987450880691
 30
0.0
 10
378.0298256055978
 20
222.1046052298238
 30
0.0
 10
378.0909796886161
 20
224.3375476710368
 30
0.0
 10
378.121254744961
 20
225.4429923917531
 30
0.0
  0
SPLINE
  5
86
330
1F
100
AcDbEntity
  8
0
  6
Continuous
 62
     7
370
    15
100
AcDbSpline
210
0.0
220
0.0
230
1.0
 70
     8
 71
     3
 72
    17
 73
    13
 74
     0
 42
0.00000001
 43
0.00000001
 12
1.0
 22
0.0
 32
0.0
 13
1.0
 23
0.0
 33
0.0
 40
0.0
 40
0.0
 40
0.0
 40
0.0
 40
0.0773032721327902
 40
0.1703195569357495
 40
0.2602814925395222
 40
0.3472640325553192
 40
0.4419899536654313
 40
0.5512606514664031
 40
0.6535337043956286
 40
0.7661683286624664
 40
0.888232058577845
 40
0.9999999999999999
 40
0.9999999999999999
 40
0.9999999999999999
 40
0.9999999999999999
 10
380.3899565367244
 20
331.6891955758808
 30
0.0
 10
380.4173009786355
 20
332.7598958882283
 30
0.0
 10
380.4775480173759
 20
335.1189319002709
 30
0.0
 10
380.5624138778456
 20
338.4626255106809
 30
0.0
 10
380.6470115317034
 20
341.8145039744202
 30
0.0
 10
380.7284873346698
 20
345.0288724027858
 30
0.0
 10
380.810487816831
 20
348.2239506589212
 30
0.0
 10
380.8897100388339
 20
351.2640595515277
 30
0.0
 10
380.9652320093591
 20
354.1366605251199
 30
0.0
 10
381.0334081664163
 20
356.7255079859507
 30
0.0
 10
381.0936406775293
 20
358.9883524119481
 30
0.0
 10
381.1227230129321
 20
360.0502536498564
 30
0.0
 10
381.1366239218257
 20
360.5578261043308
 30
0.0
  0
LINE
  5
87
330
1F
100
AcDbEntity
  8
0
  6
Continuous
 62
     7
370
    15
100
AcDbLine
 10
208.0620804457
 20
151.5660959843
 30
0.0
 11
197.9620808391
 21
151.5660959843
 31
0.0
  0
SPLINE
  5
88
330
1F
100
AcDbEntity
  8
0
  6
Continuous
 62
     7
370
    15
100
AcDbSpline
210
0.0
220
0.0
230
1.0
 70
     8
 71
     3
 72
    16
 73
    12
 74
     0
 42
0.00000001
 43
0.00000001
 12
1.0
 22
0.0
 32
0.0
 13
1.0
 23
0.0
 33
0.0
 40
0.0
 40
0.0
 40
0.0
 40
0.0
 40
0.1241899589258307
 40
0.2483798140560204
 40
0.3725697996314004
 40
0.4967599430344619
 40
0.620949625869844
 40
0.7451396114452241
 40
0.8693297274661015
 40
0.9935195947791243
 40
1.0
 40
1.0
 40
1.0
 40
1.0
 10
208.062080445721
 20
191.566096487212
 30
0.0
 10
207.9861791325548
 20
192.2270511997614
 30
0.0
 10
207.8343765696593
 20
193.5489600724466
 30
0.0
 10
206.6664206665278
 20
195.2299404923779
 30
0.0
 10
204.9977499099158
 20
196.3531894739879
 30
0.0
 10
203.0103613302338
 20
196.7474276269712
 30
0.0
 10
201.0332809764395
 20
196.3536776061746
 30
0.0
 10
199.3336886809273
 20
195.2279815790907
 30
0.0
 10
198.2791149534698
 20
193.5563009227234
 30
0.0
 10
197.8342406901027
 20
192.1761415107038
 30
0.0
 10
197.9751496250437
 20
191.4988425517155
 30
0.0
 10
197.9821378020785
 20
191.4652528788327
 30
0.0
  0
ARC
  5
89
330
1F
100
AcDbEntity
  8
0
  6
Continuous
 62
     7
370
    15
100
AcDbCircle
 10
203.0120781092
 20
191.5660960104
 30
0.0
 40
6.250000000000028
100
AcDbArc
 50
325.3387929305
 51
180.0
  0
ARC
  5
8A
330
1F
100
AcDbEntity
  8
0
  6
Continuous
 62
     7
370
    15
100
AcDbCircle
 10
203.0120781092
 20
191.5660960104
 30
0.0
 40
6.250000000000028
100
AcDbArc
 50
180.0
 51
215.2543415419
  0
ARC
  5
8B
330
1F
100
AcDbEntity
  8
0
  6
Continuous
 62
     7
370
    15
100
AcDbCircle
 10
203.0120781092
 20
191.5660960104
 30
0.0
 40
10.00000000000002
100
AcDbArc
 50
0.0
 51
239.4151499645
  0
ARC
  5
8C
330
1F
100
AcDbEntity
  8
0
  6
Continuous
 62
     7
370
    15
100
AcDbCircle
 10
203.0120781092
 20
191.5660960104
 30
0.0
 40
9.999999999999972
100
AcDbArc
 50
300.3451037055
 51
0.0
  0
LINE
  5
8D
330
1F
100
AcDbEntity
  8
0
  6
Continuous
 62
     7
370
    15
100
AcDbLine
 10
382.012067142
 20
200.8160966064
 30
0.0
 11
388.3539119391
 21
200.8160966064
 31
0.0
  0
LINE
  5
8E
330
1F
100
AcDbEntity
  8
0
  6
Continuous
 62
     7
370
    15
100
AcDbLine
 10
382.012067142
 20
205.0660977687
 30
0.0
 11
388.3539119391
 21
205.0660977687
 31
0.0
  0
SPLINE
  5
8F
330
1F
100
AcDbEntity
  8
0
  6
Continuous
 62
     7
370
    15
100
AcDbSpline
210
0.0
220
0.0
230
1.0
 70
     8
 71
     3
 72
    11
 73
     7
 74
     0
 42
0.00000001
 43
0.00000001
 12
1.0
 22
0.0
 32
0.0
 13
1.0
 23
0.0
 33
0.0
 40
0.0
 40
0.0
 40
0.0
 40
0.0
 40
0.1587364757839472
 40
0.4054959693407064
 40
0.658375942890687
 40
1.0
 40
1.0
 40
1.0
 40
1.0
 10
388.3539119390986
 20
200.8160966064213
 30
0.0
 10
388.4725507462048
 20
201.0364386815733
 30
0.0
 10
388.7756163009324
 20
201.5993075679401
 30
0.0
 10
389.0426808432996
 20
202.5394120681781
 30
0.0
 10
389.0052005736179
 20
203.7562231420176
 30
0.0
 10
388.591588672209
 20
204.5880812556699
 30
0.0
 10
388.3539119390986
 20
205.0660977687119
 30
0.0
  0
SPLINE
  5
90
330
1F
100
AcDbEntity
  8
0
  6
Continuous
 62
     7
370
    15
100
AcDbSpline
210
0.0
220
0.0
230
1.0
 70
     8
 71
     3
 72
    10
 73
     6
 74
     0
 42
0.00000001
 43
0.00000001
 12
1.0
 22
0.0
 32
0.0
 13
1.0
 23
0.0
 33
0.0
 40
0.0
 40
0.0
 40
0.0
 40
0.0
 40
0.2631495838785827
 40
0.5319119721608404
 40
1.0
 40
1.0
 40
1.0
 40
1.0
 10
388.3539119390986
 20
188.0660968448399
 30
0.0
 10
388.5412387828363
 20
188.4323239866596
 30
0.0
 10
388.9198880264436
 20
189.1725896499866
 30
0.0
 10
389.136611989089
 20
190.6186639213058
 30
0.0
 10
388.6579710589864
 20
191.6566856341708
 30
0.0
 10
388.3539119390986
 20
192.3160942818402
 30
0.0
  0
SPLINE
  5
91
330
1F
100
AcDbEntity
  8
0
  6
Continuous
 62
     7
370
    15
100
AcDbSpline
210
0.0
220
0.0
230
1.0
 70
     8
 71
     3
 72
     9
 73
     5
 74
     0
 42
0.00000001
 43
0.00000001
 12
1.0
 22
0.0
 32
0.0
 13
1.0
 23
0.0
 33
0.0
 40
0.0
 40
0.0
 40
0.0
 40
0.0
 40
0.362429950271471
 40
1.0
 40
1.0
 40
1.0
 40
1.0
 10
388.3539119390986
 20
192.3160942818402
 30
0.0
 10
388.4527608356607
 20
192.6728531395601
 30
0.0
 10
388.7255001511839
 20
193.6572057225975
 30
0.0
 10
388.8629138024847
 20
194.6702255405291
 30
0.0
 10
388.950524630978
 20
195.3160966362236
 30
0.0
  0
LINE
  5
92
330
1F
100
AcDbEntity
  8
0
  6
Continuous
 62
     7
370
    15
100
AcDbLine
 10
389.0120664267
 20
195.3160966362
 30
0.0
 11
388.950524631
 21
195.3160966362
 31
0.0
  0
LINE
  5
93
330
1F
100
AcDbEntity
  8
0
  6
Continuous
 62
     7
370
    15
100
AcDbLine
 10
389.0120664267
 20
195.3160966362
 30
0.0
 11
389.0120664267
 21
189.2060952808
 31
0.0
  0
LINE
  5
94
330
1F
100
AcDbEntity
  8
0
  6
Continuous
 62
     7
370
    15
100
AcDbLine
 10
389.0120664267
 20
203.9260956074
 30
0.0
 11
389.0120664267
 21
197.816094252
 31
0.0
  0
LINE
  5
95
330
1F
100
AcDbEntity
  8
0
  6
Continuous
 62
     7
370
    15
100
AcDbLine
 10
388.950524631
 20
197.816094252
 30
0.0
 11
389.0120664267
 21
197.816094252
 31
0.0
  0
LINE
  5
96
330
1F
100
AcDbEntity
  8
0
  6
Continuous
 62
     7
370
    15
100
AcDbLine
 10
388.950524631
 20
197.816094252
 30
0.0
 11
388.3539119391
 21
200.8160966064
 31
0.0
  0
LINE
  5
97
330
1F
100
AcDbEntity
  8
0
  6
Continuous
 62
     7
370
    15
100
AcDbLine
 10
386.0120752482
 20
197.816094252
 30
0.0
 11
386.0120752482
 21
195.3160966362
 31
0.0
  0
LINE
  5
98
330
1F
100
AcDbEntity
  8
0
  6
Continuous
 62
     7
370
    15
100
AcDbLine
 10
386.0120752482
 20
195.3160966362
 30
0.0
 11
388.950524631
 21
195.3160966362
 31
0.0
  0
LINE
  5
99
330
1F
100
AcDbEntity
  8
0
  6
Continuous
 62
     7
370
    15
100
AcDbLine
 10
382.012067142
 20
192.3160942818
 30
0.0
 11
388.3539119391
 21
192.3160942818
 31
0.0
  0
LINE
  5
9A
330
1F
100
AcDbEntity
  8
0
  6
Continuous
 62
     7
370
    15
100
AcDbLine
 10
386.0120752482
 20
197.816094252
 30
0.0
 11
388.950524631
 21
197.816094252
 31
0.0
  0
LINE
  5
9B
330
1F
100
AcDbEntity
  8
0
  6
Continuous
 62
     7
370
    15
100
AcDbLine
 10
382.012067142
 20
188.0660968448
 30
0.0
 11
388.3539119391
 21
188.0660968448
 31
0.0
  0
LINE
  5
9C
330
1F
100
AcDbEntity
  8
0
  6
Continuous
 62
     7
370
    15
100
AcDbLine
 10
423.5120692877
 20
394.566090646
 30
0.0
 11
423.5120692877
 21
396.6769146349
 31
0.0
  0
LINE
  5
9D
330
1F
100
AcDbEntity
  8
0
  6
Continuous
 62
     7
370
    15
100
AcDbLine
 10
423.5120692877
 20
394.0236883785
 30
0.0
 11
423.5120692877
 21
394.566090646
 31
0.0
  0
LINE
  5
9E
330
1F
100
AcDbEntity
  8
0
  6
Continuous
 62
     7
370
    15
100
AcDbLine
 10
423.5120692877
 20
382.5660961296
 30
0.0
 11
423.5120692877
 21
383.1085132982
 31
0.0
  0
LINE
  5
9F
330
1F
100
AcDbEntity
  8
0
  6
Continuous
 62
     7
370
    15
100
AcDbLine
 10
423.5120692877
 20
380.4552870418
 30
0.0
 11
423.5120692877
 21
382.5660961296
 31
0.0
  0
LINE
  5
A0
330
1F
100
AcDbEntity
  8
0
  6
Continuous
 62
     7
370
    15
100
AcDbLine
 10
423.5120692877
 20
383.1085132982
 30
0.0
 11
423.5120692877
 21
394.0236883785
 31
0.0
  0
LINE
  5
A1
330
1F
100
AcDbEntity
  8
0
  6
Continuous
 62
     7
370
    15
100
AcDbLine
 10
423.5120692877
 20
394.566090646
 30
0.0
 11
432.5120726256
 21
394.566090646
 31
0.0
  0
LINE
  5
A2
330
1F
100
AcDbEntity
  8
0
  6
Continuous
 62
     7
370
    15
100
AcDbLine
 10
432.5120726256
 20
394.566090646
 30
0.0
 11
432.5120726256
 21
394.0236883785
 31
0.0
  0
LINE
  5
A3
330
1F
100
AcDbEntity
  8
0
  6
Continuous
 62
     7
370
    15
100
AcDbLine
 10
432.5120726256
 20
394.0236883785
 30
0.0
 11
423.5120692877
 21
394.0236883785
 31
0.0
  0
LINE
  5
A4
330
1F
100
AcDbEntity
  8
0
  6
Continuous
 62
     7
370
    15
100
AcDbLine
 10
423.5120692877
 20
383.1085132982
 30
0.0
 11
432.5120726256
 21
383.1085132982
 31
0.0
  0
LINE
  5
A5
330
1F
100
AcDbEntity
  8
0
  6
Continuous
 62
     7
370
    15
100
AcDbLine
 10
432.5120726256
 20
394.0236883785
 30
0.0
 11
432.5120726256
 21
383.1085132982
 31
0.0
  0
LINE
  5
A6
330
1F
100
AcDbEntity
  8
0
  6
Continuous
 62
     7
370
    15
100
AcDbLine
 10
432.5120726256
 20
382.5660961296
 30
0.0
 11
423.5120692877
 21
382.5660961296
 31
0.0
  0
LINE
  5
A7
330
1F
100
AcDbEntity
  8
0
  6
Continuous
 62
     7
370
    15
100
AcDbLine
 10
432.5120726256
 20
383.1085132982
 30
0.0
 11
432.5120726256
 21
382.5660961296
 31
0.0
  0
LINE
  5
A8
330
1F
100
AcDbEntity
  8
0
  6
Continuous
 62
     7
370
    15
100
AcDbLine
 10
402.0699539809
 20
412.5660824205
 30
0.0
 11
360.0120821623
 21
412.5660824205
 31
0.0
  0
LINE
  5
A9
330
1F
100
AcDbEntity
  8
0
  6
Continuous
 62
     7
370
    15
100
AcDbLine
 10
360.0120821623
 20
412.5660824205
 30
0.0
 11
360.0120821623
 21
428.5660850431
 31
0.0
  0
LINE
  5
AA
330
1F
100
AcDbEntity
  8
0
  6
Continuous
 62
     7
370
    15
100
AcDbLine
 10
402.0699539809
 20
428.5660850431
 30
0.0
 11
360.0120821623
 21
428.5660850431
 31
0.0
  0
LINE
  5
AB
330
1F
100
AcDbEntity
  8
0
  6
Continuous
 62
     7
370
    15
100
AcDbLine
 10
360.0120821623
 20
412.5660824205
 30
0.0
 11
317.9541954426
 21
412.5660824205
 31
0.0
  0
LINE
  5
AC
330
1F
100
AcDbEntity
  8
0
  6
Continuous
 62
     7
370
    15
100
AcDbLine
 10
360.0120821623
 20
428.5660850431
 30
0.0
 11
317.9541954426
 21
428.5660850431
 31
0.0
  0
LINE
  5
AD
330
1F
100
AcDbEntity
  8
0
  6
Continuous
 62
     7
370
    15
100
AcDbLine
 10
317.9541954426
 20
428.5660850431
 30
0.0
 11
306.0991594224
 21
428.5660850431
 31
0.0
  0
LINE
  5
AE
330
1F
100
AcDbEntity
  8
0
  6
Continuous
 62
     7
370
    15
100
AcDbLine
 10
317.9541954426
 20
412.5660824205
 30
0.0
 11
306.0991594224
 21
412.5660824205
 31
0.0
  0
LINE
  5
AF
330
1F
100
AcDbEntity
  8
0
  6
Continuous
 62
     7
370
    15
100
AcDbLine
 10
413.9249900012
 20
428.5660850431
 30
0.0
 11
402.0699539809
 21
428.5660850431
 31
0.0
  0
LINE
  5
B0
330
1F
100
AcDbEntity
  8
0
  6
Continuous
 62
     7
370
    15
100
AcDbLine
 10
413.9249900012
 20
412.5660824205
 30
0.0
 11
402.0699539809
 21
412.5660824205
 31
0.0
  0
LINE
  5
B1
330
1F
100
AcDbEntity
  8
0
  6
Continuous
 62
     7
370
    15
100
AcDbLine
 10
300.0120797781
 20
412.5660824205
 30
0.0
 11
300.0120797781
 21
428.5660850431
 31
0.0
  0
LINE
  5
B2
330
1F
100
AcDbEntity
  8
0
  6
Continuous
 62
     7
370
    15
100
AcDbLine
 10
306.0991594224
 20
428.5660850431
 30
0.0
 11
300.0120797781
 21
428.5660850431
 31
0.0
  0
LINE
  5
B3
330
1F
100
AcDbEntity
  8
0
  6
Continuous
 62
     7
370
    15
100
AcDbLine
 10
306.0991594224
 20
412.5660824205
 30
0.0
 11
300.0120797781
 21
412.5660824205
 31
0.0
  0
LINE
  5
B4
330
1F
100
AcDbEntity
  8
0
  6
Continuous
 62
     7
370
    15
100
AcDbLine
 10
420.0120845465
 20
412.5660824205
 30
0.0
 11
420.0120845465
 21
428.5660850431
 31
0.0
  0
LINE
  5
B5
330
1F
100
AcDbEntity
  8
0
  6
Continuous
 62
     7
370
    15
100
AcDbLine
 10
420.0120845465
 20
428.5660850431
 30
0.0
 11
413.9249900012
 21
428.5660850431
 31
0.0
  0
LINE
  5
B6
330
1F
100
AcDbEntity
  8
0
  6
Continuous
 62
     7
370
    15
100
AcDbLine
 10
420.0120845465
 20
412.5660824205
 30
0.0
 11
413.9249900012
 21
412.5660824205
 31
0.0
  0
LINE
  5
B7
330
1F
100
AcDbEntity
  8
0
  6
Continuous
 62
     7
370
    15
100
AcDbLine
 10
392.5120809702
 20
435.5660843279
 30
0.0
 11
327.5120833544
 21
435.5660843279
 31
0.0
  0
LINE
  5
B8
330
1F
100
AcDbEntity
  8
0
  6
Continuous
 62
     7
370
    15
100
AcDbLine
 10
404.0120819239
 20
278.5660939838
 30
0.0
 11
404.0120819239
 21
320.6239807035
 31
0.0
  0
LINE
  5
B9
330
1F
100
AcDbEntity
  8
0
  6
Continuous
 62
     7
370
    15
100
AcDbLine
 10
420.0120845465
 20
278.5660939838
 30
0.0
 11
420.0120845465
 21
320.6239807035
 31
0.0
  0
LINE
  5
BA
330
1F
100
AcDbEntity
  8
0
  6
Continuous
 62
     7
370
    15
100
AcDbLine
 10
404.0120819239
 20
278.5660939838
 30
0.0
 11
420.0120845465
 21
278.5660939838
 31
0.0
  0
LINE
  5
BB
330
1F
100
AcDbEntity
  8
0
  6
Continuous
 62
     7
370
    15
100
AcDbLine
 10
404.0120819239
 20
236.5082147147
 30
0.0
 11
404.0120819239
 21
278.5660939838
 31
0.0
  0
LINE
  5
BC
330
1F
100
AcDbEntity
  8
0
  6
Continuous
 62
     7
370
    15
100
AcDbLine
 10
420.0120845465
 20
236.5082147147
 30
0.0
 11
420.0120845465
 21
278.5660939838
 31
0.0
  0
LINE
  5
BD
330
1F
100
AcDbEntity
  8
0
  6
Continuous
 62
     7
370
    15
100
AcDbLine
 10
404.0120819239
 20
320.6239807035
 30
0.0
 11
404.0120819239
 21
332.4790167238
 31
0.0
  0
LINE
  5
BE
330
1F
100
AcDbEntity
  8
0
  6
Continuous
 62
     7
370
    15
100
AcDbLine
 10
420.0120845465
 20
320.6239807035
 30
0.0
 11
420.0120845465
 21
332.4790167238
 31
0.0
  0
LINE
  5
BF
330
1F
100
AcDbEntity
  8
0
  6
Continuous
 62
     7
370
    15
100
AcDbLine
 10
404.0120819239
 20
224.6531712438
 30
0.0
 11
404.0120819239
 21
236.5082147147
 31
0.0
  0
LINE
  5
C0
330
1F
100
AcDbEntity
  8
0
  6
Continuous
 62
     7
370
    15
100
AcDbLine
 10
420.0120845465
 20
224.6531712438
 30
0.0
 11
420.0120845465
 21
236.5082147147
 31
0.0
  0
LINE
  5
C1
330
1F
100
AcDbEntity
  8
0
  6
Continuous
 62
     7
370
    15
100
AcDbLine
 10
404.0120819239
 20
338.566096368
 30
0.0
 11
420.0120845465
 21
338.566096368
 31
0.0
  0
LINE
  5
C2
330
1F
100
AcDbEntity
  8
0
  6
Continuous
 62
     7
370
    15
100
AcDbLine
 10
404.0120819239
 20
332.4790167238
 30
0.0
 11
404.0120819239
 21
338.566096368
 31
0.0
  0
LINE
  5
C3
330
1F
100
AcDbEntity
  8
0
  6
Continuous
 62
     7
370
    15
100
AcDbLine
 10
420.0120845465
 20
332.4790167238
 30
0.0
 11
420.0120845465
 21
338.566096368
 31
0.0
  0
LINE
  5
C4
330
1F
100
AcDbEntity
  8
0
  6
Continuous
 62
     7
370
    15
100
AcDbLine
 10
404.0120819239
 20
218.5660990502
 30
0.0
 11
420.0120845465
 21
218.5660990502
 31
0.0
  0
LINE
  5
C5
330
1F
100
AcDbEntity
  8
0
  6
Continuous
 62
     7
370
    15
100
AcDbLine
 10
404.0120819239
 20
218.5660990502
 30
0.0
 11
404.0120819239
 21
224.6531712438
 31
0.0
  0
LINE
  5
C6
330
1F
100
AcDbEntity
  8
0
  6
Continuous
 62
     7
370
    15
100
AcDbLine
 10
420.0120845465
 20
218.5660990502
 30
0.0
 11
420.0120845465
 21
224.6531712438
 31
0.0
  0
LINE
  5
C7
330
1F
100
AcDbEntity
  8
0
  6
Continuous
 62
     7
370
    15
100
AcDbLine
 10
427.0120838313
 20
246.0660951759
 30
0.0
 11
427.0120838313
 21
311.0660927917
 31
0.0
  0
LINE
  5
C8
330
1F
100
AcDbEntity
  8
0
  6
Continuous
 62
     7
370
    15
100
AcDbLine
 10
315.0120803742
 20
410.5661081697
 30
0.0
 11
405.0120690493
 21
410.5661081697
 31
0.0
  0
LINE
  5
C9
330
1F
100
AcDbEntity
  8
0
  6
Continuous
 62
     7
370
    15
100
AcDbLine
 10
315.0120803742
 20
408.5661041166
 30
0.0
 11
405.0120690493
 21
408.5661041166
 31
0.0
  0
LINE
  5
CA
330
1F
100
AcDbEntity
  8
0
  6
Continuous
 62
     7
370
    15
100
AcDbLine
 10
400.0120738177
 20
323.566095772
 30
0.0
 11
400.0120738177
 21
233.5660996463
 31
0.0
  0
LINE
  5
CB
330
1F
100
AcDbEntity
  8
0
  6
Continuous
 62
     7
370
    15
100
AcDbLine
 10
402.0120778708
 20
323.566095772
 30
0.0
 11
402.0120778708
 21
233.5660996463
 31
0.0
  0
LINE
  5
CC
330
1F
100
AcDbEntity
  8
0
  6
Continuous
 62
     7
370
    15
100
AcDbLine
 10
98.5120784147
 20
219.5660936262
 30
0.0
 11
98.5120784147
 21
208.0660963978
 31
0.0
  0
LINE
  5
CD
330
1F
100
AcDbEntity
  8
0
  6
Continuous
 62
     7
370
    15
100
AcDbLine
 10
94.4587586103
 20
213.5778831865
 30
0.0
 11
97.0120781688
 21
213.5778831865
 31
0.0
  0
SPLINE
  5
CE
330
1F
100
AcDbEntity
  8
0
  6
Continuous
 62
     7
370
    15
100
AcDbSpline
210
0.0
220
0.0
230
1.0
 70
     8
 71
     3
 72
    11
 73
     7
 74
     0
 42
0.00000001
 43
0.00000001
 12
1.0
 22
0.0
 32
0.0
 13
1.0
 23
0.0
 33
0.0
 40
0.0
 40
0.0
 40
0.0
 40
0.0
 40
0.2032326332581896
 40
0.4408474841843873
 40
0.7809258862467575
 40
1.0
 40
1.0
 40
1.0
 40
1.0
 10
94.45875861032229
 20
213.5778831865071
 30
0.0
 10
93.9246700874768
 20
213.6237429975134
 30
0.0
 10
92.76613773047545
 20
213.7232210290835
 30
0.0
 10
90.94628628935719
 20
214.6244350570637
 30
0.0
 10
89.49888627644434
 20
215.9644571641713
 30
0.0
 10
88.78986852591866
 20
217.0753632176922
 30
0.0
 10
88.51207770688754
 20
217.5106125499485
 30
0.0
  0
LINE
  5
CF
330
1F
100
AcDbEntity
  8
0
  6
Continuous
 62
     7
370
    15
100
AcDbLine
 10
88.5120777069
 20
217.5106125499
 30
0.0
 11
88.5120777069
 21
183.5660951759
 31
0.0
  0
LINE
  5
D0
330
1F
100
AcDbEntity
  8
0
  6
Continuous
 62
     7
370
    15
100
AcDbLine
 10
97.0120781688
 20
213.5778831865
 30
0.0
 11
97.0120781688
 21
187.8962236072
 31
0.0
  0
LINE
  5
D1
330
1F
100
AcDbEntity
  8
0
  6
Continuous
 62
     7
370
    15
100
AcDbLine
 10
88.5120777069
 20
183.5660951759
 30
0.0
 11
97.0120781688
 21
183.5660951759
 31
0.0
  0
SPLINE
  5
D2
330
1F
100
AcDbEntity
  8
0
  6
Continuous
 62
     7
370
    15
100
AcDbSpline
210
0.0
220
0.0
230
1.0
 70
     8
 71
     3
 72
    10
 73
     6
 74
     0
 42
0.00000001
 43
0.00000001
 12
1.0
 22
0.0
 32
0.0
 13
1.0
 23
0.0
 33
0.0
 40
0.0
 40
0.0
 40
0.0
 40
0.0
 40
0.3991507821317546
 40
0.7983098368395092
 40
1.0
 40
1.0
 40
1.0
 40
1.0
 10
233.5120716719173
 20
256.5850856329678
 30
0.0
 10
233.5414808857728
 20
256.8496930677297
 30
0.0
 10
233.6002999230028
 20
257.3789134213594
 30
0.0
 10
233.9373338659692
 20
257.9998766711741
 30
0.0
 10
234.2659435146227
 20
258.2542841790184
 30
0.0
 10
234.3762496141933
 20
258.3396824623821
 30
0.0
  0
LINE
  5
D3
330
1F
100
AcDbEntity
  8
0
  6
Continuous
 62
     7
370
    15
100
AcDbLine
 10
233.5120716719
 20
256.585085633
 30
0.0
 11
233.5120716719
 21
254.6411471988
 31
0.0
  0
SPLINE
  5
D4
330
1F
100
AcDbEntity
  8
0
  6
Continuous
 62
     7
370
    15
100
AcDbSpline
210
0.0
220
0.0
230
1.0
 70
     8
 71
     3
 72
    12
 73
     8
 74
     0
 42
0.00000001
 43
0.00000001
 12
1.0
 22
0.0
 32
0.0
 13
1.0
 23
0.0
 33
0.0
 40
0.0
 40
0.0
 40
0.0
 40
0.0
 40
0.2146629956709179
 40
0.429325843458303
 40
0.6439774566951888
 40
0.8585766508396958
 40
1.0
 40
1.0
 40
1.0
 40
1.0
 10
236.0120841888927
 20
225.3293114330052
 30
0.0
 10
235.7310268219066
 20
225.3467191249647
 30
0.0
 10
235.1689122815578
 20
225.3815344968915
 30
0.0
 10
234.4197490601562
 20
225.6543525646438
 30
0.0
 10
233.8544258761079
 20
226.0599869613449
 30
0.0
 10
233.5547948793608
 20
226.5149856754762
 30
0.0
 10
233.5242178352992
 20
226.8201449106436
 30
0.0
 10
233.5120716719173
 20
226.9413637544392
 30
0.0
  0
LINE
  5
D5
330
1F
100
AcDbEntity
  8
0
  6
Continuous
 62
     7
370
    15
100
AcDbLine
 10
236.0120841889
 20
225.329311433
 30
0.0
 11
246.303809586
 21
225.329311433
 31
0.0
  0
LINE
  5
D6
330
1F
100
AcDbEntity
  8
0
  6
Continuous
 62
     7
370
    15
100
AcDbLine
 10
233.5120716719
 20
228.3230292227
 30
0.0
 11
233.5120716719
 21
226.9413637544
 31
0.0
  0
SPLINE
  5
D7
330
1F
100
AcDbEntity
  8
0
  6
Continuous
 62
     7
370
    15
100
AcDbSpline
210
0.0
220
0.0
230
1.0
 70
     8
 71
     3
 72
    12
 73
     8
 74
     0
 42
0.00000001
 43
0.00000001
 12
1.0
 22
0.0
 32
0.0
 13
1.0
 23
0.0
 33
0.0
 40
0.0
 40
0.0
 40
0.0
 40
0.0
 40
0.2146538059393314
 40
0.4293114883493286
 40
0.6438953351984308
 40
0.8585120010708691
 40
1.0
 40
1.0
 40
1.0
 40
1.0
 10
113.5120780794166
 20
212.1396417345284
 30
0.0
 10
113.5396753200528
 20
212.2108283546152
 30
0.0
 10
113.5948702997085
 20
212.3532028803603
 30
0.0
 10
114.0255876536362
 20
212.5542465112125
 30
0.0
 10
114.6596391475301
 20
212.7107737025626
 30
0.0
 10
115.3626312421877
 20
212.7958909004904
 30
0.0
 10
115.8274113948313
 20
212.8046206736592
 30
0.0
 10
116.0120784891985
 20
212.8080891992329
 30
0.0
  0
LINE
  5
D8
330
1F
100
AcDbEntity
  8
0
  6
Continuous
 62
     7
370
    15
100
AcDbLine
 10
113.5120780794
 20
211.6545754101
 30
0.0
 11
113.5120780794
 21
212.1396417345
 31
0.0
  0
SPLINE
  5
D9
330
1F
100
AcDbEntity
  8
0
  6
Continuous
 62
     7
370
    15
100
AcDbSpline
210
0.0
220
0.0
230
1.0
 70
     8
 71
     3
 72
    12
 73
     8
 74
     0
 42
0.00000001
 43
0.00000001
 12
1.0
 22
0.0
 32
0.0
 13
1.0
 23
0.0
 33
0.0
 40
0.0
 40
0.0
 40
0.0
 40
0.0
 40
0.2146629710896827
 40
0.4293261942310189
 40
0.6439763960616112
 40
0.8585772701959999
 40
1.0
 40
1.0
 40
1.0
 40
1.0
 10
116.0120784891985
 20
211.1477682914017
 30
0.0
 10
115.7310219156332
 20
211.152850111303
 30
0.0
 10
115.1689084384933
 20
211.1630137570723
 30
0.0
 10
114.4197429333957
 20
211.2439176693318
 30
0.0
 10
113.8544324064382
 20
211.3682515369311
 30
0.0
 10
113.5547910955741
 20
211.5129438723172
 30
0.0
 10
113.5242212814736
 20
211.6143099234402
 30
0.0
 10
113.5120780794166
 20
211.654575410056
 30
0.0
  0
LINE
  5
DA
330
1F
100
AcDbEntity
  8
0
  6
Continuous
 62
     7
370
    15
100
AcDbLine
 10
124.0120788692
 20
211.1477682914
 30
0.0
 11
116.0120784892
 21
211.1477682914
 31
0.0
  0
SPLINE
  5
DB
330
1F
100
AcDbEntity
  8
0
  6
Continuous
 62
     7
370
    15
100
AcDbSpline
210
0.0
220
0.0
230
1.0
 70
     8
 71
     3
 72
    12
 73
     8
 74
     0
 42
0.00000001
 43
0.00000001
 12
1.0
 22
0.0
 32
0.0
 13
1.0
 23
0.0
 33
0.0
 40
0.0
 40
0.0
 40
0.0
 40
0.0
 40
0.214653868577931
 40
0.4293118959553854
 40
0.6438953201452896
 40
0.8585121538452318
 40
1.0
 40
1.0
 40
1.0
 40
1.0
 10
126.5120783476375
 20
211.654575410056
 30
0.0
 10
126.4844811167724
 20
211.5936125373636
 30
0.0
 10
126.4292861203612
 20
211.471685610857
 30
0.0
 10
125.9985685268269
 20
211.3205923286955
 30
0.0
 10
125.3645163579868
 20
211.2114381850205
 30
0.0
 10
124.6615255828321
 20
211.1556735773309
 30
0.0
 10
124.1967456636015
 20
211.1500161183302
 30
0.0
 10
124.0120788691781
 20
211.1477682914017
 30
0.0
  0
LINE
  5
DC
330
1F
100
AcDbEntity
  8
0
  6
Continuous
 62
     7
370
    15
100
AcDbLine
 10
126.5120783476
 20
211.6545754101
 30
0.0
 11
126.5120783476
 21
212.1396417345
 31
0.0
  0
SPLINE
  5
DD
330
1F
100
AcDbEntity
  8
0
  6
Continuous
 62
     7
370
    15
100
AcDbSpline
210
0.0
220
0.0
230
1.0
 70
     8
 71
     3
 72
    12
 73
     8
 74
     0
 42
0.00000001
 43
0.00000001
 12
1.0
 22
0.0
 32
0.0
 13
1.0
 23
0.0
 33
0.0
 40
0.0
 40
0.0
 40
0.0
 40
0.0
 40
0.2146628186621695
 40
0.429325769043172
 40
0.643976313857044
 40
0.8585771598281801
 40
1.0
 40
1.0
 40
1.0
 40
1.0
 10
124.0120788691781
 20
212.8080891992329
 30
0.0
 10
124.2931352816123
 20
212.8001923245336
 30
0.0
 10
124.8552482789392
 20
212.7843985702895
 30
0.0
 10
125.6044138697203
 20
212.662840949363
 30
0.0
 10
126.1697233654691
 20
212.4891203914739
 30
0.0
 10
126.4693662000169
 20
212.3032940591314
 30
0.0
 10
126.4999353877276
 20
212.186167693243
 30
0.0
 10
126.5120783476375
 20
212.1396417345284
 30
0.0
  0
LINE
  5
DE
330
1F
100
AcDbEntity
  8
0
  6
Continuous
 62
     7
370
    15
100
AcDbLine
 10
124.0120788692
 20
212.8080891992
 30
0.0
 11
116.0120784892
 21
212.8080891992
 31
0.0
  0
SPLINE
  5
DF
330
1F
100
AcDbEntity
  8
0
  6
Continuous
 62
     7
370
    15
100
AcDbSpline
210
0.0
220
0.0
230
1.0
 70
     8
 71
     3
 72
    11
 73
     7
 74
     0
 42
0.00000001
 43
0.00000001
 12
1.0
 22
0.0
 32
0.0
 13
1.0
 23
0.0
 33
0.0
 40
0.0
 40
0.0
 40
0.0
 40
0.0
 40
0.2681756139361894
 40
0.5363574170198195
 40
0.8044447857240421
 40
1.0
 40
1.0
 40
1.0
 40
1.0
 10
113.5120780794166
 20
218.4004800941227
 30
0.0
 10
113.5395096552723
 20
218.5366753943097
 30
0.0
 10
113.5943734400691
 20
218.8090691378955
 30
0.0
 10
114.0275766895172
 20
219.177496902611
 30
0.0
 10
114.5958214620626
 20
219.4513469012495
 30
0.0
 10
115.0574377831075
 20
219.5320532812783
 30
0.0
 10
115.2521383604251
 20
219.5660936261891
 30
0.0
  0
LINE
  5
E0
330
1F
100
AcDbEntity
  8
0
  6
Continuous
 62
     7
370
    15
100
AcDbLine
 10
113.5120780794
 20
217.436799648
 30
0.0
 11
113.5120780794
 21
218.4004800941
 31
0.0
  0
SPLINE
  5
E1
330
1F
100
AcDbEntity
  8
0
  6
Continuous
 62
     7
370
    15
100
AcDbSpline
210
0.0
220
0.0
230
1.0
 70
     8
 71
     3
 72
    12
 73
     8
 74
     0
 42
0.00000001
 43
0.00000001
 12
1.0
 22
0.0
 32
0.0
 13
1.0
 23
0.0
 33
0.0
 40
0.0
 40
0.0
 40
0.0
 40
0.0
 40
0.214663021471796
 40
0.4293261772200066
 40
0.6439763267829283
 40
0.8585778438785069
 40
1.0
 40
1.0
 40
1.0
 40
1.0
 10
116.0120784891985
 20
216.3428756024121
 30
0.0
 10
115.7310219458977
 20
216.3544870959625
 30
0.0
 10
115.1689086834889
 20
216.3777100903265
 30
0.0
 10
114.4197429550765
 20
216.5603349752429
 30
0.0
 10
113.8544314933999
 20
216.8339499629581
 30
0.0
 10
113.554791736958
 20
217.1435594690439
 30
0.0
 10
113.5242214268709
 20
217.3534324632082
 30
0.0
 10
113.5120780794166
 20
217.4367996479748
 30
0.0
  0
LINE
  5
E2
330
1F
100
AcDbEntity
  8
0
  6
Continuous
 62
     7
370
    15
100
AcDbLine
 10
124.0120788692
 20
216.3428756024
 30
0.0
 11
116.0120784892
 21
216.3428756024
 31
0.0
  0
SPLINE
  5
E3
330
1F
100
AcDbEntity
  8
0
  6
Continuous
 62
     7
370
    15
100
AcDbSpline
210
0.0
220
0.0
230
1.0
 70
     8
 71
     3
 72
    12
 73
     8
 74
     0
 42
0.00000001
 43
0.00000001
 12
1.0
 22
0.0
 32
0.0
 13
1.0
 23
0.0
 33
0.0
 40
0.0
 40
0.0
 40
0.0
 40
0.0
 40
0.2146535787491158
 40
0.4293118556834449
 40
0.6438953599074482
 40
0.8585121747886387
 40
1.0
 40
1.0
 40
1.0
 40
1.0
 10
126.5120783476375
 20
217.4367996479748
 30
0.0
 10
126.4844810040647
 20
217.3101780829334
 30
0.0
 10
126.429285712888
 20
217.0569321814478
 30
0.0
 10
125.9985687645108
 20
216.7298547953492
 30
0.0
 10
125.3645165321228
 20
216.4874849442025
 30
0.0
 10
124.6615255989518
 20
216.3608889481263
 30
0.0
 10
124.1967456633792
 20
216.3479976034221
 30
0.0
 10
124.0120788691781
 20
216.3428756024121
 30
0.0
  0
LINE
  5
E4
330
1F
100
AcDbEntity
  8
0
  6
Continuous
 62
     7
370
    15
100
AcDbLine
 10
126.5120783476
 20
217.436799648
 30
0.0
 11
126.5120783476
 21
218.4004800941
 31
0.0
  0
SPLINE
  5
E5
330
1F
100
AcDbEntity
  8
0
  6
Continuous
 62
     7
370
    15
100
AcDbSpline
210
0.0
220
0.0
230
1.0
 70
     8
 71
     3
 72
    11
 73
     7
 74
     0
 42
0.00000001
 43
0.00000001
 12
1.0
 22
0.0
 32
0.0
 13
1.0
 23
0.0
 33
0.0
 40
0.0
 40
0.0
 40
0.0
 40
0.0
 40
0.2701364572694977
 40
0.5446633105804399
 40
0.8191266624734749
 40
1.0
 40
1.0
 40
1.0
 40
1.0
 10
124.8513681469701
 20
219.5660936261891
 30
0.0
 10
125.1035160390177
 20
219.5062851134551
 30
0.0
 10
125.6119098597804
 20
219.3856960494101
 30
0.0
 10
126.1685065664767
 20
219.0585796323884
 30
0.0
 10
126.4695532956826
 20
218.7141006333253
 30
0.0
 10
126.4999885537804
 20
218.48964183512
 30
0.0
 10
126.5120783476375
 20
218.4004800941227
 30
0.0
  0
LINE
  5
E6
330
1F
100
AcDbEntity
  8
0
  6
Continuous
 62
     7
370
    15
100
AcDbLine
 10
233.5120716719
 20
255.2538605954
 30
0.0
 11
233.6371669201
 21
254.5660975005
 31
0.0
  0
LINE
  5
E7
330
1F
100
AcDbEntity
  8
0
  6
Continuous
 62
     7
370
    15
100
AcDbLine
 10
236.0120841889
 20
226.5709879424
 30
0.0
 11
245.1452145009
 21
226.5709879424
 31
0.0
  0
SPLINE
  5
E8
330
1F
100
AcDbEntity
  8
0
  6
Continuous
 62
     7
370
    15
100
AcDbSpline
210
0.0
220
0.0
230
1.0
 70
     8
 71
     3
 72
    12
 73
     8
 74
     0
 42
0.00000001
 43
0.00000001
 12
1.0
 22
0.0
 32
0.0
 13
1.0
 23
0.0
 33
0.0
 40
0.0
 40
0.0
 40
0.0
 40
0.0
 40
0.2146508678123047
 40
0.4293075865831836
 40
0.6438851904841151
 40
0.8584964017577014
 40
1.0
 40
1.0
 40
1.0
 40
1.0
 10
233.5120716719173
 20
228.183882179427
 30
0.0
 10
233.5396703377863
 20
227.9994160383164
 30
0.0
 10
233.5948684218094
 20
227.6304787279126
 30
0.0
 10
234.0255651089024
 20
227.1478026036057
 30
0.0
 10
234.6596028383914
 20
226.7874279720834
 30
0.0
 10
235.3625977012847
 20
226.597975133285
 30
0.0
 10
235.8273951308244
 20
226.5786620648842
 30
0.0
 10
236.0120841888927
 20
226.5709879423855
 30
0.0
  0
SPLINE
  5
E9
330
1F
100
AcDbEntity
  8
0
  6
Continuous
 62
     7
370
    15
100
AcDbSpline
210
0.0
220
0.0
230
1.0
 70
     8
 71
     3
 72
     9
 73
     5
 74
     0
 42
0.00000001
 43
0.00000001
 12
1.0
 22
0.0
 32
0.0
 13
1.0
 23
0.0
 33
0.0
 40
0.0
 40
0.0
 40
0.0
 40
0.0
 40
0.4008157359855157
 40
1.0
 40
1.0
 40
1.0
 40
1.0
 10
115.1198612181686
 20
212.7580436493634
 30
0.0
 10
115.2322478557836
 20
212.7479507355977
 30
0.0
 10
115.5126426295536
 20
212.7227698036643
 30
0.0
 10
115.8249492666832
 20
212.7211688608401
 30
0.0
 10
116.0120784891985
 20
212.7202096010922
 30
0.0
  0
SPLINE
  5
EA
330
1F
100
AcDbEntity
  8
0
  6
Continuous
 62
     7
370
    15
100
AcDbSpline
210
0.0
220
0.0
230
1.0
 70
     8
 71
     3
 72
     9
 73
     5
 74
     0
 42
0.00000001
 43
0.00000001
 12
1.0
 22
0.0
 32
0.0
 13
1.0
 23
0.0
 33
0.0
 40
0.0
 40
0.0
 40
0.0
 40
0.0
 40
0.9307272111537941
 40
1.0
 40
1.0
 40
1.0
 40
1.0
 10
124.0120788691781
 20
212.7202096010922
 30
0.0
 10
124.302384641338
 20
212.7210216311571
 30
0.0
 10
124.6142974861338
 20
212.7218940995401
 30
0.0
 10
124.8760923514293
 20
212.750186613477
 30
0.0
 10
124.8942276118539
 20
212.7521465148209
 30
0.0
  0
LINE
  5
EB
330
1F
100
AcDbEntity
  8
0
  6
Continuous
 62
     7
370
    15
100
AcDbLine
 10
124.0120788692
 20
212.7202096011
 30
0.0
 11
116.0120784892
 21
212.7202096011
 31
0.0
  0
SPLINE
  5
EC
330
1F
100
AcDbEntity
  8
0
  6
Continuous
 62
     7
370
    15
100
AcDbSpline
210
0.0
220
0.0
230
1.0
 70
     8
 71
     3
 72
    12
 73
     8
 74
     0
 42
0.00000001
 43
0.00000001
 12
1.0
 22
0.0
 32
0.0
 13
1.0
 23
0.0
 33
0.0
 40
0.0
 40
0.0
 40
0.0
 40
0.0
 40
0.0180922561607963
 40
0.2864728987643905
 40
0.5547565245557264
 40
0.8230837719042492
 40
0.9999999999999999
 40
0.9999999999999999
 40
0.9999999999999999
 40
0.9999999999999999
 10
113.6433675540827
 20
218.5425030614613
 30
0.0
 10
113.6463553090218
 20
218.5341241182728
 30
0.0
 10
113.6936634396721
 20
218.4014518786985
 30
0.0
 10
114.0410984455305
 20
218.1836281554368
 30
0.0
 10
114.655404965278
 20
217.9381329417566
 30
0.0
 10
115.3632429201686
 20
217.8122609739202
 30
0.0
 10
115.827576759379
 20
217.7992959928878
 30
0.0
 10
116.0120784891985
 20
217.7941443945645
 30
0.0
  0
SPLINE
  5
ED
330
1F
100
AcDbEntity
  8
0
  6
Continuous
 62
     7
370
    15
100
AcDbSpline
210
0.0
220
0.0
230
1.0
 70
     8
 71
     3
 72
    11
 73
     7
 74
     0
 42
0.00000001
 43
0.00000001
 12
1.0
 22
0.0
 32
0.0
 13
1.0
 23
0.0
 33
0.0
 40
0.0
 40
0.0
 40
0.0
 40
0.0
 40
0.2657973396293923
 40
0.5315959112168064
 40
0.7973770314767191
 40
0.9999999999999999
 40
0.9999999999999999
 40
0.9999999999999999
 40
0.9999999999999999
 10
124.0120788691781
 20
217.7941443945645
 30
0.0
 10
124.2936448417764
 20
217.8056727670865
 30
0.0
 10
124.8567780920179
 20
217.8287295655639
 30
0.0
 10
125.5982890823093
 20
218.0126240732492
 30
0.0
 10
126.1456390571375
 20
218.2603829781178
 30
0.0
 10
126.3058845061648
 20
218.4693332988258
 30
0.0
 10
126.3752037314914
 20
218.5597213532208
 30
0.0
  0
LINE
  5
EE
330
1F
100
AcDbEntity
  8
0
  6
Continuous
 62
     7
370
    15
100
AcDbLine
 10
124.0120788692
 20
217.7941443946
 30
0.0
 11
116.0120784892
 21
217.7941443946
 31
0.0
  0
LINE
  5
EF
330
1F
100
AcDbEntity
  8
0
  6
Continuous
 62
     7
370
    15
100
AcDbLine
 10
277.5120714335
 20
208.5660974111
 30
0.0
 11
277.5120714335
 21
218.8751863863
 31
0.0
  0
LINE
  5
F0
330
1F
100
AcDbEntity
  8
0
  6
Continuous
 62
     7
370
    15
100
AcDbLine
 10
276.5120843081
 20
209.5660957124
 30
0.0
 11
276.5120843081
 21
218.5213806655
 31
0.0
  0
LINE
  5
F1
330
1F
100
AcDbEntity
  8
0
  6
Continuous
 62
     7
370
    15
100
AcDbLine
 10
291.5120849041
 20
278.5660939838
 30
0.0
 11
291.5120849041
 21
348.5661017324
 31
0.0
  0
LINE
  5
F2
330
1F
100
AcDbEntity
  8
0
  6
Continuous
 62
     7
370
    15
100
AcDbLine
 10
291.5120849041
 20
208.5660974111
 30
0.0
 11
291.5120849041
 21
278.5660939838
 31
0.0
  0
LINE
  5
F3
330
1F
100
AcDbEntity
  8
0
  6
Continuous
 62
     7
370
    15
100
AcDbLine
 10
273.5120782284
 20
209.5660957124
 30
0.0
 11
273.5120782284
 21
216.9253023888
 31
0.0
  0
LINE
  5
F4
330
1F
100
AcDbEntity
  8
0
  6
Continuous
 62
     7
370
    15
100
AcDbLine
 10
312.0120742945
 20
318.7884407665
 30
0.0
 11
320.0120756058
 21
318.7884407665
 31
0.0
  0
LINE
  5
F5
330
1F
100
AcDbEntity
  8
0
  6
Continuous
 62
     7
370
    15
100
AcDbLine
 10
312.0120742945
 20
238.3437472011
 30
0.0
 11
320.0120756058
 21
238.3437472011
 31
0.0
  0
LINE
  5
F6
330
1F
100
AcDbEntity
  8
0
  6
Continuous
 62
     7
370
    15
100
AcDbLine
 10
312.0120742945
 20
238.3437472011
 30
0.0
 11
312.0120742945
 21
318.7884407665
 31
0.0
  0
LINE
  5
F7
330
1F
100
AcDbEntity
  8
0
  6
Continuous
 62
     7
370
    15
100
AcDbLine
 10
320.0120756058
 20
238.3437472011
 30
0.0
 11
320.0120756058
 21
318.7884407665
 31
0.0
  0
LINE
  5
F8
330
1F
100
AcDbEntity
  8
0
  6
Continuous
 62
     7
370
    15
100
AcDbLine
 10
289.512080851
 20
296.7142480041
 30
0.0
 11
289.512080851
 21
260.4179474141
 31
0.0
  0
LINE
  5
F9
330
1F
100
AcDbEntity
  8
0
  6
Continuous
 62
     7
370
    15
100
AcDbLine
 10
312.0120742945
 20
342.3191624309
 30
0.0
 11
320.0120756058
 21
342.3191624309
 31
0.0
  0
LINE
  5
FA
330
1F
100
AcDbEntity
  8
0
  6
Continuous
 62
     7
370
    15
100
AcDbLine
 10
312.0120742945
 20
331.7125605966
 30
0.0
 11
320.0120756058
 21
331.7125605966
 31
0.0
  0
LINE
  5
FB
330
1F
100
AcDbEntity
  8
0
  6
Continuous
 62
     7
370
    15
100
AcDbLine
 10
312.0120742945
 20
331.7125605966
 30
0.0
 11
312.0120742945
 21
342.3191624309
 31
0.0
  0
LINE
  5
FC
330
1F
100
AcDbEntity
  8
0
  6
Continuous
 62
     7
370
    15
100
AcDbLine
 10
320.0120756058
 20
342.3191624309
 30
0.0
 11
320.0120756058
 21
331.7125605966
 31
0.0
  0
LINE
  5
FD
330
1F
100
AcDbEntity
  8
0
  6
Continuous
 62
     7
370
    15
100
AcDbLine
 10
312.0120742945
 20
318.7884407665
 30
0.0
 11
312.0120742945
 21
331.7125605966
 31
0.0
  0
LINE
  5
FE
330
1F
100
AcDbEntity
  8
0
  6
Continuous
 62
     7
370
    15
100
AcDbLine
 10
320.0120756058
 20
331.7125605966
 30
0.0
 11
320.0120756058
 21
318.7884407665
 31
0.0
  0
LINE
  5
FF
330
1F
100
AcDbEntity
  8
0
  6
Continuous
 62
     7
370
    15
100
AcDbLine
 10
312.0120742945
 20
225.4196348216
 30
0.0
 11
320.0120756058
 21
225.4196348216
 31
0.0
  0
LINE
  5
100
330
1F
100
AcDbEntity
  8
0
  6
Continuous
 62
     7
370
    15
100
AcDbLine
 10
312.0120742945
 20
225.4196348216
 30
0.0
 11
312.0120742945
 21
238.3437472011
 31
0.0
  0
LINE
  5
101
330
1F
100
AcDbEntity
  8
0
  6
Continuous
 62
     7
370
    15
100
AcDbLine
 10
320.0120756058
 20
238.3437472011
 30
0.0
 11
320.0120756058
 21
225.4196348216
 31
0.0
  0
LINE
  5
102
330
1F
100
AcDbEntity
  8
0
  6
Continuous
 62
     7
370
    15
100
AcDbLine
 10
312.0120742945
 20
214.813029262
 30
0.0
 11
320.0120756058
 21
214.813029262
 31
0.0
  0
LINE
  5
103
330
1F
100
AcDbEntity
  8
0
  6
Continuous
 62
     7
370
    15
100
AcDbLine
 10
312.0120742945
 20
214.813029262
 30
0.0
 11
312.0120742945
 21
225.4196348216
 31
0.0
  0
LINE
  5
104
330
1F
100
AcDbEntity
  8
0
  6
Continuous
 62
     7
370
    15
100
AcDbLine
 10
320.0120756058
 20
225.4196348216
 30
0.0
 11
320.0120756058
 21
214.813029262
 31
0.0
  0
LINE
  5
105
330
1F
100
AcDbEntity
  8
0
  6
Continuous
 62
     7
370
    15
100
AcDbLine
 10
312.0120742945
 20
342.3191624309
 30
0.0
 11
312.0120742945
 21
349.0660952951
 31
0.0
  0
LINE
  5
106
330
1F
100
AcDbEntity
  8
0
  6
Continuous
 62
     7
370
    15
100
AcDbLine
 10
320.0120756058
 20
342.3191624309
 30
0.0
 11
320.0120756058
 21
349.0660952951
 31
0.0
  0
LINE
  5
107
330
1F
100
AcDbEntity
  8
0
  6
Continuous
 62
     7
370
    15
100
AcDbLine
 10
312.0120742945
 20
208.0660963978
 30
0.0
 11
312.0120742945
 21
214.813029262
 31
0.0
  0
LINE
  5
108
330
1F
100
AcDbEntity
  8
0
  6
Continuous
 62
     7
370
    15
100
AcDbLine
 10
320.0120756058
 20
208.0660963978
 30
0.0
 11
320.0120756058
 21
214.813029262
 31
0.0
  0
LINE
  5
109
330
1F
100
AcDbEntity
  8
0
  6
Continuous
 62
     7
370
    15
100
AcDbLine
 10
289.512080851
 20
348.5661017324
 30
0.0
 11
289.512080851
 21
346.172632518
 31
0.0
  0
LINE
  5
10A
330
1F
100
AcDbEntity
  8
0
  6
Continuous
 62
     7
370
    15
100
AcDbLine
 10
289.512080851
 20
210.9595517244
 30
0.0
 11
289.512080851
 21
208.5660974111
 31
0.0
  0
LINE
  5
10B
330
1F
100
AcDbEntity
  8
0
  6
Continuous
 62
     7
370
    15
100
AcDbLine
 10
312.0120742945
 20
333.5661011364
 30
0.0
 11
291.5120849041
 21
333.5661011364
 31
0.0
  0
LINE
  5
10C
330
1F
100
AcDbEntity
  8
0
  6
Continuous
 62
     7
370
    15
100
AcDbLine
 10
312.0120742945
 20
223.5660942818
 30
0.0
 11
291.5120849041
 21
223.5660942818
 31
0.0
  0
LWPOLYLINE
  5
10D
330
1F
100
AcDbEntity
  8
0
  6
Continuous
 62
     7
370
    15
100
AcDbPolyline
 90
        7
 70
   128
 43
0.0
 10
297.4486777215
 20
328.8660811807
 10
297.3894605069
 20
329.0480094578
 10
297.3894605069
 20
329.8431801225
 10
297.7570572524
 20
330.742226782
 10
298.4761872916
 20
331.7058550741
 10
299.5154091744
 20
332.6919692184
 10
300.6916621356
 20
333.5661011364
  0
LWPOLYLINE
  5
10E
330
1F
100
AcDbEntity
  8
0
  6
Continuous
 62
     7
370
    15
100
AcDbPolyline
 90
       11
 70
   128
 43
0.0
 10
298.3846941618
 20
326.5353309538
 10
297.5515553383
 20
326.6975449945
 10
296.5473958878
 20
327.0956742193
 10
295.8583363919
 20
327.668325844
 10
295.5078312783
 20
328.3959644462
 10
295.5078312783
 20
329.2538391973
 10
295.8583363919
 20
330.2127289201
 10
296.5473958878
 20
331.2399702694
 10
297.5515553383
 20
332.3005902197
 10
298.8366314797
 20
333.3584832575
 10
299.1230317978
 20
333.5661011364
  0
LINE
  5
10F
330
1F
100
AcDbEntity
  8
0
  6
Continuous
 62
     7
370
    15
100
AcDbLine
 10
300.3556856541
 20
348.5661017324
 30
0.0
 11
301.0120818047
 21
348.7920033361
 31
0.0
  0
LINE
  5
110
330
1F
100
AcDbEntity
  8
0
  6
Continuous
 62
     7
370
    15
100
AcDbLine
 10
312.0120742945
 20
352.4205701973
 30
0.0
 11
301.0120818047
 21
348.7920033361
 31
0.0
  0
LINE
  5
111
330
1F
100
AcDbEntity
  8
0
  6
Continuous
 62
     7
370
    15
100
AcDbLine
 10
312.0120742945
 20
352.4205701973
 30
0.0
 11
312.0120742945
 21
349.0660952951
 31
0.0
  0
LINE
  5
112
330
1F
100
AcDbEntity
  8
0
  6
Continuous
 62
     7
370
    15
100
AcDbLine
 10
148.0120772151
 20
175.1660964067
 30
0.0
 11
148.0120772151
 21
174.5660955633
 31
0.0
  0
LINE
  5
113
330
1F
100
AcDbEntity
  8
0
  6
Continuous
 62
     7
370
    15
100
AcDbLine
 10
148.0120772151
 20
175.1660964067
 30
0.0
 11
160.0120791821
 21
175.1660964067
 31
0.0
  0
LINE
  5
114
330
1F
100
AcDbEntity
  8
0
  6
Continuous
 62
     7
370
    15
100
AcDbLine
 10
160.0120791821
 20
175.1660964067
 30
0.0
 11
160.0120791821
 21
174.5660955633
 31
0.0
  0
LINE
  5
115
330
1F
100
AcDbEntity
  8
0
  6
Continuous
 62
     7
370
    15
100
AcDbLine
 10
148.0120772151
 20
174.5660955633
 30
0.0
 11
160.0120791821
 21
174.5660955633
 31
0.0
  0
LINE
  5
116
330
1F
100
AcDbEntity
  8
0
  6
Continuous
 62
     7
370
    15
100
AcDbLine
 10
166.0120764403
 20
175.1660964067
 30
0.0
 11
166.0120764403
 21
174.5660955633
 31
0.0
  0
LINE
  5
117
330
1F
100
AcDbEntity
  8
0
  6
Continuous
 62
     7
370
    15
100
AcDbLine
 10
166.0120764403
 20
175.1660964067
 30
0.0
 11
190.5120813875
 21
175.1660964067
 31
0.0
  0
LINE
  5
118
330
1F
100
AcDbEntity
  8
0
  6
Continuous
 62
     7
370
    15
100
AcDbLine
 10
190.5120813875
 20
174.5660955633
 30
0.0
 11
190.5120813875
 21
175.1660964067
 31
0.0
  0
LINE
  5
119
330
1F
100
AcDbEntity
  8
0
  6
Continuous
 62
     7
370
    15
100
AcDbLine
 10
166.0120764403
 20
174.5660955633
 30
0.0
 11
190.5120813875
 21
174.5660955633
 31
0.0
  0
LINE
  5
11A
330
1F
100
AcDbEntity
  8
0
  6
Continuous
 62
     7
370
    15
100
AcDbLine
 10
249.0120807318
 20
175.1660964067
 30
0.0
 11
249.0120807318
 21
174.5660955633
 31
0.0
  0
LINE
  5
11B
330
1F
100
AcDbEntity
  8
0
  6
Continuous
 62
     7
370
    15
100
AcDbLine
 10
215.5120798974
 20
174.5660955633
 30
0.0
 11
249.0120807318
 21
174.5660955633
 31
0.0
  0
LINE
  5
11C
330
1F
100
AcDbEntity
  8
0
  6
Continuous
 62
     7
370
    15
100
AcDbLine
 10
215.5120798974
 20
175.1660964067
 30
0.0
 11
249.0120807318
 21
175.1660964067
 31
0.0
  0
LINE
  5
11D
330
1F
100
AcDbEntity
  8
0
  6
Continuous
 62
     7
370
    15
100
AcDbLine
 10
215.5120798974
 20
174.5660955633
 30
0.0
 11
215.5120798974
 21
175.1660964067
 31
0.0
  0
LINE
  5
11E
330
1F
100
AcDbEntity
  8
0
  6
Continuous
 62
     7
370
    15
100
AcDbLine
 10
255.01207799
 20
175.1660964067
 30
0.0
 11
255.01207799
 21
174.5660955633
 31
0.0
  0
LINE
  5
11F
330
1F
100
AcDbEntity
  8
0
  6
Continuous
 62
     7
370
    15
100
AcDbLine
 10
267.0120725064
 20
175.1660964067
 30
0.0
 11
267.0120725064
 21
174.5660955633
 31
0.0
  0
LINE
  5
120
330
1F
100
AcDbEntity
  8
0
  6
Continuous
 62
     7
370
    15
100
AcDbLine
 10
255.01207799
 20
174.5660955633
 30
0.0
 11
267.0120725064
 21
174.5660955633
 31
0.0
  0
LINE
  5
121
330
1F
100
AcDbEntity
  8
0
  6
Continuous
 62
     7
370
    15
100
AcDbLine
 10
255.01207799
 20
175.1660964067
 30
0.0
 11
267.0120725064
 21
175.1660964067
 31
0.0
  0
ELLIPSE
  5
122
330
1F
100
AcDbEntity
  8
0
  6
Continuous
 62
     7
370
    15
100
AcDbEllipse
 10
167.0120781092
 20
284.7925035576
 30
0.0
 11
9.999999999999972
 21
0.0
 31
0.0
210
0.0
220
0.0
230
1.0
 40
0.3773592453
 41
1.570796326794894
 42
3.141592653589793
  0
LINE
  5
123
330
1F
100
AcDbEntity
  8
0
  6
Continuous
 62
     7
370
    15
100
AcDbLine
 10
157.0120768277
 20
284.7924994852
 30
0.0
 11
157.0120768277
 21
285.6981324579
 31
0.0
  0
ELLIPSE
  5
124
330
1F
100
AcDbEntity
  8
0
  6
Continuous
 62
     7
370
    15
100
AcDbEllipse
 10
167.0120781092
 20
285.6981337463
 30
0.0
 11
0.0
 21
18.86796226411315
 31
0.0
210
0.0
220
0.0
230
1.0
 40
0.52999894
 41
0.0
 42
1.570796326794897
  0
ELLIPSE
  5
125
330
1F
100
AcDbEntity
  8
0
  6
Continuous
 62
     7
370
    15
100
AcDbEllipse
 10
167.0120781092
 20
314.7925035576
 30
0.0
 11
9.999999999999972
 21
0.0
 31
0.0
210
0.0
220
0.0
230
1.0
 40
0.3773592453
 41
1.570796326794894
 42
3.141592653589793
  0
LINE
  5
126
330
1F
100
AcDbEntity
  8
0
  6
Continuous
 62
     7
370
    15
100
AcDbLine
 10
157.0120768277
 20
314.7925006773
 30
0.0
 11
157.0120768277
 21
315.69813365
 31
0.0
  0
ELLIPSE
  5
127
330
1F
100
AcDbEntity
  8
0
  6
Continuous
 62
     7
370
    15
100
AcDbEllipse
 10
167.0120781092
 20
315.6981337463
 30
0.0
 11
0.0
 21
18.8679622641132
 31
0.0
210
0.0
220
0.0
230
1.0
 40
0.52999894
 41
0.0
 42
1.570796326794897
  0
LINE
  5
128
330
1F
100
AcDbEntity
  8
0
  6
Continuous
 62
     7
370
    15
100
AcDbLine
 10
237.0120713143
 20
228.3396812703
 30
0.0
 11
167.0120784668
 21
228.3396812703
 31
0.0
  0
ELLIPSE
  5
129
330
1F
100
AcDbEntity
  8
0
  6
Continuous
 62
     7
370
    15
100
AcDbEllipse
 10
167.0120781092
 20
224.7925035576
 30
0.0
 11
9.400000000000006
 21
0.0
 31
0.0
210
0.0
220
0.0
230
1.0
 40
0.3773592453
 41
1.570796326794894
 42
3.141592653589793
  0
LINE
  5
12A
330
1F
100
AcDbEntity
  8
0
  6
Continuous
 62
     7
370
    15
100
AcDbLine
 10
157.6120795338
 20
224.7925045516
 30
0.0
 11
157.6120795338
 21
224.5660963084
 31
0.0
  0
LINE
  5
12B
330
1F
100
AcDbEntity
  8
0
  6
Continuous
 62
     7
370
    15
100
AcDbLine
 10
157.6120795338
 20
224.5660963084
 30
0.0
 11
157.0120768277
 21
224.5660963084
 31
0.0
  0
LINE
  5
12C
330
1F
100
AcDbEntity
  8
0
  6
Continuous
 62
     7
370
    15
100
AcDbLine
 10
157.0120768277
 20
224.7925045516
 30
0.0
 11
157.0120768277
 21
224.5660963084
 31
0.0
  0
ELLIPSE
  5
12D
330
1F
100
AcDbEntity
  8
0
  6
Continuous
 62
     7
370
    15
100
AcDbEllipse
 10
167.0120781092
 20
224.7925035576
 30
0.0
 11
9.999999999999972
 21
0.0
 31
0.0
210
0.0
220
0.0
230
1.0
 40
0.3773592453
 41
1.570796326794894
 42
3.141592653589793
  0
LINE
  5
12E
330
1F
100
AcDbEntity
  8
0
  6
Continuous
 62
     7
370
    15
100
AcDbLine
 10
237.0120713143
 20
228.566096964
 30
0.0
 11
167.0120784668
 21
228.566096964
 31
0.0
  0
ELLIPSE
  5
12F
330
1F
100
AcDbEntity
  8
0
  6
Continuous
 62
     7
370
    15
100
AcDbEllipse
 10
237.0120781092
 20
224.7925035576
 30
0.0
 11
10.00000000000003
 21
0.0
 31
0.0
210
0.0
220
0.0
230
1.0
 40
0.3773592453
 41
0.0
 42
1.570796326794897
  0
LINE
  5
130
330
1F
100
AcDbEntity
  8
0
  6
Continuous
 62
     7
370
    15
100
AcDbLine
 10
247.0120766787
 20
224.7925045516
 30
0.0
 11
247.0120766787
 21
224.5660963084
 31
0.0
  0
LINE
  5
131
330
1F
100
AcDbEntity
  8
0
  6
Continuous
 62
     7
370
    15
100
AcDbLine
 10
247.0120766787
 20
224.5660963084
 30
0.0
 11
246.4120814232
 21
224.5660963084
 31
0.0
  0
LINE
  5
132
330
1F
100
AcDbEntity
  8
0
  6
Continuous
 62
     7
370
    15
100
AcDbLine
 10
246.4120814232
 20
224.7925045516
 30
0.0
 11
246.4120814232
 21
224.5660963084
 31
0.0
  0
ELLIPSE
  5
133
330
1F
100
AcDbEntity
  8
0
  6
Continuous
 62
     7
370
    15
100
AcDbEllipse
 10
237.0120781092
 20
224.7925035576
 30
0.0
 11
9.400000000000006
 21
0.0
 31
0.0
210
0.0
220
0.0
230
1.0
 40
0.3773592453
 41
0.0
 42
1.570796326794897
  0
LINE
  5
134
330
1F
100
AcDbEntity
  8
0
  6
Continuous
 62
     7
370
    15
100
AcDbLine
 10
247.0120766787
 20
345.6981348421
 30
0.0
 11
247.0120766787
 21
344.7925018694
 31
0.0
  0
ELLIPSE
  5
135
330
1F
100
AcDbEntity
  8
0
  6
Continuous
 62
     7
370
    15
100
AcDbEllipse
 10
237.0120781092
 20
344.7925035576
 30
0.0
 11
10.00000000000003
 21
0.0
 31
0.0
210
0.0
220
0.0
230
1.0
 40
0.3773592453
 41
0.0
 42
1.570796326794897
  0
ELLIPSE
  5
136
330
1F
100
AcDbEntity
  8
0
  6
Continuous
 62
     7
370
    15
100
AcDbEllipse
 10
237.0120781092
 20
345.6981337463
 30
0.0
 11
0.0
 21
-18.8679622641132
 31
0.0
210
0.0
220
0.0
230
1.0
 40
0.52999894
 41
1.570796326794897
 42
3.141592653589792
  0
LINE
  5
137
330
1F
100
AcDbEntity
  8
0
  6
Continuous
 62
     7
370
    15
100
AcDbLine
 10
237.0120713143
 20
258.3396824624
 30
0.0
 11
167.0120784668
 21
258.3396824624
 31
0.0
  0
ELLIPSE
  5
138
330
1F
100
AcDbEntity
  8
0
  6
Continuous
 62
     7
370
    15
100
AcDbEllipse
 10
167.0120781092
 20
254.7925035576
 30
0.0
 11
9.400000000000006
 21
0.0
 31
0.0
210
0.0
220
0.0
230
1.0
 40
0.3773592453
 41
1.570796326794894
 42
3.141592653589793
  0
LINE
  5
139
330
1F
100
AcDbEntity
  8
0
  6
Continuous
 62
     7
370
    15
100
AcDbLine
 10
157.6120795338
 20
254.7925057437
 30
0.0
 11
157.6120795338
 21
254.5660975005
 31
0.0
  0
LINE
  5
13A
330
1F
100
AcDbEntity
  8
0
  6
Continuous
 62
     7
370
    15
100
AcDbLine
 10
157.6120795338
 20
254.5660975005
 30
0.0
 11
157.0120768277
 21
254.5660975005
 31
0.0
  0
LINE
  5
13B
330
1F
100
AcDbEntity
  8
0
  6
Continuous
 62
     7
370
    15
100
AcDbLine
 10
157.0120768277
 20
254.7925057437
 30
0.0
 11
157.0120768277
 21
254.5660975005
 31
0.0
  0
ELLIPSE
  5
13C
330
1F
100
AcDbEntity
  8
0
  6
Continuous
 62
     7
370
    15
100
AcDbEllipse
 10
167.0120781092
 20
254.7925035576
 30
0.0
 11
9.999999999999972
 21
0.0
 31
0.0
210
0.0
220
0.0
230
1.0
 40
0.3773592453
 41
1.570796326794894
 42
3.141592653589793
  0
LINE
  5
13D
330
1F
100
AcDbEntity
  8
0
  6
Continuous
 62
     7
370
    15
100
AcDbLine
 10
237.0120713143
 20
258.5660981561
 30
0.0
 11
167.0120784668
 21
258.5660981561
 31
0.0
  0
ELLIPSE
  5
13E
330
1F
100
AcDbEntity
  8
0
  6
Continuous
 62
     7
370
    15
100
AcDbEllipse
 10
237.0120781092
 20
254.7925035576
 30
0.0
 11
10.00000000000003
 21
0.0
 31
0.0
210
0.0
220
0.0
230
1.0
 40
0.3773592453
 41
0.0
 42
1.570796326794897
  0
LINE
  5
13F
330
1F
100
AcDbEntity
  8
0
  6
Continuous
 62
     7
370
    15
100
AcDbLine
 10
247.0120766787
 20
254.7925057437
 30
0.0
 11
247.0120766787
 21
254.5660975005
 31
0.0
  0
LINE
  5
140
330
1F
100
AcDbEntity
  8
0
  6
Continuous
 62
     7
370
    15
100
AcDbLine
 10
247.0120766787
 20
254.5660975005
 30
0.0
 11
246.4120814232
 21
254.5660975005
 31
0.0
  0
LINE
  5
141
330
1F
100
AcDbEntity
  8
0
  6
Continuous
 62
     7
370
    15
100
AcDbLine
 10
246.4120814232
 20
254.7925057437
 30
0.0
 11
246.4120814232
 21
254.5660975005
 31
0.0
  0
ELLIPSE
  5
142
330
1F
100
AcDbEntity
  8
0
  6
Continuous
 62
     7
370
    15
100
AcDbEllipse
 10
237.0120781092
 20
254.7925035576
 30
0.0
 11
9.400000000000006
 21
0.0
 31
0.0
210
0.0
220
0.0
230
1.0
 40
0.3773592453
 41
0.0
 42
1.570796326794897
  0
ELLIPSE
  5
143
330
1F
100
AcDbEntity
  8
0
  6
Continuous
 62
     7
370
    15
100
AcDbEllipse
 10
167.0120781092
 20
344.7925035576
 30
0.0
 11
9.999999999999972
 21
0.0
 31
0.0
210
0.0
220
0.0
230
1.0
 40
0.3773592453
 41
1.570796326794894
 42
3.141592653589846
  0
LINE
  5
144
330
1F
100
AcDbEntity
  8
0
  6
Continuous
 62
     7
370
    15
100
AcDbLine
 10
157.0120768277
 20
344.7925018694
 30
0.0
 11
157.0120768277
 21
345.6981348421
 31
0.0
  0
ELLIPSE
  5
145
330
1F
100
AcDbEntity
  8
0
  6
Continuous
 62
     7
370
    15
100
AcDbEllipse
 10
167.0120781092
 20
345.6981337463
 30
0.0
 11
0.0
 21
18.86796226411315
 31
0.0
210
0.0
220
0.0
230
1.0
 40
0.52999894
 41
0.0
 42
1.570796326794897
  0
LINE
  5
146
330
1F
100
AcDbEntity
  8
0
  6
Continuous
 62
     7
370
    15
100
AcDbLine
 10
237.0120713143
 20
288.3396762039
 30
0.0
 11
167.0120784668
 21
288.3396762039
 31
0.0
  0
ELLIPSE
  5
147
330
1F
100
AcDbEntity
  8
0
  6
Continuous
 62
     7
370
    15
100
AcDbEllipse
 10
167.0120781092
 20
284.7925035576
 30
0.0
 11
9.400000000000006
 21
0.0
 31
0.0
210
0.0
220
0.0
230
1.0
 40
0.3773592453
 41
1.570796326794894
 42
3.141592653589793
  0
LINE
  5
148
330
1F
100
AcDbEntity
  8
0
  6
Continuous
 62
     7
370
    15
100
AcDbLine
 10
157.6120795338
 20
284.7924994852
 30
0.0
 11
157.6120795338
 21
284.566091242
 31
0.0
  0
LINE
  5
149
330
1F
100
AcDbEntity
  8
0
  6
Continuous
 62
     7
370
    15
100
AcDbLine
 10
157.6120795338
 20
284.566091242
 30
0.0
 11
157.0120768277
 21
284.566091242
 31
0.0
  0
LINE
  5
14A
330
1F
100
AcDbEntity
  8
0
  6
Continuous
 62
     7
370
    15
100
AcDbLine
 10
157.0120768277
 20
284.7924994852
 30
0.0
 11
157.0120768277
 21
284.566091242
 31
0.0
  0
LINE
  5
14B
330
1F
100
AcDbEntity
  8
0
  6
Continuous
 62
     7
370
    15
100
AcDbLine
 10
237.0120713143
 20
288.5660993482
 30
0.0
 11
167.0120784668
 21
288.5660993482
 31
0.0
  0
ELLIPSE
  5
14C
330
1F
100
AcDbEntity
  8
0
  6
Continuous
 62
     7
370
    15
100
AcDbEllipse
 10
237.0120781092
 20
284.7925035576
 30
0.0
 11
10.00000000000003
 21
0.0
 31
0.0
210
0.0
220
0.0
230
1.0
 40
0.3773592453
 41
0.0
 42
1.570796326794897
  0
LINE
  5
14D
330
1F
100
AcDbEntity
  8
0
  6
Continuous
 62
     7
370
    15
100
AcDbLine
 10
247.0120766787
 20
284.7924994852
 30
0.0
 11
247.0120766787
 21
284.566091242
 31
0.0
  0
LINE
  5
14E
330
1F
100
AcDbEntity
  8
0
  6
Continuous
 62
     7
370
    15
100
AcDbLine
 10
247.0120766787
 20
284.566091242
 30
0.0
 11
246.4120814232
 21
284.566091242
 31
0.0
  0
LINE
  5
14F
330
1F
100
AcDbEntity
  8
0
  6
Continuous
 62
     7
370
    15
100
AcDbLine
 10
246.4120814232
 20
284.7924994852
 30
0.0
 11
246.4120814232
 21
284.566091242
 31
0.0
  0
ELLIPSE
  5
150
330
1F
100
AcDbEntity
  8
0
  6
Continuous
 62
     7
370
    15
100
AcDbEllipse
 10
237.0120781092
 20
284.7925035576
 30
0.0
 11
9.400000000000006
 21
0.0
 31
0.0
210
0.0
220
0.0
230
1.0
 40
0.3773592453
 41
0.0
 42
1.570796326794897
  0
LINE
  5
151
330
1F
100
AcDbEntity
  8
0
  6
Continuous
 62
     7
370
    15
100
AcDbLine
 10
237.0120713143
 20
318.339677396
 30
0.0
 11
167.0120784668
 21
318.339677396
 31
0.0
  0
ELLIPSE
  5
152
330
1F
100
AcDbEntity
  8
0
  6
Continuous
 62
     7
370
    15
100
AcDbEllipse
 10
167.0120781092
 20
314.7925035576
 30
0.0
 11
9.400000000000006
 21
0.0
 31
0.0
210
0.0
220
0.0
230
1.0
 40
0.3773592453
 41
1.570796326794894
 42
3.141592653589793
  0
LINE
  5
153
330
1F
100
AcDbEntity
  8
0
  6
Continuous
 62
     7
370
    15
100
AcDbLine
 10
157.6120795338
 20
314.7925006773
 30
0.0
 11
157.6120795338
 21
314.5660924341
 31
0.0
  0
LINE
  5
154
330
1F
100
AcDbEntity
  8
0
  6
Continuous
 62
     7
370
    15
100
AcDbLine
 10
157.6120795338
 20
314.5660924341
 30
0.0
 11
157.0120768277
 21
314.5660924341
 31
0.0
  0
LINE
  5
155
330
1F
100
AcDbEntity
  8
0
  6
Continuous
 62
     7
370
    15
100
AcDbLine
 10
157.0120768277
 20
314.7925006773
 30
0.0
 11
157.0120768277
 21
314.5660924341
 31
0.0
  0
LINE
  5
156
330
1F
100
AcDbEntity
  8
0
  6
Continuous
 62
     7
370
    15
100
AcDbLine
 10
237.0120713143
 20
318.5661005403
 30
0.0
 11
167.0120784668
 21
318.5661005403
 31
0.0
  0
ELLIPSE
  5
157
330
1F
100
AcDbEntity
  8
0
  6
Continuous
 62
     7
370
    15
100
AcDbEllipse
 10
237.0120781092
 20
314.7925035576
 30
0.0
 11
10.00000000000003
 21
0.0
 31
0.0
210
0.0
220
0.0
230
1.0
 40
0.3773592453
 41
0.0
 42
1.570796326794897
  0
LINE
  5
158
330
1F
100
AcDbEntity
  8
0
  6
Continuous
 62
     7
370
    15
100
AcDbLine
 10
247.0120766787
 20
314.7925006773
 30
0.0
 11
247.0120766787
 21
314.5660924341
 31
0.0
  0
LINE
  5
159
330
1F
100
AcDbEntity
  8
0
  6
Continuous
 62
     7
370
    15
100
AcDbLine
 10
247.0120766787
 20
314.5660924341
 30
0.0
 11
246.4120814232
 21
314.5660924341
 31
0.0
  0
LINE
  5
15A
330
1F
100
AcDbEntity
  8
0
  6
Continuous
 62
     7
370
    15
100
AcDbLine
 10
246.4120814232
 20
314.7925006773
 30
0.0
 11
246.4120814232
 21
314.5660924341
 31
0.0
  0
ELLIPSE
  5
15B
330
1F
100
AcDbEntity
  8
0
  6
Continuous
 62
     7
370
    15
100
AcDbEllipse
 10
237.0120781092
 20
314.7925035576
 30
0.0
 11
9.400000000000006
 21
0.0
 31
0.0
210
0.0
220
0.0
230
1.0
 40
0.3773592453
 41
0.0
 42
1.570796326794897
  0
LINE
  5
15C
330
1F
100
AcDbEntity
  8
0
  6
Continuous
 62
     7
370
    15
100
AcDbLine
 10
157.0120768277
 20
254.7925057437
 30
0.0
 11
157.0120768277
 21
255.6981312658
 31
0.0
  0
ELLIPSE
  5
15D
330
1F
100
AcDbEntity
  8
0
  6
Continuous
 62
     7
370
    15
100
AcDbEllipse
 10
167.0120781092
 20
255.6981337463
 30
0.0
 11
0.0
 21
18.8679622641132
 31
0.0
210
0.0
220
0.0
230
1.0
 40
0.52999894
 41
0.0
 42
1.570796326794897
  0
LINE
  5
15E
330
1F
100
AcDbEntity
  8
0
  6
Continuous
 62
     7
370
    15
100
AcDbLine
 10
247.0120766787
 20
315.69813365
 30
0.0
 11
247.0120766787
 21
314.7925006773
 31
0.0
  0
ELLIPSE
  5
15F
330
1F
100
AcDbEntity
  8
0
  6
Continuous
 62
     7
370
    15
100
AcDbEllipse
 10
237.0120781092
 20
315.6981337463
 30
0.0
 11
0.0
 21
-18.8679622641132
 31
0.0
210
0.0
220
0.0
230
1.0
 40
0.52999894
 41
1.570796326794897
 42
3.141592653589792
  0
LINE
  5
160
330
1F
100
AcDbEntity
  8
0
  6
Continuous
 62
     7
370
    15
100
AcDbLine
 10
157.0120768277
 20
224.7925045516
 30
0.0
 11
157.0120768277
 21
225.6981300737
 31
0.0
  0
ELLIPSE
  5
161
330
1F
100
AcDbEntity
  8
0
  6
Continuous
 62
     7
370
    15
100
AcDbEllipse
 10
167.0120781092
 20
225.6981337463
 30
0.0
 11
0.0
 21
18.8679622641132
 31
0.0
210
0.0
220
0.0
230
1.0
 40
0.52999894
 41
0.0
 42
1.570796326794897
  0
LINE
  5
162
330
1F
100
AcDbEntity
  8
0
  6
Continuous
 62
     7
370
    15
100
AcDbLine
 10
237.0120713143
 20
348.3396785881
 30
0.0
 11
167.0120784668
 21
348.3396785881
 31
0.0
  0
ELLIPSE
  5
163
330
1F
100
AcDbEntity
  8
0
  6
Continuous
 62
     7
370
    15
100
AcDbEllipse
 10
167.0120781092
 20
344.7925035576
 30
0.0
 11
9.400000000000006
 21
0.0
 31
0.0
210
0.0
220
0.0
230
1.0
 40
0.3773592453
 41
1.570796326794894
 42
3.141592653589846
  0
LINE
  5
164
330
1F
100
AcDbEntity
  8
0
  6
Continuous
 62
     7
370
    15
100
AcDbLine
 10
157.6120795338
 20
344.7925018694
 30
0.0
 11
157.6120795338
 21
344.5660936262
 31
0.0
  0
LINE
  5
165
330
1F
100
AcDbEntity
  8
0
  6
Continuous
 62
     7
370
    15
100
AcDbLine
 10
157.6120795338
 20
344.5660936262
 30
0.0
 11
157.0120768277
 21
344.5660936262
 31
0.0
  0
LINE
  5
166
330
1F
100
AcDbEntity
  8
0
  6
Continuous
 62
     7
370
    15
100
AcDbLine
 10
157.0120768277
 20
344.7925018694
 30
0.0
 11
157.0120768277
 21
344.5660936262
 31
0.0
  0
LINE
  5
167
330
1F
100
AcDbEntity
  8
0
  6
Continuous
 62
     7
370
    15
100
AcDbLine
 10
237.0120713143
 20
348.5661017324
 30
0.0
 11
167.0120784668
 21
348.5661017324
 31
0.0
  0
LINE
  5
168
330
1F
100
AcDbEntity
  8
0
  6
Continuous
 62
     7
370
    15
100
AcDbLine
 10
247.0120766787
 20
344.7925018694
 30
0.0
 11
247.0120766787
 21
344.5660936262
 31
0.0
  0
LINE
  5
169
330
1F
100
AcDbEntity
  8
0
  6
Continuous
 62
     7
370
    15
100
AcDbLine
 10
247.0120766787
 20
344.5660936262
 30
0.0
 11
246.4120814232
 21
344.5660936262
 31
0.0
  0
LINE
  5
16A
330
1F
100
AcDbEntity
  8
0
  6
Continuous
 62
     7
370
    15
100
AcDbLine
 10
246.4120814232
 20
344.7925018694
 30
0.0
 11
246.4120814232
 21
344.5660936262
 31
0.0
  0
ELLIPSE
  5
16B
330
1F
100
AcDbEntity
  8
0
  6
Continuous
 62
     7
370
    15
100
AcDbEllipse
 10
237.0120781092
 20
344.7925035576
 30
0.0
 11
9.400000000000006
 21
0.0
 31
0.0
210
0.0
220
0.0
230
1.0
 40
0.3773592453
 41
0.0
 42
1.570796326794897
  0
LINE
  5
16C
330
1F
100
AcDbEntity
  8
0
  6
Continuous
 62
     7
370
    15
100
AcDbLine
 10
237.0120713143
 20
244.5660995867
 30
0.0
 11
167.0120784668
 21
244.5660995867
 31
0.0
  0
LINE
  5
16D
330
1F
100
AcDbEntity
  8
0
  6
Continuous
 62
     7
370
    15
100
AcDbLine
 10
237.0120713143
 20
274.5660933282
 30
0.0
 11
167.0120784668
 21
274.5660933282
 31
0.0
  0
LINE
  5
16E
330
1F
100
AcDbEntity
  8
0
  6
Continuous
 62
     7
370
    15
100
AcDbLine
 10
247.0120766787
 20
255.6981312658
 30
0.0
 11
247.0120766787
 21
254.7925057437
 31
0.0
  0
ELLIPSE
  5
16F
330
1F
100
AcDbEntity
  8
0
  6
Continuous
 62
     7
370
    15
100
AcDbEllipse
 10
237.0120781092
 20
255.6981337463
 30
0.0
 11
0.0
 21
-18.86796226411317
 31
0.0
210
0.0
220
0.0
230
1.0
 40
0.52999894
 41
1.570796326794897
 42
3.141592653589792
  0
LINE
  5
170
330
1F
100
AcDbEntity
  8
0
  6
Continuous
 62
     7
370
    15
100
AcDbLine
 10
237.0120713143
 20
364.5660894539
 30
0.0
 11
167.0120784668
 21
364.5660894539
 31
0.0
  0
LINE
  5
171
330
1F
100
AcDbEntity
  8
0
  6
Continuous
 62
     7
370
    15
100
AcDbLine
 10
237.0120713143
 20
304.5661019708
 30
0.0
 11
167.0120784668
 21
304.5661019708
 31
0.0
  0
LINE
  5
172
330
1F
100
AcDbEntity
  8
0
  6
Continuous
 62
     7
370
    15
100
AcDbLine
 10
247.0120766787
 20
285.6981324579
 30
0.0
 11
247.0120766787
 21
284.7924994852
 31
0.0
  0
ELLIPSE
  5
173
330
1F
100
AcDbEntity
  8
0
  6
Continuous
 62
     7
370
    15
100
AcDbEllipse
 10
237.0120781092
 20
285.6981337463
 30
0.0
 11
0.0
 21
-18.86796226411315
 31
0.0
210
0.0
220
0.0
230
1.0
 40
0.52999894
 41
1.570796326794897
 42
3.141592653589792
  0
LINE
  5
174
330
1F
100
AcDbEntity
  8
0
  6
Continuous
 62
     7
370
    15
100
AcDbLine
 10
237.0120713143
 20
334.5661031629
 30
0.0
 11
167.0120784668
 21
334.5661031629
 31
0.0
  0
LINE
  5
175
330
1F
100
AcDbEntity
  8
0
  6
Continuous
 62
     7
370
    15
100
AcDbLine
 10
247.0120766787
 20
225.6981300737
 30
0.0
 11
247.0120766787
 21
224.7925045516
 31
0.0
  0
ELLIPSE
  5
176
330
1F
100
AcDbEntity
  8
0
  6
Continuous
 62
     7
370
    15
100
AcDbEllipse
 10
237.0120781092
 20
225.6981337463
 30
0.0
 11
0.0
 21
-18.8679622641132
 31
0.0
210
0.0
220
0.0
230
1.0
 40
0.52999894
 41
1.570796326794897
 42
3.141592653589792
  0
LINE
  5
177
330
1F
100
AcDbEntity
  8
0
  6
Continuous
 62
     7
370
    15
100
AcDbLine
 10
160.0120791821
 20
175.1660964067
 30
0.0
 11
166.0120764403
 21
175.1660964067
 31
0.0
  0
LINE
  5
178
330
1F
100
AcDbEntity
  8
0
  6
Continuous
 62
     7
370
    15
100
AcDbLine
 10
249.0120807318
 20
175.1660964067
 30
0.0
 11
255.01207799
 21
175.1660964067
 31
0.0
  0
LINE
  5
179
330
1F
100
AcDbEntity
  8
0
  6
Continuous
 62
     7
370
    15
100
AcDbLine
 10
64.6120773284
 20
219.5660936262
 30
0.0
 11
59.0120793907
 21
219.5660936262
 31
0.0
  0
LINE
  5
17A
330
1F
100
AcDbEntity
  8
0
  6
Continuous
 62
     7
370
    15
100
AcDbLine
 10
59.0120793907
 20
219.5660936262
 30
0.0
 11
59.0120793907
 21
413.9661061193
 31
0.0
  0
LINE
  5
17B
330
1F
100
AcDbEntity
  8
0
  6
Continuous
 62
     7
370
    15
100
AcDbLine
 10
285.0120791821
 20
413.9661061193
 30
0.0
 11
285.0120791821
 21
219.5660936262
 31
0.0
  0
LINE
  5
17C
330
1F
100
AcDbEntity
  8
0
  6
Continuous
 62
     7
370
    15
100
AcDbLine
 10
285.0120791821
 20
219.5660936262
 30
0.0
 11
282.0120731024
 21
219.5660936262
 31
0.0
  0
SPLINE
  5
17D
330
1F
100
AcDbEntity
  8
0
  6
Continuous
 62
     7
370
    15
100
AcDbSpline
210
0.0
220
0.0
230
1.0
 70
     8
 71
     3
 72
     9
 73
     5
 74
     0
 42
0.00000001
 43
0.00000001
 12
1.0
 22
0.0
 32
0.0
 13
1.0
 23
0.0
 33
0.0
 40
0.0
 40
0.0
 40
0.0
 40
0.0
 40
0.6592924892428933
 40
1.0
 40
1.0
 40
1.0
 40
1.0
 10
279.4120737938426
 20
219.3390446330784
 30
0.0
 10
280.0075473004409
 20
219.4239028681573
 30
0.0
 10
280.9107481048093
 20
219.552613928064
 30
0.0
 10
281.7321987111369
 20
219.5626680957456
 30
0.0
 10
282.0120731024287
 20
219.5660936261891
 30
0.0
  0
ARC
  5
17E
330
1F
100
AcDbEntity
  8
0
  6
Continuous
 62
     7
370
    15
100
AcDbCircle
 10
203.0120781092
 20
192.0660960104
 30
0.0
 40
12.50000000000003
100
AcDbArc
 50
0.0
 51
180.0
  0
ARC
  5
17F
330
1F
100
AcDbEntity
  8
0
  6
Continuous
 62
     7
370
    15
100
AcDbCircle
 10
133.0120781092
 20
204.5660960104
 30
0.0
 40
15.0
100
AcDbArc
 50
0.0
 51
90.0
  0
LINE
  5
180
330
1F
100
AcDbEntity
  8
0
  6
Continuous
 62
     7
370
    15
100
AcDbLine
 10
64.6120773284
 20
219.5660936262
 30
0.0
 11
133.0120784817
 21
219.5660936262
 31
0.0
  0
LINE
  5
181
330
1F
100
AcDbEntity
  8
0
  6
Continuous
 62
     7
370
    15
100
AcDbLine
 10
246.4120814232
 20
344.5660936262
 30
0.0
 11
157.6120795338
 21
344.5660936262
 31
0.0
  0
LINE
  5
182
330
1F
100
AcDbEntity
  8
0
  6
Continuous
 62
     7
370
    15
100
AcDbLine
 10
246.4120814232
 20
284.566091242
 30
0.0
 11
157.6120795338
 21
284.566091242
 31
0.0
  0
LINE
  5
183
330
1F
100
AcDbEntity
  8
0
  6
Continuous
 62
     7
370
    15
100
AcDbLine
 10
246.4120814232
 20
224.5660963084
 30
0.0
 11
157.6120795338
 21
224.5660963084
 31
0.0
  0
LINE
  5
184
330
1F
100
AcDbEntity
  8
0
  6
Continuous
 62
     7
370
    15
100
AcDbLine
 10
246.4120814232
 20
254.5660975005
 30
0.0
 11
157.6120795338
 21
254.5660975005
 31
0.0
  0
LINE
  5
185
330
1F
100
AcDbEntity
  8
0
  6
Continuous
 62
     7
370
    15
100
AcDbLine
 10
246.4120814232
 20
314.5660924341
 30
0.0
 11
157.6120795338
 21
314.5660924341
 31
0.0
  0
ARC
  5
186
330
1F
100
AcDbEntity
  8
0
  6
Continuous
 62
     7
370
    15
100
AcDbCircle
 10
282.0120781092
 20
204.5660960104
 30
0.0
 40
15.00000000000001
100
AcDbArc
 50
99.9816829799
 51
180.0
  0
LINE
  5
187
330
1F
100
AcDbEntity
  8
0
  6
Continuous
 62
     7
370
    15
100
AcDbLine
 10
190.5120813875
 20
192.0660975005
 30
0.0
 11
190.5120813875
 21
175.1660964067
 31
0.0
  0
LINE
  5
188
330
1F
100
AcDbEntity
  8
0
  6
Continuous
 62
     7
370
    15
100
AcDbLine
 10
148.0120772151
 20
204.5660967554
 30
0.0
 11
148.0120772151
 21
175.1660964067
 31
0.0
  0
LINE
  5
189
330
1F
100
AcDbEntity
  8
0
  6
Continuous
 62
     7
370
    15
100
AcDbLine
 10
267.0120725064
 20
175.1660964067
 30
0.0
 11
267.0120725064
 21
204.5660967554
 31
0.0
  0
LINE
  5
18A
330
1F
100
AcDbEntity
  8
0
  6
Continuous
 62
     7
370
    15
100
AcDbLine
 10
215.5120798974
 20
175.1660964067
 30
0.0
 11
215.5120798974
 21
192.0660975005
 31
0.0
  0
LINE
  5
18B
330
1F
100
AcDbEntity
  8
0
  6
Continuous
 62
     7
370
    15
100
AcDbLine
 10
59.0120793907
 20
413.9661061193
 30
0.0
 11
59.0120793907
 21
428.9660918142
 31
0.0
  0
ARC
  5
18C
330
1F
100
AcDbEntity
  8
0
  6
Continuous
 62
     7
370
    15
100
AcDbCircle
 10
64.6120781092
 20
428.9660960104
 30
0.0
 40
5.599999999999994
100
AcDbArc
 50
90.0
 51
180.0
  0
LINE
  5
18D
330
1F
100
AcDbEntity
  8
0
  6
Continuous
 62
     7
370
    15
100
AcDbLine
 10
64.6120773284
 20
434.5660972025
 30
0.0
 11
279.4120737938
 21
434.5660972025
 31
0.0
  0
LINE
  5
18E
330
1F
100
AcDbEntity
  8
0
  6
Continuous
 62
     7
370
    15
100
AcDbLine
 10
285.0120791821
 20
428.9660918142
 30
0.0
 11
285.0120791821
 21
413.9661061193
 31
0.0
  0
ARC
  5
18F
330
1F
100
AcDbEntity
  8
0
  6
Continuous
 62
     7
370
    15
100
AcDbCircle
 10
279.4120781092
 20
428.9660960104
 30
0.0
 40
5.60000000000008
100
AcDbArc
 50
0.0
 51
90.0
  0
LINE
  5
190
330
1F
100
AcDbEntity
  8
0
  6
Continuous
 62
     7
370
    15
100
AcDbLine
 10
58.4460587828
 20
283.5925089742
 30
0.0
 11
59.0120793907
 21
283.3661007311
 31
0.0
  0
LINE
  5
191
330
1F
100
AcDbEntity
  8
0
  6
Continuous
 62
     7
370
    15
100
AcDbLine
 10
49.0120777516
 20
287.3660939361
 30
0.0
 11
59.0120793907
 21
303.3660965587
 31
0.0
  0
LWPOLYLINE
  5
192
330
1F
100
AcDbEntity
  8
0
  6
Continuous
 62
     7
370
    15
100
AcDbPolyline
 90
        9
 70
   128
 43
0.0
 10
58.4460587828
 20
283.5925089742
 10
56.6055791108
 20
284.328700843
 10
54.8358315258
 20
285.0365954067
 10
53.204821202
 20
285.6889980461
 10
51.7752261488
 20
286.2608301069
 10
50.6019906728
 20
286.7301272775
 10
49.7301982371
 20
287.0788442518
 10
49.1933503775
 20
287.2935848858
 10
49.0120777516
 20
287.3660939361
  0
LINE
  5
193
330
1F
100
AcDbEntity
  8
0
  6
Continuous
 62
     7
370
    15
100
AcDbLine
 10
58.4460587828
 20
343.5924964573
 30
0.0
 11
59.0120793907
 21
343.3661031152
 31
0.0
  0
LINE
  5
194
330
1F
100
AcDbEntity
  8
0
  6
Continuous
 62
     7
370
    15
100
AcDbLine
 10
58.4460587828
 20
403.5924988415
 30
0.0
 11
59.0120793907
 21
403.3660905983
 31
0.0
  0
LINE
  5
195
330
1F
100
AcDbEntity
  8
0
  6
Continuous
 62
     7
370
    15
100
AcDbLine
 10
58.4460587828
 20
313.5925101663
 30
0.0
 11
59.0120793907
 21
313.3661019232
 31
0.0
  0
LINE
  5
196
330
1F
100
AcDbEntity
  8
0
  6
Continuous
 62
     7
370
    15
100
AcDbLine
 10
49.0120777516
 20
407.3660838033
 30
0.0
 11
59.0120793907
 21
423.3660864259
 31
0.0
  0
LWPOLYLINE
  5
197
330
1F
100
AcDbEntity
  8
0
  6
Continuous
 62
     7
370
    15
100
AcDbPolyline
 90
        9
 70
   128
 43
0.0
 10
58.4460587828
 20
403.5924988415
 10
56.6055791108
 20
404.3286907102
 10
54.8358315258
 20
405.0365852739
 10
53.204821202
 20
405.6889879133
 10
51.7752261488
 20
406.2608348753
 10
50.6019906728
 20
406.7301320459
 10
49.7301982371
 20
407.0788490202
 10
49.1933503775
 20
407.293574753
 10
49.0120777516
 20
407.3660838033
  0
LWPOLYLINE
  5
198
330
1F
100
AcDbEntity
  8
0
  6
Continuous
 62
     7
370
    15
100
AcDbPolyline
 90
        9
 70
   128
 43
0.0
 10
58.4460587828
 20
373.5924976494
 10
56.6055791108
 20
374.3286895181
 10
54.8358315258
 20
375.036598983
 10
53.204821202
 20
375.6890016224
 10
51.7752261488
 20
376.2608336832
 10
50.6019906728
 20
376.7301308538
 10
49.7301982371
 20
377.0788478281
 10
49.1933503775
 20
377.293588462
 10
49.0120777516
 20
377.3660975124
  0
LINE
  5
199
330
1F
100
AcDbEntity
  8
0
  6
Continuous
 62
     7
370
    15
100
AcDbLine
 10
49.0120777516
 20
377.3660975124
 30
0.0
 11
59.0120793907
 21
393.366100135
 31
0.0
  0
LINE
  5
19A
330
1F
100
AcDbEntity
  8
0
  6
Continuous
 62
     7
370
    15
100
AcDbLine
 10
49.0120777516
 20
347.3660963203
 30
0.0
 11
59.0120793907
 21
363.3660989429
 31
0.0
  0
LWPOLYLINE
  5
19B
330
1F
100
AcDbEntity
  8
0
  6
Continuous
 62
     7
370
    15
100
AcDbPolyline
 90
        9
 70
   128
 43
0.0
 10
58.4460587828
 20
343.5924964573
 10
56.6055791108
 20
344.328688326
 10
54.8358315258
 20
345.0365977909
 10
53.204821202
 20
345.6890004303
 10
51.7752261488
 20
346.2608324911
 10
50.6019906728
 20
346.7301296617
 10
49.7301982371
 20
347.078846636
 10
49.1933503775
 20
347.2935872699
 10
49.0120777516
 20
347.3660963203
  0
LINE
  5
19C
330
1F
100
AcDbEntity
  8
0
  6
Continuous
 62
     7
370
    15
100
AcDbLine
 10
49.0120777516
 20
317.3660951282
 30
0.0
 11
59.0120793907
 21
333.3660977508
 31
0.0
  0
LWPOLYLINE
  5
19D
330
1F
100
AcDbEntity
  8
0
  6
Continuous
 62
     7
370
    15
100
AcDbPolyline
 90
        9
 70
   128
 43
0.0
 10
58.4460587828
 20
313.5925101663
 10
56.6055791108
 20
314.3287020351
 10
54.8358315258
 20
315.0365965988
 10
53.204821202
 20
315.6889992382
 10
51.7752261488
 20
316.260831299
 10
50.6019906728
 20
316.7301284696
 10
49.7301982371
 20
317.0788454439
 10
49.1933503775
 20
317.2935860779
 10
49.0120777516
 20
317.3660951282
  0
LINE
  5
19E
330
1F
100
AcDbEntity
  8
0
  6
Continuous
 62
     7
370
    15
100
AcDbLine
 10
58.4460587828
 20
373.5924976494
 30
0.0
 11
59.0120793907
 21
373.3660894062
 31
0.0
  0
LINE
  5
19F
330
1F
100
AcDbEntity
  8
0
  6
Continuous
 62
     7
370
    15
100
AcDbLine
 10
339.5120778708
 20
181.6906592424
 30
0.0
 11
353.3252158789
 21
218.7894078519
 31
0.0
  0
SPLINE
  5
1A0
330
1F
100
AcDbEntity
  8
0
  6
Continuous
 62
     7
370
    15
100
AcDbSpline
210
0.0
220
0.0
230
1.0
 70
     8
 71
     3
 72
     9
 73
     5
 74
     0
 42
0.00000001
 43
0.00000001
 12
1.0
 22
0.0
 32
0.0
 13
1.0
 23
0.0
 33
0.0
 40
0.0
 40
0.0
 40
0.0
 40
0.0
 40
0.6481892456960472
 40
1.0
 40
1.0
 40
1.0
 40
1.0
 10
352.4154105810664
 20
211.3458866800545
 30
0.0
 10
352.5867658094965
 20
212.8989680163701
 30
0.0
 10
352.8511256852085
 20
215.2949987228775
 30
0.0
 10
353.2018332026624
 20
217.8799826918684
 30
0.0
 10
353.325215878918
 20
218.7894078518628
 30
0.0
  0
LINE
  5
1A1
330
1F
100
AcDbEntity
  8
0
  6
Continuous
 62
     7
370
    15
100
AcDbLine
 10
339.5120778708
 20
176.6906584229
 30
0.0
 11
352.4154105811
 21
211.3458866801
 31
0.0
  0
LINE
  5
1A2
330
1F
100
AcDbEntity
  8
0
  6
Continuous
 62
     7
370
    15
100
AcDbLine
 10
275.0120738177
 20
174.5660955633
 30
0.0
 11
275.0120738177
 21
187.5660958316
 31
0.0
  0
LINE
  5
1A3
330
1F
100
AcDbEntity
  8
0
  6
Continuous
 62
     7
370
    15
100
AcDbLine
 10
339.5120778708
 20
187.5660958316
 30
0.0
 11
275.0120738177
 21
187.5660958316
 31
0.0
  0
LINE
  5
1A4
330
1F
100
AcDbEntity
  8
0
  6
Continuous
 62
     7
370
    15
100
AcDbLine
 10
339.5120778708
 20
187.5660958316
 30
0.0
 11
339.5120778708
 21
181.6906592424
 31
0.0
  0
LINE
  5
1A5
330
1F
100
AcDbEntity
  8
0
  6
Continuous
 62
     7
370
    15
100
AcDbLine
 10
339.5120778708
 20
181.6906592424
 30
0.0
 11
339.5120778708
 21
174.5660955633
 31
0.0
  0
LINE
  5
1A6
330
1F
100
AcDbEntity
  8
0
  6
Continuous
 62
     7
370
    15
100
AcDbLine
 10
339.5120778708
 20
225.4196348216
 30
0.0
 11
324.5120772748
 21
225.4196348216
 31
0.0
  0
LINE
  5
1A7
330
1F
100
AcDbEntity
  8
0
  6
Continuous
 62
     7
370
    15
100
AcDbLine
 10
339.5120778708
 20
236.7486971046
 30
0.0
 11
339.5120778708
 21
225.4196348216
 31
0.0
  0
LINE
  5
1A8
330
1F
100
AcDbEntity
  8
0
  6
Continuous
 62
     7
370
    15
100
AcDbLine
 10
345.4235771327
 20
236.7486971046
 30
0.0
 11
339.5120778708
 21
236.7486971046
 31
0.0
  0
SPLINE
  5
1A9
330
1F
100
AcDbEntity
  8
0
  6
Continuous
 62
     7
370
    15
100
AcDbSpline
210
0.0
220
0.0
230
1.0
 70
     8
 71
     3
 72
    15
 73
    11
 74
     0
 42
0.00000001
 43
0.00000001
 12
1.0
 22
0.0
 32
0.0
 13
1.0
 23
0.0
 33
0.0
 40
0.0
 40
0.0
 40
0.0
 40
0.0
 40
0.1329865403646033
 40
0.268788619811138
 40
0.4046242160794754
 40
0.5490505027311281
 40
0.6935078364131284
 40
0.8461109154646921
 40
0.9987637479069704
 40
1.0
 40
1.0
 40
1.0
 40
1.0
 10
353.325215878918
 20
218.7894078518628
 30
0.0
 10
352.6473252352579
 20
219.1434942883652
 30
0.0
 10
351.2771919120455
 20
219.8591637410811
 30
0.0
 10
349.5064528471357
 20
221.2863713722313
 30
0.0
 10
347.9527567900381
 20
222.9595827870195
 30
0.0
 10
346.7120169930603
 20
224.8719981316643
 30
0.0
 10
345.7801009812364
 20
227.0088480894664
 30
0.0
 10
345.3062815945238
 20
229.2850654100397
 30
0.0
 10
345.1221319057972
 20
230.8754481076375
 30
0.0
 10
345.2358329678497
 20
231.6609641157921
 30
0.0
 10
345.2367463736079
 20
231.6672744776486
 30
0.0
  0
LINE
  5
1AA
330
1F
100
AcDbEntity
  8
0
  6
Continuous
 62
     7
370
    15
100
AcDbLine
 10
324.5120772748
 20
225.4196348216
 30
0.0
 11
324.5120772748
 21
187.5660958316
 31
0.0
  0
SPLINE
  5
1AB
330
1F
100
AcDbEntity
  8
0
  6
Continuous
 62
     7
370
    15
100
AcDbSpline
210
0.0
220
0.0
230
1.0
 70
     8
 71
     3
 72
    19
 73
    15
 74
     0
 42
0.00000001
 43
0.00000001
 12
1.0
 22
0.0
 32
0.0
 13
1.0
 23
0.0
 33
0.0
 40
0.0
 40
0.0
 40
0.0
 40
0.0
 40
0.0779643600794796
 40
0.1612614593969833
 40
0.2439404250874081
 40
0.327174177839389
 40
0.4120262019945495
 40
0.5000749635864274
 40
0.5881241586653357
 40
0.6729761828204962
 40
0.7562099355724771
 40
0.8388886294990706
 40
0.9221859027552752
 40
1.0
 40
1.0
 40
1.0
 40
1.0
 10
371.1740949778102
 20
319.6985589887379
 30
0.0
 10
371.1015464879331
 20
320.1678484910815
 30
0.0
 10
370.9514872128657
 20
321.1385267593371
 30
0.0
 10
369.7796000198874
 20
322.4961197759654
 30
0.0
 10
368.0117623967851
 20
323.679880095354
 30
0.0
 10
365.7063677086932
 20
324.5940405521895
 30
0.0
 10
362.9860646370547
 20
325.1851209886636
 30
0.0
 10
360.0120776888322
 20
325.3888768595174
 30
0.0
 10
357.0380879734008
 20
325.1851222154626
 30
0.0
 10
354.3177863323994
 20
324.5940396928145
 30
0.0
 10
352.012372794983
 20
323.6798842348127
 30
0.0
 10
350.2446139248161
 20
322.4961099688899
 30
0.0
 10
349.0732174782961
 20
321.1393837697865
 30
0.0
 10
348.9232072375311
 20
320.1696205924147
 30
0.0
 10
348.8507548002742
 20
319.7012411977528
 30
0.0
  0
SPLINE
  5
1AC
330
1F
100
AcDbEntity
  8
0
  6
Continuous
 62
     7
370
    15
100
AcDbSpline
210
0.0
220
0.0
230
1.0
 70
     8
 71
     3
 72
    10
 73
     6
 74
     0
 42
0.00000001
 43
0.00000001
 12
1.0
 22
0.0
 32
0.0
 13
1.0
 23
0.0
 33
0.0
 40
0.0
 40
0.0
 40
0.0
 40
0.0
 40
0.3370052439190259
 40
0.9969707750280442
 40
1.0
 40
1.0
 40
1.0
 40
1.0
 10
372.5714960722468
 20
211.0553214873551
 30
0.0
 10
372.5756997854825
 20
210.9562368317773
 30
0.0
 10
372.5881357321573
 20
210.6631122954466
 30
0.0
 10
372.6010909292463
 20
210.5738911336487
 30
0.0
 10
372.6141431645274
 20
210.7076288674424
 30
0.0
 10
372.6142028002284
 20
210.7082399155377
 30
0.0
  0
SPLINE
  5
1AD
330
1F
100
AcDbEntity
  8
0
  6
Continuous
 62
     7
370
    15
100
AcDbSpline
210
0.0
220
0.0
230
1.0
 70
     8
 71
     3
 72
     9
 73
     5
 74
     0
 42
0.00000001
 43
0.00000001
 12
1.0
 22
0.0
 32
0.0
 13
1.0
 23
0.0
 33
0.0
 40
0.0
 40
0.0
 40
0.0
 40
0.0
 40
0.75553376899391
 40
1.0
 40
1.0
 40
1.0
 40
1.0
 10
375.5463936953091
 20
212.2387195553063
 30
0.0
 10
376.0235150144231
 20
211.3508922301271
 30
0.0
 10
376.6550173227176
 20
210.1757927685087
 30
0.0
 10
376.7870602537693
 20
208.8823102156528
 30
0.0
 10
376.8193402914546
 20
208.566097411084
 30
0.0
  0
SPLINE
  5
1AE
330
1F
100
AcDbEntity
  8
0
  6
Continuous
 62
     7
370
    15
100
AcDbSpline
210
0.0
220
0.0
230
1.0
 70
     8
 71
     3
 72
    10
 73
     6
 74
     0
 42
0.00000001
 43
0.00000001
 12
1.0
 22
0.0
 32
0.0
 13
1.0
 23
0.0
 33
0.0
 40
0.0
 40
0.0
 40
0.0
 40
0.0
 40
0.3683613544327505
 40
0.7368492148955635
 40
1.0
 40
1.0
 40
1.0
 40
1.0
 10
375.6239691404841
 20
196.5660954441308
 30
0.0
 10
375.8631210777974
 20
197.6683040378821
 30
0.0
 10
376.3415070841726
 20
199.873099755955
 30
0.0
 10
376.2442088569437
 20
202.7872148944516
 30
0.0
 10
375.8711098949348
 20
204.1784316750513
 30
0.0
 10
375.7156708864711
 20
204.7580348874806
 30
0.0
  0
SPLINE
  5
1AF
330
1F
100
AcDbEntity
  8
0
  6
Continuous
 62
     7
370
    15
100
AcDbSpline
210
0.0
220
0.0
230
1.0
 70
     8
 71
     3
 72
    17
 73
    13
 74
     0
 42
0.00000001
 43
0.00000001
 12
1.0
 22
0.0
 32
0.0
 13
1.0
 23
0.0
 33
0.0
 40
0.0
 40
0.0
 40
0.0
 40
0.0
 40
0.0272177475530143
 40
0.1034954093459698
 40
0.2344111341959125
 40
0.3620120708870836
 40
0.492996046997549
 40
0.6267334119006067
 40
0.7648294733840437
 40
0.8567491724166318
 40
0.9510789816966457
 40
1.0
 40
1.0
 40
1.0
 40
1.0
 10
365.7275715498469
 20
184.5916526939152
 30
0.0
 10
365.7000259773584
 20
184.5848053093779
 30
0.0
 10
365.5952840146068
 20
184.558768148725
 30
0.0
 10
366.0713299499783
 20
184.8001857653665
 30
0.0
 10
367.2172543048994
 20
185.4080956318373
 30
0.0
 10
368.8438500547408
 20
186.4949819559118
 30
0.0
 10
370.5141864218946
 20
187.9201085422977
 30
0.0
 10
372.1758984110214
 20
189.7377332592015
 30
0.0
 10
373.5465283590669
 20
191.7070253076502
 30
0.0
 10
374.5939151391071
 20
193.690208387423
 30
0.0
 10
375.230825330128
 20
195.243310132944
 30
0.0
 10
375.5238868654062
 20
196.2293551473335
 30
0.0
 10
375.6239691404842
 20
196.5660954441308
 30
0.0
  0
LINE
  5
1B0
330
1F
100
AcDbEntity
  8
0
  6
Continuous
 62
     7
370
    15
100
AcDbLine
 10
374.9753215937
 20
334.7392397548
 30
0.0
 11
374.9753215937
 21
334.8160999443
 31
0.0
  0
LINE
  5
1B1
330
1F
100
AcDbEntity
  8
0
  6
Continuous
 62
     7
370
    15
100
AcDbLine
 10
375.229565206
 20
331.6920118953
 30
0.0
 11
374.7211077837
 21
334.7392397548
 31
0.0
  0
SPLINE
  5
1B2
330
1F
100
AcDbEntity
  8
0
  6
Continuous
 62
     7
370
    15
100
AcDbSpline
210
0.0
220
0.0
230
1.0
 70
     8
 71
     3
 72
    21
 73
    17
 74
     0
 42
0.00000001
 43
0.00000001
 12
1.0
 22
0.0
 32
0.0
 13
1.0
 23
0.0
 33
0.0
 40
0.0
 40
0.0
 40
0.0
 40
0.0
 40
0.0730845312409384
 40
0.1461650325991826
 40
0.21929051753532
 40
0.2924108662373734
 40
0.3647792100286477
 40
0.4371428969949893
 40
0.5085153343500801
 40
0.5798849807309245
 40
0.6505322158678387
 40
0.7211791255986117
 40
0.7915183241939532
 40
0.8618593661249337
 40
0.9323559495661263
 40
1.0
 40
1.0
 40
1.0
 40
1.0
 10
375.2531686453364
 20
304.3754863168476
 30
0.0
 10
375.0791729061643
 20
305.0491073413683
 30
0.0
 10
374.7311910219492
 20
306.3963122469313
 30
0.0
 10
374.24988846188
 20
308.776550808838
 30
0.0
 10
373.8118432237687
 20
311.3454504859963
 30
0.0
 10
373.4265736428364
 20
314.0442445416191
 30
0.0
 10
373.1018007615936
 20
316.7881913850735
 30
0.0
 10
372.8412446912427
 20
319.4863195812979
 30
0.0
 10
372.6494353428995
 20
322.0656608707006
 30
0.0
 10
372.5263167113364
 20
324.4511392152041
 30
0.0
 10
372.4746451447404
 20
326.5780920240556
 30
0.0
 10
372.4919278028306
 20
328.3966560239199
 30
0.0
 10
372.5794635329956
 20
329.8531385376735
 30
0.0
 10
372.7347025963012
 20
330.9135103534856
 30
0.0
 10
372.9492470117065
 20
331.5696542757584
 30
0.0
 10
373.1415595446005
 20
331.6441091123068
 30
0.0
 10
373.2357302336238
 20
331.6805678035496
 30
0.0
  0
LINE
  5
1B3
330
1F
100
AcDbEntity
  8
0
  6
Continuous
 62
     7
370
    15
100
AcDbLine
 10
377.7719417243
 20
295.0934487011
 30
0.0
 11
375.2531686453
 21
304.3754863168
 31
0.0
  0
LINE
  5
1B4
330
1F
100
AcDbEntity
  8
0
  6
Continuous
 62
     7
370
    15
100
AcDbLine
 10
377.7719417243
 20
262.0387392666
 30
0.0
 11
377.7719417243
 21
295.0934487011
 31
0.0
  0
LINE
  5
1B5
330
1F
100
AcDbEntity
  8
0
  6
Continuous
 62
     7
370
    15
100
AcDbLine
 10
375.2531686453
 20
252.7567016508
 30
0.0
 11
377.7719417243
 21
262.0387392666
 31
0.0
  0
SPLINE
  5
1B6
330
1F
100
AcDbEntity
  8
0
  6
Continuous
 62
     7
370
    15
100
AcDbSpline
210
0.0
220
0.0
230
1.0
 70
     8
 71
     3
 72
    10
 73
     6
 74
     0
 42
0.00000001
 43
0.00000001
 12
1.0
 22
0.0
 32
0.0
 13
1.0
 23
0.0
 33
0.0
 40
0.0
 40
0.0
 40
0.0
 40
0.0
 40
0.2520881381677502
 40
0.70559727897051
 40
0.9999999999999999
 40
0.9999999999999999
 40
0.9999999999999999
 40
0.9999999999999999
 10
374.1843977598689
 20
247.8744553949116
 30
0.0
 10
374.2662367127181
 20
248.3340671135422
 30
0.0
 10
374.4953047794025
 20
249.6205250183282
 30
0.0
 10
374.8582747176305
 20
251.2560279141158
 30
0.0
 10
375.1416304890579
 20
252.33283496148
 30
0.0
 10
375.2531686453364
 20
252.7567016507862
 30
0.0
  0
LINE
  5
1B7
330
1F
100
AcDbEntity
  8
0
  6
Continuous
 62
     7
370
    15
100
AcDbLine
 10
372.0770159392
 20
300.6853180553
 30
0.0
 11
372.0770159392
 21
349.0611779119
 31
0.0
  0
LINE
  5
1B8
330
1F
100
AcDbEntity
  8
0
  6
Continuous
 62
     7
370
    15
100
AcDbLine
 10
372.0913806586
 20
348.9672409918
 30
0.0
 11
372.0770159392
 21
349.0611779119
 31
0.0
  0
SPLINE
  5
1B9
330
1F
100
AcDbEntity
  8
0
  6
Continuous
 62
     7
370
    15
100
AcDbSpline
210
0.0
220
0.0
230
1.0
 70
     8
 71
     3
 72
    11
 73
     7
 74
     0
 42
0.00000001
 43
0.00000001
 12
1.0
 22
0.0
 32
0.0
 13
1.0
 23
0.0
 33
0.0
 40
0.0
 40
0.0
 40
0.0
 40
0.0
 40
0.2627776044982974
 40
0.5852494989441804
 40
0.9107100413250102
 40
1.0
 40
1.0
 40
1.0
 40
1.0
 10
349.1659739641688
 20
324.2974447633503
 30
0.0
 10
349.2648491779119
 20
325.1066585982431
 30
0.0
 10
349.4850607496386
 20
326.908912608108
 30
0.0
 10
351.2424265042346
 20
329.3884549707255
 30
0.0
 10
353.2706285771408
 20
330.9567698131991
 30
0.0
 10
354.6111881326722
 20
331.578673472064
 30
0.0
 10
354.8997917799495
 20
331.7125605966328
 30
0.0
  0
SPLINE
  5
1BA
330
1F
100
AcDbEntity
  8
0
  6
Continuous
 62
     7
370
    15
100
AcDbSpline
210
0.0
220
0.0
230
1.0
 70
     8
 71
     3
 72
    10
 73
     6
 74
     0
 42
0.00000001
 43
0.00000001
 12
1.0
 22
0.0
 32
0.0
 13
1.0
 23
0.0
 33
0.0
 40
0.0
 40
0.0
 40
0.0
 40
0.0
 40
0.4869090604630447
 40
0.7876647953539803
 40
1.0
 40
1.0
 40
1.0
 40
1.0
 10
354.8997917799495
 20
331.7125605966328
 30
0.0
 10
355.3438654102324
 20
332.7173573772493
 30
0.0
 10
356.0622360332521
 20
334.3428006372781
 30
0.0
 10
357.3389876495213
 20
336.2532834295912
 30
0.0
 10
358.4384960677223
 20
336.96246996537
 30
0.0
 10
358.8935115961575
 20
337.2559564735173
 30
0.0
  0
LWPOLYLINE
  5
1BB
330
1F
100
AcDbEntity
  8
0
  6
Continuous
 62
     7
370
    15
100
AcDbPolyline
 90
       10
 70
   128
 43
0.0
 10
358.8995614676
 20
337.2555094387
 10
360.0120821623
 20
337.2974413063
 10
361.9520643382
 20
337.1698873665
 10
363.848326507
 20
336.7877321865
 10
365.6185844569
 20
336.1574577715
 10
367.1885111956
 20
335.3083747055
 10
368.492452207
 20
334.2786448623
 10
369.4924691348
 20
333.1188725855
 10
370.164362493
 20
331.8820613052
 10
370.511946979
 20
330.6182491209
  0
LINE
  5
1BC
330
1F
100
AcDbEntity
  8
0
  6
Continuous
 62
     7
370
    15
100
AcDbLine
 10
370.511946979
 20
330.6182491209
 30
0.0
 11
370.5007711081
 21
330.3149806883
 31
0.0
  0
LINE
  5
1BD
330
1F
100
AcDbEntity
  8
0
  6
Continuous
 62
     7
370
    15
100
AcDbLine
 10
339.5120778708
 20
236.2901809241
 30
0.0
 11
320.0120756058
 21
236.2901809241
 31
0.0
  0
LINE
  5
1BE
330
1F
100
AcDbEntity
  8
0
  6
Continuous
 62
     7
370
    15
100
AcDbLine
 10
348.8835075526
 20
320.8420144941
 30
0.0
 11
320.0120756058
 21
320.8420144941
 31
0.0
  0
SPLINE
  5
1BF
330
1F
100
AcDbEntity
  8
0
  6
Continuous
 62
     7
370
    15
100
AcDbSpline
210
0.0
220
0.0
230
1.0
 70
     8
 71
     3
 72
    11
 73
     7
 74
     0
 42
0.00000001
 43
0.00000001
 12
1.0
 22
0.0
 32
0.0
 13
1.0
 23
0.0
 33
0.0
 40
0.0
 40
0.0
 40
0.0
 40
0.0
 40
0.0357469175062386
 40
0.3877068193701292
 40
0.7104334553372341
 40
1.0
 40
1.0
 40
1.0
 40
1.0
 10
370.7752206949733
 20
343.9166861202
 30
0.0
 10
370.7786775107329
 20
344.0344316926272
 30
0.0
 10
370.8161697236789
 20
345.3114861791482
 30
0.0
 10
370.8657626758294
 20
346.8282868526929
 30
0.0
 10
370.9245346854561
 20
348.4378217477432
 30
0.0
 10
370.9622873981756
 20
348.8043686405028
 30
0.0
 10
370.980141463711
 20
348.9777165080784
 30
0.0
  0
LINE
  5
1C0
330
1F
100
AcDbEntity
  8
0
  6
Continuous
 62
     7
370
    15
100
AcDbLine
 10
372.0770159392
 20
349.0611779119
 30
0.0
 11
370.9801414637
 21
348.9777165081
 31
0.0
  0
LINE
  5
1C1
330
1F
100
AcDbEntity
  8
0
  6
Continuous
 62
     7
370
    15
100
AcDbLine
 10
354.8997917799
 20
331.7125605966
 30
0.0
 11
320.0120756058
 21
331.7125605966
 31
0.0
  0
LINE
  5
1C2
330
1F
100
AcDbEntity
  8
0
  6
Continuous
 62
     7
370
    15
100
AcDbLine
 10
360.0120821623
 20
337.5033306505
 30
0.0
 11
360.0120821623
 21
342.3191624309
 31
0.0
  0
SPLINE
  5
1C3
330
1F
100
AcDbEntity
  8
0
  6
Continuous
 62
     7
370
    15
100
AcDbSpline
210
0.0
220
0.0
230
1.0
 70
     8
 71
     3
 72
     9
 73
     5
 74
     0
 42
0.00000001
 43
0.00000001
 12
1.0
 22
0.0
 32
0.0
 13
1.0
 23
0.0
 33
0.0
 40
0.0
 40
0.0
 40
0.0
 40
0.0
 40
0.5962861686710034
 40
1.0
 40
1.0
 40
1.0
 40
1.0
 10
358.9055219320796
 20
337.2559564735172
 30
0.0
 10
359.1124403737943
 20
337.3372917585585
 30
0.0
 10
359.4594523498995
 20
337.4736948638368
 30
0.0
 10
359.8531435710739
 20
337.4948072772064
 30
0.0
 10
360.0120821623347
 20
337.5033306504963
 30
0.0
  0
LINE
  5
1C4
330
1F
100
AcDbEntity
  8
0
  6
Continuous
 62
     7
370
    15
100
AcDbLine
 10
360.0120821623
 20
342.3191624309
 30
0.0
 11
320.0120756058
 21
342.3191624309
 31
0.0
  0
LINE
  5
1C5
330
1F
100
AcDbEntity
  8
0
  6
Continuous
 62
     7
370
    15
100
AcDbLine
 10
324.5120772748
 20
225.4196348216
 30
0.0
 11
320.0120756058
 21
225.4196348216
 31
0.0
  0
LINE
  5
1C6
330
1F
100
AcDbEntity
  8
0
  6
Continuous
 62
     7
370
    15
100
AcDbLine
 10
324.5120772748
 20
214.813029262
 30
0.0
 11
320.0120756058
 21
214.813029262
 31
0.0
  0
LINE
  5
1C7
330
1F
100
AcDbEntity
  8
0
  6
Continuous
 62
     7
370
    15
100
AcDbLine
 10
289.512080851
 20
192.5660947885
 30
0.0
 11
324.5120772748
 21
205.8922926511
 31
0.0
  0
LINE
  5
1C8
330
1F
100
AcDbEntity
  8
0
  6
Continuous
 62
     7
370
    15
100
AcDbLine
 10
289.512080851
 20
192.5660947885
 30
0.0
 11
289.512080851
 21
187.5660958316
 31
0.0
  0
LINE
  5
1C9
330
1F
100
AcDbEntity
  8
0
  6
Continuous
 62
     7
370
    15
100
AcDbLine
 10
360.0120821623
 20
390.5660974409
 30
0.0
 11
402.0699539809
 21
390.5660974409
 31
0.0
  0
LINE
  5
1CA
330
1F
100
AcDbEntity
  8
0
  6
Continuous
 62
     7
370
    15
100
AcDbLine
 10
360.0120821623
 20
390.5660974409
 30
0.0
 11
360.0120821623
 21
406.5661000635
 31
0.0
  0
LINE
  5
1CB
330
1F
100
AcDbEntity
  8
0
  6
Continuous
 62
     7
370
    15
100
AcDbLine
 10
402.0699539809
 20
406.5661000635
 30
0.0
 11
360.0120821623
 21
406.5661000635
 31
0.0
  0
LINE
  5
1CC
330
1F
100
AcDbEntity
  8
0
  6
Continuous
 62
     7
370
    15
100
AcDbLine
 10
317.9541954426
 20
390.5660974409
 30
0.0
 11
360.0120821623
 21
390.5660974409
 31
0.0
  0
LINE
  5
1CD
330
1F
100
AcDbEntity
  8
0
  6
Continuous
 62
     7
370
    15
100
AcDbLine
 10
360.0120821623
 20
406.5661000635
 30
0.0
 11
317.9541954426
 21
406.5661000635
 31
0.0
  0
LINE
  5
1CE
330
1F
100
AcDbEntity
  8
0
  6
Continuous
 62
     7
370
    15
100
AcDbLine
 10
363.617954555
 20
350.4603820469
 30
0.0
 11
363.0120733408
 21
350.5325632717
 31
0.0
  0
SPLINE
  5
1CF
330
1F
100
AcDbEntity
  8
0
  6
Continuous
 62
     7
370
    15
100
AcDbSpline
210
0.0
220
0.0
230
1.0
 70
     8
 71
     3
 72
    13
 73
     9
 74
     0
 42
0.00000001
 43
0.00000001
 12
1.0
 22
0.0
 32
0.0
 13
1.0
 23
0.0
 33
0.0
 40
0.0
 40
0.0
 40
0.0
 40
0.0
 40
0.1387543809052556
 40
0.2996170780242504
 40
0.4629869310451364
 40
0.6375214677490805
 40
0.8162619609362183
 40
1.0
 40
1.0
 40
1.0
 40
1.0
 10
370.9025660185359
 20
349.1040336515186
 30
0.0
 10
370.8836423464653
 20
348.9172206127155
 30
0.0
 10
370.8427798144554
 20
348.5138288318009
 30
0.0
 10
370.7804780593279
 20
346.8130158736683
 30
0.0
 10
370.7143434021723
 20
344.2184931282549
 30
0.0
 10
370.647208451449
 20
340.6422173959112
 30
0.0
 10
370.578918895503
 20
336.145052281423
 30
0.0
 10
370.5344752017911
 20
332.4773724582865
 30
0.0
 10
370.5119469790004
 20
330.618249120879
 30
0.0
  0
SPLINE
  5
1D0
330
1F
100
AcDbEntity
  8
0
  6
Continuous
 62
     7
370
    15
100
AcDbSpline
210
0.0
220
0.0
230
1.0
 70
     8
 71
     3
 72
    12
 73
     8
 74
     0
 42
0.00000001
 43
0.00000001
 12
1.0
 22
0.0
 32
0.0
 13
1.0
 23
0.0
 33
0.0
 40
0.0
 40
0.0
 40
0.0
 40
0.0
 40
0.2398101710118913
 40
0.4815070753262178
 40
0.7265249005389945
 40
0.9222497602672709
 40
1.0
 40
1.0
 40
1.0
 40
1.0
 10
349.0483590988658
 20
349.127577486205
 30
0.0
 10
349.0724153578392
 20
349.2156743110277
 30
0.0
 10
349.12071714109
 20
349.3925610722812
 30
0.0
 10
349.1930387967057
 20
348.260530852751
 30
0.0
 10
349.2599463603213
 20
346.2358282741621
 30
0.0
 10
349.3101165268916
 20
344.1706609106388
 30
0.0
 10
349.3359873039096
 20
342.7290259418959
 30
0.0
 10
349.3433424858592
 20
342.31916243093
 30
0.0
  0
SPLINE
  5
1D1
330
1F
100
AcDbEntity
  8
0
  6
Continuous
 62
     7
370
    15
100
AcDbSpline
210
0.0
220
0.0
230
1.0
 70
     8
 71
     3
 72
     9
 73
     5
 74
     0
 42
0.00000001
 43
0.00000001
 12
1.0
 22
0.0
 32
0.0
 13
1.0
 23
0.0
 33
0.0
 40
0.0
 40
0.0
 40
0.0
 40
0.0
 40
0.495456806732031
 40
1.0
 40
1.0
 40
1.0
 40
1.0
 10
357.012076082661
 20
350.352050604987
 30
0.0
 10
358.002928740432
 20
350.438336214905
 30
0.0
 10
360.0028057111545
 20
350.6124898620959
 30
0.0
 10
362.0029261750652
 20
350.4393879808909
 30
0.0
 10
363.0120733408473
 20
350.352050604987
 30
0.0
  0
LINE
  5
1D2
330
1F
100
AcDbEntity
  8
0
  6
Continuous
 62
     7
370
    15
100
AcDbLine
 10
306.0991594224
 20
390.5660974409
 30
0.0
 11
317.9541954426
 21
390.5660974409
 31
0.0
  0
LINE
  5
1D3
330
1F
100
AcDbEntity
  8
0
  6
Continuous
 62
     7
370
    15
100
AcDbLine
 10
317.9541954426
 20
406.5661000635
 30
0.0
 11
306.0991594224
 21
406.5661000635
 31
0.0
  0
LINE
  5
1D4
330
1F
100
AcDbEntity
  8
0
  6
Continuous
 62
     7
370
    15
100
AcDbLine
 10
402.0699539809
 20
390.5660974409
 30
0.0
 11
413.9249900012
 21
390.5660974409
 31
0.0
  0
LINE
  5
1D5
330
1F
100
AcDbEntity
  8
0
  6
Continuous
 62
     7
370
    15
100
AcDbLine
 10
413.9249900012
 20
406.5661000635
 30
0.0
 11
402.0699539809
 21
406.5661000635
 31
0.0
  0
LINE
  5
1D6
330
1F
100
AcDbEntity
  8
0
  6
Continuous
 62
     7
370
    15
100
AcDbLine
 10
398.0120697646
 20
331.6891955759
 30
0.0
 11
398.0120697646
 21
304.3754863168
 31
0.0
  0
LINE
  5
1D7
330
1F
100
AcDbEntity
  8
0
  6
Continuous
 62
     7
370
    15
100
AcDbLine
 10
398.0120697646
 20
252.7567016508
 30
0.0
 11
398.0120697646
 21
225.4429923918
 31
0.0
  0
LINE
  5
1D8
330
1F
100
AcDbEntity
  8
0
  6
Continuous
 62
     7
370
    15
100
AcDbLine
 10
370.9801414637
 20
348.9777165081
 30
0.0
 11
370.9757903246
 21
349.1275774862
 31
0.0
  0
LINE
  5
1D9
330
1F
100
AcDbEntity
  8
0
  6
Continuous
 62
     7
370
    15
100
AcDbLine
 10
377.7719417243
 20
295.0934487011
 30
0.0
 11
398.0120697646
 21
295.0934487011
 31
0.0
  0
LINE
  5
1DA
330
1F
100
AcDbEntity
  8
0
  6
Continuous
 62
     7
370
    15
100
AcDbLine
 10
398.0120697646
 20
304.3754863168
 30
0.0
 11
398.0120697646
 21
295.0934487011
 31
0.0
  0
LINE
  5
1DB
330
1F
100
AcDbEntity
  8
0
  6
Continuous
 62
     7
370
    15
100
AcDbLine
 10
377.7719417243
 20
262.0387392666
 30
0.0
 11
398.0120697646
 21
262.0387392666
 31
0.0
  0
LINE
  5
1DC
330
1F
100
AcDbEntity
  8
0
  6
Continuous
 62
     7
370
    15
100
AcDbLine
 10
398.0120697646
 20
262.0387392666
 30
0.0
 11
398.0120697646
 21
252.7567016508
 31
0.0
  0
SPLINE
  5
1DD
330
1F
100
AcDbEntity
  8
0
  6
Continuous
 62
     7
370
    15
100
AcDbSpline
210
0.0
220
0.0
230
1.0
 70
     8
 71
     3
 72
    11
 73
     7
 74
     0
 42
0.00000001
 43
0.00000001
 12
1.0
 22
0.0
 32
0.0
 13
1.0
 23
0.0
 33
0.0
 40
0.0
 40
0.0
 40
0.0
 40
0.0
 40
0.2960459693007523
 40
0.6268209700994357
 40
0.9575961894715299
 40
1.0
 40
1.0
 40
1.0
 40
1.0
 10
349.0440079597972
 20
348.9777165080784
 30
0.0
 10
349.0633382055272
 20
348.7826635996718
 30
0.0
 10
349.1042663202026
 20
348.3696762060012
 30
0.0
 10
349.1671298603902
 20
346.5659902424811
 30
0.0
 10
349.222503002003
 20
344.8363001825448
 30
0.0
 10
349.2618744620997
 20
343.4886166242829
 30
0.0
 10
349.2663481859706
 20
343.3354812289951
 30
0.0
  0
LINE
  5
1DE
330
1F
100
AcDbEntity
  8
0
  6
Continuous
 62
     7
370
    15
100
AcDbLine
 10
349.0483590989
 20
349.1275774862
 30
0.0
 11
349.0440079598
 21
348.9777165081
 31
0.0
  0
LINE
  5
1DF
330
1F
100
AcDbEntity
  8
0
  6
Continuous
 62
     7
370
    15
100
AcDbLine
 10
357.0120760827
 20
390.5660974409
 30
0.0
 11
357.0120760827
 21
350.352050605
 31
0.0
  0
LINE
  5
1E0
330
1F
100
AcDbEntity
  8
0
  6
Continuous
 62
     7
370
    15
100
AcDbLine
 10
363.0120733408
 20
390.5660974409
 30
0.0
 11
363.0120733408
 21
350.352050605
 31
0.0
  0
LINE
  5
1E1
330
1F
100
AcDbEntity
  8
0
  6
Continuous
 62
     7
370
    15
100
AcDbLine
 10
348.7905839114
 20
349.0022438194
 30
0.0
 11
339.0089848666
 21
349.0022438194
 31
0.0
  0
LINE
  5
1E2
330
1F
100
AcDbEntity
  8
0
  6
Continuous
 62
     7
370
    15
100
AcDbLine
 10
349.0440079598
 20
348.9777165081
 30
0.0
 11
348.7905839114
 21
349.0022438194
 31
0.0
  0
LINE
  5
1E3
330
1F
100
AcDbEntity
  8
0
  6
Continuous
 62
     7
370
    15
100
AcDbLine
 10
300.0120797781
 20
390.5660974409
 30
0.0
 11
300.0120797781
 21
406.5661000635
 31
0.0
  0
LINE
  5
1E4
330
1F
100
AcDbEntity
  8
0
  6
Continuous
 62
     7
370
    15
100
AcDbLine
 10
300.0120797781
 20
390.5660974409
 30
0.0
 11
306.0991594224
 21
390.5660974409
 31
0.0
  0
LINE
  5
1E5
330
1F
100
AcDbEntity
  8
0
  6
Continuous
 62
     7
370
    15
100
AcDbLine
 10
306.0991594224
 20
406.5661000635
 30
0.0
 11
300.0120797781
 21
406.5661000635
 31
0.0
  0
LINE
  5
1E6
330
1F
100
AcDbEntity
  8
0
  6
Continuous
 62
     7
370
    15
100
AcDbLine
 10
420.0120845465
 20
403.5660939838
 30
0.0
 11
420.0120845465
 21
406.5661000635
 31
0.0
  0
SPLINE
  5
1E7
330
1F
100
AcDbEntity
  8
0
  6
Continuous
 62
     7
370
    15
100
AcDbSpline
210
0.0
220
0.0
230
1.0
 70
     8
 71
     3
 72
    16
 73
    12
 74
     0
 42
0.00000001
 43
0.00000001
 12
1.0
 22
0.0
 32
0.0
 13
1.0
 23
0.0
 33
0.0
 40
0.0
 40
0.0
 40
0.0
 40
0.0
 40
0.1083937124873189
 40
0.2195517101294806
 40
0.3348298390887474
 40
0.453421434754845
 40
0.5692137280846664
 40
0.6883606234764928
 40
0.8041684573997636
 40
0.9233630747343888
 40
1.0
 40
1.0
 40
1.0
 40
1.0
 10
419.2496815351986
 20
390.5660974408864
 30
0.0
 10
419.2636757019739
 20
391.3336572149983
 30
0.0
 10
419.2920209184708
 20
392.8883512758051
 30
0.0
 10
419.3780062832167
 20
395.1363618955314
 30
0.0
 10
419.4897202761227
 20
397.2802418212698
 30
0.0
 10
419.6184561019106
 20
399.2076393294083
 30
0.0
 10
419.7486859794815
 20
400.8530703496472
 30
0.0
 10
419.8644559810321
 20
402.1408963223348
 30
0.0
 10
419.953855650595
 20
403.0468325563421
 30
0.0
 10
420.0025024772399
 20
403.5018976653919
 30
0.0
 10
420.0093894077652
 20
403.5480375514672
 30
0.0
 10
420.0120845465205
 20
403.5660939838169
 30
0.0
  0
LINE
  5
1E8
330
1F
100
AcDbEntity
  8
0
  6
Continuous
 62
     7
370
    15
100
AcDbLine
 10
413.9249900012
 20
390.5660974409
 30
0.0
 11
419.2496815352
 21
390.5660974409
 31
0.0
  0
LINE
  5
1E9
330
1F
100
AcDbEntity
  8
0
  6
Continuous
 62
     7
370
    15
100
AcDbLine
 10
420.0120845465
 20
406.5661000635
 30
0.0
 11
413.9249900012
 21
406.5661000635
 31
0.0
  0
SPLINE
  5
1EA
330
1F
100
AcDbEntity
  8
0
  6
Continuous
 62
     7
370
    15
100
AcDbSpline
210
0.0
220
0.0
230
1.0
 70
     8
 71
     3
 72
    11
 73
     7
 74
     0
 42
0.00000001
 43
0.00000001
 12
1.0
 22
0.0
 32
0.0
 13
1.0
 23
0.0
 33
0.0
 40
0.0
 40
0.0
 40
0.0
 40
0.0
 40
0.3151918251041556
 40
0.6455793306255836
 40
0.975925868708029
 40
1.0
 40
1.0
 40
1.0
 40
1.0
 10
372.17324763818
 20
348.4316187526463
 30
0.0
 10
373.1473482881954
 20
349.1042446299609
 30
0.0
 10
375.1425118537194
 20
350.481924281058
 30
0.0
 10
377.4675855791628
 20
352.878174349535
 30
0.0
 10
378.9249319256858
 20
354.635598171109
 30
0.0
 10
379.3732836571428
 20
355.6102970068752
 30
0.0
 10
379.4037380842707
 20
355.6765037204502
 30
0.0
  0
SPLINE
  5
1EB
330
1F
100
AcDbEntity
  8
0
  6
Continuous
 62
     7
370
    15
100
AcDbSpline
210
0.0
220
0.0
230
1.0
 70
     8
 71
     3
 72
    18
 73
    14
 74
     0
 42
0.00000001
 43
0.00000001
 12
1.0
 22
0.0
 32
0.0
 13
1.0
 23
0.0
 33
0.0
 40
0.0
 40
0.0
 40
0.0
 40
0.0
 40
0.0578822419494483
 40
0.1486970496687746
 40
0.2398213194767293
 40
0.3331905261641701
 40
0.4323636907616766
 40
0.534079529445898
 40
0.6389744431335913
 40
0.747771858840799
 40
0.821123826448389
 40
0.8965649730424796
 40
0.9999999999999999
 40
0.9999999999999999
 40
0.9999999999999999
 40
0.9999999999999999
 10
381.9358626036189
 20
373.6058937932728
 30
0.0
 10
381.8673372730854
 20
373.6049596630776
 30
0.0
 10
381.6912985756418
 20
373.602559921821
 30
0.0
 10
381.2395704596263
 20
374.0083791763307
 30
0.0
 10
380.6202044316735
 20
374.7641952517963
 30
0.0
 10
379.8797965098748
 20
375.8873778731229
 30
0.0
 10
379.0555375519587
 20
377.3701827942187
 30
0.0
 10
378.2006097405315
 20
379.2281233982537
 30
0.0
 10
377.4098247465243
 20
381.4493744342865
 30
0.0
 10
376.8852574241029
 20
383.7324055475634
 30
0.0
 10
376.6723651031242
 20
385.9198661740387
 30
0.0
 10
376.6896015629668
 20
388.1314174290604
 30
0.0
 10
376.9740065609353
 20
389.6740634294763
 30
0.0
 10
377.138463559582
 20
390.5660974408863
 30
0.0
  0
SPLINE
  5
1EC
330
1F
100
AcDbEntity
  8
0
  6
Continuous
 62
     7
370
    15
100
AcDbSpline
210
0.0
220
0.0
230
1.0
 70
     8
 71
     3
 72
    16
 73
    12
 74
     0
 42
0.00000001
 43
0.00000001
 12
1.0
 22
0.0
 32
0.0
 13
1.0
 23
0.0
 33
0.0
 40
0.0
 40
0.0
 40
0.0
 40
0.0
 40
0.1962312001771684
 40
0.3420190913006027
 40
0.4877112269329328
 40
0.5861285327689243
 40
0.6846566353657979
 40
0.7827290118291305
 40
0.8634198933742646
 40
0.9440187139278146
 40
1.0
 40
1.0
 40
1.0
 40
1.0
 10
337.2549244789622
 20
390.5660974408863
 30
0.0
 10
337.4707184938969
 20
387.6748294100599
 30
0.0
 10
337.8468343859131
 20
382.6355244284008
 30
0.0
 10
338.4033017417731
 20
375.4517324959568
 30
0.0
 10
339.029940135496
 20
369.7212506149121
 30
0.0
 10
339.9682650751334
 20
364.7415236242536
 30
0.0
 10
341.1490261675766
 20
360.5388629797573
 30
0.0
 10
342.7104479934495
 20
356.7357709209065
 30
0.0
 10
344.6540987600564
 20
353.4235860227365
 30
0.0
 10
346.6549757416777
 20
350.8871742131254
 30
0.0
 10
348.1697217010893
 20
349.5502291975662
 30
0.0
 10
348.7905839113734
 20
349.0022438194035
 30
0.0
  0
LINE
  5
1ED
330
1F
100
AcDbEntity
  8
0
  6
Continuous
 62
     7
370
    15
100
AcDbLine
 10
420.0120845465
 20
403.5660939838
 30
0.0
 11
420.0120845465
 21
373.5660927917
 31
0.0
  0
LINE
  5
1EE
330
1F
100
AcDbEntity
  8
0
  6
Continuous
 62
     7
370
    15
100
AcDbLine
 10
375.7210949091
 20
334.7392397548
 30
0.0
 11
376.2295821337
 21
331.6920118953
 31
0.0
  0
LINE
  5
1EF
330
1F
100
AcDbEntity
  8
0
  6
Continuous
 62
     7
370
    15
100
AcDbLine
 10
375.9753385214
 20
333.5180746938
 30
0.0
 11
375.7210949091
 21
334.7392397548
 31
0.0
  0
LINE
  5
1F0
330
1F
100
AcDbEntity
  8
0
  6
Continuous
 62
     7
370
    15
100
AcDbLine
 10
375.9753385214
 20
334.8160999443
 30
0.0
 11
375.9753385214
 21
333.5180746938
 31
0.0
  0
LINE
  5
1F1
330
1F
100
AcDbEntity
  8
0
  6
Continuous
 62
     7
370
    15
100
AcDbLine
 10
375.7210949091
 20
336.0522257711
 30
0.0
 11
375.9753385214
 21
334.8160999443
 31
0.0
  0
LINE
  5
1F2
330
1F
100
AcDbEntity
  8
0
  6
Continuous
 62
     7
370
    15
100
AcDbLine
 10
376.4837959437
 20
332.3160278227
 30
0.0
 11
376.6100385813
 21
331.6891955759
 31
0.0
  0
LINE
  5
1F3
330
1F
100
AcDbEntity
  8
0
  6
Continuous
 62
     7
370
    15
100
AcDbLine
 10
376.4837959437
 20
331.6891955759
 30
0.0
 11
376.4837959437
 21
332.3160278227
 31
0.0
  0
LINE
  5
1F4
330
1F
100
AcDbEntity
  8
0
  6
Continuous
 62
     7
370
    15
100
AcDbLine
 10
376.2295821337
 20
331.6920118953
 30
0.0
 11
375.229565206
 21
331.6920118953
 31
0.0
  0
LINE
  5
1F5
330
1F
100
AcDbEntity
  8
0
  6
Continuous
 62
     7
370
    15
100
AcDbLine
 10
375.7210949091
 20
334.7392397548
 30
0.0
 11
374.7211077837
 21
334.7392397548
 31
0.0
  0
LINE
  5
1F6
330
1F
100
AcDbEntity
  8
0
  6
Continuous
 62
     7
370
    15
100
AcDbLine
 10
375.9753385214
 20
334.8160999443
 30
0.0
 11
374.9753215937
 21
334.8160999443
 31
0.0
  0
LINE
  5
1F7
330
1F
100
AcDbEntity
  8
0
  6
Continuous
 62
     7
370
    15
100
AcDbLine
 10
382.012067142
 20
208.5660974111
 30
0.0
 11
382.012067142
 21
184.5660953398
 31
0.0
  0
LINE
  5
1F8
330
1F
100
AcDbEntity
  8
0
  6
Continuous
 62
     7
370
    15
100
AcDbLine
 10
315.0120803742
 20
390.5660974409
 30
0.0
 11
339.0089848666
 21
349.0022438194
 31
0.0
  0
LINE
  5
1F9
330
1F
100
AcDbEntity
  8
0
  6
Continuous
 62
     7
370
    15
100
AcDbLine
 10
375.7210949091
 20
336.0522257711
 30
0.0
 11
374.7239092021
 21
336.0522257711
 31
0.0
  0
LINE
  5
1FA
330
1F
100
AcDbEntity
  8
0
  6
Continuous
 62
     7
370
    15
100
AcDbLine
 10
289.512080851
 20
187.5660958316
 30
0.0
 11
289.512080851
 21
188.5660978581
 31
0.0
  0
LINE
  5
1FB
330
1F
100
AcDbEntity
  8
0
  6
Continuous
 62
     7
370
    15
100
AcDbLine
 10
108.0120781092
 20
154.5660960104
 30
0.0
 11
108.0120781092
 21
156.5660961054
 31
0.0
  0
LINE
  5
1FC
330
1F
100
AcDbEntity
  8
0
  6
Continuous
 62
     7
370
    15
100
AcDbLine
 10
108.0120781092
 20
156.5660961054
 30
0.0
 11
131.0120781539
 21
156.5660961054
 31
0.0
  0
LINE
  5
1FD
330
1F
100
AcDbEntity
  8
0
  6
Continuous
 62
     7
370
    15
100
AcDbLine
 10
131.0120781539
 20
154.5660960104
 30
0.0
 11
108.0120781092
 21
154.5660960104
 31
0.0
  0
LINE
  5
1FE
330
1F
100
AcDbEntity
  8
0
  6
Continuous
 62
     7
370
    15
100
AcDbLine
 10
378.0120888381
 20
156.5660961054
 30
0.0
 11
378.0120888381
 21
154.5660960104
 31
0.0
  0
LINE
  5
1FF
330
1F
100
AcDbEntity
  8
0
  6
Continuous
 62
     7
370
    15
100
AcDbLine
 10
355.0120720295
 20
156.5660961054
 30
0.0
 11
378.0120888381
 21
156.5660961054
 31
0.0
  0
LINE
  5
200
330
1F
100
AcDbEntity
  8
0
  6
Continuous
 62
     7
370
    15
100
AcDbLine
 10
378.0120888381
 20
154.5660960104
 30
0.0
 11
355.0120720295
 21
154.5660960104
 31
0.0
  0
LINE
  5
201
330
1F
100
AcDbEntity
  8
0
  6
Continuous
 62
     7
370
    15
100
AcDbLine
 10
131.0120781539
 20
156.5660961054
 30
0.0
 11
197.9625725774
 21
156.5660961054
 31
0.0
  0
LINE
  5
202
330
1F
100
AcDbEntity
  8
0
  6
Continuous
 62
     7
370
    15
100
AcDbLine
 10
208.0604860215
 20
156.5660961054
 30
0.0
 11
355.0120720295
 21
156.5660961054
 31
0.0
  0
LINE
  5
203
330
1F
100
AcDbEntity
  8
0
  6
Continuous
 62
     7
370
    15
100
AcDbLine
 10
131.0120781539
 20
154.5660960104
 30
0.0
 11
197.9621478943
 21
154.5660960104
 31
0.0
  0
LINE
  5
204
330
1F
100
AcDbEntity
  8
0
  6
Continuous
 62
     7
370
    15
100
AcDbLine
 10
208.0613502888
 20
154.5660960104
 30
0.0
 11
355.0120720295
 21
154.5660960104
 31
0.0
  0
ARC
  5
205
330
1F
100
AcDbEntity
  8
0
  6
Continuous
 62
     7
370
    15
100
AcDbCircle
 10
109.0120781092
 20
158.5660960104
 30
0.0
 40
2.0
100
AcDbArc
 50
270.0
 51
0.0
  0
ARC
  5
206
330
1F
100
AcDbEntity
  8
0
  6
Continuous
 62
     7
370
    15
100
AcDbCircle
 10
377.0120781092
 20
158.5660960104
 30
0.0
 40
2.0
100
AcDbArc
 50
180.0
 51
270.0
  0
LINE
  5
207
330
1F
100
AcDbEntity
  8
0
  6
Continuous
 62
     7
370
    15
100
AcDbLine
 10
375.0120678572
 20
169.5660956751
 30
0.0
 11
375.0120678572
 21
158.5660962004
 31
0.0
  0
LINE
  5
208
330
1F
100
AcDbEntity
  8
0
  6
Continuous
 62
     7
370
    15
100
AcDbLine
 10
111.0120781353
 20
158.5660962004
 30
0.0
 11
111.0120781353
 21
169.5660956751
 31
0.0
  0
LINE
  5
209
330
1F
100
AcDbEntity
  8
0
  6
Continuous
 62
     7
370
    15
100
AcDbLine
 10
116.0120784892
 20
174.5660955633
 30
0.0
 11
131.0120781539
 21
174.5660955633
 31
0.0
  0
ARC
  5
20A
330
1F
100
AcDbEntity
  8
0
  6
Continuous
 62
     7
370
    15
100
AcDbCircle
 10
116.0120781092
 20
169.5660960104
 30
0.0
 40
5.000000000000014
100
AcDbArc
 50
90.0
 51
180.0
  0
LINE
  5
20B
330
1F
100
AcDbEntity
  8
0
  6
Continuous
 62
     7
370
    15
100
AcDbLine
 10
355.0120720295
 20
174.5660955633
 30
0.0
 11
370.0120726256
 21
174.5660955633
 31
0.0
  0
ARC
  5
20C
330
1F
100
AcDbEntity
  8
0
  6
Continuous
 62
     7
370
    15
100
AcDbCircle
 10
370.0120781092
 20
169.5660960104
 30
0.0
 40
5.0
100
AcDbArc
 50
0.0
 51
90.0
  0
LINE
  5
20D
330
1F
100
AcDbEntity
  8
0
  6
Continuous
 62
     7
370
    15
100
AcDbLine
 10
131.0120781539
 20
174.5660955633
 30
0.0
 11
197.9631239204
 21
174.5660955633
 31
0.0
  0
LINE
  5
20E
330
1F
100
AcDbEntity
  8
0
  6
Continuous
 62
     7
370
    15
100
AcDbLine
 10
208.0610299139
 20
174.5660955633
 30
0.0
 11
355.0120720295
 21
174.5660955633
 31
0.0
  0
LINE
  5
20F
330
1F
100
AcDbEntity
  8
0
  6
Continuous
 62
     7
370
    15
100
AcDbLine
 10
191.0120749502
 20
190.0660971727
 30
0.0
 11
191.0120749502
 21
174.5660955633
 31
0.0
  0
LINE
  5
210
330
1F
100
AcDbEntity
  8
0
  6
Continuous
 62
     7
370
    15
100
AcDbLine
 10
215.0120788841
 20
190.0660971727
 30
0.0
 11
215.0120788841
 21
174.5660955633
 31
0.0
  0
ARC
  5
211
330
1F
100
AcDbEntity
  8
0
  6
Continuous
 62
     7
370
    15
100
AcDbCircle
 10
203.0120781092
 20
190.0660960104
 30
0.0
 40
12.0
100
AcDbArc
 50
0.0
 51
180.0
  0
LINE
  5
212
330
1F
100
AcDbEntity
  8
0
  6
Continuous
 62
     7
370
    15
100
AcDbLine
 10
97.0120781688
 20
174.5660955633
 30
0.0
 11
97.0120781688
 21
187.8962236072
 31
0.0
  0
LINE
  5
213
330
1F
100
AcDbEntity
  8
0
  6
Continuous
 62
     7
370
    15
100
AcDbLine
 10
100.2120783208
 20
203.5660947289
 30
0.0
 11
100.2120783208
 21
177.7660957153
 31
0.0
  0
LINE
  5
214
330
1F
100
AcDbEntity
  8
0
  6
Continuous
 62
     7
370
    15
100
AcDbLine
 10
116.0120784892
 20
174.5660955633
 30
0.0
 11
97.0120781688
 21
174.5660955633
 31
0.0
  0
LINE
  5
215
330
1F
100
AcDbEntity
  8
0
  6
Continuous
 62
     7
370
    15
100
AcDbLine
 10
132.0120783178
 20
177.7660957153
 30
0.0
 11
132.0120783178
 21
174.5660955633
 31
0.0
  0
LINE
  5
216
330
1F
100
AcDbEntity
  8
0
  6
Continuous
 62
     7
370
    15
100
AcDbLine
 10
97.0120781688
 20
203.5660947289
 30
0.0
 11
100.2120783208
 21
203.5660947289
 31
0.0
  0
LINE
  5
217
330
1F
100
AcDbEntity
  8
0
  6
Continuous
 62
     7
370
    15
100
AcDbLine
 10
100.2120783208
 20
177.7660957153
 30
0.0
 11
132.0120783178
 21
177.7660957153
 31
0.0
  0
LINE
  5
218
330
1F
100
AcDbEntity
  8
SLD-0
370
     0
100
AcDbLine
 10
128.0120781092
 20
176.7805043814
 30
0.0
 11
128.0120781092
 21
149.969441386
 31
0.0
  0
LINE
  5
219
330
1F
100
AcDbEntity
  8
SLD-0
370
     0
100
AcDbLine
 10
358.0120781092
 20
176.7805043814
 30
0.0
 11
358.0120781092
 21
149.969441386
 31
0.0
  0
LINE
  5
21A
330
1F
100
AcDbEntity
  8
SLD-0
  6
CENTERX2
370
     0
100
AcDbLine
 10
252.0120781092
 20
170.5660960104
 30
0.0
 11
252.0120781092
 21
176.5660960104
 31
0.0
  0
LINE
  5
21B
330
1F
100
AcDbEntity
  8
SLD-0
  6
CENTERX2
370
     0
100
AcDbLine
 10
360.0120781092
 20
188.4155437316
 30
0.0
 11
360.0120781092
 21
448.0825631417
 31
0.0
  0
LINE
  5
21C
330
1F
100
AcDbEntity
  8
SLD-0
  6
CENTERX2
370
     0
100
AcDbLine
 10
31.1675510078
 20
278.5660960104
 30
0.0
 11
433.82399836
 21
278.5660960104
 31
0.0
  0
LINE
  5
21D
330
1F
100
AcDbEntity
  8
0
  6
Continuous
 62
     7
370
    15
100
AcDbLine
 10
531.9062555572
 20
201.566094401
 30
0.0
 11
531.4311618348
 21
201.566094401
 31
0.0
  0
LINE
  5
21E
330
1F
100
AcDbEntity
  8
0
  6
Continuous
 62
     7
370
    15
100
AcDbLine
 10
531.4311618348
 20
200.8160966064
 30
0.0
 11
531.4302379628
 21
200.7416168775
 31
0.0
  0
LWPOLYLINE
  5
21F
330
1F
100
AcDbEntity
  8
0
  6
Continuous
 62
     7
370
    15
100
AcDbPolyline
 90
        3
 70
   128
 43
0.0
 10
529.4311652323
 20
197.9876699473
 10
529.016436114
 20
197.8737393941
 10
528.4311632057
 20
197.816094252
  0
LINE
  5
220
330
1F
100
AcDbEntity
  8
0
  6
Continuous
 62
     7
370
    15
100
AcDbLine
 10
528.4311632057
 20
197.816094252
 30
0.0
 11
527.4311611792
 21
197.816094252
 31
0.0
  0
ARC
  5
221
330
1F
100
AcDbEntity
  8
0
  6
Continuous
 62
     7
370
    15
100
AcDbCircle
 10
527.4311634442
 20
196.8160960104
 30
0.0
 40
1.000000000000028
100
AcDbArc
 50
90.0
 51
180.0
  0
SPLINE
  5
222
330
1F
100
AcDbEntity
  8
0
  6
Continuous
 62
     7
370
    15
100
AcDbSpline
210
0.0
220
0.0
230
1.0
 70
     8
 71
     3
 72
    27
 73
    23
 74
     0
 42
0.00000001
 43
0.00000001
 12
1.0
 22
0.0
 32
0.0
 13
1.0
 23
0.0
 33
0.0
 40
0.0
 40
0.0
 40
0.0
 40
0.0
 40
0.0700069065752517
 40
0.1313019784719191
 40
0.1843192554459886
 40
0.2287216705914853
 40
0.2649210710672283
 40
0.2961186722500641
 40
0.3347967773814347
 40
0.3717754406414281
 40
0.4202235211898835
 40
0.4765784954396853
 40
0.5319719255373012
 40
0.5843801155135327
 40
0.6319448376587821
 40
0.6747219130892298
 40
0.7021397650439528
 40
0.7392819030346562
 40
0.7871193035259333
 40
0.8454539798528975
 40
0.9160982399957162
 40
1.0
 40
1.0
 40
1.0
 40
1.0
 10
521.4311639209964
 20
196.6169084038018
 30
0.0
 10
520.0474552083729
 20
196.5358129778451
 30
0.0
 10
517.4522299586899
 20
196.3837138437163
 30
0.0
 10
513.8807245870827
 20
195.5607201732755
 30
0.0
 10
510.9635463360977
 20
194.3807972112722
 30
0.0
 10
508.628254582399
 20
193.1364492148522
 30
0.0
 10
506.7808860967484
 20
191.9170971242471
 30
0.0
 10
505.1278578893214
 20
190.6230277033888
 30
0.0
 10
503.5770873445232
 20
189.183304373623
 30
0.0
 10
501.9321444274365
 20
187.3584148623035
 30
0.0
 10
500.2695735434303
 20
185.0932368149778
 30
0.0
 10
498.7255351225118
 20
182.3161969419479
 30
0.0
 10
497.5302500147775
 20
179.2889080086185
 30
0.0
 10
496.7715241695394
 20
176.3023630676021
 30
0.0
 10
496.4375112984293
 20
173.4936810765363
 30
0.0
 10
496.3560611461739
 20
171.165320582062
 30
0.0
 10
496.3618635538429
 20
169.0428349777959
 30
0.0
 10
496.3954191823613
 20
166.8205646490811
 30
0.0
 10
496.4006695445669
 20
163.9866756863385
 30
0.0
 10
496.3820084941275
 20
160.4904558207245
 30
0.0
 10
496.376034823823
 20
156.2810416005008
 30
0.0
 10
496.3789925794565
 20
153.2251268852052
 30
0.0
 10
496.3805983206012
 20
151.5660959842978
 30
0.0
  0
SPLINE
  5
223
330
1F
100
AcDbEntity
  8
0
  6
Continuous
 62
     7
370
    15
100
AcDbSpline
210
0.0
220
0.0
230
1.0
 70
     8
 71
     3
 72
    24
 73
    20
 74
     0
 42
0.00000001
 43
0.00000001
 12
1.0
 22
0.0
 32
0.0
 13
1.0
 23
0.0
 33
0.0
 40
0.0
 40
0.0
 40
0.0
 40
0.0
 40
0.1461078209506886
 40
0.2626375592010584
 40
0.3463925699984775
 40
0.4093132528336286
 40
0.4767733555271739
 40
0.5444126992724734
 40
0.5931732292754713
 40
0.643199930207461
 40
0.6972076420803042
 40
0.7497259184792839
 40
0.7857596274919186
 40
0.8019867555263327
 40
0.8274476941648579
 40
0.8623759791559605
 40
0.9068037145279016
 40
0.9604718349409698
 40
1.0
 40
1.0
 40
1.0
 40
1.0
 10
506.4817304154613
 20
151.5660959842978
 30
0.0
 10
506.4783228763069
 20
153.6338457680024
 30
0.0
 10
506.4721976205843
 20
157.3507498508713
 30
0.0
 10
506.4892365046979
 20
162.2530028099356
 30
0.0
 10
506.4955068409368
 20
165.9778739478861
 30
0.0
 10
506.4654923525214
 20
169.008571476037
 30
0.0
 10
506.4626640111948
 20
171.8098748677873
 30
0.0
 10
506.6798284390841
 20
174.4148668024833
 30
0.0
 10
507.3178118770048
 20
176.6940837621537
 30
0.0
 10
508.2226507358549
 20
178.6654853072642
 30
0.0
 10
509.4070061810657
 20
180.5469739158492
 30
0.0
 10
510.7375181274684
 20
182.0748624158696
 30
0.0
 10
511.8483438580245
 20
183.0611484983291
 30
0.0
 10
512.7234341994999
 20
183.7280736623077
 30
0.0
 10
513.6239241848252
 20
184.3337126889821
 30
0.0
 10
514.9219665110516
 20
185.0568342433375
 30
0.0
 10
516.6575864060126
 20
185.7941042670658
 30
0.0
 10
518.554144727645
 20
186.2993549825059
 30
0.0
 10
519.8721462489359
 20
186.3855440341245
 30
0.0
 10
520.4311618944384
 20
186.4221001590966
 30
0.0
  0
LINE
  5
224
330
1F
100
AcDbEntity
  8
0
  6
Continuous
 62
     7
370
    15
100
AcDbLine
 10
526.4311666032
 20
196.6160962905
 30
0.0
 11
521.3217744967
 21
196.6160962905
 31
0.0
  0
LINE
  5
225
330
1F
100
AcDbEntity
  8
0
  6
Continuous
 62
     7
370
    15
100
AcDbLine
 10
651.9311638912
 20
410.5661081697
 30
0.0
 11
651.9311638912
 21
412.5660824205
 31
0.0
  0
LINE
  5
226
330
1F
100
AcDbEntity
  8
0
  6
Continuous
 62
     7
370
    15
100
AcDbLine
 10
566.9311629971
 20
412.5660824205
 30
0.0
 11
566.9311629971
 21
410.5661081697
 31
0.0
  0
LINE
  5
227
330
1F
100
AcDbEntity
  8
0
  6
Continuous
 62
     7
370
    15
100
AcDbLine
 10
641.9311622521
 20
428.5660850431
 30
0.0
 11
641.9311622521
 21
435.5660843279
 31
0.0
  0
LINE
  5
228
330
1F
100
AcDbEntity
  8
0
  6
Continuous
 62
     7
370
    15
100
AcDbLine
 10
576.9311646363
 20
435.5660843279
 30
0.0
 11
576.9311646363
 21
428.5660850431
 31
0.0
  0
LINE
  5
229
330
1F
100
AcDbEntity
  8
0
  6
Continuous
 62
     7
370
    15
100
AcDbLine
 10
654.4311652323
 20
408.5661041166
 30
0.0
 11
654.4311652323
 21
410.5661081697
 31
0.0
  0
LINE
  5
22A
330
1F
100
AcDbEntity
  8
0
  6
Continuous
 62
     7
370
    15
100
AcDbLine
 10
564.431161656
 20
410.5661081697
 30
0.0
 11
564.431161656
 21
408.5661041166
 31
0.0
  0
LINE
  5
22B
330
1F
100
AcDbEntity
  8
0
  6
Continuous
 62
     7
370
    15
100
AcDbLine
 10
566.9311629971
 20
408.5661041166
 30
0.0
 11
566.9311629971
 21
406.5661000635
 31
0.0
  0
LINE
  5
22C
330
1F
100
AcDbEntity
  8
0
  6
Continuous
 62
     7
370
    15
100
AcDbLine
 10
651.9311638912
 20
406.5661000635
 30
0.0
 11
651.9311638912
 21
408.5661041166
 31
0.0
  0
LINE
  5
22D
330
1F
100
AcDbEntity
  8
0
  6
Continuous
 62
     7
370
    15
100
AcDbLine
 10
649.6997187277
 20
376.4314817812
 30
0.0
 11
647.1365141114
 21
377.9309111263
 31
0.0
  0
SPLINE
  5
22E
330
1F
100
AcDbEntity
  8
0
  6
Continuous
 62
     7
370
    15
100
AcDbSpline
210
0.0
220
0.0
230
1.0
 70
     8
 71
     3
 72
    11
 73
     7
 74
     0
 42
0.00000001
 43
0.00000001
 12
1.0
 22
0.0
 32
0.0
 13
1.0
 23
0.0
 33
0.0
 40
0.0
 40
0.0
 40
0.0
 40
0.0
 40
0.2149466403934865
 40
0.4899382507080627
 40
0.7953669080840898
 40
1.0
 40
1.0
 40
1.0
 40
1.0
 10
672.5733066340663
 20
361.0066639806507
 30
0.0
 10
671.0681648823625
 20
362.2972526771667
 30
0.0
 10
667.6374226500227
 20
365.2389537765516
 30
0.0
 10
661.6737584370335
 20
369.5175999676981
 30
0.0
 10
655.5616201314922
 20
373.4191246097334
 30
0.0
 10
651.3460113751539
 20
375.5093483101217
 30
0.0
 10
649.654739572642
 20
376.3479309703587
 30
0.0
  0
SPLINE
  5
22F
330
1F
100
AcDbEntity
  8
0
  6
Continuous
 62
     7
370
    15
100
AcDbSpline
210
0.0
220
0.0
230
1.0
 70
     8
 71
     3
 72
    32
 73
    28
 74
     0
 42
0.00000001
 43
0.00000001
 12
1.0
 22
0.0
 32
0.0
 13
1.0
 23
0.0
 33
0.0
 40
0.0
 40
0.0
 40
0.0
 40
0.0
 40
0.0425693112008603
 40
0.0823808411179819
 40
0.1195954169845469
 40
0.1543320401305901
 40
0.1969348853699097
 40
0.2354306177879442
 40
0.269911358936995
 40
0.3004340918495879
 40
0.3270314745201857
 40
0.3509025719426249
 40
0.3748492346005652
 40
0.3990007820804681
 40
0.4233701340349743
 40
0.4728060467525637
 40
0.5232851307918552
 40
0.5744265068249215
 40
0.6261644865539678
 40
0.6781160477766142
 40
0.7294395787436979
 40
0.7803709100048127
 40
0.8310430724176836
 40
0.8815552662814389
 40
0.931276621231347
 40
0.9787876968195393
 40
1.0
 40
1.0
 40
1.0
 40
1.0
 10
643.6739089330413
 20
189.5773502613781
 30
0.0
 10
646.1433233000944
 20
190.3892584478449
 30
0.0
 10
650.9221751745532
 20
191.9604767134193
 30
0.0
 10
657.5942058199079
 20
194.9480131105811
 30
0.0
 10
663.6120517245251
 20
198.168367046982
 30
0.0
 10
669.5255978234211
 20
201.9080034613813
 30
0.0
 10
675.2031237235152
 20
206.1341588281294
 30
0.0
 10
680.5114675354406
 20
210.7892347347588
 30
0.0
 10
684.9530837465798
 20
215.2870048366049
 30
0.0
 10
688.6214255756713
 20
219.5097522547564
 30
0.0
 10
691.6500799190128
 20
223.4187481525693
 30
0.0
 10
694.2513267343915
 20
227.1434040756639
 30
0.0
 10
696.5952309185554
 20
230.8597632203377
 30
0.0
 10
698.776003341858
 20
234.7092868644624
 30
0.0
 10
701.4720776417996
 20
240.0470405042577
 30
0.0
 10
704.3962664705024
 20
247.0597785486466
 30
0.0
 10
707.0925842429019
 20
255.8909150313824
 30
0.0
 10
708.9202672101795
 20
265.086470499932
 30
0.0
 10
709.805460411598
 20
274.5104773132786
 30
0.0
 10
709.7690141252696
 20
283.9833960729694
 30
0.0
 10
708.9414813865268
 20
293.3688973907992
 30
0.0
 10
707.3175247525002
 20
302.5715930643244
 30
0.0
 10
704.9253438962015
 20
311.5522122339183
 30
0.0
 10
701.8121663743759
 20
320.233596406318
 30
0.0
 10
698.0283000884881
 20
328.4240286998473
 30
0.0
 10
694.5654304393787
 20
334.7863596516478
 30
0.0
 10
692.1996281633969
 20
338.2509126092136
 30
0.0
 10
691.4693946381785
 20
339.3202888395069
 30
0.0
  0
SPLINE
  5
230
330
1F
100
AcDbEntity
  8
0
  6
Continuous
 62
     7
370
    15
100
AcDbSpline
210
0.0
220
0.0
230
1.0
 70
     8
 71
     3
 72
    42
 73
    38
 74
     0
 42
0.00000001
 43
0.00000001
 12
1.0
 22
0.0
 32
0.0
 13
1.0
 23
0.0
 33
0.0
 40
0.0
 40
0.0
 40
0.0
 40
0.0
 40
0.0372861204746403
 40
0.0714562244104957
 40
0.1026899760646393
 40
0.1311102404437032
 40
0.1568010059514086
 40
0.1798202953249906
 40
0.203977549371254
 40
0.2244182285800824
 40
0.2433885680096012
 40
0.2625508021921226
 40
0.2819218733597654
 40
0.3147157941656955
 40
0.3482264027283177
 40
0.3820978325158974
 40
0.4160663723537591
 40
0.450065358824259
 40
0.4840502406091529
 40
0.5180607036644014
 40
0.5520884746475639
 40
0.5860943330514309
 40
0.6196367054562523
 40
0.6516809907220169
 40
0.6821463101652179
 40
0.6996812563025028
 40
0.7170704500323168
 40
0.7377175669035444
 40
0.7624076376309147
 40
0.7911652681560529
 40
0.8182828595134523
 40
0.8483301061813632
 40
0.8813871676376959
 40
0.9082212868916287
 40
0.9368715597378249
 40
0.9674249910179613
 40
1.0
 40
1.0
 40
1.0
 40
1.0
 10
537.6822511097171
 20
325.3201263572453
 30
0.0
 10
536.1052510804599
 20
322.939352165002
 30
0.0
 10
533.0830415678719
 20
318.3767660663127
 30
0.0
 10
529.528982767566
 20
311.3497849107905
 30
0.0
 10
526.7890989904014
 20
304.7067624801801
 30
0.0
 10
524.7717671728351
 20
298.4880192879487
 30
0.0
 10
523.3360281325685
 20
292.758370721953
 30
0.0
 10
522.3152781145963
 20
287.2729020669786
 30
0.0
 10
521.6731008439549
 20
282.134761540339
 30
0.0
 10
521.3449051980376
 20
277.278776816099
 30
0.0
 10
521.26850133546
 20
272.7950603768294
 30
0.0
 10
521.4091580823572
 20
268.3946944127426
 30
0.0
 10
521.854168830916
 20
262.9521864266098
 30
0.0
 10
522.827813795787
 20
256.4595945312777
 30
0.0
 10
524.6118972222175
 20
248.9939841525729
 30
0.0
 10
527.0571643324009
 20
241.6231750013228
 30
0.0
 10
530.1324966971944
 20
234.4516684502188
 30
0.0
 10
533.8103013243996
 20
227.5596619541147
 30
0.0
 10
538.0695112566744
 20
221.0065175005405
 30
0.0
 10
542.8973665676083
 20
214.856826593067
 30
0.0
 10
548.2537805081851
 20
209.1601008982084
 30
0.0
 10
554.0532149632096
 20
203.9694788062936
 30
0.0
 10
560.1486600566026
 20
199.3787113163954
 30
0.0
 10
566.3698904322374
 20
195.448426538051
 30
0.0
 10
571.7985519149482
 20
192.5957698600406
 30
0.0
 10
576.3657812500444
 20
190.5467954765685
 30
0.0
 10
580.3219279265157
 20
188.9821468738253
 30
0.0
 10
584.86943030954
 20
187.4373239183927
 30
0.0
 10
590.3396455349259
 20
185.9292877352132
 30
0.0
 10
596.3877390483614
 20
184.7014466632287
 30
0.0
 10
602.9139095650752
 20
183.8558395150492
 30
0.0
 10
609.8142548766152
 20
183.4659433962141
 30
0.0
 10
616.7036017338573
 20
183.6275610333729
 30
0.0
 10
623.4518753545449
 20
184.2992157969344
 30
0.0
 10
629.9442708603357
 20
185.4228555702563
 30
0.0
 10
636.7753554562737
 20
187.1042056803883
 30
0.0
 10
641.3258175816487
 20
188.7355550327229
 30
0.0
 10
643.6739089330413
 20
189.5773502613781
 30
0.0
  0
LINE
  5
231
330
1F
100
AcDbEntity
  8
0
  6
Continuous
 62
     7
370
    15
100
AcDbLine
 10
673.8400543472
 20
365.6719195272
 30
0.0
 11
672.5935200592
 21
361.0198068048
 31
0.0
  0
LINE
  5
232
330
1F
100
AcDbEntity
  8
0
  6
Continuous
 62
     7
370
    15
100
AcDbLine
 10
691.6123340269
 20
339.2701017286
 30
0.0
 11
697.0222751042
 21
359.4602661754
 31
0.0
  0
SPLINE
  5
233
330
1F
100
AcDbEntity
  8
0
  6
Continuous
 62
     7
370
    15
100
AcDbSpline
210
0.0
220
0.0
230
1.0
 70
     8
 71
     3
 72
    14
 73
    10
 74
     0
 42
0.00000001
 43
0.00000001
 12
1.0
 22
0.0
 32
0.0
 13
1.0
 23
0.0
 33
0.0
 40
0.0
 40
0.0
 40
0.0
 40
0.0
 40
0.1575963199863507
 40
0.28447606497454
 40
0.3805203378015434
 40
0.450868187925223
 40
0.578433878425535
 40
0.761231591625829
 40
1.0
 40
1.0
 40
1.0
 40
1.0
 10
550.6998198469855
 20
337.2974413062809
 30
0.0
 10
549.9478299363426
 20
336.7474229538331
 30
0.0
 10
548.5904179694971
 20
335.75458849817
 30
0.0
 10
546.8367467257253
 20
334.3451338284576
 30
0.0
 10
545.513125316577
 20
333.2255570010931
 30
0.0
 10
544.2101439894429
 20
332.0758427300533
 30
0.0
 10
542.5604738097003
 20
330.5449420577083
 30
0.0
 10
540.2578033705042
 20
328.2545334408163
 30
0.0
 10
538.6135326726063
 20
326.3811699299941
 30
0.0
 10
537.6822436591365
 20
325.3201263572453
 30
0.0
  0
LINE
  5
234
330
1F
100
AcDbEntity
  8
0
  6
Continuous
 62
     7
370
    15
100
AcDbLine
 10
550.7040629526
 20
337.3001533176
 30
0.0
 11
550.699819847
 21
337.2974413063
 31
0.0
  0
SPLINE
  5
235
330
1F
100
AcDbEntity
  8
0
  6
Continuous
 62
     7
370
    15
100
AcDbSpline
210
0.0
220
0.0
230
1.0
 70
     8
 71
     3
 72
    15
 73
    11
 74
     0
 42
0.00000001
 43
0.00000001
 12
1.0
 22
0.0
 32
0.0
 13
1.0
 23
0.0
 33
0.0
 40
0.0
 40
0.0
 40
0.0
 40
0.0
 40
0.0786192539531617
 40
0.1771721472550992
 40
0.259676880019992
 40
0.3632717998114317
 40
0.4920453813487177
 40
0.646156967286216
 40
0.8259275906365311
 40
1.0
 40
1.0
 40
1.0
 40
1.0
 10
587.5511831035592
 20
350.5016582633732
 30
0.0
 10
586.7317141940898
 20
350.4464920758936
 30
0.0
 10
584.8850028734
 20
350.3221725053024
 30
0.0
 10
582.1942682104317
 20
349.9675338820672
 30
0.0
 10
579.2602605011547
 20
349.4851112381502
 30
0.0
 10
576.039391768145
 20
348.8141693616707
 30
0.0
 10
572.1307081187329
 20
347.7958689779653
 30
0.0
 10
567.5395372400832
 20
346.2812196326572
 30
0.0
 10
562.609123853725
 20
344.2963378324644
 30
0.0
 10
559.348716150079
 20
342.5510735521253
 30
0.0
 10
557.7447647591807
 20
341.6924940969228
 30
0.0
  0
LINE
  5
236
330
1F
100
AcDbEntity
  8
0
  6
Continuous
 62
     7
370
    15
100
AcDbLine
 10
531.4311618348
 20
200.7432187523
 30
0.0
 11
531.4311618348
 21
201.566094401
 31
0.0
  0
LINE
  5
237
330
1F
100
AcDbEntity
  8
0
  6
Continuous
 62
     7
370
    15
100
AcDbLine
 10
526.4311666032
 20
192.082965615
 30
0.0
 11
526.4311666032
 21
196.8160959508
 31
0.0
  0
LINE
  5
238
330
1F
100
AcDbEntity
  8
0
  6
Continuous
 62
     7
370
    15
100
AcDbLine
 10
501.4311606427
 20
151.5660959843
 30
0.0
 11
506.4804265639
 21
151.5660959843
 31
0.0
  0
LINE
  5
239
330
1F
100
AcDbEntity
  8
0
  6
Continuous
 62
     7
370
    15
100
AcDbLine
 10
501.4311606427
 20
151.5660959843
 30
0.0
 11
496.3811645647
 21
151.5660959843
 31
0.0
  0
SPLINE
  5
23A
330
1F
100
AcDbEntity
  8
0
  6
Continuous
 62
     7
370
    15
100
AcDbSpline
210
0.0
220
0.0
230
1.0
 70
    24
 71
     3
 72
    11
 73
     7
 74
     0
 42
0.00000001
 43
0.00000001
 12
1.0
 22
0.0
 32
0.0
 13
1.0
 23
0.0
 33
0.0
 40
0.0
 40
0.0
 40
0.0
 40
0.0
 40
0.2501187911536369
 40
0.5002373732626739
 40
0.7503562180885491
 40
1.0
 40
1.0
 40
1.0
 40
1.0
 10
521.4311639209964
 20
191.566096487212
 30
0.0
 10
521.4311639209964
 20
192.2278364809895
 30
0.0
 10
521.4311639209964
 20
193.5513159154744
 30
0.0
 10
521.4311639209965
 20
195.2205171253312
 30
0.0
 10
521.4311639209964
 20
196.3877871809375
 30
0.0
 10
521.4311639209964
 20
196.539554571594
 30
0.0
 10
521.4311639209964
 20
196.6153661336182
 30
0.0
  0
SPLINE
  5
23B
330
1F
100
AcDbEntity
  8
0
  6
Continuous
 62
     7
370
    15
100
AcDbSpline
210
0.0
220
0.0
230
1.0
 70
    24
 71
     3
 72
    10
 73
     6
 74
     0
 42
0.00000001
 43
0.00000001
 12
1.0
 22
0.0
 32
0.0
 13
1.0
 23
0.0
 33
0.0
 40
0.0
 40
0.0
 40
0.0
 40
0.0
 40
0.1638759141172999
 40
0.5819377823543652
 40
1.0
 40
1.0
 40
1.0
 40
1.0
 10
521.4311639209964
 20
187.5660958315609
 30
0.0
 10
521.4311639209964
 20
187.6996316884762
 30
0.0
 10
521.4311639209965
 20
188.1738292595875
 30
0.0
 10
521.4311639209964
 20
189.6063719339147
 30
0.0
 10
521.4311639209964
 20
190.9128547874572
 30
0.0
 10
521.4311639209964
 20
191.566096487212
 30
0.0
  0
SPLINE
  5
23C
330
1F
100
AcDbEntity
  8
0
  6
Continuous
 62
     7
370
    15
100
AcDbSpline
210
0.0
220
0.0
230
1.0
 70
     8
 71
     3
 72
    11
 73
     7
 74
     0
 42
0.00000001
 43
0.00000001
 12
1.0
 22
0.0
 32
0.0
 13
1.0
 23
0.0
 33
0.0
 40
0.0
 40
0.0
 40
0.0
 40
0.0
 40
0.3416358921565433
 40
0.5881567610533468
 40
0.8412805686020581
 40
1.0
 40
1.0
 40
1.0
 40
1.0
 10
616.7923794490971
 20
192.3160942818402
 30
0.0
 10
615.9643948752811
 20
191.8380584655789
 30
0.0
 10
614.5389453358205
 20
191.0150770288658
 30
0.0
 10
612.4320960282781
 20
189.7986852734346
 30
0.0
 10
610.8029283275152
 20
188.8580823821254
 30
0.0
 10
609.8127617393413
 20
188.286411808799
 30
0.0
 10
609.4311634441593
 20
188.0660968448399
 30
0.0
  0
SPLINE
  5
23D
330
1F
100
AcDbEntity
  8
0
  6
Continuous
 62
     7
370
    15
100
AcDbSpline
210
0.0
220
0.0
230
1.0
 70
     8
 71
     3
 72
    10
 73
     6
 74
     0
 42
0.00000001
 43
0.00000001
 12
1.0
 22
0.0
 32
0.0
 13
1.0
 23
0.0
 33
0.0
 40
0.0
 40
0.0
 40
0.0
 40
0.0
 40
0.2631495838785827
 40
0.5319119721608404
 40
1.0
 40
1.0
 40
1.0
 40
1.0
 10
609.4311634441593
 20
188.0660968448399
 30
0.0
 10
608.7968370979514
 20
188.4323239866596
 30
0.0
 10
607.5146546493531
 20
189.1725896499866
 30
0.0
 10
605.0099917365125
 20
190.6186639213058
 30
0.0
 10
603.2120800882182
 20
191.6566856341708
 30
0.0
 10
602.0699474392213
 20
192.3160942818402
 30
0.0
  0
SPLINE
  5
23E
330
1F
100
AcDbEntity
  8
0
  6
Continuous
 62
     7
370
    15
100
AcDbSpline
210
0.0
220
0.0
230
1.0
 70
    24
 71
     3
 72
     9
 73
     5
 74
     0
 42
0.00000001
 43
0.00000001
 12
1.0
 22
0.0
 32
0.0
 13
1.0
 23
0.0
 33
0.0
 40
0.0
 40
0.0
 40
0.0
 40
0.0
 40
0.362429950271471
 40
1.0
 40
1.0
 40
1.0
 40
1.0
 10
602.0699474392213
 20
192.3160942818402
 30
0.0
 10
602.0699474392213
 20
192.6728531395601
 30
0.0
 10
602.0699474392213
 20
193.6572057225975
 30
0.0
 10
602.0699474392213
 20
194.6702255405291
 30
0.0
 10
602.0699474392213
 20
195.3160966362236
 30
0.0
  0
LINE
  5
23F
330
1F
100
AcDbEntity
  8
0
  6
Continuous
 62
     7
370
    15
100
AcDbLine
 10
602.1780884256
 20
195.3160966362
 30
0.0
 11
602.0699474392
 21
195.3160966362
 31
0.0
  0
ARC
  5
240
330
1F
100
AcDbEntity
  8
0
  6
Continuous
 62
     7
370
    15
100
AcDbCircle
 10
609.4311634442
 20
196.5660960104
 30
0.0
 40
7.360000000000035
100
AcDbArc
 50
189.778339503
 51
350.221660497
  0
LINE
  5
241
330
1F
100
AcDbEntity
  8
0
  6
Continuous
 62
     7
370
    15
100
AcDbLine
 10
616.7923794491
 20
195.3160966362
 30
0.0
 11
616.6842384627
 21
195.3160966362
 31
0.0
  0
SPLINE
  5
242
330
1F
100
AcDbEntity
  8
0
  6
Continuous
 62
     7
370
    15
100
AcDbSpline
210
0.0
220
0.0
230
1.0
 70
    24
 71
     3
 72
     9
 73
     5
 74
     0
 42
0.00000001
 43
0.00000001
 12
1.0
 22
0.0
 32
0.0
 13
1.0
 23
0.0
 33
0.0
 40
0.0
 40
0.0
 40
0.0
 40
0.0
 40
0.6375700497285292
 40
1.0
 40
1.0
 40
1.0
 40
1.0
 10
616.7923794490971
 20
195.3160966362236
 30
0.0
 10
616.7923794490971
 20
194.6702255405291
 30
0.0
 10
616.7923794490971
 20
193.6572057225975
 30
0.0
 10
616.7923794490971
 20
192.6728531395601
 30
0.0
 10
616.7923794490971
 20
192.3160942818402
 30
0.0
  0
SPLINE
  5
243
330
1F
100
AcDbEntity
  8
0
  6
Continuous
 62
     7
370
    15
100
AcDbSpline
210
0.0
220
0.0
230
1.0
 70
     8
 71
     3
 72
    11
 73
     7
 74
     0
 42
0.00000001
 43
0.00000001
 12
1.0
 22
0.0
 32
0.0
 13
1.0
 23
0.0
 33
0.0
 40
0.0
 40
0.0
 40
0.0
 40
0.0
 40
0.1587364757839472
 40
0.4054959693407064
 40
0.658375942890687
 40
1.0
 40
1.0
 40
1.0
 40
1.0
 10
602.0699474392213
 20
200.8160966064213
 30
0.0
 10
602.4515923502552
 20
201.0364386815733
 30
0.0
 10
603.4265130317134
 20
201.5993075679401
 30
0.0
 10
605.0548122096216
 20
202.5394120681781
 30
0.0
 10
607.1624015083199
 20
203.7562231420176
 30
0.0
 10
608.6032172824497
 20
204.5880812556699
 30
0.0
 10
609.4311634441593
 20
205.0660977687119
 30
0.0
  0
SPLINE
  5
244
330
1F
100
AcDbEntity
  8
0
  6
Continuous
 62
     7
370
    15
100
AcDbSpline
210
0.0
220
0.0
230
1.0
 70
     8
 71
     3
 72
    10
 73
     6
 74
     0
 42
0.00000001
 43
0.00000001
 12
1.0
 22
0.0
 32
0.0
 13
1.0
 23
0.0
 33
0.0
 40
0.0
 40
0.0
 40
0.0
 40
0.0
 40
0.4677816554604472
 40
0.7304932296263665
 40
1.0
 40
1.0
 40
1.0
 40
1.0
 10
609.4311634441593
 20
205.0660977687119
 30
0.0
 10
610.5725115884499
 20
204.4071404240294
 30
0.0
 10
612.3548540174835
 20
203.378105032658
 30
0.0
 10
614.8592191594897
 20
201.9322043486845
 30
0.0
 10
616.1425310452298
 20
201.1912857921049
 30
0.0
 10
616.7923794490971
 20
200.8160966064213
 30
0.0
  0
LINE
  5
245
330
1F
100
AcDbEntity
  8
0
  6
Continuous
 62
     7
370
    15
100
AcDbLine
 10
616.7923794491
 20
200.8160966064
 30
0.0
 11
616.7923794491
 21
197.816094252
 31
0.0
  0
LINE
  5
246
330
1F
100
AcDbEntity
  8
0
  6
Continuous
 62
     7
370
    15
100
AcDbLine
 10
616.6842384627
 20
197.816094252
 30
0.0
 11
616.7923794491
 21
197.816094252
 31
0.0
  0
ARC
  5
247
330
1F
100
AcDbEntity
  8
0
  6
Continuous
 62
     7
370
    15
100
AcDbCircle
 10
609.4311634442
 20
196.5660960104
 30
0.0
 40
7.360000000000039
100
AcDbArc
 50
9.778339503
 51
170.221660497
  0
LINE
  5
248
330
1F
100
AcDbEntity
  8
0
  6
Continuous
 62
     7
370
    15
100
AcDbLine
 10
602.0699474392
 20
197.816094252
 30
0.0
 11
602.1780884256
 21
197.816094252
 31
0.0
  0
LINE
  5
249
330
1F
100
AcDbEntity
  8
0
  6
Continuous
 62
     7
370
    15
100
AcDbLine
 10
602.0699474392
 20
197.816094252
 30
0.0
 11
602.0699474392
 21
200.8160966064
 31
0.0
  0
LINE
  5
24A
330
1F
100
AcDbEntity
  8
0
  6
Continuous
 62
     7
370
    15
100
AcDbLine
 10
602.1780884256
 20
195.3160966362
 30
0.0
 11
616.6842384627
 21
195.3160966362
 31
0.0
  0
LINE
  5
24B
330
1F
100
AcDbEntity
  8
0
  6
Continuous
 62
     7
370
    15
100
AcDbLine
 10
616.6842384627
 20
197.816094252
 30
0.0
 11
602.1780884256
 21
197.816094252
 31
0.0
  0
LINE
  5
24C
330
1F
100
AcDbEntity
  8
0
  6
Continuous
 62
     7
370
    15
100
AcDbLine
 10
616.7923794491
 20
195.3160966362
 30
0.0
 11
616.7923794491
 21
197.816094252
 31
0.0
  0
LINE
  5
24D
330
1F
100
AcDbEntity
  8
0
  6
Continuous
 62
     7
370
    15
100
AcDbLine
 10
602.0699474392
 20
197.816094252
 30
0.0
 11
602.0699474392
 21
195.3160966362
 31
0.0
  0
ARC
  5
24E
330
1F
100
AcDbEntity
  8
0
  6
Continuous
 62
     7
370
    15
100
AcDbCircle
 10
609.4311634442
 20
388.5660960104
 30
0.0
 40
8.110812499999971
100
AcDbArc
 50
222.2895985257
 51
227.7104014743
  0
LINE
  5
24F
330
1F
100
AcDbEntity
  8
0
  6
Continuous
 62
     7
370
    15
100
AcDbLine
 10
614.8887523813
 20
394.566090646
 30
0.0
 11
603.973574507
 21
394.566090646
 31
0.0
  0
LINE
  5
250
330
1F
100
AcDbEntity
  8
0
  6
Continuous
 62
     7
370
    15
100
AcDbLine
 10
603.431163392
 20
394.0236883785
 30
0.0
 11
603.431163392
 21
383.1085132982
 31
0.0
  0
LINE
  5
251
330
1F
100
AcDbEntity
  8
0
  6
Continuous
 62
     7
370
    15
100
AcDbLine
 10
603.973574507
 20
382.5660961296
 30
0.0
 11
614.8887523813
 21
382.5660961296
 31
0.0
  0
LINE
  5
252
330
1F
100
AcDbEntity
  8
0
  6
Continuous
 62
     7
370
    15
100
AcDbLine
 10
615.4311634963
 20
383.1085132982
 30
0.0
 11
615.4311634963
 21
394.0236883785
 31
0.0
  0
ARC
  5
253
330
1F
100
AcDbEntity
  8
0
  6
Continuous
 62
     7
370
    15
100
AcDbCircle
 10
609.4311634442
 20
388.5660960104
 30
0.0
 40
8.11081250000001
100
AcDbArc
 50
132.2895985257
 51
137.7104014743
  0
ARC
  5
254
330
1F
100
AcDbEntity
  8
0
  6
Continuous
 62
     7
370
    15
100
AcDbCircle
 10
609.4311634442
 20
388.5660960104
 30
0.0
 40
8.110812500000048
100
AcDbArc
 50
42.2895985257
 51
47.7104014743
  0
ARC
  5
255
330
1F
100
AcDbEntity
  8
0
  6
Continuous
 62
     7
370
    15
100
AcDbCircle
 10
609.4311634442
 20
388.5660960104
 30
0.0
 40
8.110812500000048
100
AcDbArc
 50
312.2895985257
 51
317.7104014743
  0
ARC
  5
256
330
1F
100
AcDbEntity
  8
0
  6
Continuous
 62
     7
370
    15
100
AcDbCircle
 10
609.4311634442
 20
388.5660960104
 30
0.0
 40
8.11081250000001
100
AcDbArc
 50
317.7104014743
 51
42.2895985257
  0
ARC
  5
257
330
1F
100
AcDbEntity
  8
0
  6
Continuous
 62
     7
370
    15
100
AcDbCircle
 10
609.4311634442
 20
388.5660960104
 30
0.0
 40
8.110812500000048
100
AcDbArc
 50
47.7104014743
 51
132.2895985257
  0
ARC
  5
258
330
1F
100
AcDbEntity
  8
0
  6
Continuous
 62
     7
370
    15
100
AcDbCircle
 10
609.4311634442
 20
388.5660960104
 30
0.0
 40
8.11081250000001
100
AcDbArc
 50
137.7104014743
 51
222.2895985257
  0
ARC
  5
259
330
1F
100
AcDbEntity
  8
0
  6
Continuous
 62
     7
370
    15
100
AcDbCircle
 10
609.4311634442
 20
388.5660960104
 30
0.0
 40
8.110812500000048
100
AcDbArc
 50
227.7104014743
 51
312.2895985257
  0
LINE
  5
25A
330
1F
100
AcDbEntity
  8
0
  6
Continuous
 62
     7
370
    15
100
AcDbLine
 10
609.4311634442
 20
412.5660824205
 30
0.0
 11
609.4311634442
 21
428.5660850431
 31
0.0
  0
LINE
  5
25B
330
1F
100
AcDbEntity
  8
0
  6
Continuous
 62
     7
370
    15
100
AcDbLine
 10
651.4890427133
 20
412.5660824205
 30
0.0
 11
609.4311634442
 21
412.5660824205
 31
0.0
  0
LINE
  5
25C
330
1F
100
AcDbEntity
  8
0
  6
Continuous
 62
     7
370
    15
100
AcDbLine
 10
651.4890427133
 20
428.5660850431
 30
0.0
 11
609.4311634442
 21
428.5660850431
 31
0.0
  0
LINE
  5
25D
330
1F
100
AcDbEntity
  8
0
  6
Continuous
 62
     7
370
    15
100
AcDbLine
 10
609.4311634442
 20
412.5660824205
 30
0.0
 11
567.373284175
 21
412.5660824205
 31
0.0
  0
LINE
  5
25E
330
1F
100
AcDbEntity
  8
0
  6
Continuous
 62
     7
370
    15
100
AcDbLine
 10
609.4311634442
 20
428.5660850431
 30
0.0
 11
567.373284175
 21
428.5660850431
 31
0.0
  0
LINE
  5
25F
330
1F
100
AcDbEntity
  8
0
  6
Continuous
 62
     7
370
    15
100
AcDbLine
 10
663.3440899094
 20
412.5660824205
 30
0.0
 11
651.4890427133
 21
412.5660824205
 31
0.0
  0
LINE
  5
260
330
1F
100
AcDbEntity
  8
0
  6
Continuous
 62
     7
370
    15
100
AcDbLine
 10
663.3440899094
 20
428.5660850431
 30
0.0
 11
651.4890427133
 21
428.5660850431
 31
0.0
  0
LINE
  5
261
330
1F
100
AcDbEntity
  8
0
  6
Continuous
 62
     7
370
    15
100
AcDbLine
 10
567.373284175
 20
412.5660824205
 30
0.0
 11
555.5182369789
 21
412.5660824205
 31
0.0
  0
LINE
  5
262
330
1F
100
AcDbEntity
  8
0
  6
Continuous
 62
     7
370
    15
100
AcDbLine
 10
567.373284175
 20
428.5660850431
 30
0.0
 11
555.5182369789
 21
428.5660850431
 31
0.0
  0
LINE
  5
263
330
1F
100
AcDbEntity
  8
0
  6
Continuous
 62
     7
370
    15
100
AcDbLine
 10
669.4311621031
 20
412.5660824205
 30
0.0
 11
669.4311621031
 21
428.5660850431
 31
0.0
  0
LINE
  5
264
330
1F
100
AcDbEntity
  8
0
  6
Continuous
 62
     7
370
    15
100
AcDbLine
 10
669.4311621031
 20
412.5660824205
 30
0.0
 11
663.3440899094
 21
412.5660824205
 31
0.0
  0
LINE
  5
265
330
1F
100
AcDbEntity
  8
0
  6
Continuous
 62
     7
370
    15
100
AcDbLine
 10
669.4311621031
 20
428.5660850431
 30
0.0
 11
663.3440899094
 21
428.5660850431
 31
0.0
  0
LINE
  5
266
330
1F
100
AcDbEntity
  8
0
  6
Continuous
 62
     7
370
    15
100
AcDbLine
 10
549.4311647853
 20
412.5660824205
 30
0.0
 11
549.4311647853
 21
428.5660850431
 31
0.0
  0
LINE
  5
267
330
1F
100
AcDbEntity
  8
0
  6
Continuous
 62
     7
370
    15
100
AcDbLine
 10
555.5182369789
 20
412.5660824205
 30
0.0
 11
549.4311647853
 21
412.5660824205
 31
0.0
  0
LINE
  5
268
330
1F
100
AcDbEntity
  8
0
  6
Continuous
 62
     7
370
    15
100
AcDbLine
 10
555.5182369789
 20
428.5660850431
 30
0.0
 11
549.4311647853
 21
428.5660850431
 31
0.0
  0
LINE
  5
269
330
1F
100
AcDbEntity
  8
0
  6
Continuous
 62
     7
370
    15
100
AcDbLine
 10
641.9311622521
 20
435.5660843279
 30
0.0
 11
576.9311646363
 21
435.5660843279
 31
0.0
  0
CIRCLE
  5
26A
330
1F
100
AcDbEntity
  8
0
  6
Continuous
 62
     7
370
    15
100
AcDbCircle
 10
609.4311634442
 20
278.5660960104
 30
0.0
 40
22.42249999999996
  0
CIRCLE
  5
26B
330
1F
100
AcDbEntity
  8
0
  6
Continuous
 62
     7
370
    15
100
AcDbCircle
 10
609.4311634442
 20
278.5660960104
 30
0.0
 40
32.49999999999997
  0
ARC
  5
26C
330
1F
100
AcDbEntity
  8
0
  6
Continuous
 62
     7
370
    15
100
AcDbCircle
 10
519.4313557252
 20
278.3259205224
 30
0.0
 40
150.0
100
AcDbArc
 50
0.0917403179
 51
16.3788327405
  0
ARC
  5
26D
330
1F
100
AcDbEntity
  8
0
  6
Continuous
 62
     7
370
    15
100
AcDbCircle
 10
519.4313557252
 20
278.8062714983
 30
0.0
 40
150.0
100
AcDbArc
 50
343.6211672595
 51
359.9082596821
  0
ARC
  5
26E
330
1F
100
AcDbEntity
  8
0
  6
Continuous
 62
     7
370
    15
100
AcDbCircle
 10
646.5542694565
 20
241.4429899981
 30
0.0
 40
17.50000000000008
100
AcDbArc
 50
286.3788327405
 51
343.6211672595
  0
ARC
  5
26F
330
1F
100
AcDbEntity
  8
0
  6
Continuous
 62
     7
370
    15
100
AcDbCircle
 10
609.1909879562
 20
368.5659037294
 30
0.0
 40
150.0
100
AcDbArc
 50
270.0917403179
 51
286.3788327405
  0
ARC
  5
270
330
1F
100
AcDbEntity
  8
0
  6
Continuous
 62
     7
370
    15
100
AcDbCircle
 10
609.6713389321
 20
368.5659037294
 30
0.0
 40
150.0
100
AcDbArc
 50
253.6211672595
 51
269.9082596821
  0
ARC
  5
271
330
1F
100
AcDbEntity
  8
0
  6
Continuous
 62
     7
370
    15
100
AcDbCircle
 10
572.3080574319
 20
241.4429899981
 30
0.0
 40
17.50000000000016
100
AcDbArc
 50
196.3788327405
 51
253.6211672595
  0
ARC
  5
272
330
1F
100
AcDbEntity
  8
0
  6
Continuous
 62
     7
370
    15
100
AcDbCircle
 10
699.4309711632
 20
278.8062714983
 30
0.0
 40
150.0
100
AcDbArc
 50
180.0917403179
 51
196.3788327405
  0
ARC
  5
273
330
1F
100
AcDbEntity
  8
0
  6
Continuous
 62
     7
370
    15
100
AcDbCircle
 10
699.4309711632
 20
278.3259205224
 30
0.0
 40
150.0
100
AcDbArc
 50
163.6211672595
 51
179.9082596821
  0
ARC
  5
274
330
1F
100
AcDbEntity
  8
0
  6
Continuous
 62
     7
370
    15
100
AcDbCircle
 10
572.3080574319
 20
315.6892020227
 30
0.0
 40
17.50000000000014
100
AcDbArc
 50
106.3788327405
 51
163.6211672595
  0
ARC
  5
275
330
1F
100
AcDbEntity
  8
0
  6
Continuous
 62
     7
370
    15
100
AcDbCircle
 10
609.6713389321
 20
188.5662882914
 30
0.0
 40
150.0
100
AcDbArc
 50
90.0917403179
 51
106.3788327405
  0
ARC
  5
276
330
1F
100
AcDbEntity
  8
0
  6
Continuous
 62
     7
370
    15
100
AcDbCircle
 10
609.1909879562
 20
188.5662882914
 30
0.0
 40
150.0
100
AcDbArc
 50
73.6211672595
 51
89.9082596821
  0
ARC
  5
277
330
1F
100
AcDbEntity
  8
0
  6
Continuous
 62
     7
370
    15
100
AcDbCircle
 10
646.5542694565
 20
315.6892020227
 30
0.0
 40
17.50000000000013
100
AcDbArc
 50
16.3788327405
 51
73.6211672595
  0
CIRCLE
  5
278
330
1F
100
AcDbEntity
  8
0
  6
Continuous
 62
     7
370
    15
100
AcDbCircle
 10
572.3080574319
 20
315.6892020227
 30
0.0
 40
7.5
  0
CIRCLE
  5
279
330
1F
100
AcDbEntity
  8
0
  6
Continuous
 62
     7
370
    15
100
AcDbCircle
 10
646.5542694565
 20
315.6892020227
 30
0.0
 40
7.5
  0
CIRCLE
  5
27A
330
1F
100
AcDbEntity
  8
0
  6
Continuous
 62
     7
370
    15
100
AcDbCircle
 10
646.5542694565
 20
241.4429899981
 30
0.0
 40
7.5
  0
CIRCLE
  5
27B
330
1F
100
AcDbEntity
  8
0
  6
Continuous
 62
     7
370
    15
100
AcDbCircle
 10
572.3080574319
 20
241.4429899981
 30
0.0
 40
7.500000000000114
  0
LINE
  5
27C
330
1F
100
AcDbEntity
  8
0
  6
Continuous
 62
     7
370
    15
100
AcDbLine
 10
609.4311634442
 20
410.5661081697
 30
0.0
 11
654.4311652323
 21
410.5661081697
 31
0.0
  0
LINE
  5
27D
330
1F
100
AcDbEntity
  8
0
  6
Continuous
 62
     7
370
    15
100
AcDbLine
 10
564.431161656
 20
410.5661081697
 30
0.0
 11
609.4311634442
 21
410.5661081697
 31
0.0
  0
LINE
  5
27E
330
1F
100
AcDbEntity
  8
0
  6
Continuous
 62
     7
370
    15
100
AcDbLine
 10
609.4311634442
 20
408.5661041166
 30
0.0
 11
654.4311652323
 21
408.5661041166
 31
0.0
  0
LINE
  5
27F
330
1F
100
AcDbEntity
  8
0
  6
Continuous
 62
     7
370
    15
100
AcDbLine
 10
564.431161656
 20
408.5661041166
 30
0.0
 11
609.4311634442
 21
408.5661041166
 31
0.0
  0
LINE
  5
280
330
1F
100
AcDbEntity
  8
0
  6
Continuous
 62
     7
370
    15
100
AcDbLine
 10
557.8291351339
 20
341.6197168257
 30
0.0
 11
556.2847005566
 21
342.3191624309
 31
0.0
  0
ARC
  5
281
330
1F
100
AcDbEntity
  8
0
  6
Continuous
 62
     7
370
    15
100
AcDbCircle
 10
668.8311634442
 20
413.9660960104
 30
0.0
 40
20.60000000000008
100
AcDbArc
 50
0.0
 51
90.0
  0
LINE
  5
282
330
1F
100
AcDbEntity
  8
0
  6
Continuous
 62
     7
370
    15
100
AcDbLine
 10
689.431161656
 20
413.9661061193
 30
0.0
 11
689.431161656
 21
361.4943044807
 31
0.0
  0
LINE
  5
283
330
1F
100
AcDbEntity
  8
0
  6
Continuous
 62
     7
370
    15
100
AcDbLine
 10
689.431161656
 20
220.6240611698
 30
0.0
 11
689.431161656
 21
219.3390446331
 31
0.0
  0
SPLINE
  5
284
330
1F
100
AcDbEntity
  8
0
  6
Continuous
 62
     7
370
    15
100
AcDbSpline
210
0.0
220
0.0
230
1.0
 70
     8
 71
     3
 72
     9
 73
     5
 74
     0
 42
0.00000001
 43
0.00000001
 12
1.0
 22
0.0
 32
0.0
 13
1.0
 23
0.0
 33
0.0
 40
0.0
 40
0.0
 40
0.0
 40
0.0
 40
0.6592881733988892
 40
0.9999999999999999
 40
0.9999999999999999
 40
0.9999999999999999
 40
0.9999999999999999
 10
688.7910003205516
 20
219.5660936261891
 30
0.0
 10
689.0259240842096
 20
219.5517263006255
 30
0.0
 10
689.3822534908887
 20
219.5299341221166
 30
0.0
 10
689.4187327432985
 20
219.3875549133629
 30
0.0
 10
689.4311616560199
 20
219.3390446330784
 30
0.0
  0
LINE
  5
285
330
1F
100
AcDbEntity
  8
0
  6
Continuous
 62
     7
370
    15
100
AcDbLine
 10
536.431164517
 20
223.7371149089
 30
0.0
 11
536.431164517
 21
219.5660936262
 31
0.0
  0
LINE
  5
286
330
1F
100
AcDbEntity
  8
0
  6
Continuous
 62
     7
370
    15
100
AcDbLine
 10
535.03116317
 20
219.5660936262
 30
0.0
 11
536.431164517
 21
219.5660936262
 31
0.0
  0
LINE
  5
287
330
1F
100
AcDbEntity
  8
0
  6
Continuous
 62
     7
370
    15
100
AcDbLine
 10
550.031163766
 20
434.5660972025
 30
0.0
 11
576.9311646363
 21
434.5660972025
 31
0.0
  0
LINE
  5
288
330
1F
100
AcDbEntity
  8
0
  6
Continuous
 62
     7
370
    15
100
AcDbLine
 10
641.9311622521
 20
434.5660972025
 30
0.0
 11
668.8311631223
 21
434.5660972025
 31
0.0
  0
ARC
  5
289
330
1F
100
AcDbEntity
  8
0
  6
Continuous
 62
     7
370
    15
100
AcDbCircle
 10
550.0311634442
 20
413.9660960104
 30
0.0
 40
20.60000000000008
100
AcDbArc
 50
90.0
 51
180.0
  0
SPLINE
  5
28A
330
1F
100
AcDbEntity
  8
0
  6
Continuous
 62
     7
370
    15
100
AcDbSpline
210
0.0
220
0.0
230
1.0
 70
     8
 71
     3
 72
     9
 73
     5
 74
     0
 42
0.00000001
 43
0.00000001
 12
1.0
 22
0.0
 32
0.0
 13
1.0
 23
0.0
 33
0.0
 40
0.0
 40
0.0
 40
0.0
 40
0.0
 40
0.6592924892428933
 40
1.0
 40
1.0
 40
1.0
 40
1.0
 10
529.4311652322986
 20
219.3390446330784
 30
0.0
 10
529.4791734816223
 20
219.4239028681573
 30
0.0
 10
529.5519913130203
 20
219.552613928064
 30
0.0
 10
529.9393504130327
 20
219.5626680957456
 30
0.0
 10
530.0713265677668
 20
219.5660936261891
 30
0.0
  0
LINE
  5
28B
330
1F
100
AcDbEntity
  8
0
  6
Continuous
 62
     7
370
    15
100
AcDbLine
 10
529.4311652323
 20
219.3390446331
 30
0.0
 11
529.4311652323
 21
236.3675030495
 31
0.0
  0
LINE
  5
28C
330
1F
100
AcDbEntity
  8
0
  6
Continuous
 62
     7
370
    15
100
AcDbLine
 10
529.4311652323
 20
310.8808564569
 30
0.0
 11
529.4311652323
 21
413.9661061193
 31
0.0
  0
LINE
  5
28D
330
1F
100
AcDbEntity
  8
0
  6
Continuous
 62
     7
370
    15
100
AcDbLine
 10
535.03116317
 20
219.5660936262
 30
0.0
 11
530.0713265678
 21
219.5660936262
 31
0.0
  0
SPLINE
  5
28E
330
1F
100
AcDbEntity
  8
0
  6
Continuous
 62
     7
370
    15
100
AcDbSpline
210
0.0
220
0.0
230
1.0
 70
     8
 71
     3
 72
     9
 73
     5
 74
     0
 42
0.00000001
 43
0.00000001
 12
1.0
 22
0.0
 32
0.0
 13
1.0
 23
0.0
 33
0.0
 40
0.0
 40
0.0
 40
0.0
 40
0.0
 40
0.5897657423314155
 40
1.0
 40
1.0
 40
1.0
 40
1.0
 10
688.8311664005496
 20
219.3390446330784
 30
0.0
 10
688.7870423087726
 20
219.4172298278468
 30
0.0
 10
688.71222600696
 20
219.5497997435887
 30
0.0
 10
688.2795085169744
 20
219.5613537691073
 30
0.0
 10
688.1019929786899
 20
219.5660936261891
 30
0.0
  0
SPLINE
  5
28F
330
1F
100
AcDbEntity
  8
0
  6
Continuous
 62
     7
370
    15
100
AcDbSpline
210
0.0
220
0.0
230
1.0
 70
     8
 71
     3
 72
     9
 73
     5
 74
     0
 42
0.00000001
 43
0.00000001
 12
1.0
 22
0.0
 32
0.0
 13
1.0
 23
0.0
 33
0.0
 40
0.0
 40
0.0
 40
0.0
 40
0.0
 40
0.5897642457715986
 40
1.0
 40
1.0
 40
1.0
 40
1.0
 10
530.7603339096286
 20
219.5660936261891
 30
0.0
 10
530.5165017743675
 20
219.5554181519372
 30
0.0
 10
530.1030617650598
 20
219.537316894819
 30
0.0
 10
530.0520764761992
 20
219.3967217771969
 30
0.0
 10
530.0311604877688
 20
219.3390446330784
 30
0.0
  0
LINE
  5
290
330
1F
100
AcDbEntity
  8
0
  6
Continuous
 62
     7
370
    15
100
AcDbLine
 10
689.431161656
 20
219.3390446331
 30
0.0
 11
689.431161656
 21
204.5660967554
 31
0.0
  0
LINE
  5
291
330
1F
100
AcDbEntity
  8
0
  6
Continuous
 62
     7
370
    15
100
AcDbLine
 10
688.8311664005
 20
204.5660967554
 30
0.0
 11
688.8311664005
 21
219.3390446331
 31
0.0
  0
LINE
  5
292
330
1F
100
AcDbEntity
  8
0
  6
Continuous
 62
     7
370
    15
100
AcDbLine
 10
530.0311604878
 20
219.3390446331
 30
0.0
 11
530.0311604878
 21
204.5660967554
 31
0.0
  0
LINE
  5
293
330
1F
100
AcDbEntity
  8
0
  6
Continuous
 62
     7
370
    15
100
AcDbLine
 10
529.4311652323
 20
204.5660967554
 30
0.0
 11
529.4311652323
 21
219.3390446331
 31
0.0
  0
LINE
  5
294
330
1F
100
AcDbEntity
  8
0
  6
Continuous
 62
     7
370
    15
100
AcDbLine
 10
701.431163623
 20
175.1660964067
 30
0.0
 11
698.4311649939
 21
175.1660964067
 31
0.0
  0
LINE
  5
295
330
1F
100
AcDbEntity
  8
0
  6
Continuous
 62
     7
370
    15
100
AcDbLine
 10
701.431163623
 20
175.1660964067
 30
0.0
 11
701.431163623
 21
174.5660955633
 31
0.0
  0
LINE
  5
296
330
1F
100
AcDbEntity
  8
0
  6
Continuous
 62
     7
370
    15
100
AcDbLine
 10
689.431161656
 20
197.2791160073
 30
0.0
 11
689.431161656
 21
204.5660967554
 31
0.0
  0
LINE
  5
297
330
1F
100
AcDbEntity
  8
0
  6
Continuous
 62
     7
370
    15
100
AcDbLine
 10
688.8311664005
 20
198.3183453407
 30
0.0
 11
688.8311664005
 21
204.5660967554
 31
0.0
  0
LINE
  5
298
330
1F
100
AcDbEntity
  8
0
  6
Continuous
 62
     7
370
    15
100
AcDbLine
 10
517.4311632653
 20
175.1660964067
 30
0.0
 11
517.4311632653
 21
174.5660955633
 31
0.0
  0
LINE
  5
299
330
1F
100
AcDbEntity
  8
0
  6
Continuous
 62
     7
370
    15
100
AcDbLine
 10
517.4311632653
 20
175.1660964067
 30
0.0
 11
520.4311618944
 21
175.1660964067
 31
0.0
  0
LINE
  5
29A
330
1F
100
AcDbEntity
  8
0
  6
Continuous
 62
     7
370
    15
100
AcDbLine
 10
530.0311604878
 20
198.3183453407
 30
0.0
 11
530.0311604878
 21
204.5660967554
 31
0.0
  0
LINE
  5
29B
330
1F
100
AcDbEntity
  8
0
  6
Continuous
 62
     7
370
    15
100
AcDbLine
 10
529.4311652323
 20
197.2791160073
 30
0.0
 11
529.4311652323
 21
204.5660967554
 31
0.0
  0
LINE
  5
29C
330
1F
100
AcDbEntity
  8
0
  6
Continuous
 62
     7
370
    15
100
AcDbLine
 10
689.431161656
 20
364.5660894539
 30
0.0
 11
691.7372281095
 21
360.8763980295
 31
0.0
  0
LINE
  5
29D
330
1F
100
AcDbEntity
  8
0
  6
Continuous
 62
     7
370
    15
100
AcDbLine
 10
695.7019651672
 20
354.5328097965
 30
0.0
 11
699.4311670204
 21
348.5661017324
 31
0.0
  0
LWPOLYLINE
  5
29E
330
1F
100
AcDbEntity
  8
0
  6
Continuous
 62
     7
370
    15
100
AcDbPolyline
 90
        8
 70
   128
 43
0.0
 10
699.4311670204
 20
348.5661017324
 10
699.2498943945
 20
348.4935926821
 10
698.7130428096
 20
348.2788520481
 10
697.841250374
 20
347.9301350738
 10
696.6680148979
 20
347.4608379032
 10
695.2384198447
 20
346.8890058424
 10
693.6074132463
 20
346.2365883018
 10
693.4635872384
 20
346.1790698196
  0
LINE
  5
29F
330
1F
100
AcDbEntity
  8
0
  6
Continuous
 62
     7
370
    15
100
AcDbLine
 10
697.2409123918
 20
232.0704998996
 30
0.0
 11
699.4311670204
 21
228.566096964
 31
0.0
  0
LWPOLYLINE
  5
2A0
330
1F
100
AcDbEntity
  8
0
  6
Continuous
 62
     7
370
    15
100
AcDbPolyline
 90
        8
 70
   128
 43
0.0
 10
699.4311670204
 20
228.566096964
 10
699.2498943945
 20
228.4935879137
 10
698.7130428096
 20
228.2788472797
 10
697.841250374
 20
227.9301303055
 10
696.6680148979
 20
227.4608331348
 10
695.2384198447
 20
226.889001074
 10
693.6074132463
 20
226.2365984346
 10
693.5928175589
 20
226.2307571794
  0
LWPOLYLINE
  5
2A1
330
1F
100
AcDbEntity
  8
0
  6
Continuous
 62
     7
370
    15
100
AcDbPolyline
 90
        9
 70
   128
 43
0.0
 10
528.8651446244
 20
314.7925006773
 10
527.0246649524
 20
315.5286925461
 10
525.254913642
 20
316.2366020109
 10
523.6239070436
 20
316.8890046503
 10
522.1943119904
 20
317.4608367111
 10
521.0210765144
 20
317.9301338817
 10
520.1492840787
 20
318.278850856
 10
519.6124324938
 20
318.49359149
 10
519.4311598679
 20
318.5661005403
  0
LINE
  5
2A2
330
1F
100
AcDbEntity
  8
0
  6
Continuous
 62
     7
370
    15
100
AcDbLine
 10
519.4311598679
 20
318.5661005403
 30
0.0
 11
529.4311652323
 21
334.5661031629
 31
0.0
  0
LINE
  5
2A3
330
1F
100
AcDbEntity
  8
0
  6
Continuous
 62
     7
370
    15
100
AcDbLine
 10
528.8651446244
 20
314.7925006773
 30
0.0
 11
529.4311652323
 21
314.5660924341
 31
0.0
  0
LWPOLYLINE
  5
2A4
330
1F
100
AcDbEntity
  8
0
  6
Continuous
 62
     7
370
    15
100
AcDbPolyline
 90
        9
 70
   128
 43
0.0
 10
528.8651446244
 20
224.7925045516
 10
527.0246649524
 20
225.5286964204
 10
525.254913642
 20
226.2365984346
 10
523.6239070436
 20
226.889001074
 10
522.1943119904
 20
227.4608331348
 10
521.0210765144
 20
227.9301303055
 10
520.1492840787
 20
228.2788472797
 10
519.6124324938
 20
228.4935879137
 10
519.4311598679
 20
228.566096964
  0
LINE
  5
2A5
330
1F
100
AcDbEntity
  8
0
  6
Continuous
 62
     7
370
    15
100
AcDbLine
 10
519.4311598679
 20
228.566096964
 30
0.0
 11
527.3459563395
 21
241.2297668483
 31
0.0
  0
LINE
  5
2A6
330
1F
100
AcDbEntity
  8
0
  6
Continuous
 62
     7
370
    15
100
AcDbLine
 10
528.8651446244
 20
344.7925018694
 30
0.0
 11
529.4311652323
 21
344.5660936262
 31
0.0
  0
LWPOLYLINE
  5
2A7
330
1F
100
AcDbEntity
  8
0
  6
Continuous
 62
     7
370
    15
100
AcDbPolyline
 90
        9
 70
   128
 43
0.0
 10
528.8651446244
 20
344.7925018694
 10
527.0246649524
 20
345.5286937382
 10
525.254913642
 20
346.2365883018
 10
523.6239070436
 20
346.8890058424
 10
522.1943119904
 20
347.4608379032
 10
521.0210765144
 20
347.9301350738
 10
520.1492840787
 20
348.2788520481
 10
519.6124324938
 20
348.4935926821
 10
519.4311598679
 20
348.5661017324
  0
LINE
  5
2A8
330
1F
100
AcDbEntity
  8
0
  6
Continuous
 62
     7
370
    15
100
AcDbLine
 10
519.4311598679
 20
348.5661017324
 30
0.0
 11
529.4311652323
 21
364.5660894539
 31
0.0
  0
LWPOLYLINE
  5
2A9
330
1F
100
AcDbEntity
  8
0
  6
Continuous
 62
     7
370
    15
100
AcDbPolyline
 90
        6
 70
   128
 43
0.0
 10
522.7850536247
 20
257.2245391633
 10
522.1943119904
 20
257.4608343269
 10
521.0210765144
 20
257.9301314975
 10
520.1492840787
 20
258.2788484718
 10
519.6124324938
 20
258.4935891058
 10
519.4311598679
 20
258.5660981561
  0
LINE
  5
2AA
330
1F
100
AcDbEntity
  8
0
  6
Continuous
 62
     7
370
    15
100
AcDbLine
 10
519.4311598679
 20
258.5660981561
 30
0.0
 11
522.0023254296
 21
262.6799585845
 31
0.0
  0
LINE
  5
2AB
330
1F
100
AcDbEntity
  8
0
  6
Continuous
 62
     7
370
    15
100
AcDbLine
 10
528.8651446244
 20
224.7925045516
 30
0.0
 11
529.4311652323
 21
224.5660963084
 31
0.0
  0
LINE
  5
2AC
330
1F
100
AcDbEntity
  8
0
  6
Continuous
 62
     7
370
    15
100
AcDbLine
 10
519.4311598679
 20
288.5660993482
 30
0.0
 11
524.3054265519
 21
296.3649200823
 31
0.0
  0
LWPOLYLINE
  5
2AD
330
1F
100
AcDbEntity
  8
0
  6
Continuous
 62
     7
370
    15
100
AcDbPolyline
 90
        6
 70
   128
 43
0.0
 10
522.3670388004
 20
287.3917388345
 10
522.1943119904
 20
287.460835519
 10
521.0210765144
 20
287.9301326896
 10
520.1492840787
 20
288.2788496639
 10
519.6124324938
 20
288.4935902979
 10
519.4311598679
 20
288.5660993482
  0
LINE
  5
2AE
330
1F
100
AcDbEntity
  8
0
  6
Continuous
 62
     7
370
    15
100
AcDbLine
 10
536.431164517
 20
219.5660936262
 30
0.0
 11
539.3479103585
 21
219.5660936262
 31
0.0
  0
LINE
  5
2AF
330
1F
100
AcDbEntity
  8
0
  6
Continuous
 62
     7
370
    15
100
AcDbLine
 10
651.4890427133
 20
406.5661000635
 30
0.0
 11
609.4311634442
 21
406.5661000635
 31
0.0
  0
LINE
  5
2B0
330
1F
100
AcDbEntity
  8
0
  6
Continuous
 62
     7
370
    15
100
AcDbLine
 10
624.2972324034
 20
390.5660974409
 30
0.0
 11
651.4890427133
 21
390.5660974409
 31
0.0
  0
LINE
  5
2B1
330
1F
100
AcDbEntity
  8
0
  6
Continuous
 62
     7
370
    15
100
AcDbLine
 10
609.4311634442
 20
403.5660939838
 30
0.0
 11
609.4311634442
 21
406.5661000635
 31
0.0
  0
LINE
  5
2B2
330
1F
100
AcDbEntity
  8
0
  6
Continuous
 62
     7
370
    15
100
AcDbLine
 10
609.4311634442
 20
406.5661000635
 30
0.0
 11
567.373284175
 21
406.5661000635
 31
0.0
  0
LINE
  5
2B3
330
1F
100
AcDbEntity
  8
0
  6
Continuous
 62
     7
370
    15
100
AcDbLine
 10
567.373284175
 20
390.5660974409
 30
0.0
 11
594.5650944849
 21
390.5660974409
 31
0.0
  0
CIRCLE
  5
2B4
330
1F
100
AcDbEntity
  8
0
  6
Continuous
 62
     7
370
    15
100
AcDbCircle
 10
609.4311634442
 20
388.5660960104
 30
0.0
 40
15.0
  0
LINE
  5
2B5
330
1F
100
AcDbEntity
  8
0
  6
Continuous
 62
     7
370
    15
100
AcDbLine
 10
651.4890427133
 20
390.5660974409
 30
0.0
 11
663.3440899094
 21
390.5660974409
 31
0.0
  0
LINE
  5
2B6
330
1F
100
AcDbEntity
  8
0
  6
Continuous
 62
     7
370
    15
100
AcDbLine
 10
663.3440899094
 20
406.5661000635
 30
0.0
 11
651.4890427133
 21
406.5661000635
 31
0.0
  0
LINE
  5
2B7
330
1F
100
AcDbEntity
  8
0
  6
Continuous
 62
     7
370
    15
100
AcDbLine
 10
555.5182369789
 20
390.5660974409
 30
0.0
 11
567.373284175
 21
390.5660974409
 31
0.0
  0
LINE
  5
2B8
330
1F
100
AcDbEntity
  8
0
  6
Continuous
 62
     7
370
    15
100
AcDbLine
 10
567.373284175
 20
406.5661000635
 30
0.0
 11
555.5182369789
 21
406.5661000635
 31
0.0
  0
LINE
  5
2B9
330
1F
100
AcDbEntity
  8
0
  6
Continuous
 62
     7
370
    15
100
AcDbLine
 10
669.4311621031
 20
390.5660974409
 30
0.0
 11
669.4311621031
 21
406.5661000635
 31
0.0
  0
LINE
  5
2BA
330
1F
100
AcDbEntity
  8
0
  6
Continuous
 62
     7
370
    15
100
AcDbLine
 10
663.3440899094
 20
390.5660974409
 30
0.0
 11
669.4311621031
 21
390.5660974409
 31
0.0
  0
LINE
  5
2BB
330
1F
100
AcDbEntity
  8
0
  6
Continuous
 62
     7
370
    15
100
AcDbLine
 10
669.4311621031
 20
406.5661000635
 30
0.0
 11
663.3440899094
 21
406.5661000635
 31
0.0
  0
LINE
  5
2BC
330
1F
100
AcDbEntity
  8
0
  6
Continuous
 62
     7
370
    15
100
AcDbLine
 10
549.4311647853
 20
390.5660974409
 30
0.0
 11
549.4311647853
 21
406.5661000635
 31
0.0
  0
LINE
  5
2BD
330
1F
100
AcDbEntity
  8
0
  6
Continuous
 62
     7
370
    15
100
AcDbLine
 10
549.4311647853
 20
390.5660974409
 30
0.0
 11
555.5182369789
 21
390.5660974409
 31
0.0
  0
LINE
  5
2BE
330
1F
100
AcDbEntity
  8
0
  6
Continuous
 62
     7
370
    15
100
AcDbLine
 10
555.5182369789
 20
406.5661000635
 30
0.0
 11
549.4311647853
 21
406.5661000635
 31
0.0
  0
CIRCLE
  5
2BF
330
1F
100
AcDbEntity
  8
0
  6
Continuous
 62
     7
370
    15
100
AcDbCircle
 10
609.4311634442
 20
278.5660960104
 30
0.0
 40
20.00000000000011
  0
CIRCLE
  5
2C0
330
1F
100
AcDbEntity
  8
0
  6
Continuous
 62
     7
370
    15
100
AcDbCircle
 10
646.5542694565
 20
315.6892020227
 30
0.0
 40
6.0
  0
CIRCLE
  5
2C1
330
1F
100
AcDbEntity
  8
0
  6
Continuous
 62
     7
370
    15
100
AcDbCircle
 10
646.5542694565
 20
241.4429899981
 30
0.0
 40
5.999999999999972
  0
CIRCLE
  5
2C2
330
1F
100
AcDbEntity
  8
0
  6
Continuous
 62
     7
370
    15
100
AcDbCircle
 10
572.3080574319
 20
241.4429899981
 30
0.0
 40
6.0
  0
CIRCLE
  5
2C3
330
1F
100
AcDbEntity
  8
0
  6
Continuous
 62
     7
370
    15
100
AcDbCircle
 10
572.3080574319
 20
315.6892020227
 30
0.0
 40
5.999999999999943
  0
SPLINE
  5
2C4
330
1F
100
AcDbEntity
  8
0
  6
Continuous
 62
     7
370
    15
100
AcDbSpline
210
0.0
220
0.0
230
1.0
 70
     8
 71
     3
 72
    11
 73
     7
 74
     0
 42
0.00000001
 43
0.00000001
 12
1.0
 22
0.0
 32
0.0
 13
1.0
 23
0.0
 33
0.0
 40
0.0
 40
0.0
 40
0.0
 40
0.0
 40
0.0464570715827394
 40
0.3378861920876377
 40
0.6380809825387722
 40
1.0
 40
1.0
 40
1.0
 40
1.0
 10
635.7453102608897
 20
390.5660974408863
 30
0.0
 10
635.8589125101386
 20
390.3231878930283
 30
0.0
 10
636.6851512312531
 20
388.5564863048473
 30
0.0
 10
638.5987625262293
 20
385.3915680999098
 30
0.0
 10
642.1746537042383
 20
381.1500039448556
 30
0.0
 10
645.2972293840019
 20
378.9206015562845
 30
0.0
 10
647.0040651401259
 20
377.7019845868824
 30
0.0
  0
SPLINE
  5
2C5
330
1F
100
AcDbEntity
  8
0
  6
Continuous
 62
     7
370
    15
100
AcDbSpline
210
0.0
220
0.0
230
1.0
 70
     8
 71
     3
 72
     9
 73
     5
 74
     0
 42
0.00000001
 43
0.00000001
 12
1.0
 22
0.0
 32
0.0
 13
1.0
 23
0.0
 33
0.0
 40
0.0
 40
0.0
 40
0.0
 40
0.0
 40
0.0105981184566531
 40
1.0
 40
1.0
 40
1.0
 40
1.0
 10
649.2782729109504
 20
376.0992603923557
 30
0.0
 10
649.2812299276333
 20
376.1015911433724
 30
0.0
 10
649.5602432916469
 20
376.321512351672
 30
0.0
 10
649.630161520708
 20
376.3766401804401
 30
0.0
 10
649.6993387480952
 20
376.4311837579487
 30
0.0
  0
LINE
  5
2C6
330
1F
100
AcDbEntity
  8
0
  6
Continuous
 62
     7
370
    15
100
AcDbLine
 10
614.1801057746
 20
348.4316336538
 30
0.0
 11
608.5982002914
 21
349.0611779119
 31
0.0
  0
LINE
  5
2C7
330
1F
100
AcDbEntity
  8
0
  6
Continuous
 62
     7
370
    15
100
AcDbLine
 10
605.9021118926
 20
348.9777165081
 30
0.0
 11
605.4814826129
 21
349.1275774862
 31
0.0
  0
SPLINE
  5
2C8
330
1F
100
AcDbEntity
  8
0
  6
Continuous
 62
     7
370
    15
100
AcDbSpline
210
0.0
220
0.0
230
1.0
 70
     8
 71
     3
 72
    11
 73
     7
 74
     0
 42
0.00000001
 43
0.00000001
 12
1.0
 22
0.0
 32
0.0
 13
1.0
 23
0.0
 33
0.0
 40
0.0
 40
0.0
 40
0.0
 40
0.0
 40
0.2903566461955144
 40
0.5894156816883708
 40
0.8433867351637533
 40
1.0
 40
1.0
 40
1.0
 40
1.0
 10
605.4814826128759
 20
349.1275774862049
 30
0.0
 10
604.2796528286326
 20
349.2386441031665
 30
0.0
 10
601.8399727633234
 20
349.4641061568409
 30
0.0
 10
598.7158088371601
 20
349.8667013993402
 30
0.0
 10
596.4057194349047
 20
350.2855434825594
 30
0.0
 10
595.5393758433185
 20
350.4643567475358
 30
0.0
 10
595.2089177807547
 20
350.5325632716892
 30
0.0
  0
SPLINE
  5
2C9
330
1F
100
AcDbEntity
  8
0
  6
Continuous
 62
     7
370
    15
100
AcDbSpline
210
0.0
220
0.0
230
1.0
 70
     8
 71
     3
 72
    15
 73
    11
 74
     0
 42
0.00000001
 43
0.00000001
 12
1.0
 22
0.0
 32
0.0
 13
1.0
 23
0.0
 33
0.0
 40
0.0
 40
0.0
 40
0.0
 40
0.0
 40
0.1223801983188655
 40
0.2089597170958957
 40
0.2955351668826279
 40
0.4256949579111564
 40
0.5564163813999365
 40
0.6877975633980735
 40
0.818858886968278
 40
1.0
 40
1.0
 40
1.0
 40
1.0
 10
595.2089177807547
 20
350.5325632716892
 30
0.0
 10
594.0157572405965
 20
351.7777624488763
 30
0.0
 10
591.9784792140334
 20
353.9038945467759
 30
0.0
 10
589.9823234669975
 20
357.576052269834
 30
0.0
 10
588.5880823701025
 20
361.6090242047326
 30
0.0
 10
587.8081543421102
 20
366.4410136660385
 30
0.0
 10
587.4433673645898
 20
371.931038924813
 30
0.0
 10
587.3683722283259
 20
377.4452092789293
 30
0.0
 10
587.1473517800164
 20
383.6623856935078
 30
0.0
 10
586.8578554654263
 20
388.0312593328398
 30
0.0
 10
586.6898885359742
 20
390.5660974408863
 30
0.0
  0
CIRCLE
  5
2CA
330
1F
100
AcDbEntity
  8
0
  6
Continuous
 62
     7
370
    15
100
AcDbCircle
 10
609.4311634442
 20
196.5660960104
 30
0.0
 40
12.00000000000011
  0
SPLINE
  5
2CB
330
1F
100
AcDbEntity
  8
0
  6
Continuous
 62
     7
370
    15
100
AcDbSpline
210
0.0
220
0.0
230
1.0
 70
     8
 71
     3
 72
    11
 73
     7
 74
     0
 42
0.00000001
 43
0.00000001
 12
1.0
 22
0.0
 32
0.0
 13
1.0
 23
0.0
 33
0.0
 40
0.0
 40
0.0
 40
0.0
 40
0.0
 40
0.3060046952889662
 40
0.6120078242380855
 40
0.9263794296416068
 40
1.0
 40
1.0
 40
1.0
 40
1.0
 10
633.3537558456637
 20
216.2107544566868
 30
0.0
 10
634.9619311355664
 20
216.8198220687985
 30
0.0
 10
638.1782734836382
 20
218.0379541754001
 30
0.0
 10
642.8189240043203
 20
220.398504931956
 30
0.0
 10
646.2047366256872
 20
222.3478425440128
 30
0.0
 10
647.9625766182947
 20
223.6357074249225
 30
0.0
 10
648.2961224755027
 20
223.8800766493557
 30
0.0
  0
SPLINE
  5
2CC
330
1F
100
AcDbEntity
  8
0
  6
Continuous
 62
     7
370
    15
100
AcDbSpline
210
0.0
220
0.0
230
1.0
 70
     8
 71
     3
 72
    19
 73
    15
 74
     0
 42
0.00000001
 43
0.00000001
 12
1.0
 22
0.0
 32
0.0
 13
1.0
 23
0.0
 33
0.0
 40
0.0
 40
0.0
 40
0.0
 40
0.0
 40
0.0510702215184365
 40
0.1443094279926864
 40
0.237866894899441
 40
0.3310723625496557
 40
0.4189837926267326
 40
0.5072102543489444
 40
0.5952079880426906
 40
0.6843325031567815
 40
0.7736956234117317
 40
0.8628348579234435
 40
0.9599163722256246
 40
1.0
 40
1.0
 40
1.0
 40
1.0
 10
664.0276136239745
 20
239.2970936919926
 30
0.0
 10
664.8565481485679
 20
240.3830865252058
 30
0.0
 10
667.1988733535657
 20
243.4517829182415
 30
0.0
 10
670.2223267679641
 20
249.0786410981053
 30
0.0
 10
673.1363625531765
 20
255.980747049333
 30
0.0
 10
675.1371453964808
 20
263.067984720377
 30
0.0
 10
676.2245769802661
 20
270.2006733107035
 30
0.0
 10
676.4860964337632
 20
277.269703067292
 30
0.0
 10
676.0058648460964
 20
284.3583993609017
 30
0.0
 10
674.786551651187
 20
291.3878174055006
 30
0.0
 10
672.8626763898151
 20
298.2925055934859
 30
0.0
 10
670.1466958320368
 20
305.1456768669696
 30
0.0
 10
667.451750057529
 20
310.5859002165077
 30
0.0
 10
665.4152807358406
 20
313.6362821735159
 30
0.0
 10
664.820165409682
 20
314.5276921416996
 30
0.0
  0
SPLINE
  5
2CD
330
1F
100
AcDbEntity
  8
0
  6
Continuous
 62
     7
370
    15
100
AcDbSpline
210
0.0
220
0.0
230
1.0
 70
     8
 71
     3
 72
    13
 73
     9
 74
     0
 42
0.00000001
 43
0.00000001
 12
1.0
 22
0.0
 32
0.0
 13
1.0
 23
0.0
 33
0.0
 40
0.0
 40
0.0
 40
0.0
 40
0.0
 40
0.1483706857542081
 40
0.3898084966609509
 40
0.6167499810047108
 40
0.7331637333403707
 40
0.8495620839885168
 40
1.0
 40
1.0
 40
1.0
 40
1.0
 10
648.6099632819869
 20
333.184646310973
 30
0.0
 10
647.1786042597719
 20
334.4311824803283
 30
0.0
 10
643.4180507124488
 20
337.7061581787951
 30
0.0
 10
636.6913922388777
 20
341.8916935665414
 30
0.0
 10
629.8858914739119
 20
345.0384764530925
 30
0.0
 10
624.2784467735308
 20
346.8158489689029
 30
0.0
 10
619.4975169428697
 20
347.9326521436521
 30
0.0
 10
616.097124058835
 20
348.2517000602257
 30
0.0
 10
614.1800382537522
 20
348.4315740491627
 30
0.0
  0
SPLINE
  5
2CE
330
1F
100
AcDbEntity
  8
0
  6
Continuous
 62
     7
370
    15
100
AcDbSpline
210
0.0
220
0.0
230
1.0
 70
     8
 71
     3
 72
    22
 73
    18
 74
     0
 42
0.00000001
 43
0.00000001
 12
1.0
 22
0.0
 32
0.0
 13
1.0
 23
0.0
 33
0.0
 40
0.0
 40
0.0
 40
0.0
 40
0.0
 40
0.0733483740847641
 40
0.1462701468807446
 40
0.2003981181382385
 40
0.2560354379293567
 40
0.333414576259377
 40
0.4129907800095075
 40
0.4916902196453565
 40
0.5732351918945021
 40
0.6203804909553536
 40
0.6687626452449972
 40
0.715962431431334
 40
0.7647602050621517
 40
0.8534393740081082
 40
0.9446912351180982
 40
0.9999999999999999
 40
0.9999999999999999
 40
0.9999999999999999
 40
0.9999999999999999
 10
672.5935200592259
 20
361.0198068048238
 30
0.0
 10
672.647917391456
 20
360.911513978144
 30
0.0
 10
672.756395675733
 20
360.6955581664135
 30
0.0
 10
673.4594348976216
 20
359.2990480358498
 30
0.0
 10
674.279578256637
 20
357.7027898475516
 30
0.0
 10
675.2730282080654
 20
355.8204138187354
 30
0.0
 10
676.5641949677234
 20
353.48569893319
 30
0.0
 10
678.1958211516861
 20
350.779170351514
 30
0.0
 10
680.0846894515149
 20
348.0225858054142
 30
0.0
 10
681.9591649995505
 20
345.747814166174
 30
0.0
 10
683.7080813310771
 20
344.0032681165769
 30
0.0
 10
685.1775315994435
 20
342.7574981050054
 30
0.0
 10
686.6615667300593
 20
341.6986839921492
 30
0.0
 10
688.4653116282675
 20
340.6173410537058
 30
0.0
 10
690.2991829241676
 20
339.7560510535413
 30
0.0
 10
691.5309028543279
 20
339.2832413805025
 30
0.0
 10
691.4769321123563
 20
339.3039178324663
 30
0.0
 10
691.4565647383906
 20
339.3117206718205
 30
0.0
  0
SPLINE
  5
2CF
330
1F
100
AcDbEntity
  8
0
  6
Continuous
 62
     7
370
    15
100
AcDbSpline
210
0.0
220
0.0
230
1.0
 70
     8
 71
     3
 72
    13
 73
     9
 74
     0
 42
0.00000001
 43
0.00000001
 12
1.0
 22
0.0
 32
0.0
 13
1.0
 23
0.0
 33
0.0
 40
0.0
 40
0.0
 40
0.0
 40
0.0
 40
0.173459147642913
 40
0.3474180786695154
 40
0.5207708205532013
 40
0.6947264039077619
 40
0.869292504595273
 40
1.0
 40
1.0
 40
1.0
 40
1.0
 10
538.9991933842875
 20
281.6625552798985
 30
0.0
 10
539.1547724273821
 20
278.7837047996758
 30
0.0
 10
539.466378779469
 20
273.0177090813366
 30
0.0
 10
541.1177846069072
 20
264.5036270241241
 30
0.0
 10
543.6534307201294
 20
256.2074404001146
 30
0.0
 10
547.2235472347185
 20
248.2945219609348
 30
0.0
 10
551.2328928225311
 20
241.3829061074078
 30
0.0
 10
554.4319716384725
 20
237.443580047135
 30
0.0
 10
555.8017054935672
 20
235.7568981673001
 30
0.0
  0
SPLINE
  5
2D0
330
1F
100
AcDbEntity
  8
0
  6
Continuous
 62
     7
370
    15
100
AcDbSpline
210
0.0
220
0.0
230
1.0
 70
     8
 71
     3
 72
    17
 73
    13
 74
     0
 42
0.00000001
 43
0.00000001
 12
1.0
 22
0.0
 32
0.0
 13
1.0
 23
0.0
 33
0.0
 40
0.0
 40
0.0
 40
0.0
 40
0.0
 40
0.0322969361122582
 40
0.1477127320560862
 40
0.2617880694659367
 40
0.3762693864513956
 40
0.4903031236370388
 40
0.5958724134273716
 40
0.7017897570778037
 40
0.8073365716155356
 40
0.9036678727818329
 40
1.0
 40
1.0
 40
1.0
 40
1.0
 10
567.3475610455253
 20
224.6648910071133
 30
0.0
 10
567.9293798199503
 20
224.1868612374226
 30
0.0
 10
570.5903765297656
 20
222.0005522005612
 30
0.0
 10
575.8507576824395
 20
218.8481440666385
 30
0.0
 10
583.0670082983175
 20
215.3392694247416
 30
0.0
 10
590.6561898137768
 20
212.782795099813
 30
0.0
 10
598.2970667668488
 20
211.189055254456
 30
0.0
 10
605.8750327302974
 20
210.5660493115581
 30
0.0
 10
613.2771371772003
 20
210.7935624039165
 30
0.0
 10
620.3851813895487
 20
211.8571785769533
 30
0.0
 10
627.1275643280292
 20
213.6258387957677
 30
0.0
 10
631.2783527408973
 20
215.3491134401783
 30
0.0
 10
633.3537558456637
 20
216.2107544566868
 30
0.0
  0
ARC
  5
2D1
330
1F
100
AcDbEntity
  8
0
  6
Continuous
 62
     7
370
    15
100
AcDbCircle
 10
609.4311634442
 20
278.5660960104
 30
0.0
 40
70.50000000000004
100
AcDbArc
 50
90.6769699861
 51
177.4826764918
  0
LWPOLYLINE
  5
2D2
330
1F
100
AcDbEntity
  8
0
  6
Continuous
 62
     7
370
    15
100
AcDbPolyline
 90
       19
 70
   128
 43
0.0
 10
673.8400543472
 20
365.6719195272
 10
674.0161488196
 20
365.6247424509
 10
674.5390827199
 20
365.4846268322
 10
675.3929714104
 20
365.255819502
 10
676.5518570682
 20
364.9452942039
 10
677.9805431505
 20
364.5624833729
 10
679.6356076738
 20
364.1190099146
 10
681.4667666694
 20
363.6283593799
 10
683.4183866521
 20
363.105418029
 10
685.4311610004
 20
362.5661003019
 10
687.4439353486
 20
362.0267676737
 10
689.3955553313
 20
361.5038412239
 10
691.2267217776
 20
361.0131757881
 10
692.8817863008
 20
360.5697023298
 10
694.3104723831
 20
360.1868914987
 10
695.4693580409
 20
359.8763662006
 10
696.3232467314
 20
359.6475737716
 10
696.8461806318
 20
359.5074581529
 10
697.0222751042
 20
359.4602661754
  0
SPLINE
  5
2D3
330
1F
100
AcDbEntity
  8
0
  6
Continuous
 62
     7
370
    15
100
AcDbSpline
210
0.0
220
0.0
230
1.0
 70
     8
 71
     3
 72
     9
 73
     5
 74
     0
 42
0.00000001
 43
0.00000001
 12
1.0
 22
0.0
 32
0.0
 13
1.0
 23
0.0
 33
0.0
 40
0.0
 40
0.0
 40
0.0
 40
0.0
 40
0.5962861686710034
 40
1.0
 40
1.0
 40
1.0
 40
1.0
 10
550.7413009544589
 20
337.2559564735172
 30
0.0
 10
550.8228878918652
 20
337.3372917585585
 30
0.0
 10
550.9597130300166
 20
337.4736948638368
 30
0.0
 10
550.9810939073834
 20
337.4948072772064
 30
0.0
 10
550.9897256633021
 20
337.5033306504963
 30
0.0
  0
LINE
  5
2D4
330
1F
100
AcDbEntity
  8
0
  6
Continuous
 62
     7
370
    15
100
AcDbLine
 10
550.9897256633
 20
337.5033306505
 30
0.0
 11
557.4180717012
 21
341.5544050361
 31
0.0
  0
SPLINE
  5
2D5
330
1F
100
AcDbEntity
  8
0
  6
Continuous
 62
     7
370
    15
100
AcDbSpline
210
0.0
220
0.0
230
1.0
 70
     8
 71
     3
 72
     9
 73
     5
 74
     0
 42
0.00000001
 43
0.00000001
 12
1.0
 22
0.0
 32
0.0
 13
1.0
 23
0.0
 33
0.0
 40
0.0
 40
0.0
 40
0.0
 40
0.0
 40
0.3643002284393173
 40
1.0
 40
1.0
 40
1.0
 40
1.0
 10
587.6487540444114
 20
350.352050604987
 30
0.0
 10
588.5655864237561
 20
350.4134364396814
 30
0.0
 10
591.0822809184931
 20
350.581939860493
 30
0.0
 10
593.6051380674701
 20
350.5517530317961
 30
0.0
 10
595.2089177807547
 20
350.5325632716892
 30
0.0
  0
LINE
  5
2D6
330
1F
100
AcDbEntity
  8
0
  6
Continuous
 62
     7
370
    15
100
AcDbLine
 10
654.4311652323
 20
390.5660974409
 30
0.0
 11
647.0040651401
 21
377.7019845869
 31
0.0
  0
LINE
  5
2D7
330
1F
100
AcDbEntity
  8
0
  6
Continuous
 62
     7
370
    15
100
AcDbLine
 10
564.431161656
 20
390.5660974409
 30
0.0
 11
587.6487540444
 21
350.352050605
 31
0.0
  0
LINE
  5
2D8
330
1F
100
AcDbEntity
  8
0
  6
Continuous
 62
     7
370
    15
100
AcDbLine
 10
556.2847005566
 20
342.3191624309
 30
0.0
 11
557.4180717012
 21
341.5544050361
 31
0.0
  0
ARC
  5
2D9
330
1F
100
AcDbEntity
  8
0
  6
Continuous
 62
     7
370
    15
100
AcDbCircle
 10
609.4311634442
 20
278.5660960104
 30
0.0
 40
83.00000000000007
100
AcDbArc
 50
129.8155988641
 51
134.7579876147
  0
LINE
  5
2DA
330
1F
100
AcDbEntity
  8
0
  6
Continuous
 62
     7
370
    15
100
AcDbLine
 10
529.0914187571
 20
176.6906584229
 30
0.0
 11
520.4311618944
 21
181.6906592424
 31
0.0
  0
LINE
  5
2DB
330
1F
100
AcDbEntity
  8
0
  6
Continuous
 62
     7
370
    15
100
AcDbLine
 10
529.0914187571
 20
176.6906584229
 30
0.0
 11
548.0546439429
 21
209.5359283115
 31
0.0
  0
LINE
  5
2DC
330
1F
100
AcDbEntity
  8
0
  6
Continuous
 62
     7
370
    15
100
AcDbLine
 10
520.4311618944
 20
181.6906592424
 30
0.0
 11
541.0480955979
 21
217.400239649
 31
0.0
  0
LINE
  5
2DD
330
1F
100
AcDbEntity
  8
0
  6
Continuous
 62
     7
370
    15
100
AcDbLine
 10
689.7709081312
 20
176.6906584229
 30
0.0
 11
698.4311649939
 21
181.6906592424
 31
0.0
  0
LINE
  5
2DE
330
1F
100
AcDbEntity
  8
0
  6
Continuous
 62
     7
370
    15
100
AcDbLine
 10
689.7709081312
 20
176.6906584229
 30
0.0
 11
673.4475875636
 21
204.9634809222
 31
0.0
  0
LINE
  5
2DF
330
1F
100
AcDbEntity
  8
0
  6
Continuous
 62
     7
370
    15
100
AcDbLine
 10
698.4311649939
 20
181.6906592424
 30
0.0
 11
681.1810220023
 21
211.5687856998
 31
0.0
  0
LINE
  5
2E0
330
1F
100
AcDbEntity
  8
0
  6
Continuous
 62
     7
370
    15
100
AcDbLine
 10
698.4311649939
 20
181.6906592424
 30
0.0
 11
698.4311649939
 21
174.5660955633
 31
0.0
  0
LINE
  5
2E1
330
1F
100
AcDbEntity
  8
0
  6
Continuous
 62
     7
370
    15
100
AcDbLine
 10
663.4311648449
 20
182.3124381329
 30
0.0
 11
656.387892588
 21
194.5117394056
 31
0.0
  0
LINE
  5
2E2
330
1F
100
AcDbEntity
  8
0
  6
Continuous
 62
     7
370
    15
100
AcDbLine
 10
663.4311648449
 20
174.5660955633
 30
0.0
 11
663.4311648449
 21
182.3124381329
 31
0.0
  0
LINE
  5
2E3
330
1F
100
AcDbEntity
  8
0
  6
Continuous
 62
     7
370
    15
100
AcDbLine
 10
698.4311649939
 20
187.5660958316
 30
0.0
 11
698.4311649939
 21
181.6906592424
 31
0.0
  0
LINE
  5
2E4
330
1F
100
AcDbEntity
  8
0
  6
Continuous
 62
     7
370
    15
100
AcDbLine
 10
695.0389752527
 20
187.5660958316
 30
0.0
 11
698.4311649939
 21
187.5660958316
 31
0.0
  0
LINE
  5
2E5
330
1F
100
AcDbEntity
  8
0
  6
Continuous
 62
     7
370
    15
100
AcDbLine
 10
520.4311618944
 20
181.6906592424
 30
0.0
 11
520.4311618944
 21
174.5660955633
 31
0.0
  0
LINE
  5
2E6
330
1F
100
AcDbEntity
  8
0
  6
Continuous
 62
     7
370
    15
100
AcDbLine
 10
555.4311620435
 20
174.5660955633
 30
0.0
 11
555.4311620435
 21
182.3124381329
 31
0.0
  0
LINE
  5
2E7
330
1F
100
AcDbEntity
  8
0
  6
Continuous
 62
     7
370
    15
100
AcDbLine
 10
555.4311620435
 20
182.3124381329
 30
0.0
 11
563.9615292093
 21
197.0874609973
 31
0.0
  0
LINE
  5
2E8
330
1F
100
AcDbEntity
  8
0
  6
Continuous
 62
     7
370
    15
100
AcDbLine
 10
520.4311618944
 20
187.5660958316
 30
0.0
 11
520.4311618944
 21
181.6906592424
 31
0.0
  0
LINE
  5
2E9
330
1F
100
AcDbEntity
  8
0
  6
Continuous
 62
     7
370
    15
100
AcDbLine
 10
523.8233516356
 20
187.5660958316
 30
0.0
 11
520.4311618944
 21
187.5660958316
 31
0.0
  0
LINE
  5
2EA
330
1F
100
AcDbEntity
  8
0
  6
Continuous
 62
     7
370
    15
100
AcDbLine
 10
709.4311649343
 20
156.5660961054
 30
0.0
 11
709.4311649343
 21
154.5660960104
 31
0.0
  0
LINE
  5
2EB
330
1F
100
AcDbEntity
  8
0
  6
Continuous
 62
     7
370
    15
100
AcDbLine
 10
709.4311649343
 20
154.5660960104
 30
0.0
 11
686.4311630269
 21
154.5660960104
 31
0.0
  0
LINE
  5
2EC
330
1F
100
AcDbEntity
  8
0
  6
Continuous
 62
     7
370
    15
100
AcDbLine
 10
686.4311630269
 20
156.5660961054
 30
0.0
 11
709.4311649343
 21
156.5660961054
 31
0.0
  0
LINE
  5
2ED
330
1F
100
AcDbEntity
  8
0
  6
Continuous
 62
     7
370
    15
100
AcDbLine
 10
532.4311638614
 20
154.5660960104
 30
0.0
 11
686.4311630269
 21
154.5660960104
 31
0.0
  0
LINE
  5
2EE
330
1F
100
AcDbEntity
  8
0
  6
Continuous
 62
     7
370
    15
100
AcDbLine
 10
532.4311638614
 20
156.5660961054
 30
0.0
 11
686.4311630269
 21
156.5660961054
 31
0.0
  0
LINE
  5
2EF
330
1F
100
AcDbEntity
  8
0
  6
Continuous
 62
     7
370
    15
100
AcDbLine
 10
509.431161954
 20
154.5660960104
 30
0.0
 11
509.431161954
 21
156.5660961054
 31
0.0
  0
LINE
  5
2F0
330
1F
100
AcDbEntity
  8
0
  6
Continuous
 62
     7
370
    15
100
AcDbLine
 10
532.4311638614
 20
154.5660960104
 30
0.0
 11
509.431161954
 21
154.5660960104
 31
0.0
  0
LINE
  5
2F1
330
1F
100
AcDbEntity
  8
0
  6
Continuous
 62
     7
370
    15
100
AcDbLine
 10
509.431161954
 20
156.5660961054
 30
0.0
 11
532.4311638614
 21
156.5660961054
 31
0.0
  0
ARC
  5
2F2
330
1F
100
AcDbEntity
  8
0
  6
Continuous
 62
     7
370
    15
100
AcDbCircle
 10
708.4311634442
 20
158.5660960104
 30
0.0
 40
2.0
100
AcDbArc
 50
180.0
 51
270.0
  0
ARC
  5
2F3
330
1F
100
AcDbEntity
  8
0
  6
Continuous
 62
     7
370
    15
100
AcDbCircle
 10
510.4311634442
 20
158.5660960104
 30
0.0
 40
2.000000000000057
100
AcDbArc
 50
270.0
 51
0.0
  0
LINE
  5
2F4
330
1F
100
AcDbEntity
  8
0
  6
Continuous
 62
     7
370
    15
100
AcDbLine
 10
686.4311630269
 20
174.5660955633
 30
0.0
 11
701.431163623
 21
174.5660955633
 31
0.0
  0
ARC
  5
2F5
330
1F
100
AcDbEntity
  8
0
  6
Continuous
 62
     7
370
    15
100
AcDbCircle
 10
701.4311634442
 20
169.5660960104
 30
0.0
 40
5.0
100
AcDbArc
 50
0.0
 51
90.0
  0
LINE
  5
2F6
330
1F
100
AcDbEntity
  8
0
  6
Continuous
 62
     7
370
    15
100
AcDbLine
 10
706.4311663052
 20
169.5660956751
 30
0.0
 11
706.4311663052
 21
158.5660962004
 31
0.0
  0
LINE
  5
2F7
330
1F
100
AcDbEntity
  8
0
  6
Continuous
 62
     7
370
    15
100
AcDbLine
 10
532.4311638614
 20
174.5660955633
 30
0.0
 11
686.4311630269
 21
174.5660955633
 31
0.0
  0
ARC
  5
2F8
330
1F
100
AcDbEntity
  8
0
  6
Continuous
 62
     7
370
    15
100
AcDbCircle
 10
517.4311634442
 20
169.5660960104
 30
0.0
 40
5.0
100
AcDbArc
 50
90.0
 51
180.0
  0
LINE
  5
2F9
330
1F
100
AcDbEntity
  8
0
  6
Continuous
 62
     7
370
    15
100
AcDbLine
 10
517.4311632653
 20
174.5660955633
 30
0.0
 11
532.4311638614
 21
174.5660955633
 31
0.0
  0
LINE
  5
2FA
330
1F
100
AcDbEntity
  8
0
  6
Continuous
 62
     7
370
    15
100
AcDbLine
 10
512.4311605831
 20
158.5660962004
 30
0.0
 11
512.4311605831
 21
169.5660956751
 31
0.0
  0
LINE
  5
2FB
330
1F
100
AcDbEntity
  8
0
  6
Continuous
 62
     7
370
    15
100
AcDbLine
 10
621.9311636304
 20
177.7660957153
 30
0.0
 11
596.9311632579
 21
177.7660957153
 31
0.0
  0
LINE
  5
2FC
330
1F
100
AcDbEntity
  8
0
  6
Continuous
 62
     7
370
    15
100
AcDbLine
 10
621.9311636304
 20
177.7660957153
 30
0.0
 11
621.9311636304
 21
174.5660955633
 31
0.0
  0
LINE
  5
2FD
330
1F
100
AcDbEntity
  8
0
  6
Continuous
 62
     7
370
    15
100
AcDbLine
 10
596.9311632579
 20
177.7660957153
 30
0.0
 11
596.9311632579
 21
174.5660955633
 31
0.0
  0
LINE
  5
2FE
330
1F
100
AcDbEntity
  8
0
  6
Continuous
 62
     7
370
    15
100
AcDbLine
 10
596.9311632579
 20
184.7035492386
 30
0.0
 11
596.9311632579
 21
177.7660957153
 31
0.0
  0
LINE
  5
2FF
330
1F
100
AcDbEntity
  8
0
  6
Continuous
 62
     7
370
    15
100
AcDbLine
 10
621.9311636304
 20
184.2194403137
 30
0.0
 11
621.9311636304
 21
177.7660957153
 31
0.0
  0
LINE
  5
300
330
1F
100
AcDbEntity
  8
SLD-0
370
     0
100
AcDbLine
 10
529.4311634442
 20
176.4588300024
 30
0.0
 11
529.4311634442
 21
147.4290551939
 31
0.0
  0
LINE
  5
301
330
1F
100
AcDbEntity
  8
SLD-0
370
     0
100
AcDbLine
 10
689.4311634442
 20
177.8475095004
 30
0.0
 11
689.4311634442
 21
147.4290551939
 31
0.0
  0
INSERT
  5
30D
330
1F
100
AcDbEntity
  8
SLD-0
100
AcDbBlockReference
  2
SW_CENTERMARKSYMBOL_0
 10
609.4311634442
 20
278.5660960104
 30
0.0
  0
ENDSEC
  0
SECTION
  2
OBJECTS
  0
DICTIONARY
  5
C
330
0
100
AcDbDictionary
281
     1
  3
ACAD_GROUP
350
D
  3
ACAD_LAYOUT
350
1A
  3
ACAD_MLINESTYLE
350
17
  3
ACAD_PLOTSETTINGS
350
19
  3
ACAD_PLOTSTYLENAME
350
E
  0
DICTIONARY
  5
D
102
{ACAD_REACTORS
330
C
102
}
330
C
100
AcDbDictionary
281
     1
  0
DICTIONARY
  5
1A
102
{ACAD_REACTORS
330
C
102
}
330
C
100
AcDbDictionary
281
     1
  3
Layout1
350
1E
  3
Layout2
350
26
  3
Model
350
22
  0
DICTIONARY
  5
17
102
{ACAD_REACTORS
330
C
102
}
330
C
100
AcDbDictionary
281
     1
  3
Standard
350
18
  0
DICTIONARY
  5
19
102
{ACAD_REACTORS
330
C
102
}
330
C
100
AcDbDictionary
281
     1
  0
ACDBDICTIONARYWDFLT
  5
E
102
{ACAD_REACTORS
330
C
102
}
330
C
100
AcDbDictionary
281
     1
  3
Normal
350
F
100
AcDbDictionaryWithDefault
340
F
  0
LAYOUT
  5
1E
102
{ACAD_REACTORS
330
1A
102
}
330
1A
100
AcDbPlotSettings
  1

  2
none_device
  4

  6

 40
0.0
 41
0.0
 42
0.0
 43
0.0
 44
0.0
 45
0.0
 46
0.0
 47
0.0
 48
0.0
 49
0.0
140
0.0
141
0.0
142
1.0
143
1.0
 70
   688
 72
     0
 73
     0
 74
     5
  7

 75
    16
147
1.0
148
0.0
149
0.0
100
AcDbLayout
  1
Layout1
 70
     1
 71
     1
 10
0.0
 20
0.0
 11
420.0
 21
297.0
 12
0.0
 22
0.0
 32
0.0
 14
1.0000000000E+20
 24
1.0000000000E+20
 34
1.0000000000E+20
 15
-1.0000000000E+20
 25
-1.0000000000E+20
 35
-1.0000000000E+20
146
0.0
 13
0.0
 23
0.0
 33
0.0
 16
1.0
 26
0.0
 36
0.0
 17
0.0
 27
1.0
 37
0.0
 76
     0
330
1B
  0
LAYOUT
  5
26
102
{ACAD_REACTORS
330
1A
102
}
330
1A
100
AcDbPlotSettings
  1

  2
none_device
  4

  6

 40
0.0
 41
0.0
 42
0.0
 43
0.0
 44
0.0
 45
0.0
 46
0.0
 47
0.0
 48
0.0
 49
0.0
140
0.0
141
0.0
142
1.0
143
1.0
 70
   688
 72
     0
 73
     0
 74
     5
  7

 75
    16
147
1.0
148
0.0
149
0.0
100
AcDbLayout
  1
Layout2
 70
     1
 71
     2
 10
0.0
 20
0.0
 11
0.0
 21
0.0
 12
0.0
 22
0.0
 32
0.0
 14
0.0
 24
0.0
 34
0.0
 15
0.0
 25
0.0
 35
0.0
146
0.0
 13
0.0
 23
0.0
 33
0.0
 16
1.0
 26
0.0
 36
0.0
 17
0.0
 27
1.0
 37
0.0
 76
     0
330
23
  0
LAYOUT
  5
22
102
{ACAD_REACTORS
330
1A
102
}
330
1A
100
AcDbPlotSettings
  1

  2
none_device
  4

  6

 40
0.0
 41
0.0
 42
0.0
 43
0.0
 44
0.0
 45
0.0
 46
0.0
 47
0.0
 48
0.0
 49
0.0
140
0.0
141
0.0
142
1.0
143
1.0
 70
  1712
 72
     0
 73
     0
 74
     0
  7

 75
     0
147
1.0
148
0.0
149
0.0
100
AcDbLayout
  1
Model
 70
     1
 71
     0
 10
0.0
 20
0.0
 11
841.0
 21
594.0
 12
0.0
 22
0.0
 32
0.0
 14
0.0
 24
0.0
 34
0.0
 15
841.0
 25
594.0
 35
0.0
146
0.0
 13
0.0
 23
0.0
 33
0.0
 16
1.0
 26
0.0
 36
0.0
 17
0.0
 27
1.0
 37
0.0
 76
     0
330
1F
331
29
  0
MLINESTYLE
  5
18
102
{ACAD_REACTORS
330
17
102
}
330
17
100
AcDbMlineStyle
  2
Standard
 70
     0
  3

 62
   256
 51
90.0
 52
90.0
 71
     2
 49
0.5
 62
   256
  6
BYLAYER
 49
-0.5
 62
   256
  6
BYLAYER
  0
ACDBPLACEHOLDER
  5
F
102
{ACAD_REACTORS
330
E
102
}
330
E
  0
ENDSEC
  0
EOF
