  0
SECTION
  2
HEADER
  9
$ACADVER
  1
AC1009
  9
$DWGCODEPAGE
  3
dos932
  9
$INSBASE
 10
0.0
 20
0.0
 30
0.0
  9
$EXTMIN
 10
0.0
 20
0.0
 30
0.0
  9
$EXTMAX
 10
1050.0
 20
1485.0
 30
0.0
  9
$LIMMIN
 10
0.0
 20
0.0
  9
$LIMMAX
 10
1050.0
 20
1485.0
  9
$ORTHOMODE
 70
     0
  9
$REGENMODE
 70
     1
  9
$FILLMODE
 70
     1
  9
$QTEXTMODE
 70
     0
  9
$MIRRTEXT
 70
     1
  9
$DRAGMODE
 70
     2
  9
$LTSCALE
 40
5.0
  9
$OSMODE
 70
    37
  9
$ATTMODE
 70
     1
  9
$TEXTSIZE
 40
17.5
  9
$TRACEWID
 40
1.0
  9
$TEXTSTYLE
  7
STANDARD
  9
$CLAYER
  8
0
  9
$CELTYPE
  6
BYLAYER
  9
$CECOLOR
 62
   256
  9
$DIMSCALE
 40
1.0
  9
$DIMASZ
 40
12.5
  9
$DIMEXO
 40
5.0
  9
$DIMDLI
 40
3.75
  9
$DIMRND
 40
0.0
  9
$DIMDLE
 40
0.0
  9
$DIMEXE
 40
5.0
  9
$DIMTP
 40
0.0
  9
$DIMTM
 40
0.0
  9
$DIMTXT
 40
17.5
  9
$DIMCEN
 40
2.5
  9
$DIMTSZ
 40
0.0
  9
$DIMTOL
 70
     0
  9
$DIMLIM
 70
     0
  9
$DIMTIH
 70
     1
  9
$DIMTOH
 70
     1
  9
$DIMSE1
 70
     0
  9
$DIMSE2
 70
     0
  9
$DIMTAD
 70
     1
  9
$DIMZIN
 70
     1
  9
$DIMBLK
  1

  9
$DIMASO
 70
     1
  9
$DIMSHO
 70
     1
  9
$DIMPOST
  1

  9
$DIMAPOST
  1

  9
$DIMALT
 70
     0
  9
$DIMALTD
 70
     3
  9
$DIMALTF
 40
0.0393700787
  9
$DIMLFAC
 40
1.0
  9
$DIMTOFL
 70
     1
  9
$DIMTVP
 40
0.0
  9
$DIMTIX
 70
     0
  9
$DIMSOXD
 70
     0
  9
$DIMSAH
 70
     0
  9
$DIMBLK1
  1

  9
$DIMBLK2
  1

  9
$DIMSTYLE
  2
ISO-25
  9
$DIMCLRD
 70
     0
  9
$DIMCLRE
 70
     0
  9
$DIMCLRT
 70
     0
  9
$DIMTFAC
 40
1.0
  9
$DIMGAP
 40
7.62
  9
$LUNITS
 70
     2
  9
$LUPREC
 70
     0
  9
$SKETCHINC
 40
1.0
  9
$FILLETRAD
 40
10.0
  9
$AUNITS
 70
     0
  9
$AUPREC
 70
     0
  9
$MENU
  1
.
  9
$ELEVATION
 40
0.0
  9
$PELEVATION
 40
0.0
  9
$THICKNESS
 40
0.0
  9
$LIMCHECK
 70
     0
  9
$CHAMFERA
 40
0.0
  9
$CHAMFERB
 40
0.0
  9
$SKPOLY
 70
     0
  9
$TDCREATE
 40
2458088.777043056
  9
$TDUPDATE
 40
2458088.777044502
  9
$TDINDWG
 40
0.0000000116
  9
$TDUSRTIMER
 40
0.0000000116
  9
$USRTIMER
 70
     1
  9
$ANGBASE
 50
0.0
  9
$ANGDIR
 70
     0
  9
$PDMODE
 70
     0
  9
$PDSIZE
 40
-1.0
  9
$PLINEWID
 40
0.0
  9
$COORDS
 70
     1
  9
$SPLFRAME
 70
     0
  9
$SPLINETYPE
 70
     6
  9
$SPLINESEGS
 70
     8
  9
$ATTDIA
 70
     0
  9
$ATTREQ
 70
     1
  9
$HANDLING
 70
     1
  9
$HANDSEED
  5
B1E
  9
$SURFTAB1
 70
     6
  9
$SURFTAB2
 70
     6
  9
$SURFTYPE
 70
     6
  9
$SURFU
 70
     6
  9
$SURFV
 70
     6
  9
$UCSNAME
  2

  9
$UCSORG
 10
0.0
 20
0.0
 30
0.0
  9
$UCSXDIR
 10
1.0
 20
0.0
 30
0.0
  9
$UCSYDIR
 10
0.0
 20
1.0
 30
0.0
  9
$PUCSNAME
  2

  9
$PUCSORG
 10
0.0
 20
0.0
 30
0.0
  9
$PUCSXDIR
 10
1.0
 20
0.0
 30
0.0
  9
$PUCSYDIR
 10
0.0
 20
1.0
 30
0.0
  9
$USERI1
 70
     0
  9
$USERI2
 70
     0
  9
$USERI3
 70
     0
  9
$USERI4
 70
     0
  9
$USERI5
 70
     0
  9
$USERR1
 40
0.0
  9
$USERR2
 40
0.0
  9
$USERR3
 40
0.0
  9
$USERR4
 40
0.0
  9
$USERR5
 40
0.0
  9
$WORLDVIEW
 70
     1
  9
$SHADEDGE
 70
     3
  9
$SHADEDIF
 70
    70
  9
$TILEMODE
 70
     1
  9
$MAXACTVP
 70
    64
  9
$PLIMCHECK
 70
     0
  9
$PEXTMIN
 10
1.0000000000E+20
 20
1.0000000000E+20
 30
1.0000000000E+20
  9
$PEXTMAX
 10
-1.0000000000E+20
 20
-1.0000000000E+20
 30
-1.0000000000E+20
  9
$PLIMMIN
 10
0.0
 20
0.0
  9
$PLIMMAX
 10
420.0
 20
297.0
  9
$UNITMODE
 70
     0
  9
$VISRETAIN
 70
     1
  9
$PLINEGEN
 70
     0
  9
$PSLTSCALE
 70
     1
  0
ENDSEC
  0
SECTION
  2
TABLES
  0
TABLE
  2
VPORT
 70
     1
  0
VPORT
  2
*ACTIVE
 70
     0
 10
0.0
 20
0.0
 11
1.0
 21
1.0
 12
525.0
 22
742.5
 13
0.0
 23
0.0
 14
10.0
 24
10.0
 15
10.0
 25
10.0
 16
0.0
 26
0.0
 36
1.0
 17
0.0
 27
0.0
 37
0.0
 40
1485.0
 41
0.7070707071
 42
50.0
 43
0.0
 44
0.0
 50
0.0
 51
0.0
 71
     0
 72
  2000
 73
     1
 74
     3
 75
     0
 76
     0
 77
     0
 78
     0
  0
ENDTAB
  0
TABLE
  2
LTYPE
 70
     6
  0
LTYPE
  2
CONTINUOUS
 70
     0
  3
Solid line
 72
    65
 73
     0
 40
0.0
  0
LTYPE
  2
HIDDEN
 70
     0
  3
Hidden __ __ __ __ __ __ __ __ __ __ __ __ __ __
 72
    65
 73
     2
 40
1.905
 49
1.27
 49
-0.635
  0
LTYPE
  2
PHANTOM
 70
     0
  3
Phantom ______  __  __  ______  __  __  ______
 72
    65
 73
     6
 40
12.7
 49
6.35
 49
-1.27
 49
1.27
 49
-1.27
 49
1.27
 49
-1.27
  0
LTYPE
  2
CENTER
 70
     0
  3
Center ____ _ ____ _ ____ _ ____ _ ____ _ ____
 72
    65
 73
     4
 40
10.16
 49
6.35
 49
-1.27
 49
1.27
 49
-1.27
  0
LTYPE
  2
CENTERX2
 70
     0
  3
Center (2x) ________  __  ________  __  _____
 72
    65
 73
     4
 40
20.32
 49
12.7
 49
-2.54
 49
2.54
 49
-2.54
  0
LTYPE
  2
DOT2
 70
     0
  3
Dot (.5x) ........................................
 72
    65
 73
     2
 40
0.635
 49
0.0
 49
-0.635
  0
ENDTAB
  0
TABLE
  2
LAYER
 70
    11
  0
LAYER
  2
0
 70
     0
 62
     7
  6
CONTINUOUS
  0
LAYER
  2
SLD-0
 70
     0
 62
   179
  6
CONTINUOUS
  0
LAYER
  2
AM_6
 70
     0
 62
     2
  6
CONTINUOUS
  0
LAYER
  2
AM_5
 70
     0
 62
     3
  6
CONTINUOUS
  0
LAYER
  2
AM_7
 70
     0
 62
     4
  6
CONTINUOUS
  0
LAYER
  2
SLD-DEFPOINTS
 70
     0
 62
   179
  6
CONTINUOUS
  0
LAYER
  2
AM_0
 70
     0
 62
   179
  6
CONTINUOUS
  0
LAYER
  2
AM_CL
 70
     0
 62
     1
  6
CONTINUOUS
  0
LAYER
  2
6
 70
     0
 62
     2
  6
CONTINUOUS
  0
LAYER
  2
AM_4
 70
     0
 62
     3
  6
CONTINUOUS
  0
LAYER
  2
AM_8
 70
     0
 62
     1
  6
CONTINUOUS
  0
ENDTAB
  0
TABLE
  2
STYLE
 70
     1
  0
STYLE
  2
STANDARD
 70
     0
 40
0.0
 41
1.0
 50
0.0
 71
     0
 42
17.5
  3
txt
  4
bigfont
  0
ENDTAB
  0
TABLE
  2
VIEW
 70
     0
  0
ENDTAB
  0
TABLE
  2
UCS
 70
     0
  0
ENDTAB
  0
TABLE
  2
APPID
 70
     1
  0
APPID
  2
ACAD
 70
     0
  0
ENDTAB
  0
TABLE
  2
DIMSTYLE
 70
     1
  0
DIMSTYLE
  2
ISO-25
 70
     0
  3

  4

  5

  6

  7

 40
1.0
 41
2.5
 42
0.625
 43
3.75
 44
1.25
 45
0.0
 46
0.0
 47
0.0
 48
0.0
140
2.5
141
2.5
142
0.0
143
0.0393700787
144
1.0
145
0.0
146
1.0
147
0.625
 71
     0
 72
     0
 73
     0
 74
     0
 75
     0
 76
     0
 77
     1
 78
     8
170
     0
171
     3
172
     1
173
     0
174
     0
175
     0
176
     0
177
     0
178
     0
  0
ENDTAB
  0
ENDSEC
  0
SECTION
  2
BLOCKS
  0
BLOCK
  8
0
  2
$MODEL_SPACE
 70
     0
 10
0.0
 20
0.0
 30
0.0
  3
$MODEL_SPACE
  1

  0
ENDBLK
  5
21
  8
0
  0
BLOCK
 67
     1
  8
0
  2
$PAPER_SPACE
 70
     0
 10
0.0
 20
0.0
 30
0.0
  3
$PAPER_SPACE
  1

  0
ENDBLK
  5
1D
 67
     1
  8
0
  0
BLOCK
  8
0
  2
SW_CENTERMARKSYMBOL_0
 70
     0
 10
0.0
 20
0.0
 30
0.0
  3
SW_CENTERMARKSYMBOL_0
  1

  0
LINE
  5
467
  8
SLD-0
 62
     0
 10
0.0
 20
0.0
 30
0.0
 11
0.0
 21
2.5
 31
0.0
  0
LINE
  5
468
  8
SLD-0
 62
     0
 10
0.0
 20
0.0
 30
0.0
 11
-2.5
 21
0.0
 31
0.0
  0
LINE
  5
469
  8
SLD-0
 62
     0
 10
0.0
 20
0.0
 30
0.0
 11
0.0
 21
-2.5
 31
0.0
  0
LINE
  5
46A
  8
SLD-0
 62
     0
 10
0.0
 20
0.0
 30
0.0
 11
2.5
 21
0.0
 31
0.0
  0
LINE
  5
46B
  8
SLD-0
 62
     0
 10
0.0
 20
5.0
 30
0.0
 11
0.0
 21
286.006100314
 31
0.0
  0
LINE
  5
46C
  8
SLD-0
 62
     0
 10
-5.0
 20
0.0
 30
0.0
 11
-111.8651378529
 21
0.0
 31
0.0
  0
LINE
  5
46D
  8
SLD-0
 62
     0
 10
0.0
 20
-5.0
 30
0.0
 11
0.0
 21
-277.3736347396
 31
0.0
  0
LINE
  5
46E
  8
SLD-0
 62
     0
 10
5.0
 20
0.0
 30
0.0
 11
100.7649516595
 21
0.0
 31
0.0
  0
ENDBLK
  5
466
  8
0
  0
BLOCK
  8
0
  2
SW_CENTERMARKSYMBOL_1
 70
     0
 10
0.0
 20
0.0
 30
0.0
  3
SW_CENTERMARKSYMBOL_1
  1

  0
ARC
  5
56F
  8
SLD-0
 62
     0
 10
76.0139789776
 20
-76.0139789776
 30
0.0
 40
107.5
 50
135.0
 51
136.3324599887
  0
ARC
  5
570
  8
SLD-0
 62
     0
 10
76.0139789776
 20
-76.0139789776
 30
0.0
 40
107.5
 50
133.6675400113
 51
135.0
  0
ARC
  5
571
  8
SLD-0
 62
     0
 10
76.0139789776
 20
-76.0139789776
 30
0.0
 40
107.4999999999999
 50
45.0
 51
46.3324599887
  0
ARC
  5
572
  8
SLD-0
 62
     0
 10
76.0139789776
 20
-76.0139789776
 30
0.0
 40
107.5
 50
43.6675400113
 51
45.0
  0
ARC
  5
573
  8
SLD-0
 62
     0
 10
76.0139789776
 20
-76.0139789776
 30
0.0
 40
107.5
 50
315.0
 51
316.3324599887
  0
ARC
  5
574
  8
SLD-0
 62
     0
 10
76.0139789776
 20
-76.0139789776
 30
0.0
 40
107.5
 50
313.6675400113
 51
315.0
  0
ARC
  5
575
  8
SLD-0
 62
     0
 10
76.0139789776
 20
-76.0139789776
 30
0.0
 40
107.5
 50
225.0
 51
226.3324599887
  0
ARC
  5
576
  8
SLD-0
 62
     0
 10
76.0139789776
 20
-76.0139789776
 30
0.0
 40
107.5
 50
223.6675400113
 51
225.0
  0
ARC
  5
577
  8
SLD-0
 62
     0
 10
76.0139789776
 20
-76.0139789776
 30
0.0
 40
107.5
 50
47.6649199774
 51
132.3350800226
  0
ARC
  5
578
  8
SLD-0
 62
     0
 10
76.0139789776
 20
-76.0139789776
 30
0.0
 40
107.5
 50
137.6649199774
 51
222.3350800226
  0
ARC
  5
579
  8
SLD-0
 62
     0
 10
76.0139789776
 20
-76.0139789776
 30
0.0
 40
107.5
 50
227.6649199774
 51
312.3350800226
  0
ARC
  5
57A
  8
SLD-0
 62
     0
 10
76.0139789776
 20
-76.0139789776
 30
0.0
 40
107.5
 50
317.6649199774
 51
42.3350800226
  0
LINE
  5
57B
  8
SLD-0
 62
     0
 10
0.0
 20
0.0
 30
0.0
 11
-1.767766953
 21
1.767766953
 31
0.0
  0
LINE
  5
57C
  8
SLD-0
 62
     0
 10
0.0
 20
0.0
 30
0.0
 11
1.767766953
 21
-1.767766953
 31
0.0
  0
LINE
  5
57D
  8
SLD-0
 62
     0
 10
-3.5355339059
 20
3.5355339059
 30
0.0
 11
-6.0104076401
 21
6.0104076401
 31
0.0
  0
LINE
  5
57E
  8
SLD-0
 62
     0
 10
3.5355339059
 20
-3.5355339059
 30
0.0
 11
6.0104076401
 21
-6.0104076401
 31
0.0
  0
LINE
  5
57F
  8
SLD-0
 62
     0
 10
152.0279579551
 20
0.0
 30
0.0
 11
153.7957249081
 21
1.767766953
 31
0.0
  0
LINE
  5
580
  8
SLD-0
 62
     0
 10
152.0279579551
 20
0.0
 30
0.0
 11
150.2601910021
 21
-1.767766953
 31
0.0
  0
LINE
  5
581
  8
SLD-0
 62
     0
 10
155.563491861
 20
3.5355339059
 30
0.0
 11
158.0383655952
 21
6.0104076401
 31
0.0
  0
LINE
  5
582
  8
SLD-0
 62
     0
 10
148.4924240492
 20
-3.5355339059
 30
0.0
 11
146.017550315
 21
-6.0104076401
 31
0.0
  0
LINE
  5
583
  8
SLD-0
 62
     0
 10
152.0279579551
 20
-152.0279579551
 30
0.0
 11
153.7957249081
 21
-153.7957249081
 31
0.0
  0
LINE
  5
584
  8
SLD-0
 62
     0
 10
152.0279579551
 20
-152.0279579551
 30
0.0
 11
150.2601910021
 21
-150.2601910021
 31
0.0
  0
LINE
  5
585
  8
SLD-0
 62
     0
 10
155.563491861
 20
-155.563491861
 30
0.0
 11
158.0383655952
 21
-158.0383655952
 31
0.0
  0
LINE
  5
586
  8
SLD-0
 62
     0
 10
148.4924240492
 20
-148.4924240492
 30
0.0
 11
146.017550315
 21
-146.017550315
 31
0.0
  0
LINE
  5
587
  8
SLD-0
 62
     0
 10
0.0
 20
-152.0279579551
 30
0.0
 11
-1.767766953
 21
-153.7957249081
 31
0.0
  0
LINE
  5
588
  8
SLD-0
 62
     0
 10
0.0
 20
-152.0279579551
 30
0.0
 11
1.767766953
 21
-150.2601910021
 31
0.0
  0
LINE
  5
589
  8
SLD-0
 62
     0
 10
-3.5355339059
 20
-155.563491861
 30
0.0
 11
-6.0104076401
 21
-158.0383655952
 31
0.0
  0
LINE
  5
58A
  8
SLD-0
 62
     0
 10
3.5355339059
 20
-148.4924240492
 30
0.0
 11
6.0104076401
 21
-146.017550315
 31
0.0
  0
LINE
  5
58B
  8
SLD-0
 62
     0
 10
76.0139789776
 20
-76.0139789776
 30
0.0
 11
76.0139789776
 21
-73.5139789776
 31
0.0
  0
LINE
  5
58C
  8
SLD-0
 62
     0
 10
76.0139789776
 20
-76.0139789776
 30
0.0
 11
73.5139789776
 21
-76.0139789776
 31
0.0
  0
LINE
  5
58D
  8
SLD-0
 62
     0
 10
76.0139789776
 20
-76.0139789776
 30
0.0
 11
76.0139789776
 21
-78.5139789776
 31
0.0
  0
LINE
  5
58E
  8
SLD-0
 62
     0
 10
76.0139789776
 20
-76.0139789776
 30
0.0
 11
78.5139789776
 21
-76.0139789776
 31
0.0
  0
LINE
  5
58F
  8
SLD-0
 62
     0
 10
76.0139789776
 20
-71.0139789776
 30
0.0
 11
76.0139789776
 21
37.2303688094
 31
0.0
  0
LINE
  5
590
  8
SLD-0
 62
     0
 10
71.0139789776
 20
-76.0139789776
 30
0.0
 11
-43.1962922185
 21
-76.0139789776
 31
0.0
  0
LINE
  5
591
  8
SLD-0
 62
     0
 10
76.0139789776
 20
-81.0139789776
 30
0.0
 11
76.0139789776
 21
-194.7735207075
 31
0.0
  0
LINE
  5
592
  8
SLD-0
 62
     0
 10
81.0139789776
 20
-76.0139789776
 30
0.0
 11
176.3266675254
 21
-76.0139789776
 31
0.0
  0
ENDBLK
  5
56E
  8
0
  0
BLOCK
  8
0
  2
SW_CENTERMARKSYMBOL_2
 70
     0
 10
0.0
 20
0.0
 30
0.0
  3
SW_CENTERMARKSYMBOL_2
  1

  0
LINE
  5
597
  8
SLD-0
 62
     0
 10
0.0
 20
0.0
 30
0.0
 11
0.0
 21
2.5
 31
0.0
  0
LINE
  5
598
  8
SLD-0
 62
     0
 10
0.0
 20
0.0
 30
0.0
 11
-2.5
 21
0.0
 31
0.0
  0
LINE
  5
599
  8
SLD-0
 62
     0
 10
0.0
 20
0.0
 30
0.0
 11
0.0
 21
-2.5
 31
0.0
  0
LINE
  5
59A
  8
SLD-0
 62
     0
 10
0.0
 20
0.0
 30
0.0
 11
2.5
 21
0.0
 31
0.0
  0
LINE
  5
59B
  8
SLD-0
 62
     0
 10
0.0
 20
5.0
 30
0.0
 11
0.0
 21
13.5
 31
0.0
  0
LINE
  5
59C
  8
SLD-0
 62
     0
 10
-5.0
 20
0.0
 30
0.0
 11
-13.5
 21
0.0
 31
0.0
  0
LINE
  5
59D
  8
SLD-0
 62
     0
 10
0.0
 20
-5.0
 30
0.0
 11
0.0
 21
-13.5
 31
0.0
  0
LINE
  5
59E
  8
SLD-0
 62
     0
 10
5.0
 20
0.0
 30
0.0
 11
39.4579372411
 21
0.0
 31
0.0
  0
ENDBLK
  5
596
  8
0
  0
ENDSEC
  0
SECTION
  2
ENTITIES
  0
ARC
  5
7D
  8
0
  6
CONTINUOUS
 62
     7
 10
427.0999069321
 20
1166.8815113281
 30
0.0
 40
6.500000000000036
 50
184.5443517076
 51
220.1340404464
  0
ARC
  5
7E
  8
0
  6
CONTINUOUS
 62
     7
 10
427.0999069321
 20
1166.8815113281
 30
0.0
 40
6.500000000000129
 50
139.8659595536
 51
175.4556482924
  0
POLYLINE
  5
7F
  8
0
  6
CONTINUOUS
 62
     7
 66
     1
 10
0.0
 20
0.0
 30
0.0
 70
   128
  0
VERTEX
  5
5A0
  8
0
  6
CONTINUOUS
 62
     7
 10
422.5939993831
 20
1162.4210014318
 30
0.0
  0
VERTEX
  5
5A1
  8
0
  6
CONTINUOUS
 62
     7
 10
422.6994996043
 20
1162.3818411802
 30
0.0
  0
VERTEX
  5
5A2
  8
0
  6
CONTINUOUS
 62
     7
 10
422.778736529
 20
1162.4076946949
 30
0.0
  0
SEQEND
  5
A73
  8
0
  6
CONTINUOUS
 62
     7
  0
LINE
  5
80
  8
0
  6
CONTINUOUS
 62
     7
 10
422.7277075025
 20
1171.3452025627
 30
0.0
 11
422.7050279351
 21
1171.347080109
 31
0.0
  0
LINE
  5
81
  8
0
  6
CONTINUOUS
 62
     7
 10
422.7200930091
 20
1162.3815133547
 30
0.0
 11
423.8157604905
 21
1162.3815133547
 31
0.0
  0
LINE
  5
82
  8
0
  6
CONTINUOUS
 62
     7
 10
423.8157604905
 20
1171.3815166925
 30
0.0
 11
422.7200930091
 21
1171.3815166925
 31
0.0
  0
LINE
  5
83
  8
0
  6
CONTINUOUS
 62
     7
 10
587.4039118263
 20
1171.3815166925
 30
0.0
 11
586.6018344733
 21
1171.3815166925
 31
0.0
  0
LINE
  5
84
  8
0
  6
CONTINUOUS
 62
     7
 10
586.6018344733
 20
1162.3815133547
 30
0.0
 11
587.4039118263
 21
1162.3815133547
 31
0.0
  0
ARC
  5
85
  8
0
  6
CONTINUOUS
 62
     7
 10
613.5003420206
 20
1148.3815113281
 30
0.0
 40
0.5
 50
0.0
 51
90.0
  0
ARC
  5
86
  8
0
  6
CONTINUOUS
 62
     7
 10
613.5003420206
 20
1109.3815113281
 30
0.0
 40
0.5000000000002274
 50
270.0
 51
0.0
  0
LINE
  5
87
  8
0
  6
CONTINUOUS
 62
     7
 10
604.5003418895
 20
1108.8815166925
 30
0.0
 11
613.5003452274
 21
1108.8815166925
 31
0.0
  0
LINE
  5
88
  8
0
  6
CONTINUOUS
 62
     7
 10
613.5003452274
 20
1148.8815083479
 30
0.0
 11
604.5003418895
 21
1148.8815083479
 31
0.0
  0
ARC
  5
89
  8
0
  6
CONTINUOUS
 62
     7
 10
604.5003420206
 20
1148.3815113281
 30
0.0
 40
0.5
 50
90.0
 51
180.0
  0
ARC
  5
8A
  8
0
  6
CONTINUOUS
 62
     7
 10
604.5003420206
 20
1109.3815113281
 30
0.0
 40
0.5000000000002274
 50
180.0
 51
270.0
  0
LINE
  5
8B
  8
0
  6
CONTINUOUS
 62
     7
 10
603.8003449413
 20
1112.3815163349
 30
0.0
 11
604.0003408762
 21
1112.3815163349
 31
0.0
  0
LINE
  5
8C
  8
0
  6
CONTINUOUS
 62
     7
 10
604.0003408762
 20
1145.3815087055
 30
0.0
 11
603.8003449413
 21
1145.3815087055
 31
0.0
  0
LINE
  5
8D
  8
0
  6
CONTINUOUS
 62
     7
 10
614.0003387901
 20
1112.3815163349
 30
0.0
 11
614.2003421756
 21
1112.3815163349
 31
0.0
  0
LINE
  5
8E
  8
0
  6
CONTINUOUS
 62
     7
 10
614.2003421756
 20
1145.3815087055
 30
0.0
 11
614.0003387901
 21
1145.3815087055
 31
0.0
  0
ARC
  5
8F
  8
0
  6
CONTINUOUS
 62
     7
 10
621.3903215097
 20
1158.2348862072
 30
0.0
 40
0.3599999999998344
 50
56.3583676093
 51
110.0
  0
ARC
  5
90
  8
0
  6
CONTINUOUS
 62
     7
 10
623.8802281531
 20
1151.3939239278
 30
0.0
 40
0.3599999999999037
 50
290.0
 51
343.6416323907
  0
LINE
  5
91
  8
0
  6
CONTINUOUS
 62
     7
 10
621.26719552
 20
1158.5731788849
 30
0.0
 11
619.815658507
 21
1158.0448582147
 31
0.0
  0
LINE
  5
92
  8
0
  6
CONTINUOUS
 62
     7
 10
622.551817176
 20
1150.5273117994
 30
0.0
 11
624.003354189
 21
1151.0556324695
 31
0.0
  0
ARC
  5
93
  8
0
  6
CONTINUOUS
 62
     7
 10
617.9887822491
 20
1153.1232200738
 30
0.0
 40
6.500000000000007
 50
343.6416323907
 51
2.1374195081
  0
ARC
  5
94
  8
0
  6
CONTINUOUS
 62
     7
 10
617.9887822491
 20
1153.1232200738
 30
0.0
 40
6.499999999999982
 50
37.8625804919
 51
56.3583676093
  0
ARC
  5
95
  8
0
  6
CONTINUOUS
 62
     7
 10
652.5141545523
 20
1072.7228577156
 30
0.0
 40
0.3600000000000481
 50
56.3583676093
 51
110.0
  0
ARC
  5
96
  8
0
  6
CONTINUOUS
 62
     7
 10
655.0040611957
 20
1065.8818954363
 30
0.0
 40
0.3599999999999037
 50
290.0
 51
343.6416323907
  0
LINE
  5
97
  8
0
  6
CONTINUOUS
 62
     7
 10
652.3910273882
 20
1073.0611442899
 30
0.0
 11
650.9394903752
 21
1072.5328310703
 31
0.0
  0
LINE
  5
98
  8
0
  6
CONTINUOUS
 62
     7
 10
653.6756564947
 20
1065.0152921056
 30
0.0
 11
655.1271935078
 21
1065.5436053251
 31
0.0
  0
ARC
  5
99
  8
0
  6
CONTINUOUS
 62
     7
 10
649.1126152918
 20
1067.6111915823
 30
0.0
 40
6.500000000000121
 50
343.6416323907
 51
2.1374195081
  0
ARC
  5
9A
  8
0
  6
CONTINUOUS
 62
     7
 10
649.1126152918
 20
1067.6111915823
 30
0.0
 40
6.499999999999973
 50
37.8625804919
 51
56.3583676093
  0
LINE
  5
9B
  8
0
  6
CONTINUOUS
 62
     7
 10
655.5051614615
 20
1126.8000885223
 30
0.0
 11
655.4551531645
 21
1126.8000885223
 31
0.0
  0
LINE
  5
9C
  8
0
  6
CONTINUOUS
 62
     7
 10
530.3003422069
 20
1211.3815083479
 30
0.0
 11
530.3003422069
 21
1211.4315166448
 31
0.0
  0
LINE
  5
9D
  8
0
  6
CONTINUOUS
 62
     7
 10
505.3003418344
 20
1211.4315166448
 30
0.0
 11
505.3003418344
 21
1211.3815083479
 31
0.0
  0
LINE
  5
9E
  8
0
  6
CONTINUOUS
 62
     7
 10
508.8003424081
 20
1211.4815100406
 30
0.0
 11
508.8003424081
 21
1211.4315166448
 31
0.0
  0
ARC
  5
9F
  8
0
  6
CONTINUOUS
 62
     7
 10
607.8003420206
 20
1194.6787580499
 30
0.0
 40
2.799999999999955
 50
0.0
 51
62.60975803
  0
ARC
  5
A0
  8
0
  6
CONTINUOUS
 62
     7
 10
427.8003420206
 20
1194.6787580499
 30
0.0
 40
2.800000000000078
 50
117.39024197
 51
180.0
  0
LINE
  5
A1
  8
0
  6
CONTINUOUS
 62
     7
 10
425.0003432008
 20
1194.6787520622
 30
0.0
 11
425.0003432008
 21
1176.3654335712
 31
0.0
  0
LINE
  5
A2
  8
0
  6
CONTINUOUS
 62
     7
 10
610.6003408405
 20
1151.3815059637
 30
0.0
 11
610.6003408405
 21
1194.6787520622
 31
0.0
  0
LINE
  5
A3
  8
0
  6
CONTINUOUS
 62
     7
 10
609.0884764763
 20
1197.1648617958
 30
0.0
 11
591.9482817026
 21
1206.0457899546
 31
0.0
  0
LINE
  5
A4
  8
0
  6
CONTINUOUS
 62
     7
 10
443.6524023386
 20
1206.0457899546
 30
0.0
 11
426.512207565
 21
1197.1648617958
 31
0.0
  0
ARC
  5
A5
  8
0
  6
CONTINUOUS
 62
     7
 10
443.1003420206
 20
1207.1112627331
 30
0.0
 40
1.200000000000045
 50
297.39024197
 51
0.0
  0
ARC
  5
A6
  8
0
  6
CONTINUOUS
 62
     7
 10
592.5003420206
 20
1207.1112627331
 30
0.0
 40
1.200000000000116
 50
180.0
 51
242.60975803
  0
LINE
  5
A7
  8
0
  6
CONTINUOUS
 62
     7
 10
444.3003420802
 20
1209.5815076803
 30
0.0
 11
444.3003420802
 21
1207.1112676834
 31
0.0
  0
LINE
  5
A8
  8
0
  6
CONTINUOUS
 62
     7
 10
591.300341961
 20
1207.1112676834
 30
0.0
 11
591.300341961
 21
1209.5815076803
 31
0.0
  0
ARC
  5
A9
  8
0
  6
CONTINUOUS
 62
     7
 10
589.5003420206
 20
1209.5815113281
 30
0.0
 40
1.800000000000182
 50
0.0
 51
90.0
  0
ARC
  5
AA
  8
0
  6
CONTINUOUS
 62
     7
 10
446.1003420206
 20
1209.5815113281
 30
0.0
 40
1.800000000000182
 50
90.0
 51
180.0
  0
ARC
  5
AB
  8
0
  6
CONTINUOUS
 62
     7
 10
588.313756279
 20
1173.3815113281
 30
0.0
 40
3.000000000000009
 50
0.0
 51
84.753415462
  0
LINE
  5
AC
  8
0
  6
CONTINUOUS
 62
     7
 10
591.3137530061
 20
1151.3815059637
 30
0.0
 11
591.3137530061
 21
1173.3815058445
 31
0.0
  0
ARC
  5
AD
  8
0
  6
CONTINUOUS
 62
     7
 10
425.3104716286
 20
1173.3815113281
 30
0.0
 40
3.0
 50
94.0450781816
 51
180.0
  0
POLYLINE
  5
AE
  8
0
  6
CONTINUOUS
 62
     7
 66
     1
 10
0.0
 20
0.0
 30
0.0
 70
   128
  0
VERTEX
  5
5A3
  8
0
  6
CONTINUOUS
 62
     7
 10
426.303524253
 20
1177.0255252098
 30
0.0
  0
VERTEX
  5
5A4
  8
0
  6
CONTINUOUS
 62
     7
 10
426.3053421947
 20
1177.0303084825
 30
0.0
  0
VERTEX
  5
5A5
  8
0
  6
CONTINUOUS
 62
     7
 10
426.2228568169
 20
1176.9113525127
 30
0.0
  0
VERTEX
  5
5A6
  8
0
  6
CONTINUOUS
 62
     7
 10
425.9233509275
 20
1176.6457840179
 30
0.0
  0
VERTEX
  5
5A7
  8
0
  6
CONTINUOUS
 62
     7
 10
425.6611649963
 20
1176.5387340759
 30
0.0
  0
SEQEND
  5
A74
  8
0
  6
CONTINUOUS
 62
     7
  0
LINE
  5
AF
  8
0
  6
CONTINUOUS
 62
     7
 10
422.3104749891
 20
1162.5387355064
 30
0.0
 11
422.3104749891
 21
1151.3815059637
 31
0.0
  0
LINE
  5
B0
  8
0
  6
CONTINUOUS
 62
     7
 10
600.8003388616
 20
971.8815112331
 30
0.0
 11
600.8003388616
 21
981.8815117081
 31
0.0
  0
LINE
  5
B1
  8
0
  6
CONTINUOUS
 62
     7
 10
434.8003451797
 20
981.8815117081
 30
0.0
 11
434.8003451797
 21
971.8815112331
 31
0.0
  0
LINE
  5
B2
  8
0
  6
CONTINUOUS
 62
     7
 10
562.447860566
 20
981.8815117081
 30
0.0
 11
562.447860566
 21
1151.3815059637
 31
0.0
  0
LINE
  5
B3
  8
0
  6
CONTINUOUS
 62
     7
 10
473.1528234752
 20
1151.3815059637
 30
0.0
 11
473.1528234752
 21
981.8815117081
 31
0.0
  0
LINE
  5
B4
  8
0
  6
CONTINUOUS
 62
     7
 10
570.1358129355
 20
981.8815117081
 30
0.0
 11
570.1358129355
 21
1151.3815059637
 31
0.0
  0
LINE
  5
B5
  8
0
  6
CONTINUOUS
 62
     7
 10
465.4648711058
 20
1151.3815059637
 30
0.0
 11
465.4648711058
 21
981.8815117081
 31
0.0
  0
LINE
  5
B6
  8
0
  6
CONTINUOUS
 62
     7
 10
577.2613284262
 20
981.8815117081
 30
0.0
 11
577.2613284262
 21
1151.3815059637
 31
0.0
  0
LINE
  5
B7
  8
0
  6
CONTINUOUS
 62
     7
 10
458.339355615
 20
1151.3815059637
 30
0.0
 11
458.339355615
 21
981.8815117081
 31
0.0
  0
LINE
  5
B8
  8
0
  6
CONTINUOUS
 62
     7
 10
583.7463324043
 20
981.8815117081
 30
0.0
 11
583.7463324043
 21
1151.3815059637
 31
0.0
  0
LINE
  5
B9
  8
0
  6
CONTINUOUS
 62
     7
 10
451.854351637
 20
1151.3815059637
 30
0.0
 11
451.854351637
 21
981.8815117081
 31
0.0
  0
LINE
  5
BA
  8
0
  6
CONTINUOUS
 62
     7
 10
589.5197724077
 20
981.8815117081
 30
0.0
 11
589.5197724077
 21
1151.3815059637
 31
0.0
  0
LINE
  5
BB
  8
0
  6
CONTINUOUS
 62
     7
 10
446.0809116336
 20
1151.3815059637
 30
0.0
 11
446.0809116336
 21
981.8815117081
 31
0.0
  0
LINE
  5
BC
  8
0
  6
CONTINUOUS
 62
     7
 10
594.5183967325
 20
981.8815117081
 30
0.0
 11
594.5183967325
 21
1151.3815059637
 31
0.0
  0
LINE
  5
BD
  8
0
  6
CONTINUOUS
 62
     7
 10
441.0822873088
 20
1151.3815059637
 30
0.0
 11
441.0822873088
 21
981.8815117081
 31
0.0
  0
LINE
  5
BE
  8
0
  6
CONTINUOUS
 62
     7
 10
598.6874361607
 20
981.8815117081
 30
0.0
 11
598.6874361607
 21
1151.3815059637
 31
0.0
  0
LINE
  5
BF
  8
0
  6
CONTINUOUS
 62
     7
 10
436.9132478806
 20
1151.3815059637
 30
0.0
 11
436.9132478806
 21
981.8815117081
 31
0.0
  0
LINE
  5
C0
  8
0
  6
CONTINUOUS
 62
     7
 10
601.9812186333
 20
981.8815117081
 30
0.0
 11
601.9812186333
 21
1151.3815059637
 31
0.0
  0
LINE
  5
C1
  8
0
  6
CONTINUOUS
 62
     7
 10
433.619465408
 20
1151.3815059637
 30
0.0
 11
433.619465408
 21
981.8815117081
 31
0.0
  0
LINE
  5
C2
  8
0
  6
CONTINUOUS
 62
     7
 10
431.2370305034
 20
1151.3815059637
 30
0.0
 11
431.2370305034
 21
981.8815117081
 31
0.0
  0
LINE
  5
C3
  8
0
  6
CONTINUOUS
 62
     7
 10
470.1588188382
 20
904.3815120434
 30
0.0
 11
470.1588188382
 21
905.2260204529
 31
0.0
  0
LINE
  5
C4
  8
0
  6
CONTINUOUS
 62
     7
 10
454.1588162156
 20
905.2260204529
 30
0.0
 11
454.1588162156
 21
904.3815120434
 31
0.0
  0
LINE
  5
C5
  8
0
  6
CONTINUOUS
 62
     7
 10
573.0736029419
 20
705.3815110897
 30
0.0
 11
573.0736029419
 21
706.3814982151
 31
0.0
  0
LINE
  5
C6
  8
0
  6
CONTINUOUS
 62
     7
 10
558.6936024102
 20
706.3814982151
 30
0.0
 11
558.6936024102
 21
705.3815110897
 31
0.0
  0
LINE
  5
C7
  8
0
  6
CONTINUOUS
 62
     7
 10
569.8836033317
 20
721.3815137123
 30
0.0
 11
569.8836033317
 21
821.8815162157
 31
0.0
  0
LINE
  5
C8
  8
0
  6
CONTINUOUS
 62
     7
 10
561.8836020204
 20
821.8815162157
 30
0.0
 11
561.8836020204
 21
721.3815137123
 31
0.0
  0
LINE
  5
C9
  8
0
  6
CONTINUOUS
 62
     7
 10
476.9070816311
 20
705.3815110897
 30
0.0
 11
476.9070816311
 21
706.3814982151
 31
0.0
  0
LINE
  5
CA
  8
0
  6
CONTINUOUS
 62
     7
 10
462.5270810994
 20
706.3814982151
 30
0.0
 11
462.5270810994
 21
705.3815110897
 31
0.0
  0
LINE
  5
CB
  8
0
  6
CONTINUOUS
 62
     7
 10
473.7170820209
 20
721.3815137123
 30
0.0
 11
473.7170820209
 21
821.8815162157
 31
0.0
  0
LINE
  5
CC
  8
0
  6
CONTINUOUS
 62
     7
 10
465.7170807096
 20
821.8815162157
 30
0.0
 11
465.7170807096
 21
721.3815137123
 31
0.0
  0
LINE
  5
CD
  8
0
  6
CONTINUOUS
 62
     7
 10
456.8003413352
 20
746.3815047716
 30
0.0
 11
456.8003413352
 21
721.3815137123
 31
0.0
  0
LINE
  5
CE
  8
0
  6
CONTINUOUS
 62
     7
 10
578.8003427061
 20
721.3815137123
 30
0.0
 11
578.8003427061
 21
746.3815047716
 31
0.0
  0
LINE
  5
CF
  8
0
  6
CONTINUOUS
 62
     7
 10
456.5851909193
 20
721.3815137123
 30
0.0
 11
456.5851909193
 21
708.3815022682
 31
0.0
  0
ARC
  5
D0
  8
0
  6
CONTINUOUS
 62
     7
 10
458.5851922081
 20
708.3815113281
 30
0.0
 40
2.0
 50
180.0
 51
270.0
  0
LINE
  5
D1
  8
0
  6
CONTINUOUS
 62
     7
 10
579.015493122
 20
708.3815022682
 30
0.0
 11
579.015493122
 21
721.3815137123
 31
0.0
  0
ARC
  5
D2
  8
0
  6
CONTINUOUS
 62
     7
 10
577.0154918332
 20
708.3815113281
 30
0.0
 40
2.0
 50
270.0
 51
0.0
  0
ARC
  5
D3
  8
0
  6
CONTINUOUS
 62
     7
 10
476.8003420206
 20
701.3815113281
 30
0.0
 40
5.0
 50
0.0
 51
88.7767696191
  0
ARC
  5
D4
  8
0
  6
CONTINUOUS
 62
     7
 10
558.8003420206
 20
701.3815113281
 30
0.0
 40
5.000000000000008
 50
91.2232303809
 51
180.0
  0
LINE
  5
D5
  8
0
  6
CONTINUOUS
 62
     7
 10
481.8003435704
 20
701.3815029835
 30
0.0
 11
481.8003435704
 21
683.3815261101
 31
0.0
  0
ARC
  5
D6
  8
0
  6
CONTINUOUS
 62
     7
 10
483.8003420206
 20
683.3815113281
 30
0.0
 40
2.0
 50
180.0
 51
270.0
  0
LINE
  5
D7
  8
0
  6
CONTINUOUS
 62
     7
 10
553.8003404709
 20
683.3815261101
 30
0.0
 11
553.8003404709
 21
701.3815029835
 31
0.0
  0
ARC
  5
D8
  8
0
  6
CONTINUOUS
 62
     7
 10
551.8003420206
 20
683.3815113281
 30
0.0
 40
2.0
 50
270.0
 51
0.0
  0
ARC
  5
D9
  8
0
  6
CONTINUOUS
 62
     7
 10
473.025351273
 20
701.3815113281
 30
0.0
 40
5.0
 50
0.0
 51
53.1301023542
  0
ARC
  5
DA
  8
0
  6
CONTINUOUS
 62
     7
 10
562.5753327682
 20
701.3815113281
 30
0.0
 40
5.000000000000024
 50
140.8779358329
 51
180.0
  0
LINE
  5
DB
  8
0
  6
CONTINUOUS
 62
     7
 10
478.0253504487
 20
701.3815029835
 30
0.0
 11
478.0253504487
 21
683.3815261101
 31
0.0
  0
ARC
  5
DC
  8
0
  6
CONTINUOUS
 62
     7
 10
480.025351273
 20
683.3815113281
 30
0.0
 40
2.0
 50
180.0
 51
270.0
  0
LINE
  5
DD
  8
0
  6
CONTINUOUS
 62
     7
 10
557.5753335925
 20
683.3815261101
 30
0.0
 11
557.5753335925
 21
701.3815029835
 31
0.0
  0
ARC
  5
DE
  8
0
  6
CONTINUOUS
 62
     7
 10
555.5753327682
 20
683.3815113281
 30
0.0
 40
2.0
 50
270.0
 51
0.0
  0
LINE
  5
DF
  8
0
  6
CONTINUOUS
 62
     7
 10
578.8003427061
 20
745.8815112089
 30
0.0
 11
578.8003427061
 21
782.381518123
 31
0.0
  0
LINE
  5
E0
  8
0
  6
CONTINUOUS
 62
     7
 10
456.8003413352
 20
782.381518123
 30
0.0
 11
456.8003413352
 21
745.8815112089
 31
0.0
  0
LINE
  5
E1
  8
0
  6
CONTINUOUS
 62
     7
 10
578.8003427061
 20
782.381518123
 30
0.0
 11
578.8003427061
 21
818.881510136
 31
0.0
  0
LINE
  5
E2
  8
0
  6
CONTINUOUS
 62
     7
 10
456.8003413352
 20
818.881510136
 30
0.0
 11
456.8003413352
 21
782.381518123
 31
0.0
  0
LINE
  5
E3
  8
0
  6
CONTINUOUS
 62
     7
 10
602.8003429147
 20
909.3815147256
 30
0.0
 11
602.8003429147
 21
971.8815112331
 31
0.0
  0
LINE
  5
E4
  8
0
  6
CONTINUOUS
 62
     7
 10
432.8003411266
 20
971.8815112331
 30
0.0
 11
432.8003411266
 21
922.3815112685
 31
0.0
  0
LINE
  5
E5
  8
0
  6
CONTINUOUS
 62
     7
 10
432.8003411266
 20
892.3815100764
 30
0.0
 11
432.8003411266
 21
889.3815114473
 31
0.0
  0
LINE
  5
E6
  8
0
  6
CONTINUOUS
 62
     7
 10
602.8003429147
 20
889.3815114473
 30
0.0
 11
602.8003429147
 21
892.3815100764
 31
0.0
  0
LINE
  5
E7
  8
0
  6
CONTINUOUS
 62
     7
 10
486.8003425273
 20
843.5683979963
 30
0.0
 11
486.8003425273
 21
840.1823326324
 31
0.0
  0
LINE
  5
E8
  8
0
  6
CONTINUOUS
 62
     7
 10
548.800341514
 20
840.1889785503
 30
0.0
 11
548.800341514
 21
843.5683979963
 31
0.0
  0
ARC
  5
E9
  8
0
  6
CONTINUOUS
 62
     7
 10
607.8003420206
 20
909.3815113281
 30
0.0
 40
5.0
 50
180.0
 51
270.0
  0
ARC
  5
EA
  8
0
  6
CONTINUOUS
 62
     7
 10
458.5851922081
 20
834.8815113281
 30
0.0
 40
2.0
 50
90.0
 51
180.0
  0
LINE
  5
EB
  8
0
  6
CONTINUOUS
 62
     7
 10
456.5851909193
 20
834.8815127586
 30
0.0
 11
456.5851909193
 21
823.8815053676
 31
0.0
  0
ARC
  5
EC
  8
0
  6
CONTINUOUS
 62
     7
 10
458.5851922081
 20
823.8815113281
 30
0.0
 40
2.000000000000114
 50
180.0
 51
270.0
  0
ARC
  5
ED
  8
0
  6
CONTINUOUS
 62
     7
 10
577.0154918332
 20
834.8815113281
 30
0.0
 40
2.000000000000114
 50
0.0
 51
90.0
  0
LINE
  5
EE
  8
0
  6
CONTINUOUS
 62
     7
 10
579.015493122
 20
823.8815053676
 30
0.0
 11
579.015493122
 21
834.8815127586
 31
0.0
  0
ARC
  5
EF
  8
0
  6
CONTINUOUS
 62
     7
 10
577.0154918332
 20
823.8815113281
 30
0.0
 40
2.000000000000114
 50
270.0
 51
0.0
  0
ARC
  5
F0
  8
0
  6
CONTINUOUS
 62
     7
 10
458.8003420206
 20
844.8815113281
 30
0.0
 40
2.0
 50
90.0
 51
180.0
  0
LINE
  5
F1
  8
0
  6
CONTINUOUS
 62
     7
 10
456.8003413352
 20
844.881518123
 30
0.0
 11
456.8003413352
 21
835.7838972782
 31
0.0
  0
LINE
  5
F2
  8
0
  6
CONTINUOUS
 62
     7
 10
456.8003413352
 20
822.9791208481
 30
0.0
 11
456.8003413352
 21
818.881510136
 31
0.0
  0
ARC
  5
F3
  8
0
  6
CONTINUOUS
 62
     7
 10
576.8003420206
 20
844.8815113281
 30
0.0
 40
2.0
 50
0.0
 51
90.0
  0
LINE
  5
F4
  8
0
  6
CONTINUOUS
 62
     7
 10
578.8003427061
 20
818.881510136
 30
0.0
 11
578.8003427061
 21
822.9791208481
 31
0.0
  0
LINE
  5
F5
  8
0
  6
CONTINUOUS
 62
     7
 10
578.8003427061
 20
835.7838972782
 30
0.0
 11
578.8003427061
 21
844.881518123
 31
0.0
  0
POLYLINE
  5
F6
  8
0
  6
CONTINUOUS
 62
     7
 66
     1
 10
0.0
 20
0.0
 30
0.0
 70
   128
  0
VERTEX
  5
5A8
  8
0
  6
CONTINUOUS
 62
     7
 10
570.7422566685
 20
836.9095607971
 30
0.0
  0
VERTEX
  5
5A9
  8
0
  6
CONTINUOUS
 62
     7
 10
570.3303960236
 20
836.9402720903
 30
0.0
  0
VERTEX
  5
5AA
  8
0
  6
CONTINUOUS
 62
     7
 10
569.8158030483
 20
837.155817387
 30
0.0
  0
VERTEX
  5
5AB
  8
0
  6
CONTINUOUS
 62
     7
 10
569.62988126
 20
837.2998818134
 30
0.0
  0
VERTEX
  5
5AC
  8
0
  6
CONTINUOUS
 62
     7
 10
569.6380768987
 20
837.2870519136
 30
0.0
  0
SEQEND
  5
A75
  8
0
  6
CONTINUOUS
 62
     7
  0
ARC
  5
F7
  8
0
  6
CONTINUOUS
 62
     7
 10
464.9424688692
 20
838.3832467512
 30
0.0
 40
1.492281138588202
 50
264.0588789017
 51
313.8582433081
  0
ARC
  5
F8
  8
0
  6
CONTINUOUS
 62
     7
 10
561.0645861942
 20
848.4108343632
 30
0.0
 40
1.574450322264491
 50
216.5848294948
 51
256.6382410096
  0
ARC
  5
F9
  8
0
  6
CONTINUOUS
 62
     7
 10
474.5580574323
 20
848.3696782299
 30
0.0
 40
1.529422098119555
 50
283.0537848082
 51
324.3171228797
  0
ARC
  5
FA
  8
0
  6
CONTINUOUS
 62
     7
 10
427.383359519
 20
1166.8771807069
 30
0.0
 40
6.675224449387215
 50
187.4323724749
 51
197.2567458826
  0
ARC
  5
FB
  8
0
  6
CONTINUOUS
 62
     7
 10
421.1419110271
 20
1165.8422853709
 30
0.0
 40
0.9546874468041732
 50
261.9742981451
 51
278.0257018549
  0
ARC
  5
FC
  8
0
  6
CONTINUOUS
 62
     7
 10
427.6493952163
 20
1166.8770170412
 30
0.0
 40
6.674654402496561
 50
187.4315939955
 51
197.2567947896
  0
ARC
  5
FD
  8
0
  6
CONTINUOUS
 62
     7
 10
419.6509547045
 20
1166.5590543172
 30
0.0
 40
1.483713266323431
 50
338.4348073148
 51
352.5438207795
  0
LINE
  5
FE
  8
0
  6
CONTINUOUS
 62
     7
 10
421.122122285
 20
1166.3665159916
 30
0.0
 11
421.6555540534
 21
1166.3665159916
 31
0.0
  0
ARC
  5
FF
  8
0
  6
CONTINUOUS
 62
     7
 10
430.2132410396
 20
1166.8815150236
 30
0.0
 40
8.573169224716123
 50
176.5561106525
 51
183.4438893475
  0
LINE
  5
100
  8
0
  6
CONTINUOUS
 62
     7
 10
421.6555540534
 20
1167.3965140556
 30
0.0
 11
421.122122285
 21
1167.3965140556
 31
0.0
  0
ARC
  5
101
  8
0
  6
CONTINUOUS
 62
     7
 10
419.6511703128
 20
1167.2040085016
 30
0.0
 40
1.483495228499286
 50
7.4560048214
 51
21.5665411071
  0
ARC
  5
102
  8
0
  6
CONTINUOUS
 62
     7
 10
427.649092611
 20
1166.8860643281
 30
0.0
 40
6.6743457736197
 50
162.7429774882
 51
172.5686337267
  0
ARC
  5
103
  8
0
  6
CONTINUOUS
 62
     7
 10
421.1419110271
 20
1167.9212423835
 30
0.0
 40
0.9541798618366808
 50
81.9700006308
 51
98.0299993692
  0
ARC
  5
104
  8
0
  6
CONTINUOUS
 62
     7
 10
427.3830566995
 20
1166.8859007112
 30
0.0
 40
6.674915601540135
 50
162.7430262723
 51
172.5678553702
  0
ARC
  5
105
  8
0
  6
CONTINUOUS
 62
     7
 10
422.1438564013
 20
1167.2040085016
 30
0.0
 40
1.483495228493247
 50
158.4334588929
 51
172.5439951787
  0
LINE
  5
106
  8
0
  6
CONTINUOUS
 62
     7
 10
420.6729044291
 20
1167.3965140556
 30
0.0
 11
420.620340583
 21
1167.3965140556
 31
0.0
  0
ARC
  5
107
  8
0
  6
CONTINUOUS
 62
     7
 10
427.1641250541
 20
1166.8815150236
 30
0.0
 40
6.556108146904103
 50
175.4946287209
 51
184.5053712791
  0
LINE
  5
108
  8
0
  6
CONTINUOUS
 62
     7
 10
420.620340583
 20
1166.3665159916
 30
0.0
 11
420.6729044291
 21
1166.3665159916
 31
0.0
  0
ARC
  5
109
  8
0
  6
CONTINUOUS
 62
     7
 10
422.1440720095
 20
1166.5590543172
 30
0.0
 40
1.48371326631723
 50
187.4561792205
 51
201.5651926853
  0
POLYLINE
  5
10A
  8
0
  6
CONTINUOUS
 62
     7
 66
     1
 10
0.0
 20
0.0
 30
0.0
 70
   128
  0
VERTEX
  5
5AD
  8
0
  6
CONTINUOUS
 62
     7
 10
422.4414785477
 20
1171.2634398912
 30
0.0
  0
VERTEX
  5
5AE
  8
0
  6
CONTINUOUS
 62
     7
 10
422.3018695685
 20
1171.2196304773
 30
0.0
  0
VERTEX
  5
5AF
  8
0
  6
CONTINUOUS
 62
     7
 10
422.1304093572
 20
1171.0712745165
 30
0.0
  0
SEQEND
  5
A76
  8
0
  6
CONTINUOUS
 62
     7
  0
POLYLINE
  5
10B
  8
0
  6
CONTINUOUS
 62
     7
 66
     1
 10
0.0
 20
0.0
 30
0.0
 70
   128
  0
VERTEX
  5
5B0
  8
0
  6
CONTINUOUS
 62
     7
 10
422.1304093572
 20
1162.6917555307
 30
0.0
  0
VERTEX
  5
5B1
  8
0
  6
CONTINUOUS
 62
     7
 10
422.3018695685
 20
1162.5433846687
 30
0.0
  0
VERTEX
  5
5B2
  8
0
  6
CONTINUOUS
 62
     7
 10
422.4009995433
 20
1162.5053867077
 30
0.0
  0
SEQEND
  5
A77
  8
0
  6
CONTINUOUS
 62
     7
  0
LINE
  5
10C
  8
0
  6
CONTINUOUS
 62
     7
 10
422.7200930091
 20
1162.3815133547
 30
0.0
 11
422.7511693808
 21
1162.3831077789
 31
0.0
  0
POLYLINE
  5
10D
  8
0
  6
CONTINUOUS
 62
     7
 66
     1
 10
0.0
 20
0.0
 30
0.0
 70
   128
  0
VERTEX
  5
5B3
  8
0
  6
CONTINUOUS
 62
     7
 10
424.9804427
 20
1166.8815150236
 30
0.0
  0
VERTEX
  5
5B4
  8
0
  6
CONTINUOUS
 62
     7
 10
424.9332656237
 20
1168.149305818
 30
0.0
  0
VERTEX
  5
5B5
  8
0
  6
CONTINUOUS
 62
     7
 10
424.7955565425
 20
1169.3143978094
 30
0.0
  0
VERTEX
  5
5B6
  8
0
  6
CONTINUOUS
 62
     7
 10
424.5784689757
 20
1170.2823772405
 30
0.0
  0
VERTEX
  5
5B7
  8
0
  6
CONTINUOUS
 62
     7
 10
424.2995862933
 20
1170.9748491024
 30
0.0
  0
VERTEX
  5
5B8
  8
0
  6
CONTINUOUS
 62
     7
 10
423.9815135571
 20
1171.335710523
 30
0.0
  0
VERTEX
  5
5B9
  8
0
  6
CONTINUOUS
 62
     7
 10
423.8157604905
 20
1171.3815166925
 30
0.0
  0
SEQEND
  5
A78
  8
0
  6
CONTINUOUS
 62
     7
  0
POLYLINE
  5
10E
  8
0
  6
CONTINUOUS
 62
     7
 66
     1
 10
0.0
 20
0.0
 30
0.0
 70
   128
  0
VERTEX
  5
5BA
  8
0
  6
CONTINUOUS
 62
     7
 10
423.8157604905
 20
1162.3815133547
 30
0.0
  0
VERTEX
  5
5BB
  8
0
  6
CONTINUOUS
 62
     7
 10
423.9815135571
 20
1162.4273195242
 30
0.0
  0
VERTEX
  5
5BC
  8
0
  6
CONTINUOUS
 62
     7
 10
424.2995862933
 20
1162.7881660436
 30
0.0
  0
VERTEX
  5
5BD
  8
0
  6
CONTINUOUS
 62
     7
 10
424.5784689757
 20
1163.4806379055
 30
0.0
  0
VERTEX
  5
5BE
  8
0
  6
CONTINUOUS
 62
     7
 10
424.7955565425
 20
1164.4486322378
 30
0.0
  0
VERTEX
  5
5BF
  8
0
  6
CONTINUOUS
 62
     7
 10
424.9332656237
 20
1165.6137093281
 30
0.0
  0
VERTEX
  5
5C0
  8
0
  6
CONTINUOUS
 62
     7
 10
424.9804427
 20
1166.8815150236
 30
0.0
  0
SEQEND
  5
A79
  8
0
  6
CONTINUOUS
 62
     7
  0
LINE
  5
10F
  8
0
  6
CONTINUOUS
 62
     7
 10
421.0086201402
 20
1164.8969485735
 30
0.0
 11
421.2394018742
 21
1165.0160833572
 31
0.0
  0
LINE
  5
110
  8
0
  6
CONTINUOUS
 62
     7
 10
421.0086201402
 20
1168.8660665726
 30
0.0
 11
421.2394018742
 21
1168.74694669
 31
0.0
  0
POLYLINE
  5
111
  8
0
  6
CONTINUOUS
 62
     7
 66
     1
 10
0.0
 20
0.0
 30
0.0
 70
   128
  0
VERTEX
  5
5C1
  8
0
  6
CONTINUOUS
 62
     7
 10
421.0374166342
 20
1166.0368427013
 30
0.0
  0
VERTEX
  5
5C2
  8
0
  6
CONTINUOUS
 62
     7
 10
421.0119058462
 20
1166.0346224283
 30
0.0
  0
VERTEX
  5
5C3
  8
0
  6
CONTINUOUS
 62
     7
 10
420.7642187449
 20
1166.013701198
 30
0.0
  0
SEQEND
  5
A7A
  8
0
  6
CONTINUOUS
 62
     7
  0
LINE
  5
112
  8
0
  6
CONTINUOUS
 62
     7
 10
421.96015614
 20
1166.3665159916
 30
0.0
 11
422.6521437141
 21
1166.3665159916
 31
0.0
  0
POLYLINE
  5
113
  8
0
  6
CONTINUOUS
 62
     7
 66
     1
 10
0.0
 20
0.0
 30
0.0
 70
   128
  0
VERTEX
  5
5C4
  8
0
  6
CONTINUOUS
 62
     7
 10
420.7642187449
 20
1167.749313948
 30
0.0
  0
VERTEX
  5
5C5
  8
0
  6
CONTINUOUS
 62
     7
 10
421.0119058462
 20
1167.7284076189
 30
0.0
  0
VERTEX
  5
5C6
  8
0
  6
CONTINUOUS
 62
     7
 10
421.0399349304
 20
1167.7259638285
 30
0.0
  0
SEQEND
  5
A7B
  8
0
  6
CONTINUOUS
 62
     7
  0
LINE
  5
114
  8
0
  6
CONTINUOUS
 62
     7
 10
422.6521437141
 20
1167.3965140556
 30
0.0
 11
421.96015614
 21
1167.3965140556
 31
0.0
  0
LINE
  5
115
  8
0
  6
CONTINUOUS
 62
     7
 10
589.3517692658
 20
1166.3665159916
 30
0.0
 11
589.962515709
 21
1166.3665159916
 31
0.0
  0
ARC
  5
116
  8
0
  6
CONTINUOUS
 62
     7
 10
583.2074852216
 20
1166.8815150236
 30
0.0
 40
6.774633635039423
 50
355.6402417597
 51
4.3597582403
  0
LINE
  5
117
  8
0
  6
CONTINUOUS
 62
     7
 10
589.962515709
 20
1167.3965140556
 30
0.0
 11
589.3517692658
 21
1167.3965140556
 31
0.0
  0
ARC
  5
118
  8
0
  6
CONTINUOUS
 62
     7
 10
588.4937959666
 20
1167.0544213622
 30
0.0
 40
0.9236588076906196
 50
21.7382496782
 51
48.7922715759
  0
ARC
  5
119
  8
0
  6
CONTINUOUS
 62
     7
 10
580.3211738888
 20
1166.9152309213
 30
0.0
 40
8.820644270273673
 50
5.4260146181
 51
12.777587224
  0
ARC
  5
11A
  8
0
  6
CONTINUOUS
 62
     7
 10
588.5592249306
 20
1161.6891172842
 30
0.0
 40
7.186182043113862
 50
87.0953040294
 51
92.9046959706
  0
ARC
  5
11B
  8
0
  6
CONTINUOUS
 62
     7
 10
579.5912726845
 20
1166.9149770585
 30
0.0
 40
8.822245775051853
 50
5.4266828014
 51
12.7769190408
  0
ARC
  5
11C
  8
0
  6
CONTINUOUS
 62
     7
 10
588.9824754785
 20
1167.0544213622
 30
0.0
 40
0.9236588076905446
 50
131.2077284241
 51
158.2617503218
  0
LINE
  5
11D
  8
0
  6
CONTINUOUS
 62
     7
 10
588.1245021793
 20
1167.3965140556
 30
0.0
 11
587.1559341522
 21
1167.3965140556
 31
0.0
  0
ARC
  5
11E
  8
0
  6
CONTINUOUS
 62
     7
 10
566.9399500438
 20
1166.8815150236
 30
0.0
 40
20.2225428043581
 50
358.5407146036
 51
1.4592853965
  0
LINE
  5
11F
  8
0
  6
CONTINUOUS
 62
     7
 10
587.1559341522
 20
1166.3665159916
 30
0.0
 11
588.1245021793
 21
1166.3665159916
 31
0.0
  0
ARC
  5
120
  8
0
  6
CONTINUOUS
 62
     7
 10
588.9825686873
 20
1166.7086452437
 30
0.0
 40
0.9237589281653953
 50
201.738214786
 51
228.7900249156
  0
ARC
  5
121
  8
0
  6
CONTINUOUS
 62
     7
 10
579.5908672132
 20
1166.8481030466
 30
0.0
 40
8.822655572386445
 50
347.2232518967
 51
354.5731462612
  0
ARC
  5
122
  8
0
  6
CONTINUOUS
 62
     7
 10
588.5592249306
 20
1172.0777726484
 30
0.0
 40
7.190051854041663
 50
267.0968687269
 51
272.9031312731
  0
ARC
  5
123
  8
0
  6
CONTINUOUS
 62
     7
 10
580.3207689113
 20
1166.8478491047
 30
0.0
 40
8.821053568285434
 50
347.2225835673
 51
354.5738145906
  0
ARC
  5
124
  8
0
  6
CONTINUOUS
 62
     7
 10
588.4937027578
 20
1166.7086452437
 30
0.0
 40
0.9237589281654702
 50
311.2099750844
 51
338.261785214
  0
POLYLINE
  5
125
  8
0
  6
CONTINUOUS
 62
     7
 66
     1
 10
0.0
 20
0.0
 30
0.0
 70
   128
  0
VERTEX
  5
5C7
  8
0
  6
CONTINUOUS
 62
     7
 10
587.7632235261
 20
1162.5054761146
 30
0.0
  0
VERTEX
  5
5C8
  8
0
  6
CONTINUOUS
 62
     7
 10
588.4650086137
 20
1162.6763030266
 30
0.0
  0
VERTEX
  5
5C9
  8
0
  6
CONTINUOUS
 62
     7
 10
589.2673839899
 20
1163.1945207094
 30
0.0
  0
VERTEX
  5
5CA
  8
0
  6
CONTINUOUS
 62
     7
 10
589.9340172383
 20
1164.0114321684
 30
0.0
  0
VERTEX
  5
5CB
  8
0
  6
CONTINUOUS
 62
     7
 10
590.4109065505
 20
1165.0608613466
 30
0.0
  0
VERTEX
  5
5CC
  8
0
  6
CONTINUOUS
 62
     7
 10
590.6594206663
 20
1166.2577822183
 30
0.0
  0
VERTEX
  5
5CD
  8
0
  6
CONTINUOUS
 62
     7
 10
590.6594206663
 20
1167.5052329277
 30
0.0
  0
VERTEX
  5
5CE
  8
0
  6
CONTINUOUS
 62
     7
 10
590.4109065505
 20
1168.7021687006
 30
0.0
  0
VERTEX
  5
5CF
  8
0
  6
CONTINUOUS
 62
     7
 10
589.9340172383
 20
1169.7515978788
 30
0.0
  0
VERTEX
  5
5D0
  8
0
  6
CONTINUOUS
 62
     7
 10
589.2673839899
 20
1170.5685093378
 30
0.0
  0
VERTEX
  5
5D1
  8
0
  6
CONTINUOUS
 62
     7
 10
588.4650086137
 20
1171.0867121195
 30
0.0
  0
VERTEX
  5
5D2
  8
0
  6
CONTINUOUS
 62
     7
 10
587.8588293763
 20
1171.2479575847
 30
0.0
  0
SEQEND
  5
A7C
  8
0
  6
CONTINUOUS
 62
     7
  0
POLYLINE
  5
126
  8
0
  6
CONTINUOUS
 62
     7
 66
     1
 10
0.0
 20
0.0
 30
0.0
 70
   128
  0
VERTEX
  5
5D3
  8
0
  6
CONTINUOUS
 62
     7
 10
587.4039118263
 20
1171.3815166925
 30
0.0
  0
VERTEX
  5
5D4
  8
0
  6
CONTINUOUS
 62
     7
 10
586.5074430677
 20
1171.1992307876
 30
0.0
  0
VERTEX
  5
5D5
  8
0
  6
CONTINUOUS
 62
     7
 10
585.6836025687
 20
1170.6671550249
 30
0.0
  0
VERTEX
  5
5D6
  8
0
  6
CONTINUOUS
 62
     7
 10
584.9991326305
 20
1169.8283835625
 30
0.0
  0
VERTEX
  5
5D7
  8
0
  6
CONTINUOUS
 62
     7
 10
584.5094804736
 20
1168.7508805965
 30
0.0
  0
VERTEX
  5
5D8
  8
0
  6
CONTINUOUS
 62
     7
 10
584.2543204399
 20
1167.5219222282
 30
0.0
  0
VERTEX
  5
5D9
  8
0
  6
CONTINUOUS
 62
     7
 10
584.2543204399
 20
1166.2410929178
 30
0.0
  0
VERTEX
  5
5DA
  8
0
  6
CONTINUOUS
 62
     7
 10
584.5094804736
 20
1165.0121494507
 30
0.0
  0
VERTEX
  5
5DB
  8
0
  6
CONTINUOUS
 62
     7
 10
584.9991326305
 20
1163.9346315836
 30
0.0
  0
VERTEX
  5
5DC
  8
0
  6
CONTINUOUS
 62
     7
 10
585.6836025687
 20
1163.0958750223
 30
0.0
  0
VERTEX
  5
5DD
  8
0
  6
CONTINUOUS
 62
     7
 10
586.5074430677
 20
1162.5637992596
 30
0.0
  0
VERTEX
  5
5DE
  8
0
  6
CONTINUOUS
 62
     7
 10
587.4039118263
 20
1162.3815133547
 30
0.0
  0
VERTEX
  5
5DF
  8
0
  6
CONTINUOUS
 62
     7
 10
588.3003805848
 20
1162.5637992596
 30
0.0
  0
VERTEX
  5
5E0
  8
0
  6
CONTINUOUS
 62
     7
 10
589.1242210838
 20
1163.0958750223
 30
0.0
  0
VERTEX
  5
5E1
  8
0
  6
CONTINUOUS
 62
     7
 10
589.808691022
 20
1163.9346315836
 30
0.0
  0
VERTEX
  5
5E2
  8
0
  6
CONTINUOUS
 62
     7
 10
590.2983431789
 20
1165.0121494507
 30
0.0
  0
VERTEX
  5
5E3
  8
0
  6
CONTINUOUS
 62
     7
 10
590.5535032126
 20
1166.2410929178
 30
0.0
  0
VERTEX
  5
5E4
  8
0
  6
CONTINUOUS
 62
     7
 10
590.5535032126
 20
1167.5219222282
 30
0.0
  0
VERTEX
  5
5E5
  8
0
  6
CONTINUOUS
 62
     7
 10
590.2983431789
 20
1168.7508805965
 30
0.0
  0
VERTEX
  5
5E6
  8
0
  6
CONTINUOUS
 62
     7
 10
589.808691022
 20
1169.8283835625
 30
0.0
  0
VERTEX
  5
5E7
  8
0
  6
CONTINUOUS
 62
     7
 10
589.1242210838
 20
1170.6671550249
 30
0.0
  0
VERTEX
  5
5E8
  8
0
  6
CONTINUOUS
 62
     7
 10
588.3003805848
 20
1171.1992307876
 30
0.0
  0
VERTEX
  5
5E9
  8
0
  6
CONTINUOUS
 62
     7
 10
587.4039118263
 20
1171.3815166925
 30
0.0
  0
SEQEND
  5
A7D
  8
0
  6
CONTINUOUS
 62
     7
  0
POLYLINE
  5
127
  8
0
  6
CONTINUOUS
 62
     7
 66
     1
 10
0.0
 20
0.0
 30
0.0
 70
   128
  0
VERTEX
  5
5EA
  8
0
  6
CONTINUOUS
 62
     7
 10
586.6018344733
 20
1171.3815166925
 30
0.0
  0
VERTEX
  5
5EB
  8
0
  6
CONTINUOUS
 62
     7
 10
585.7053657147
 20
1171.1992307876
 30
0.0
  0
VERTEX
  5
5EC
  8
0
  6
CONTINUOUS
 62
     7
 10
584.8815252157
 20
1170.6671550249
 30
0.0
  0
VERTEX
  5
5ED
  8
0
  6
CONTINUOUS
 62
     7
 10
584.1970478269
 20
1169.8283835625
 30
0.0
  0
VERTEX
  5
5EE
  8
0
  6
CONTINUOUS
 62
     7
 10
583.7074031206
 20
1168.7508805965
 30
0.0
  0
VERTEX
  5
5EF
  8
0
  6
CONTINUOUS
 62
     7
 10
583.4522356364
 20
1167.5219222282
 30
0.0
  0
VERTEX
  5
5F0
  8
0
  6
CONTINUOUS
 62
     7
 10
583.4522356364
 20
1166.2410929178
 30
0.0
  0
VERTEX
  5
5F1
  8
0
  6
CONTINUOUS
 62
     7
 10
583.7074031206
 20
1165.0121494507
 30
0.0
  0
VERTEX
  5
5F2
  8
0
  6
CONTINUOUS
 62
     7
 10
584.1970478269
 20
1163.9346315836
 30
0.0
  0
VERTEX
  5
5F3
  8
0
  6
CONTINUOUS
 62
     7
 10
584.8815252157
 20
1163.0958750223
 30
0.0
  0
VERTEX
  5
5F4
  8
0
  6
CONTINUOUS
 62
     7
 10
585.7053657147
 20
1162.5637992596
 30
0.0
  0
VERTEX
  5
5F5
  8
0
  6
CONTINUOUS
 62
     7
 10
586.6018344733
 20
1162.3815133547
 30
0.0
  0
SEQEND
  5
A7E
  8
0
  6
CONTINUOUS
 62
     7
  0
LINE
  5
128
  8
0
  6
CONTINUOUS
 62
     7
 10
588.9233832332
 20
1168.8660665726
 30
0.0
 11
588.2849355313
 21
1168.4159024929
 31
0.0
  0
LINE
  5
129
  8
0
  6
CONTINUOUS
 62
     7
 10
588.9233832332
 20
1164.8969485735
 30
0.0
 11
588.2849355313
 21
1165.3471275543
 31
0.0
  0
POLYLINE
  5
12A
  8
0
  6
CONTINUOUS
 62
     7
 66
     1
 10
0.0
 20
0.0
 30
0.0
 70
   128
  0
VERTEX
  5
5F6
  8
0
  6
CONTINUOUS
 62
     7
 10
588.3449127051
 20
1167.6597728704
 30
0.0
  0
VERTEX
  5
5F7
  8
0
  6
CONTINUOUS
 62
     7
 10
588.9209766957
 20
1167.7284076189
 30
0.0
  0
VERTEX
  5
5F8
  8
0
  6
CONTINUOUS
 62
     7
 10
589.1022940251
 20
1167.749313948
 30
0.0
  0
SEQEND
  5
A7F
  8
0
  6
CONTINUOUS
 62
     7
  0
LINE
  5
12B
  8
0
  6
CONTINUOUS
 62
     7
 10
589.3517692658
 20
1167.3965140556
 30
0.0
 11
588.0095546218
 21
1167.3965140556
 31
0.0
  0
POLYLINE
  5
12C
  8
0
  6
CONTINUOUS
 62
     7
 66
     1
 10
0.0
 20
0.0
 30
0.0
 70
   128
  0
VERTEX
  5
5F9
  8
0
  6
CONTINUOUS
 62
     7
 10
589.1022940251
 20
1166.013701198
 30
0.0
  0
VERTEX
  5
5FA
  8
0
  6
CONTINUOUS
 62
     7
 10
588.9209766957
 20
1166.0346224283
 30
0.0
  0
VERTEX
  5
5FB
  8
0
  6
CONTINUOUS
 62
     7
 10
588.3669291707
 20
1166.1006345724
 30
0.0
  0
SEQEND
  5
A80
  8
0
  6
CONTINUOUS
 62
     7
  0
LINE
  5
12D
  8
0
  6
CONTINUOUS
 62
     7
 10
588.0095546218
 20
1166.3665159916
 30
0.0
 11
589.3517692658
 21
1166.3665159916
 31
0.0
  0
LINE
  5
12E
  8
0
  6
CONTINUOUS
 62
     7
 10
587.8345479342
 20
1166.3665159916
 30
0.0
 11
587.8345479342
 21
1167.3965140556
 31
0.0
  0
ARC
  5
12F
  8
0
  6
CONTINUOUS
 62
     7
 10
586.6093730546
 20
1166.8815150236
 30
0.0
 40
1.132747583834609
 50
332.9578475937
 51
27.0421524063
  0
LINE
  5
130
  8
0
  6
CONTINUOUS
 62
     7
 10
614.0003387901
 20
1148.3815147852
 30
0.0
 11
614.0003387901
 21
1109.3815102552
 31
0.0
  0
LINE
  5
131
  8
0
  6
CONTINUOUS
 62
     7
 10
604.0003408762
 20
1109.3815102552
 30
0.0
 11
604.0003408762
 21
1148.3815147852
 31
0.0
  0
ARC
  5
132
  8
0
  6
CONTINUOUS
 62
     7
 10
617.9887822491
 20
1153.1232200738
 30
0.0
 40
6.479565957685798
 50
2.1648678204
 51
12.3032352969
  0
ARC
  5
133
  8
0
  6
CONTINUOUS
 62
     7
 10
623.9722964564
 20
1148.9633890106
 30
0.0
 40
4.431920831753648
 50
83.3665450652
 51
83.6337232319
  0
ARC
  5
134
  8
0
  6
CONTINUOUS
 62
     7
 10
630.6590978579
 20
1149.9419849621
 30
0.0
 40
10.40436334494369
 50
136.4328511199
 51
136.546675875
  0
ARC
  5
135
  8
0
  6
CONTINUOUS
 62
     7
 10
617.9887822491
 20
1153.1232200738
 30
0.0
 40
6.479565957685798
 50
27.6967647031
 51
37.8351321796
  0
POLYLINE
  5
136
  8
0
  6
CONTINUOUS
 62
     7
 66
     1
 10
0.0
 20
0.0
 30
0.0
 70
   128
  0
VERTEX
  5
5FC
  8
0
  6
CONTINUOUS
 62
     7
 10
623.7259169194
 20
1156.1348720764
 30
0.0
  0
VERTEX
  5
5FD
  8
0
  6
CONTINUOUS
 62
     7
 10
623.737487671
 20
1156.1030729984
 30
0.0
  0
VERTEX
  5
5FE
  8
0
  6
CONTINUOUS
 62
     7
 10
623.7501760098
 20
1156.0682340835
 30
0.0
  0
VERTEX
  5
5FF
  8
0
  6
CONTINUOUS
 62
     7
 10
623.763922331
 20
1156.0304596399
 30
0.0
  0
VERTEX
  5
600
  8
0
  6
CONTINUOUS
 62
     7
 10
623.7786744806
 20
1155.9899135803
 30
0.0
  0
VERTEX
  5
601
  8
0
  6
CONTINUOUS
 62
     7
 10
623.794387755
 20
1155.9467598175
 30
0.0
  0
VERTEX
  5
602
  8
0
  6
CONTINUOUS
 62
     7
 10
623.810980198
 20
1155.9011622642
 30
0.0
  0
VERTEX
  5
603
  8
0
  6
CONTINUOUS
 62
     7
 10
623.828407106
 20
1155.8532848333
 30
0.0
  0
VERTEX
  5
604
  8
0
  6
CONTINUOUS
 62
     7
 10
623.8465865227
 20
1155.803336141
 30
0.0
  0
SEQEND
  5
A81
  8
0
  6
CONTINUOUS
 62
     7
  0
POLYLINE
  5
137
  8
0
  6
CONTINUOUS
 62
     7
 66
     1
 10
0.0
 20
0.0
 30
0.0
 70
   128
  0
VERTEX
  5
605
  8
0
  6
CONTINUOUS
 62
     7
 10
623.8465865227
 20
1155.803336141
 30
0.0
  0
VERTEX
  5
606
  8
0
  6
CONTINUOUS
 62
     7
 10
623.8270734521
 20
1155.7962431883
 30
0.0
  0
VERTEX
  5
607
  8
0
  6
CONTINUOUS
 62
     7
 10
623.8046248528
 20
1155.7880624508
 30
0.0
  0
VERTEX
  5
608
  8
0
  6
CONTINUOUS
 62
     7
 10
623.7792332741
 20
1155.7788237308
 30
0.0
  0
VERTEX
  5
609
  8
0
  6
CONTINUOUS
 62
     7
 10
623.7509285184
 20
1155.7685270284
 30
0.0
  0
VERTEX
  5
60A
  8
0
  6
CONTINUOUS
 62
     7
 10
623.7197254869
 20
1155.7571574425
 30
0.0
  0
VERTEX
  5
60B
  8
0
  6
CONTINUOUS
 62
     7
 10
623.6856241795
 20
1155.7447596763
 30
0.0
  0
VERTEX
  5
60C
  8
0
  6
CONTINUOUS
 62
     7
 10
623.6486543986
 20
1155.7312890266
 30
0.0
  0
VERTEX
  5
60D
  8
0
  6
CONTINUOUS
 62
     7
 10
623.6088235947
 20
1155.7168050979
 30
0.0
  0
SEQEND
  5
A82
  8
0
  6
CONTINUOUS
 62
     7
  0
ARC
  5
138
  8
0
  6
CONTINUOUS
 62
     7
 10
617.0565114614
 20
1152.7838843538
 30
0.0
 40
7.178775548981166
 50
15.8862160356
 51
24.1140603276
  0
POLYLINE
  5
139
  8
0
  6
CONTINUOUS
 62
     7
 66
     1
 10
0.0
 20
0.0
 30
0.0
 70
   128
  0
VERTEX
  5
60E
  8
0
  6
CONTINUOUS
 62
     7
 10
623.9611093971
 20
1154.7489150738
 30
0.0
  0
VERTEX
  5
60F
  8
0
  6
CONTINUOUS
 62
     7
 10
624.0009327503
 20
1154.7634139036
 30
0.0
  0
VERTEX
  5
610
  8
0
  6
CONTINUOUS
 62
     7
 10
624.0379025313
 20
1154.7768696522
 30
0.0
  0
VERTEX
  5
611
  8
0
  6
CONTINUOUS
 62
     7
 10
624.0720038387
 20
1154.7892823194
 30
0.0
  0
VERTEX
  5
612
  8
0
  6
CONTINUOUS
 62
     7
 10
624.1032143208
 20
1154.8006370043
 30
0.0
  0
VERTEX
  5
613
  8
0
  6
CONTINUOUS
 62
     7
 10
624.1315190765
 20
1154.8109337066
 30
0.0
  0
VERTEX
  5
614
  8
0
  6
CONTINUOUS
 62
     7
 10
624.1569032046
 20
1154.8201873278
 30
0.0
  0
VERTEX
  5
615
  8
0
  6
CONTINUOUS
 62
     7
 10
624.1793592545
 20
1154.8283531641
 30
0.0
  0
VERTEX
  5
616
  8
0
  6
CONTINUOUS
 62
     7
 10
624.1988648745
 20
1154.835461018
 30
0.0
  0
SEQEND
  5
A83
  8
0
  6
CONTINUOUS
 62
     7
  0
POLYLINE
  5
13A
  8
0
  6
CONTINUOUS
 62
     7
 66
     1
 10
0.0
 20
0.0
 30
0.0
 70
   128
  0
VERTEX
  5
617
  8
0
  6
CONTINUOUS
 62
     7
 10
624.1988648745
 20
1154.835461018
 30
0.0
  0
VERTEX
  5
618
  8
0
  6
CONTINUOUS
 62
     7
 10
624.2170517417
 20
1154.7854974245
 30
0.0
  0
VERTEX
  5
619
  8
0
  6
CONTINUOUS
 62
     7
 10
624.2344711992
 20
1154.7376348947
 30
0.0
  0
VERTEX
  5
61A
  8
0
  6
CONTINUOUS
 62
     7
 10
624.2510710927
 20
1154.6920373415
 30
0.0
  0
VERTEX
  5
61B
  8
0
  6
CONTINUOUS
 62
     7
 10
624.2667769166
 20
1154.6488686775
 30
0.0
  0
VERTEX
  5
61C
  8
0
  6
CONTINUOUS
 62
     7
 10
624.2815365168
 20
1154.6083375191
 30
0.0
  0
VERTEX
  5
61D
  8
0
  6
CONTINUOUS
 62
     7
 10
624.295282838
 20
1154.5705630754
 30
0.0
  0
VERTEX
  5
61E
  8
0
  6
CONTINUOUS
 62
     7
 10
624.3079637262
 20
1154.5357092594
 30
0.0
  0
VERTEX
  5
61F
  8
0
  6
CONTINUOUS
 62
     7
 10
624.3195344778
 20
1154.5039250826
 30
0.0
  0
SEQEND
  5
A84
  8
0
  6
CONTINUOUS
 62
     7
  0
POLYLINE
  5
13B
  8
0
  6
CONTINUOUS
 62
     7
 66
     1
 10
0.0
 20
0.0
 30
0.0
 70
   128
  0
VERTEX
  5
620
  8
0
  6
CONTINUOUS
 62
     7
 10
652.3075659844
 20
1068.7740578626
 30
0.0
  0
VERTEX
  5
621
  8
0
  6
CONTINUOUS
 62
     7
 10
652.5114734741
 20
1068.213841257
 30
0.0
  0
VERTEX
  5
622
  8
0
  6
CONTINUOUS
 62
     7
 10
652.9011537405
 20
1067.1431928252
 30
0.0
  0
VERTEX
  5
623
  8
0
  6
CONTINUOUS
 62
     7
 10
653.2380987974
 20
1066.2174432849
 30
0.0
  0
VERTEX
  5
624
  8
0
  6
CONTINUOUS
 62
     7
 10
653.4923573109
 20
1065.5188693975
 30
0.0
  0
VERTEX
  5
625
  8
0
  6
CONTINUOUS
 62
     7
 10
653.6413540217
 20
1065.109527049
 30
0.0
  0
VERTEX
  5
626
  8
0
  6
CONTINUOUS
 62
     7
 10
653.6756564947
 20
1065.0152921056
 30
0.0
  0
SEQEND
  5
A85
  8
0
  6
CONTINUOUS
 62
     7
  0
ARC
  5
13C
  8
0
  6
CONTINUOUS
 62
     7
 10
649.1126152918
 20
1067.6111915823
 30
0.0
 40
6.479565957685807
 50
2.1648678204
 51
12.3032352969
  0
ARC
  5
13D
  8
0
  6
CONTINUOUS
 62
     7
 10
656.429213248
 20
1075.157244561
 30
0.0
 40
7.349636201418422
 50
263.4241937991
 51
263.5854208391
  0
LINE
  5
13E
  8
0
  6
CONTINUOUS
 62
     7
 10
654.2300392958
 20
1071.5856983637
 30
0.0
 11
654.2442699047
 21
1071.6006963824
 31
0.0
  0
ARC
  5
13F
  8
0
  6
CONTINUOUS
 62
     7
 10
649.1126152918
 20
1067.6111915823
 30
0.0
 40
6.479565957685798
 50
27.6967647031
 51
37.8351321796
  0
POLYLINE
  5
140
  8
0
  6
CONTINUOUS
 62
     7
 66
     1
 10
0.0
 20
0.0
 30
0.0
 70
   128
  0
VERTEX
  5
627
  8
0
  6
CONTINUOUS
 62
     7
 10
654.8497487875
 20
1070.622844932
 30
0.0
  0
VERTEX
  5
628
  8
0
  6
CONTINUOUS
 62
     7
 10
654.8613269898
 20
1070.591045854
 30
0.0
  0
VERTEX
  5
629
  8
0
  6
CONTINUOUS
 62
     7
 10
654.8740078779
 20
1070.5561994885
 30
0.0
  0
VERTEX
  5
62A
  8
0
  6
CONTINUOUS
 62
     7
 10
654.8877616497
 20
1070.5184324955
 30
0.0
  0
VERTEX
  5
62B
  8
0
  6
CONTINUOUS
 62
     7
 10
654.9025137993
 20
1070.4778864359
 30
0.0
  0
VERTEX
  5
62C
  8
0
  6
CONTINUOUS
 62
     7
 10
654.9182196232
 20
1070.4347326731
 30
0.0
  0
VERTEX
  5
62D
  8
0
  6
CONTINUOUS
 62
     7
 10
654.9348195168
 20
1070.3891351198
 30
0.0
  0
VERTEX
  5
62E
  8
0
  6
CONTINUOUS
 62
     7
 10
654.9522389742
 20
1070.3412651395
 30
0.0
  0
VERTEX
  5
62F
  8
0
  6
CONTINUOUS
 62
     7
 10
654.9704183909
 20
1070.2913089966
 30
0.0
  0
SEQEND
  5
A86
  8
0
  6
CONTINUOUS
 62
     7
  0
POLYLINE
  5
141
  8
0
  6
CONTINUOUS
 62
     7
 66
     1
 10
0.0
 20
0.0
 30
0.0
 70
   128
  0
VERTEX
  5
630
  8
0
  6
CONTINUOUS
 62
     7
 10
654.9704183909
 20
1070.2913089966
 30
0.0
  0
VERTEX
  5
631
  8
0
  6
CONTINUOUS
 62
     7
 10
654.9509127709
 20
1070.2842085933
 30
0.0
  0
VERTEX
  5
632
  8
0
  6
CONTINUOUS
 62
     7
 10
654.928456721
 20
1070.2760353063
 30
0.0
  0
VERTEX
  5
633
  8
0
  6
CONTINUOUS
 62
     7
 10
654.9030651423
 20
1070.2667965864
 30
0.0
  0
VERTEX
  5
634
  8
0
  6
CONTINUOUS
 62
     7
 10
654.8747678372
 20
1070.2564924334
 30
0.0
  0
VERTEX
  5
635
  8
0
  6
CONTINUOUS
 62
     7
 10
654.8435499045
 20
1070.2451377486
 30
0.0
  0
VERTEX
  5
636
  8
0
  6
CONTINUOUS
 62
     7
 10
654.8094560477
 20
1070.2327250813
 30
0.0
  0
VERTEX
  5
637
  8
0
  6
CONTINUOUS
 62
     7
 10
654.7724862667
 20
1070.2192693328
 30
0.0
  0
VERTEX
  5
638
  8
0
  6
CONTINUOUS
 62
     7
 10
654.7326554629
 20
1070.2047705029
 30
0.0
  0
SEQEND
  5
A87
  8
0
  6
CONTINUOUS
 62
     7
  0
ARC
  5
142
  8
0
  6
CONTINUOUS
 62
     7
 10
648.1821219107
 20
1067.2725351294
 30
0.0
 40
7.176872167207248
 50
15.8849136115
 51
24.1148673388
  0
POLYLINE
  5
143
  8
0
  6
CONTINUOUS
 62
     7
 66
     1
 10
0.0
 20
0.0
 30
0.0
 70
   128
  0
VERTEX
  5
639
  8
0
  6
CONTINUOUS
 62
     7
 10
655.0849338146
 20
1069.2368879293
 30
0.0
  0
VERTEX
  5
63A
  8
0
  6
CONTINUOUS
 62
     7
 10
655.1247646185
 20
1069.2513867592
 30
0.0
  0
VERTEX
  5
63B
  8
0
  6
CONTINUOUS
 62
     7
 10
655.1617343994
 20
1069.2648425077
 30
0.0
  0
VERTEX
  5
63C
  8
0
  6
CONTINUOUS
 62
     7
 10
655.1958431574
 20
1069.277255175
 30
0.0
  0
VERTEX
  5
63D
  8
0
  6
CONTINUOUS
 62
     7
 10
655.227046189
 20
1069.2886098598
 30
0.0
  0
VERTEX
  5
63E
  8
0
  6
CONTINUOUS
 62
     7
 10
655.2553434941
 20
1069.2989140128
 30
0.0
  0
VERTEX
  5
63F
  8
0
  6
CONTINUOUS
 62
     7
 10
655.2807350727
 20
1069.3081527327
 30
0.0
  0
VERTEX
  5
640
  8
0
  6
CONTINUOUS
 62
     7
 10
655.3031911227
 20
1069.3163260197
 30
0.0
  0
VERTEX
  5
641
  8
0
  6
CONTINUOUS
 62
     7
 10
655.3226967427
 20
1069.323426423
 30
0.0
  0
SEQEND
  5
A88
  8
0
  6
CONTINUOUS
 62
     7
  0
POLYLINE
  5
144
  8
0
  6
CONTINUOUS
 62
     7
 66
     1
 10
0.0
 20
0.0
 30
0.0
 70
   128
  0
VERTEX
  5
642
  8
0
  6
CONTINUOUS
 62
     7
 10
655.3226967427
 20
1069.323426423
 30
0.0
  0
VERTEX
  5
643
  8
0
  6
CONTINUOUS
 62
     7
 10
655.3408761593
 20
1069.2734777306
 30
0.0
  0
VERTEX
  5
644
  8
0
  6
CONTINUOUS
 62
     7
 10
655.3583105179
 20
1069.2256077503
 30
0.0
  0
VERTEX
  5
645
  8
0
  6
CONTINUOUS
 62
     7
 10
655.3748955103
 20
1069.1800027465
 30
0.0
  0
VERTEX
  5
646
  8
0
  6
CONTINUOUS
 62
     7
 10
655.3906162354
 20
1069.1368489837
 30
0.0
  0
VERTEX
  5
647
  8
0
  6
CONTINUOUS
 62
     7
 10
655.405368385
 20
1069.096302924
 30
0.0
  0
VERTEX
  5
648
  8
0
  6
CONTINUOUS
 62
     7
 10
655.4191072556
 20
1069.058535931
 30
0.0
  0
VERTEX
  5
649
  8
0
  6
CONTINUOUS
 62
     7
 10
655.4318030449
 20
1069.0236895655
 30
0.0
  0
VERTEX
  5
64A
  8
0
  6
CONTINUOUS
 62
     7
 10
655.443366346
 20
1068.9918904876
 30
0.0
  0
SEQEND
  5
A89
  8
0
  6
CONTINUOUS
 62
     7
  0
LINE
  5
145
  8
0
  6
CONTINUOUS
 62
     7
 10
655.5051614615
 20
1107.881514666
 30
0.0
 11
655.4551531645
 21
1107.881514666
 31
0.0
  0
LINE
  5
146
  8
0
  6
CONTINUOUS
 62
     7
 10
655.4551531645
 20
1109.3815102552
 30
0.0
 11
655.5051614615
 21
1109.3815102552
 31
0.0
  0
LINE
  5
147
  8
0
  6
CONTINUOUS
 62
     7
 10
655.5051614615
 20
1109.3815102552
 30
0.0
 11
655.5051614615
 21
1107.881514666
 31
0.0
  0
LINE
  5
148
  8
0
  6
CONTINUOUS
 62
     7
 10
655.5051614615
 20
1126.3000949596
 30
0.0
 11
655.4551531645
 21
1126.3000949596
 31
0.0
  0
LINE
  5
149
  8
0
  6
CONTINUOUS
 62
     7
 10
655.5051614615
 20
1126.3000949596
 30
0.0
 11
655.5051614615
 21
1109.3815102552
 31
0.0
  0
LINE
  5
14A
  8
0
  6
CONTINUOUS
 62
     7
 10
655.5551548573
 20
1124.8000993704
 30
0.0
 11
655.5051614615
 21
1124.8000993704
 31
0.0
  0
LINE
  5
14B
  8
0
  6
CONTINUOUS
 62
     7
 10
655.5551548573
 20
1124.8000993704
 30
0.0
 11
655.5551548573
 21
1109.3815102552
 31
0.0
  0
LINE
  5
14C
  8
0
  6
CONTINUOUS
 62
     7
 10
655.5551548573
 20
1109.3815102552
 30
0.0
 11
655.5051614615
 21
1109.3815102552
 31
0.0
  0
LINE
  5
14D
  8
0
  6
CONTINUOUS
 62
     7
 10
655.5051614615
 20
1126.8000885223
 30
0.0
 11
655.5051614615
 21
1126.3000949596
 31
0.0
  0
LINE
  5
14E
  8
0
  6
CONTINUOUS
 62
     7
 10
650.7100869986
 20
1068.192629454
 30
0.0
 11
619.2442362281
 21
1154.6443536257
 31
0.0
  0
POLYLINE
  5
14F
  8
0
  6
CONTINUOUS
 62
     7
 66
     1
 10
0.0
 20
0.0
 30
0.0
 70
   128
  0
VERTEX
  5
64B
  8
0
  6
CONTINUOUS
 62
     7
 10
619.2442362281
 20
1154.6443536257
 30
0.0
  0
VERTEX
  5
64C
  8
0
  6
CONTINUOUS
 62
     7
 10
619.5558940145
 20
1154.7577812647
 30
0.0
  0
VERTEX
  5
64D
  8
0
  6
CONTINUOUS
 62
     7
 10
619.8555712672
 20
1154.8668577646
 30
0.0
  0
VERTEX
  5
64E
  8
0
  6
CONTINUOUS
 62
     7
 10
620.1317493888
 20
1154.967380998
 30
0.0
  0
VERTEX
  5
64F
  8
0
  6
CONTINUOUS
 62
     7
 10
620.373826203
 20
1155.055476663
 30
0.0
  0
VERTEX
  5
650
  8
0
  6
CONTINUOUS
 62
     7
 10
620.5724959346
 20
1155.1277919983
 30
0.0
  0
VERTEX
  5
651
  8
0
  6
CONTINUOUS
 62
     7
 10
620.720114288
 20
1155.1815255855
 30
0.0
  0
VERTEX
  5
652
  8
0
  6
CONTINUOUS
 62
     7
 10
620.8110188218
 20
1155.2146061634
 30
0.0
  0
VERTEX
  5
653
  8
0
  6
CONTINUOUS
 62
     7
 10
620.8417152139
 20
1155.2257820343
 30
0.0
  0
SEQEND
  5
A8A
  8
0
  6
CONTINUOUS
 62
     7
  0
LINE
  5
150
  8
0
  6
CONTINUOUS
 62
     7
 10
620.8417152139
 20
1155.2257820343
 30
0.0
 11
652.3075659844
 21
1068.7740578626
 31
0.0
  0
POLYLINE
  5
151
  8
0
  6
CONTINUOUS
 62
     7
 66
     1
 10
0.0
 20
0.0
 30
0.0
 70
   128
  0
VERTEX
  5
654
  8
0
  6
CONTINUOUS
 62
     7
 10
650.7100869986
 20
1068.192629454
 30
0.0
  0
VERTEX
  5
655
  8
0
  6
CONTINUOUS
 62
     7
 10
651.021744785
 20
1068.306057093
 30
0.0
  0
VERTEX
  5
656
  8
0
  6
CONTINUOUS
 62
     7
 10
651.3214220377
 20
1068.415133593
 30
0.0
  0
VERTEX
  5
657
  8
0
  6
CONTINUOUS
 62
     7
 10
651.5976001593
 20
1068.5156568264
 30
0.0
  0
VERTEX
  5
658
  8
0
  6
CONTINUOUS
 62
     7
 10
651.839684424
 20
1068.6037599419
 30
0.0
  0
VERTEX
  5
659
  8
0
  6
CONTINUOUS
 62
     7
 10
652.0383467051
 20
1068.6760678266
 30
0.0
  0
VERTEX
  5
65A
  8
0
  6
CONTINUOUS
 62
     7
 10
652.185972509
 20
1068.7298014139
 30
0.0
  0
VERTEX
  5
65B
  8
0
  6
CONTINUOUS
 62
     7
 10
652.2768695923
 20
1068.7628894423
 30
0.0
  0
VERTEX
  5
65C
  8
0
  6
CONTINUOUS
 62
     7
 10
652.3075659844
 20
1068.7740578626
 30
0.0
  0
SEQEND
  5
A8B
  8
0
  6
CONTINUOUS
 62
     7
  0
LINE
  5
152
  8
0
  6
CONTINUOUS
 62
     7
 10
619.2442362281
 20
1154.6443536257
 30
0.0
 11
615.203562853
 21
1153.1736537193
 31
0.0
  0
LINE
  5
153
  8
0
  6
CONTINUOUS
 62
     7
 10
646.6694136235
 20
1066.7219369983
 30
0.0
 11
650.7100869986
 21
1068.192629454
 31
0.0
  0
LINE
  5
154
  8
0
  6
CONTINUOUS
 62
     7
 10
646.6694136235
 20
1066.7219369983
 30
0.0
 11
615.203562853
 21
1153.1736537193
 31
0.0
  0
POLYLINE
  5
155
  8
0
  6
CONTINUOUS
 62
     7
 66
     1
 10
0.0
 20
0.0
 30
0.0
 70
   128
  0
VERTEX
  5
65D
  8
0
  6
CONTINUOUS
 62
     7
 10
619.2442362281
 20
1154.6443536257
 30
0.0
  0
VERTEX
  5
65E
  8
0
  6
CONTINUOUS
 62
     7
 10
618.8639064404
 20
1155.6892975544
 30
0.0
  0
VERTEX
  5
65F
  8
0
  6
CONTINUOUS
 62
     7
 10
618.4981946918
 20
1156.6940977548
 30
0.0
  0
VERTEX
  5
660
  8
0
  6
CONTINUOUS
 62
     7
 10
618.1611453267
 20
1157.6201155161
 30
0.0
  0
VERTEX
  5
661
  8
0
  6
CONTINUOUS
 62
     7
 10
617.8657223555
 20
1158.4317817663
 30
0.0
  0
VERTEX
  5
662
  8
0
  6
CONTINUOUS
 62
     7
 10
617.6232804629
 20
1159.0979083752
 30
0.0
  0
VERTEX
  5
663
  8
0
  6
CONTINUOUS
 62
     7
 10
617.443125424
 20
1159.5928802465
 30
0.0
  0
VERTEX
  5
664
  8
0
  6
CONTINUOUS
 62
     7
 10
617.3321862789
 20
1159.8976834987
 30
0.0
  0
VERTEX
  5
665
  8
0
  6
CONTINUOUS
 62
     7
 10
617.2947247597
 20
1160.000590918
 30
0.0
  0
SEQEND
  5
A8C
  8
0
  6
CONTINUOUS
 62
     7
  0
ARC
  5
156
  8
0
  6
CONTINUOUS
 62
     7
 10
617.8761589878
 20
1158.4031174214
 30
0.0
 40
1.700000000000021
 50
20.0
 51
110.0
  0
POLYLINE
  5
157
  8
0
  6
CONTINUOUS
 62
     7
 66
     1
 10
0.0
 20
0.0
 30
0.0
 70
   128
  0
VERTEX
  5
666
  8
0
  6
CONTINUOUS
 62
     7
 10
619.4736396047
 20
1158.9845552419
 30
0.0
  0
VERTEX
  5
667
  8
0
  6
CONTINUOUS
 62
     7
 10
619.499925253
 20
1158.9123293136
 30
0.0
  0
VERTEX
  5
668
  8
0
  6
CONTINUOUS
 62
     7
 10
619.5777763697
 20
1158.6984380459
 30
0.0
  0
VERTEX
  5
669
  8
0
  6
CONTINUOUS
 62
     7
 10
619.7041978213
 20
1158.3510919784
 30
0.0
  0
VERTEX
  5
66A
  8
0
  6
CONTINUOUS
 62
     7
 10
619.8743392798
 20
1157.8836276506
 30
0.0
  0
VERTEX
  5
66B
  8
0
  6
CONTINUOUS
 62
     7
 10
620.0816516849
 20
1157.3140456652
 30
0.0
  0
VERTEX
  5
66C
  8
0
  6
CONTINUOUS
 62
     7
 10
620.3181778165
 20
1156.6642060255
 30
0.0
  0
VERTEX
  5
66D
  8
0
  6
CONTINUOUS
 62
     7
 10
620.5748205158
 20
1155.9590830778
 30
0.0
  0
VERTEX
  5
66E
  8
0
  6
CONTINUOUS
 62
     7
 10
620.8417152139
 20
1155.2257820343
 30
0.0
  0
SEQEND
  5
A8D
  8
0
  6
CONTINUOUS
 62
     7
  0
LINE
  5
158
  8
0
  6
CONTINUOUS
 62
     7
 10
613.254043934
 20
1158.5299059128
 30
0.0
 11
617.2947247597
 21
1160.000590918
 31
0.0
  0
POLYLINE
  5
159
  8
0
  6
CONTINUOUS
 62
     7
 66
     1
 10
0.0
 20
0.0
 30
0.0
 70
   128
  0
VERTEX
  5
66F
  8
0
  6
CONTINUOUS
 62
     7
 10
615.203562853
 20
1153.1736537193
 30
0.0
  0
VERTEX
  5
670
  8
0
  6
CONTINUOUS
 62
     7
 10
614.8232330652
 20
1154.2186125492
 30
0.0
  0
VERTEX
  5
671
  8
0
  6
CONTINUOUS
 62
     7
 10
614.4575138661
 20
1155.2234127497
 30
0.0
  0
VERTEX
  5
672
  8
0
  6
CONTINUOUS
 62
     7
 10
614.1204719516
 20
1156.1494305109
 30
0.0
  0
VERTEX
  5
673
  8
0
  6
CONTINUOUS
 62
     7
 10
613.8250489804
 20
1156.9610967611
 30
0.0
  0
VERTEX
  5
674
  8
0
  6
CONTINUOUS
 62
     7
 10
613.5825996372
 20
1157.62722337
 30
0.0
  0
VERTEX
  5
675
  8
0
  6
CONTINUOUS
 62
     7
 10
613.4024445983
 20
1158.1221952413
 30
0.0
  0
VERTEX
  5
676
  8
0
  6
CONTINUOUS
 62
     7
 10
613.2915054532
 20
1158.4269835924
 30
0.0
  0
VERTEX
  5
677
  8
0
  6
CONTINUOUS
 62
     7
 10
613.254043934
 20
1158.5299059128
 30
0.0
  0
SEQEND
  5
A8E
  8
0
  6
CONTINUOUS
 62
     7
  0
POLYLINE
  5
15A
  8
0
  6
CONTINUOUS
 62
     7
 66
     1
 10
0.0
 20
0.0
 30
0.0
 70
   128
  0
VERTEX
  5
678
  8
0
  6
CONTINUOUS
 62
     7
 10
652.3075659844
 20
1068.7740578626
 30
0.0
  0
VERTEX
  5
679
  8
0
  6
CONTINUOUS
 62
     7
 10
652.5744755837
 20
1068.0407568191
 30
0.0
  0
VERTEX
  5
67A
  8
0
  6
CONTINUOUS
 62
     7
 10
652.8311182829
 20
1067.335641322
 30
0.0
  0
VERTEX
  5
67B
  8
0
  6
CONTINUOUS
 62
     7
 10
653.0676295134
 20
1066.6858016824
 30
0.0
  0
VERTEX
  5
67C
  8
0
  6
CONTINUOUS
 62
     7
 10
653.2749493691
 20
1066.1162047957
 30
0.0
  0
VERTEX
  5
67D
  8
0
  6
CONTINUOUS
 62
     7
 10
653.4450908276
 20
1065.6487553691
 30
0.0
  0
VERTEX
  5
67E
  8
0
  6
CONTINUOUS
 62
     7
 10
653.5715122792
 20
1065.3014093016
 30
0.0
  0
VERTEX
  5
67F
  8
0
  6
CONTINUOUS
 62
     7
 10
653.6493708464
 20
1065.0875105833
 30
0.0
  0
VERTEX
  5
680
  8
0
  6
CONTINUOUS
 62
     7
 10
653.6756564947
 20
1065.0152921056
 30
0.0
  0
SEQEND
  5
A8F
  8
0
  6
CONTINUOUS
 62
     7
  0
ARC
  5
15B
  8
0
  6
CONTINUOUS
 62
     7
 10
652.0781733204
 20
1064.4338553428
 30
0.0
 40
1.699999999999982
 50
290.0
 51
20.0
  0
POLYLINE
  5
15C
  8
0
  6
CONTINUOUS
 62
     7
 66
     1
 10
0.0
 20
0.0
 30
0.0
 70
   128
  0
VERTEX
  5
681
  8
0
  6
CONTINUOUS
 62
     7
 10
652.6596059176
 20
1062.8363772606
 30
0.0
  0
VERTEX
  5
682
  8
0
  6
CONTINUOUS
 62
     7
 10
652.6221443983
 20
1062.9392995809
 30
0.0
  0
VERTEX
  5
683
  8
0
  6
CONTINUOUS
 62
     7
 10
652.5112052532
 20
1063.2440953826
 30
0.0
  0
VERTEX
  5
684
  8
0
  6
CONTINUOUS
 62
     7
 10
652.3310502144
 20
1063.739067254
 30
0.0
  0
VERTEX
  5
685
  8
0
  6
CONTINUOUS
 62
     7
 10
652.0886083218
 20
1064.4051864122
 30
0.0
  0
VERTEX
  5
686
  8
0
  6
CONTINUOUS
 62
     7
 10
651.7931779
 20
1065.2168526625
 30
0.0
  0
VERTEX
  5
687
  8
0
  6
CONTINUOUS
 62
     7
 10
651.4561434361
 20
1066.1428778743
 30
0.0
  0
VERTEX
  5
688
  8
0
  6
CONTINUOUS
 62
     7
 10
651.0904242369
 20
1067.1476706241
 30
0.0
  0
VERTEX
  5
689
  8
0
  6
CONTINUOUS
 62
     7
 10
650.7100869986
 20
1068.192629454
 30
0.0
  0
SEQEND
  5
A90
  8
0
  6
CONTINUOUS
 62
     7
  0
LINE
  5
15D
  8
0
  6
CONTINUOUS
 62
     7
 10
652.6596059176
 20
1062.8363772606
 30
0.0
 11
648.6189325424
 21
1061.3656922554
 31
0.0
  0
POLYLINE
  5
15E
  8
0
  6
CONTINUOUS
 62
     7
 66
     1
 10
0.0
 20
0.0
 30
0.0
 70
   128
  0
VERTEX
  5
68A
  8
0
  6
CONTINUOUS
 62
     7
 10
648.6189325424
 20
1061.3656922554
 30
0.0
  0
VERTEX
  5
68B
  8
0
  6
CONTINUOUS
 62
     7
 10
648.5814710232
 20
1061.4686071252
 30
0.0
  0
VERTEX
  5
68C
  8
0
  6
CONTINUOUS
 62
     7
 10
648.4705318781
 20
1061.7734103774
 30
0.0
  0
VERTEX
  5
68D
  8
0
  6
CONTINUOUS
 62
     7
 10
648.2903768393
 20
1062.2683822488
 30
0.0
  0
VERTEX
  5
68E
  8
0
  6
CONTINUOUS
 62
     7
 10
648.0479349467
 20
1062.934501407
 30
0.0
  0
VERTEX
  5
68F
  8
0
  6
CONTINUOUS
 62
     7
 10
647.7525045248
 20
1063.7461676573
 30
0.0
  0
VERTEX
  5
690
  8
0
  6
CONTINUOUS
 62
     7
 10
647.4154551598
 20
1064.6721928691
 30
0.0
  0
VERTEX
  5
691
  8
0
  6
CONTINUOUS
 62
     7
 10
647.0497508618
 20
1065.676985619
 30
0.0
  0
VERTEX
  5
692
  8
0
  6
CONTINUOUS
 62
     7
 10
646.6694136235
 20
1066.7219369983
 30
0.0
  0
SEQEND
  5
A91
  8
0
  6
CONTINUOUS
 62
     7
  0
LINE
  5
15F
  8
0
  6
CONTINUOUS
 62
     7
 10
625.1492981883
 20
1146.3146045183
 30
0.0
 11
650.2374817702
 21
1077.3853718613
 31
0.0
  0
POLYLINE
  5
160
  8
0
  6
CONTINUOUS
 62
     7
 66
     1
 10
0.0
 20
0.0
 30
0.0
 70
   128
  0
VERTEX
  5
693
  8
0
  6
CONTINUOUS
 62
     7
 10
650.2374817702
 20
1077.3853718613
 30
0.0
  0
VERTEX
  5
694
  8
0
  6
CONTINUOUS
 62
     7
 10
650.0541676852
 20
1077.3186519121
 30
0.0
  0
VERTEX
  5
695
  8
0
  6
CONTINUOUS
 62
     7
 10
649.8778869482
 20
1077.254487512
 30
0.0
  0
VERTEX
  5
696
  8
0
  6
CONTINUOUS
 62
     7
 10
649.7154195877
 20
1077.1953597044
 30
0.0
  0
VERTEX
  5
697
  8
0
  6
CONTINUOUS
 62
     7
 10
649.5730240914
 20
1077.1435334658
 30
0.0
  0
VERTEX
  5
698
  8
0
  6
CONTINUOUS
 62
     7
 10
649.4561542841
 20
1077.1009981011
 30
0.0
  0
VERTEX
  5
699
  8
0
  6
CONTINUOUS
 62
     7
 10
649.3693252178
 20
1077.0693927382
 30
0.0
  0
VERTEX
  5
69A
  8
0
  6
CONTINUOUS
 62
     7
 10
649.3158449503
 20
1077.0499243711
 30
0.0
  0
VERTEX
  5
69B
  8
0
  6
CONTINUOUS
 62
     7
 10
649.2977996441
 20
1077.043352959
 30
0.0
  0
SEQEND
  5
A92
  8
0
  6
CONTINUOUS
 62
     7
  0
POLYLINE
  5
161
  8
0
  6
CONTINUOUS
 62
     7
 66
     1
 10
0.0
 20
0.0
 30
0.0
 70
   128
  0
VERTEX
  5
69C
  8
0
  6
CONTINUOUS
 62
     7
 10
625.1492981883
 20
1146.3146045183
 30
0.0
  0
VERTEX
  5
69D
  8
0
  6
CONTINUOUS
 62
     7
 10
624.9659692022
 20
1146.2478771185
 30
0.0
  0
VERTEX
  5
69E
  8
0
  6
CONTINUOUS
 62
     7
 10
624.7896959158
 20
1146.1837127184
 30
0.0
  0
VERTEX
  5
69F
  8
0
  6
CONTINUOUS
 62
     7
 10
624.6272360059
 20
1146.1245849108
 30
0.0
  0
VERTEX
  5
6A0
  8
0
  6
CONTINUOUS
 62
     7
 10
624.484833059
 20
1146.0727586721
 30
0.0
  0
VERTEX
  5
6A1
  8
0
  6
CONTINUOUS
 62
     7
 10
624.3679707023
 20
1146.0302307581
 30
0.0
  0
VERTEX
  5
6A2
  8
0
  6
CONTINUOUS
 62
     7
 10
624.2811341854
 20
1145.9986253952
 30
0.0
  0
VERTEX
  5
6A3
  8
0
  6
CONTINUOUS
 62
     7
 10
624.2276613685
 20
1145.9791495775
 30
0.0
  0
VERTEX
  5
6A4
  8
0
  6
CONTINUOUS
 62
     7
 10
624.2096086117
 20
1145.9725781654
 30
0.0
  0
SEQEND
  5
A93
  8
0
  6
CONTINUOUS
 62
     7
  0
LINE
  5
162
  8
0
  6
CONTINUOUS
 62
     7
 10
655.4551531645
 20
1149.314610598
 30
0.0
 11
655.4551531645
 21
1146.3146045183
 31
0.0
  0
LINE
  5
163
  8
0
  6
CONTINUOUS
 62
     7
 10
653.4551491114
 20
1146.3146045183
 30
0.0
 11
655.4551531645
 21
1146.3146045183
 31
0.0
  0
LINE
  5
164
  8
0
  6
CONTINUOUS
 62
     7
 10
653.4551491114
 20
1146.3146045183
 30
0.0
 11
653.4551491114
 21
1151.3145997499
 31
0.0
  0
ARC
  5
165
  8
0
  6
CONTINUOUS
 62
     7
 10
653.4551540489
 20
1149.314605054
 30
0.0
 40
2.0
 50
0.0
 51
90.0
  0
LINE
  5
166
  8
0
  6
CONTINUOUS
 62
     7
 10
624.2320944639
 20
1151.3145997499
 30
0.0
 11
653.4551491114
 21
1151.3145997499
 31
0.0
  0
LINE
  5
167
  8
0
  6
CONTINUOUS
 62
     7
 10
653.4551491114
 20
1146.3146045183
 30
0.0
 11
625.1492981883
 21
1146.3146045183
 31
0.0
  0
LINE
  5
168
  8
0
  6
CONTINUOUS
 62
     7
 10
653.4551491114
 20
1078.5565137242
 30
0.0
 11
653.4551491114
 21
1146.3146045183
 31
0.0
  0
LINE
  5
169
  8
0
  6
CONTINUOUS
 62
     7
 10
655.4551531645
 20
1146.3146045183
 30
0.0
 11
655.4551531645
 21
1078.5565137242
 31
0.0
  0
LINE
  5
16A
  8
0
  6
CONTINUOUS
 62
     7
 10
653.4551491114
 20
1078.5565137242
 30
0.0
 11
655.4551531645
 21
1078.5565137242
 31
0.0
  0
LINE
  5
16B
  8
0
  6
CONTINUOUS
 62
     7
 10
650.2374817702
 20
1077.3853718613
 30
0.0
 11
653.4551491114
 21
1078.5565137242
 31
0.0
  0
POLYLINE
  5
16C
  8
0
  6
CONTINUOUS
 62
     7
 66
     1
 10
0.0
 20
0.0
 30
0.0
 70
   128
  0
VERTEX
  5
6A5
  8
0
  6
CONTINUOUS
 62
     7
 10
654.139186916
 20
1073.4845905875
 30
0.0
  0
VERTEX
  5
6A6
  8
0
  6
CONTINUOUS
 62
     7
 10
654.1288008066
 20
1073.561644492
 30
0.0
  0
VERTEX
  5
6A7
  8
0
  6
CONTINUOUS
 62
     7
 10
654.0979405018
 20
1073.7904667233
 30
0.0
  0
VERTEX
  5
6A8
  8
0
  6
CONTINUOUS
 62
     7
 10
654.0475447747
 20
1074.1640984391
 30
0.0
  0
VERTEX
  5
6A9
  8
0
  6
CONTINUOUS
 62
     7
 10
653.9791633459
 20
1074.6711924051
 30
0.0
  0
VERTEX
  5
6AA
  8
0
  6
CONTINUOUS
 62
     7
 10
653.8948525759
 20
1075.2963408207
 30
0.0
  0
VERTEX
  5
6AB
  8
0
  6
CONTINUOUS
 62
     7
 10
653.7971754643
 20
1076.0205521559
 30
0.0
  0
VERTEX
  5
6AC
  8
0
  6
CONTINUOUS
 62
     7
 10
653.6891122433
 20
1076.821809945
 30
0.0
  0
VERTEX
  5
6AD
  8
0
  6
CONTINUOUS
 62
     7
 10
653.5739411684
 20
1077.6757805919
 30
0.0
  0
VERTEX
  5
6AE
  8
0
  6
CONTINUOUS
 62
     7
 10
653.4551491114
 20
1078.5565137242
 30
0.0
  0
SEQEND
  5
A94
  8
0
  6
CONTINUOUS
 62
     7
  0
LINE
  5
16D
  8
0
  6
CONTINUOUS
 62
     7
 10
655.4551531645
 20
1078.5565137242
 30
0.0
 11
655.4551531645
 21
1075.3639771913
 31
0.0
  0
ARC
  5
16E
  8
0
  6
CONTINUOUS
 62
     7
 10
653.4551540489
 20
1075.3639775114
 30
0.0
 40
2.0
 50
290.0
 51
0.0
  0
LINE
  5
16F
  8
0
  6
CONTINUOUS
 62
     7
 10
654.139186916
 20
1073.4845905875
 30
0.0
 11
652.7684290978
 21
1072.9856699084
 31
0.0
  0
LINE
  5
170
  8
0
  6
CONTINUOUS
 62
     7
 10
616.2003387781
 20
1143.6396076654
 30
0.0
 11
616.2003387781
 21
1075.8815094208
 31
0.0
  0
ARC
  5
171
  8
0
  6
CONTINUOUS
 62
     7
 10
622.0003420206
 20
1104.3815113281
 30
0.0
 40
0.5000000000002274
 50
180.0
 51
270.0
  0
LINE
  5
172
  8
0
  6
CONTINUOUS
 62
     7
 10
622.0003401014
 20
1103.8815065597
 30
0.0
 11
622.4003394219
 21
1103.8815065597
 31
0.0
  0
ARC
  5
173
  8
0
  6
CONTINUOUS
 62
     7
 10
622.4003420206
 20
1104.3815113281
 30
0.0
 40
0.5000000000002274
 50
270.0
 51
0.0
  0
LINE
  5
174
  8
0
  6
CONTINUOUS
 62
     7
 10
622.9003404351
 20
1104.3815150236
 30
0.0
 11
622.9003404351
 21
1111.3815143083
 31
0.0
  0
ARC
  5
175
  8
0
  6
CONTINUOUS
 62
     7
 10
622.4003420206
 20
1111.3815113281
 30
0.0
 40
0.5000000000002274
 50
0.0
 51
90.0
  0
LINE
  5
176
  8
0
  6
CONTINUOUS
 62
     7
 10
622.4003394219
 20
1111.881507871
 30
0.0
 11
622.0003401014
 21
1111.881507871
 31
0.0
  0
ARC
  5
177
  8
0
  6
CONTINUOUS
 62
     7
 10
622.0003420206
 20
1111.3815113281
 30
0.0
 40
0.5000000000002274
 50
90.0
 51
180.0
  0
LINE
  5
178
  8
0
  6
CONTINUOUS
 62
     7
 10
621.5003390881
 20
1111.3815143083
 30
0.0
 11
621.5003390881
 21
1104.3815150236
 31
0.0
  0
POLYLINE
  5
179
  8
0
  6
CONTINUOUS
 62
     7
 66
     1
 10
0.0
 20
0.0
 30
0.0
 70
   128
  0
VERTEX
  5
6AF
  8
0
  6
CONTINUOUS
 62
     7
 10
615.5163009735
 20
1148.7115308021
 30
0.0
  0
VERTEX
  5
6B0
  8
0
  6
CONTINUOUS
 62
     7
 10
615.5266945335
 20
1148.6344768976
 30
0.0
  0
VERTEX
  5
6B1
  8
0
  6
CONTINUOUS
 62
     7
 10
615.5575548383
 20
1148.4056546663
 30
0.0
  0
VERTEX
  5
6B2
  8
0
  6
CONTINUOUS
 62
     7
 10
615.6079431149
 20
1148.0320229505
 30
0.0
  0
VERTEX
  5
6B3
  8
0
  6
CONTINUOUS
 62
     7
 10
615.6763394448
 20
1147.5249215339
 30
0.0
  0
VERTEX
  5
6B4
  8
0
  6
CONTINUOUS
 62
     7
 10
615.7606502148
 20
1146.8997731184
 30
0.0
  0
VERTEX
  5
6B5
  8
0
  6
CONTINUOUS
 62
     7
 10
615.8583198758
 20
1146.1755617832
 30
0.0
  0
VERTEX
  5
6B6
  8
0
  6
CONTINUOUS
 62
     7
 10
615.9663830968
 20
1145.3742965435
 30
0.0
  0
VERTEX
  5
6B7
  8
0
  6
CONTINUOUS
 62
     7
 10
616.0815616223
 20
1144.5203407978
 30
0.0
  0
VERTEX
  5
6B8
  8
0
  6
CONTINUOUS
 62
     7
 10
616.2003387781
 20
1143.6396076654
 30
0.0
  0
SEQEND
  5
A95
  8
0
  6
CONTINUOUS
 62
     7
  0
LINE
  5
17A
  8
0
  6
CONTINUOUS
 62
     7
 10
615.5163009735
 20
1148.7115308021
 30
0.0
 11
616.6742478582
 21
1149.1329803442
 31
0.0
  0
LINE
  5
17B
  8
0
  6
CONTINUOUS
 62
     7
 10
616.2003387781
 20
1143.6396076654
 30
0.0
 11
614.2003421756
 21
1143.6396076654
 31
0.0
  0
LINE
  5
17C
  8
0
  6
CONTINUOUS
 62
     7
 10
614.2003421756
 20
1143.6396076654
 30
0.0
 11
614.2003421756
 21
1146.8321367477
 31
0.0
  0
ARC
  5
17D
  8
0
  6
CONTINUOUS
 62
     7
 10
616.2003420206
 20
1146.8321388708
 30
0.0
 40
2.000000000000155
 50
110.0
 51
180.0
  0
LINE
  5
17E
  8
0
  6
CONTINUOUS
 62
     7
 10
616.2003387781
 20
1075.8815094208
 30
0.0
 11
614.2003421756
 21
1075.8815094208
 31
0.0
  0
LINE
  5
17F
  8
0
  6
CONTINUOUS
 62
     7
 10
614.2003421756
 20
1075.8815094208
 30
0.0
 11
614.2003421756
 21
1143.6396076654
 31
0.0
  0
LINE
  5
180
  8
0
  6
CONTINUOUS
 62
     7
 10
645.1554556462
 20
1070.8815141891
 30
0.0
 11
616.2003387781
 21
1070.8815141891
 31
0.0
  0
LINE
  5
181
  8
0
  6
CONTINUOUS
 62
     7
 10
616.2003387781
 20
1075.8815094208
 30
0.0
 11
616.2003387781
 21
1070.8815141891
 31
0.0
  0
LINE
  5
182
  8
0
  6
CONTINUOUS
 62
     7
 10
614.2003421756
 20
1072.8815107917
 30
0.0
 11
614.2003421756
 21
1075.8815094208
 31
0.0
  0
ARC
  5
183
  8
0
  6
CONTINUOUS
 62
     7
 10
616.2003420206
 20
1072.8815113281
 30
0.0
 40
2.000000000000227
 50
180.0
 51
270.0
  0
LINE
  5
184
  8
0
  6
CONTINUOUS
 62
     7
 10
622.4003394219
 20
1111.3815143083
 30
0.0
 11
622.4003394219
 21
1111.881507871
 31
0.0
  0
LINE
  5
185
  8
0
  6
CONTINUOUS
 62
     7
 10
622.4003394219
 20
1111.3815143083
 30
0.0
 11
622.9003404351
 21
1111.3815143083
 31
0.0
  0
LINE
  5
186
  8
0
  6
CONTINUOUS
 62
     7
 10
622.4003394219
 20
1111.3815143083
 30
0.0
 11
622.0003401014
 21
1111.3815143083
 31
0.0
  0
LINE
  5
187
  8
0
  6
CONTINUOUS
 62
     7
 10
622.0003401014
 20
1111.881507871
 30
0.0
 11
622.0003401014
 21
1111.3815143083
 31
0.0
  0
LINE
  5
188
  8
0
  6
CONTINUOUS
 62
     7
 10
622.4003394219
 20
1104.3815150236
 30
0.0
 11
622.4003394219
 21
1111.3815143083
 31
0.0
  0
LINE
  5
189
  8
0
  6
CONTINUOUS
 62
     7
 10
622.4003394219
 20
1104.3815150236
 30
0.0
 11
622.9003404351
 21
1104.3815150236
 31
0.0
  0
LINE
  5
18A
  8
0
  6
CONTINUOUS
 62
     7
 10
621.5003390881
 20
1111.3815143083
 30
0.0
 11
622.0003401014
 21
1111.3815143083
 31
0.0
  0
LINE
  5
18B
  8
0
  6
CONTINUOUS
 62
     7
 10
622.0003401014
 20
1111.3815143083
 30
0.0
 11
622.0003401014
 21
1104.3815150236
 31
0.0
  0
LINE
  5
18C
  8
0
  6
CONTINUOUS
 62
     7
 10
621.5003390881
 20
1104.3815150236
 30
0.0
 11
622.0003401014
 21
1104.3815150236
 31
0.0
  0
LINE
  5
18D
  8
0
  6
CONTINUOUS
 62
     7
 10
622.4003394219
 20
1104.3815150236
 30
0.0
 11
622.4003394219
 21
1103.8815065597
 31
0.0
  0
LINE
  5
18E
  8
0
  6
CONTINUOUS
 62
     7
 10
622.0003401014
 20
1104.3815150236
 30
0.0
 11
622.4003394219
 21
1104.3815150236
 31
0.0
  0
LINE
  5
18F
  8
0
  6
CONTINUOUS
 62
     7
 10
622.0003401014
 20
1103.8815065597
 30
0.0
 11
622.0003401014
 21
1104.3815150236
 31
0.0
  0
LINE
  5
190
  8
0
  6
CONTINUOUS
 62
     7
 10
517.8003420206
 20
1211.4315166448
 30
0.0
 11
530.3003422069
 21
1211.4315166448
 31
0.0
  0
LINE
  5
191
  8
0
  6
CONTINUOUS
 62
     7
 10
505.3003418344
 20
1211.4315166448
 30
0.0
 11
517.8003420206
 21
1211.4315166448
 31
0.0
  0
LINE
  5
192
  8
0
  6
CONTINUOUS
 62
     7
 10
508.8003424081
 20
1211.4815100406
 30
0.0
 11
513.3003422143
 21
1211.4815100406
 31
0.0
  0
LINE
  5
193
  8
0
  6
CONTINUOUS
 62
     7
 10
513.3003422143
 20
1211.4815100406
 30
0.0
 11
513.3003422143
 21
1211.4315166448
 31
0.0
  0
LINE
  5
194
  8
0
  6
CONTINUOUS
 62
     7
 10
514.3003419126
 20
1211.4815100406
 30
0.0
 11
514.3003419126
 21
1211.4315166448
 31
0.0
  0
LINE
  5
195
  8
0
  6
CONTINUOUS
 62
     7
 10
513.3003422143
 20
1211.4815100406
 30
0.0
 11
514.3003419126
 21
1211.4815100406
 31
0.0
  0
LINE
  5
196
  8
0
  6
CONTINUOUS
 62
     7
 10
521.3003421287
 20
1211.4815100406
 30
0.0
 11
521.3003421287
 21
1211.4315166448
 31
0.0
  0
LINE
  5
197
  8
0
  6
CONTINUOUS
 62
     7
 10
514.3003419126
 20
1211.4815100406
 30
0.0
 11
521.3003421287
 21
1211.4815100406
 31
0.0
  0
LINE
  5
198
  8
0
  6
CONTINUOUS
 62
     7
 10
527.3266217756
 20
1211.4815100406
 30
0.0
 11
527.3266217756
 21
1211.4315166448
 31
0.0
  0
LINE
  5
199
  8
0
  6
CONTINUOUS
 62
     7
 10
521.3003421287
 20
1211.4815100406
 30
0.0
 11
527.3266217756
 21
1211.4815100406
 31
0.0
  0
LINE
  5
19A
  8
0
  6
CONTINUOUS
 62
     7
 10
587.0648508045
 20
1178.3696099495
 30
0.0
 11
587.3655189844
 21
1178.3500000213
 31
0.0
  0
POLYLINE
  5
19B
  8
0
  6
CONTINUOUS
 62
     7
 66
     1
 10
0.0
 20
0.0
 30
0.0
 70
   128
  0
VERTEX
  5
6B9
  8
0
  6
CONTINUOUS
 62
     7
 10
579.5601007613
 20
1178.3696099495
 30
0.0
  0
VERTEX
  5
6BA
  8
0
  6
CONTINUOUS
 62
     7
 10
583.4198479625
 20
1178.3564522241
 30
0.0
  0
VERTEX
  5
6BB
  8
0
  6
CONTINUOUS
 62
     7
 10
587.0648508045
 20
1178.3696099495
 30
0.0
  0
SEQEND
  5
A96
  8
0
  6
CONTINUOUS
 62
     7
  0
LINE
  5
19C
  8
0
  6
CONTINUOUS
 62
     7
 10
579.2212409052
 20
1178.3500000213
 30
0.0
 11
579.5601007613
 21
1178.3696099495
 31
0.0
  0
ARC
  5
19D
  8
0
  6
CONTINUOUS
 62
     7
 10
579.9051443415
 20
1173.3611051248
 30
0.0
 40
5.035553216781661
 50
97.8057474489
 51
179.767874892
  0
LINE
  5
19E
  8
0
  6
CONTINUOUS
 62
     7
 10
574.86963245
 20
1151.3815059637
 30
0.0
 11
574.86963245
 21
1173.3815058445
 31
0.0
  0
LINE
  5
19F
  8
0
  6
CONTINUOUS
 62
     7
 10
431.7881723019
 20
1173.3815058445
 30
0.0
 11
431.7881723019
 21
1151.3815059637
 31
0.0
  0
POLYLINE
  5
1A0
  8
0
  6
CONTINUOUS
 62
     7
 66
     1
 10
0.0
 20
0.0
 30
0.0
 70
   128
  0
VERTEX
  5
6BC
  8
0
  6
CONTINUOUS
 62
     7
 10
429.8256968232
 20
1178.3500000213
 30
0.0
  0
VERTEX
  5
6BD
  8
0
  6
CONTINUOUS
 62
     7
 10
430.2127917382
 20
1178.146226642
 30
0.0
  0
VERTEX
  5
6BE
  8
0
  6
CONTINUOUS
 62
     7
 10
430.9545044872
 20
1177.1987661098
 30
0.0
  0
VERTEX
  5
6BF
  8
0
  6
CONTINUOUS
 62
     7
 10
431.4479415389
 20
1175.940824983
 30
0.0
  0
VERTEX
  5
6C0
  8
0
  6
CONTINUOUS
 62
     7
 10
431.6957627507
 20
1174.7435315822
 30
0.0
  0
VERTEX
  5
6C1
  8
0
  6
CONTINUOUS
 62
     7
 10
431.7881723019
 20
1173.3815058445
 30
0.0
  0
SEQEND
  5
A97
  8
0
  6
CONTINUOUS
 62
     7
  0
LINE
  5
1A1
  8
0
  6
CONTINUOUS
 62
     7
 10
429.6825637194
 20
1178.3696099495
 30
0.0
 11
429.8256968232
 21
1178.3500000213
 31
0.0
  0
POLYLINE
  5
1A2
  8
0
  6
CONTINUOUS
 62
     7
 66
     1
 10
0.0
 20
0.0
 30
0.0
 70
   128
  0
VERTEX
  5
6C2
  8
0
  6
CONTINUOUS
 62
     7
 10
426.9356389614
 20
1178.3696099495
 30
0.0
  0
VERTEX
  5
6C3
  8
0
  6
CONTINUOUS
 62
     7
 10
428.1624217602
 20
1178.3564522241
 30
0.0
  0
VERTEX
  5
6C4
  8
0
  6
CONTINUOUS
 62
     7
 10
429.6825637194
 20
1178.3696099495
 30
0.0
  0
SEQEND
  5
A98
  8
0
  6
CONTINUOUS
 62
     7
  0
LINE
  5
1A3
  8
0
  6
CONTINUOUS
 62
     7
 10
426.8446822735
 20
1178.3500000213
 30
0.0
 11
426.9356389614
 21
1178.3696099495
 31
0.0
  0
LINE
  5
1A4
  8
0
  6
CONTINUOUS
 62
     7
 10
591.3137530061
 20
1151.3815059637
 30
0.0
 11
610.6003408405
 21
1151.3815059637
 31
0.0
  0
LINE
  5
1A5
  8
0
  6
CONTINUOUS
 62
     7
 10
431.7881723019
 20
1151.3815059637
 30
0.0
 11
574.86963245
 21
1151.3815059637
 31
0.0
  0
LINE
  5
1A6
  8
0
  6
CONTINUOUS
 62
     7
 10
446.1003427478
 20
1211.3815083479
 30
0.0
 11
589.5003412935
 21
1211.3815083479
 31
0.0
  0
ARC
  5
1A7
  8
0
  6
CONTINUOUS
 62
     7
 10
581.1951210457
 20
1178.2431480757
 30
0.0
 40
1.976770130165448
 50
176.9014349942
 51
252.0493656972
  0
POLYLINE
  5
1A8
  8
0
  6
CONTINUOUS
 62
     7
 66
     1
 10
0.0
 20
0.0
 30
0.0
 70
   128
  0
VERTEX
  5
6C5
  8
0
  6
CONTINUOUS
 62
     7
 10
580.585885522
 20
1176.3626023506
 30
0.0
  0
VERTEX
  5
6C6
  8
0
  6
CONTINUOUS
 62
     7
 10
579.7365528616
 20
1176.240338323
 30
0.0
  0
VERTEX
  5
6C7
  8
0
  6
CONTINUOUS
 62
     7
 10
578.1626549634
 20
1175.6718590235
 30
0.0
  0
VERTEX
  5
6C8
  8
0
  6
CONTINUOUS
 62
     7
 10
577.1494132551
 20
1174.9171003078
 30
0.0
  0
VERTEX
  5
6C9
  8
0
  6
CONTINUOUS
 62
     7
 10
576.6495910558
 20
1174.1987153267
 30
0.0
  0
VERTEX
  5
6CA
  8
0
  6
CONTINUOUS
 62
     7
 10
576.4795576307
 20
1173.6152603601
 30
0.0
  0
VERTEX
  5
6CB
  8
0
  6
CONTINUOUS
 62
     7
 10
576.4646564695
 20
1173.3815058445
 30
0.0
  0
SEQEND
  5
A99
  8
0
  6
CONTINUOUS
 62
     7
  0
LINE
  5
1A9
  8
0
  6
CONTINUOUS
 62
     7
 10
574.86963245
 20
1173.3815058445
 30
0.0
 11
576.4646564695
 21
1173.3815058445
 31
0.0
  0
LINE
  5
1AA
  8
0
  6
CONTINUOUS
 62
     7
 10
580.0996420058
 20
1173.3815058445
 30
0.0
 11
576.4646564695
 21
1173.3815058445
 31
0.0
  0
ARC
  5
1AB
  8
0
  6
CONTINUOUS
 62
     7
 10
585.6989486953
 20
1173.9984124059
 30
0.0
 40
5.633188183300665
 50
155.1850139767
 51
186.2872349824
  0
LINE
  5
1AC
  8
0
  6
CONTINUOUS
 62
     7
 10
580.0996420058
 20
1151.3815059637
 30
0.0
 11
580.0996420058
 21
1173.3815058445
 31
0.0
  0
LINE
  5
1AD
  8
0
  6
CONTINUOUS
 62
     7
 10
576.4646564695
 20
1173.3815058445
 30
0.0
 11
576.4646564695
 21
1151.3815059637
 31
0.0
  0
LINE
  5
1AE
  8
0
  6
CONTINUOUS
 62
     7
 10
580.0996420058
 20
1151.3815059637
 30
0.0
 11
576.4646564695
 21
1151.3815059637
 31
0.0
  0
LINE
  5
1AF
  8
0
  6
CONTINUOUS
 62
     7
 10
580.0996420058
 20
1173.3815058445
 30
0.0
 11
582.7685852619
 21
1173.3815058445
 31
0.0
  0
LINE
  5
1B0
  8
0
  6
CONTINUOUS
 62
     7
 10
580.7935853573
 20
1176.3743593668
 30
0.0
 11
580.585885522
 21
1176.3626023506
 31
0.0
  0
ARC
  5
1B1
  8
0
  6
CONTINUOUS
 62
     7
 10
580.0293717159
 20
1173.7219675192
 30
0.0
 40
2.760290746061704
 50
352.9149419531
 51
73.9271210831
  0
LINE
  5
1B2
  8
0
  6
CONTINUOUS
 62
     7
 10
582.7685852619
 20
1173.3815058445
 30
0.0
 11
582.7685852619
 21
1151.3815059637
 31
0.0
  0
LINE
  5
1B3
  8
0
  6
CONTINUOUS
 62
     7
 10
582.7685852619
 20
1151.3815059637
 30
0.0
 11
580.0996420058
 21
1151.3815059637
 31
0.0
  0
LINE
  5
1B4
  8
0
  6
CONTINUOUS
 62
     7
 10
576.4646564695
 20
1151.3815059637
 30
0.0
 11
574.86963245
 21
1151.3815059637
 31
0.0
  0
LINE
  5
1B5
  8
0
  6
CONTINUOUS
 62
     7
 10
590.435076234
 20
1173.3815058445
 30
0.0
 11
582.7685852619
 21
1173.3815058445
 31
0.0
  0
LINE
  5
1B6
  8
0
  6
CONTINUOUS
 62
     7
 10
590.435076234
 20
1151.3815059637
 30
0.0
 11
582.7685852619
 21
1151.3815059637
 31
0.0
  0
POLYLINE
  5
1B7
  8
0
  6
CONTINUOUS
 62
     7
 66
     1
 10
0.0
 20
0.0
 30
0.0
 70
   128
  0
VERTEX
  5
6CC
  8
0
  6
CONTINUOUS
 62
     7
 10
588.4600763294
 20
1176.3743593668
 30
0.0
  0
VERTEX
  5
6CD
  8
0
  6
CONTINUOUS
 62
     7
 10
584.692645547
 20
1176.3664766525
 30
0.0
  0
VERTEX
  5
6CE
  8
0
  6
CONTINUOUS
 62
     7
 10
580.7935853573
 20
1176.3743593668
 30
0.0
  0
SEQEND
  5
A9A
  8
0
  6
CONTINUOUS
 62
     7
  0
ARC
  5
1B8
  8
0
  6
CONTINUOUS
 62
     7
 10
587.6958557771
 20
1173.7219629587
 30
0.0
 40
2.760297041631106
 50
352.9150535864
 51
73.9270094498
  0
ARC
  5
1B9
  8
0
  6
CONTINUOUS
 62
     7
 10
581.3716481609
 20
1178.1106255591
 30
0.0
 40
1.829966364540027
 50
171.8639495455
 51
251.5856233155
  0
ARC
  5
1BA
  8
0
  6
CONTINUOUS
 62
     7
 10
588.9095446535
 20
1178.1741078727
 30
0.0
 40
1.855024651831539
 50
173.9503314606
 51
255.977804005
  0
LINE
  5
1BB
  8
0
  6
CONTINUOUS
 62
     7
 10
588.5880549523
 20
1176.3661935304
 30
0.0
 11
588.4600763294
 21
1176.3743593668
 31
0.0
  0
LINE
  5
1BC
  8
0
  6
CONTINUOUS
 62
     7
 10
591.3137530061
 20
1151.3815059637
 30
0.0
 11
590.435076234
 21
1151.3815059637
 31
0.0
  0
ARC
  5
1BD
  8
0
  6
CONTINUOUS
 62
     7
 10
427.5612232277
 20
1173.3546998168
 30
0.0
 40
3.040383472261031
 50
0.5051639592
 51
81.6174697521
  0
ARC
  5
1BE
  8
0
  6
CONTINUOUS
 62
     7
 10
427.8044781294
 20
1178.3740477847
 30
0.0
 40
2.021361744800018
 50
275.6776468655
 51
359.3183467261
  0
LINE
  5
1BF
  8
0
  6
CONTINUOUS
 62
     7
 10
430.6014885279
 20
1173.3815058445
 30
0.0
 11
431.7881723019
 21
1173.3815058445
 31
0.0
  0
ARC
  5
1C0
  8
0
  6
CONTINUOUS
 62
     7
 10
430.658680199
 20
1173.9486978205
 30
0.0
 40
3.587735898060272
 50
137.7148236495
 51
189.0961604493
  0
LINE
  5
1C1
  8
0
  6
CONTINUOUS
 62
     7
 10
430.6014885279
 20
1173.3815058445
 30
0.0
 11
427.1160622212
 21
1173.3815058445
 31
0.0
  0
LINE
  5
1C2
  8
0
  6
CONTINUOUS
 62
     7
 10
430.6014885279
 20
1151.3815059637
 30
0.0
 11
430.6014885279
 21
1173.3815058445
 31
0.0
  0
LINE
  5
1C3
  8
0
  6
CONTINUOUS
 62
     7
 10
431.7881723019
 20
1151.3815059637
 30
0.0
 11
430.6014885279
 21
1151.3815059637
 31
0.0
  0
LINE
  5
1C4
  8
0
  6
CONTINUOUS
 62
     7
 10
427.1160622212
 20
1173.3815058445
 30
0.0
 11
427.1160622212
 21
1151.3815059637
 31
0.0
  0
LINE
  5
1C5
  8
0
  6
CONTINUOUS
 62
     7
 10
430.6014885279
 20
1151.3815059637
 30
0.0
 11
427.1160622212
 21
1151.3815059637
 31
0.0
  0
LINE
  5
1C6
  8
0
  6
CONTINUOUS
 62
     7
 10
425.2188240262
 20
1173.3815058445
 30
0.0
 11
427.1160622212
 21
1173.3815058445
 31
0.0
  0
ARC
  5
1C7
  8
0
  6
CONTINUOUS
 62
     7
 10
428.1771891363
 20
1173.4271295587
 30
0.0
 40
2.95871689208843
 50
95.0504657994
 51
180.8835417422
  0
LINE
  5
1C8
  8
0
  6
CONTINUOUS
 62
     7
 10
428.0044545504
 20
1176.3626023506
 30
0.0
 11
427.9167239639
 21
1176.3743593668
 31
0.0
  0
LINE
  5
1C9
  8
0
  6
CONTINUOUS
 62
     7
 10
425.2188240262
 20
1151.3815059637
 30
0.0
 11
425.2188240262
 21
1173.3815058445
 31
0.0
  0
LINE
  5
1CA
  8
0
  6
CONTINUOUS
 62
     7
 10
427.1160622212
 20
1151.3815059637
 30
0.0
 11
425.2188240262
 21
1151.3815059637
 31
0.0
  0
LINE
  5
1CB
  8
0
  6
CONTINUOUS
 62
     7
 10
425.2188240262
 20
1173.3815058445
 30
0.0
 11
422.4126969548
 21
1173.3815058445
 31
0.0
  0
ARC
  5
1CC
  8
0
  6
CONTINUOUS
 62
     7
 10
425.3710533098
 20
1173.427137451
 30
0.0
 40
2.958708259776776
 50
95.0503103691
 51
180.8836971724
  0
POLYLINE
  5
1CD
  8
0
  6
CONTINUOUS
 62
     7
 66
     1
 10
0.0
 20
0.0
 30
0.0
 70
   128
  0
VERTEX
  5
6CF
  8
0
  6
CONTINUOUS
 62
     7
 10
427.9167239639
 20
1176.3743593668
 30
0.0
  0
VERTEX
  5
6D0
  8
0
  6
CONTINUOUS
 62
     7
 10
426.4237617227
 20
1176.3664766525
 30
0.0
  0
VERTEX
  5
6D1
  8
0
  6
CONTINUOUS
 62
     7
 10
425.1105968925
 20
1176.3743593668
 30
0.0
  0
SEQEND
  5
A9B
  8
0
  6
CONTINUOUS
 62
     7
  0
ARC
  5
1CE
  8
0
  6
CONTINUOUS
 62
     7
 10
427.7260989457
 20
1178.3220950217
 30
0.0
 40
1.95704166511847
 50
275.5897399117
 51
1.3912183916
  0
LINE
  5
1CF
  8
0
  6
CONTINUOUS
 62
     7
 10
425.2188240262
 20
1151.3815059637
 30
0.0
 11
422.4126969548
 21
1151.3815059637
 31
0.0
  0
ARC
  5
1D0
  8
0
  6
CONTINUOUS
 62
     7
 10
424.9508622594
 20
1178.3527695876
 30
0.0
 40
1.984848144041938
 50
274.6159844901
 51
0.4861295006
  0
POLYLINE
  5
1D1
  8
0
  6
CONTINUOUS
 62
     7
 66
     1
 10
0.0
 20
0.0
 30
0.0
 70
   128
  0
VERTEX
  5
6D2
  8
0
  6
CONTINUOUS
 62
     7
 10
425.0548516485
 20
1176.3626023506
 30
0.0
  0
VERTEX
  5
6D3
  8
0
  6
CONTINUOUS
 62
     7
 10
425.4163314673
 20
1176.423190472
 30
0.0
  0
VERTEX
  5
6D4
  8
0
  6
CONTINUOUS
 62
     7
 10
425.6701131436
 20
1176.5108092998
 30
0.0
  0
SEQEND
  5
A9C
  8
0
  6
CONTINUOUS
 62
     7
  0
LINE
  5
1D2
  8
0
  6
CONTINUOUS
 62
     7
 10
422.4126969548
 20
1151.3815059637
 30
0.0
 11
422.3104749891
 21
1151.3815059637
 31
0.0
  0
LINE
  5
1D3
  8
0
  6
CONTINUOUS
 62
     7
 10
562.0468293401
 20
981.8815117081
 30
0.0
 11
562.0468293401
 21
1151.3815059637
 31
0.0
  0
LINE
  5
1D4
  8
0
  6
CONTINUOUS
 62
     7
 10
560.8001832935
 20
981.8815117081
 30
0.0
 11
562.0468293401
 21
981.8815117081
 31
0.0
  0
LINE
  5
1D5
  8
0
  6
CONTINUOUS
 62
     7
 10
473.5538547012
 20
981.8815117081
 30
0.0
 11
474.8005007478
 21
981.8815117081
 31
0.0
  0
LINE
  5
1D6
  8
0
  6
CONTINUOUS
 62
     7
 10
473.5538547012
 20
981.8815117081
 30
0.0
 11
473.5538547012
 21
1151.3815059637
 31
0.0
  0
LINE
  5
1D7
  8
0
  6
CONTINUOUS
 62
     7
 10
562.0468293401
 20
981.8815117081
 30
0.0
 11
562.447860566
 21
981.8815117081
 31
0.0
  0
LINE
  5
1D8
  8
0
  6
CONTINUOUS
 62
     7
 10
473.1528234752
 20
981.8815117081
 30
0.0
 11
473.5538547012
 21
981.8815117081
 31
0.0
  0
LINE
  5
1D9
  8
0
  6
CONTINUOUS
 62
     7
 10
558.9313169094
 20
981.8815117081
 30
0.0
 11
560.8001832935
 21
981.8815117081
 31
0.0
  0
LINE
  5
1DA
  8
0
  6
CONTINUOUS
 62
     7
 10
474.8005007478
 20
981.8815117081
 30
0.0
 11
476.6693671318
 21
981.8815117081
 31
0.0
  0
LINE
  5
1DB
  8
0
  6
CONTINUOUS
 62
     7
 10
558.9313169094
 20
981.8815117081
 30
0.0
 11
557.5991717252
 21
981.8815117081
 31
0.0
  0
LINE
  5
1DC
  8
0
  6
CONTINUOUS
 62
     7
 10
478.0015123161
 20
981.8815117081
 30
0.0
 11
476.6693671318
 21
981.8815117081
 31
0.0
  0
LINE
  5
1DD
  8
0
  6
CONTINUOUS
 62
     7
 10
569.8152070018
 20
981.8815117081
 30
0.0
 11
569.8152070018
 21
1151.3815059637
 31
0.0
  0
LINE
  5
1DE
  8
0
  6
CONTINUOUS
 62
     7
 10
568.5339343818
 20
981.8815117081
 30
0.0
 11
569.8152070018
 21
981.8815117081
 31
0.0
  0
LINE
  5
1DF
  8
0
  6
CONTINUOUS
 62
     7
 10
465.7854770395
 20
981.8815117081
 30
0.0
 11
467.0667496594
 21
981.8815117081
 31
0.0
  0
LINE
  5
1E0
  8
0
  6
CONTINUOUS
 62
     7
 10
465.7854770395
 20
981.8815117081
 30
0.0
 11
465.7854770395
 21
1151.3815059637
 31
0.0
  0
LINE
  5
1E1
  8
0
  6
CONTINUOUS
 62
     7
 10
569.8152070018
 20
981.8815117081
 30
0.0
 11
570.1358129355
 21
981.8815117081
 31
0.0
  0
LINE
  5
1E2
  8
0
  6
CONTINUOUS
 62
     7
 10
465.4648711058
 20
981.8815117081
 30
0.0
 11
465.7854770395
 21
981.8815117081
 31
0.0
  0
LINE
  5
1E3
  8
0
  6
CONTINUOUS
 62
     7
 10
566.3565208288
 20
981.8815117081
 30
0.0
 11
568.5339343818
 21
981.8815117081
 31
0.0
  0
LINE
  5
1E4
  8
0
  6
CONTINUOUS
 62
     7
 10
467.0667496594
 20
981.8815117081
 30
0.0
 11
469.2441632124
 21
981.8815117081
 31
0.0
  0
LINE
  5
1E5
  8
0
  6
CONTINUOUS
 62
     7
 10
566.3565208288
 20
981.8815117081
 30
0.0
 11
564.9945621463
 21
981.8815117081
 31
0.0
  0
LINE
  5
1E6
  8
0
  6
CONTINUOUS
 62
     7
 10
470.606121895
 20
981.8815117081
 30
0.0
 11
469.2441632124
 21
981.8815117081
 31
0.0
  0
LINE
  5
1E7
  8
0
  6
CONTINUOUS
 62
     7
 10
577.0136972042
 20
981.8815117081
 30
0.0
 11
577.0136972042
 21
1151.3815059637
 31
0.0
  0
LINE
  5
1E8
  8
0
  6
CONTINUOUS
 62
     7
 10
575.7118386301
 20
981.8815117081
 30
0.0
 11
577.0136972042
 21
981.8815117081
 31
0.0
  0
LINE
  5
1E9
  8
0
  6
CONTINUOUS
 62
     7
 10
458.586986837
 20
981.8815117081
 30
0.0
 11
459.8888454112
 21
981.8815117081
 31
0.0
  0
LINE
  5
1EA
  8
0
  6
CONTINUOUS
 62
     7
 10
458.586986837
 20
981.8815117081
 30
0.0
 11
458.586986837
 21
1151.3815059637
 31
0.0
  0
LINE
  5
1EB
  8
0
  6
CONTINUOUS
 62
     7
 10
577.0136972042
 20
981.8815117081
 30
0.0
 11
577.2613284262
 21
981.8815117081
 31
0.0
  0
LINE
  5
1EC
  8
0
  6
CONTINUOUS
 62
     7
 10
458.339355615
 20
981.8815117081
 30
0.0
 11
458.586986837
 21
981.8815117081
 31
0.0
  0
LINE
  5
1ED
  8
0
  6
CONTINUOUS
 62
     7
 10
573.2497383925
 20
981.8815117081
 30
0.0
 11
575.7118386301
 21
981.8815117081
 31
0.0
  0
LINE
  5
1EE
  8
0
  6
CONTINUOUS
 62
     7
 10
459.8888454112
 20
981.8815117081
 30
0.0
 11
462.3509456488
 21
981.8815117081
 31
0.0
  0
LINE
  5
1EF
  8
0
  6
CONTINUOUS
 62
     7
 10
573.2497383925
 20
981.8815117081
 30
0.0
 11
571.8728859993
 21
981.8815117081
 31
0.0
  0
LINE
  5
1F0
  8
0
  6
CONTINUOUS
 62
     7
 10
463.7277980419
 20
981.8815117081
 30
0.0
 11
462.3509456488
 21
981.8815117081
 31
0.0
  0
LINE
  5
1F1
  8
0
  6
CONTINUOUS
 62
     7
 10
583.5634355518
 20
981.8815117081
 30
0.0
 11
583.5634355518
 21
1151.3815059637
 31
0.0
  0
LINE
  5
1F2
  8
0
  6
CONTINUOUS
 62
     7
 10
582.2552477094
 20
981.8815117081
 30
0.0
 11
583.5634355518
 21
981.8815117081
 31
0.0
  0
LINE
  5
1F3
  8
0
  6
CONTINUOUS
 62
     7
 10
452.0372484895
 20
981.8815117081
 30
0.0
 11
453.3454363319
 21
981.8815117081
 31
0.0
  0
LINE
  5
1F4
  8
0
  6
CONTINUOUS
 62
     7
 10
452.0372484895
 20
981.8815117081
 30
0.0
 11
452.0372484895
 21
1151.3815059637
 31
0.0
  0
LINE
  5
1F5
  8
0
  6
CONTINUOUS
 62
     7
 10
579.5354356142
 20
981.8815117081
 30
0.0
 11
582.2552477094
 21
981.8815117081
 31
0.0
  0
LINE
  5
1F6
  8
0
  6
CONTINUOUS
 62
     7
 10
453.3454363319
 20
981.8815117081
 30
0.0
 11
456.065248427
 21
981.8815117081
 31
0.0
  0
LINE
  5
1F7
  8
0
  6
CONTINUOUS
 62
     7
 10
583.5634355518
 20
981.8815117081
 30
0.0
 11
583.7463324043
 21
981.8815117081
 31
0.0
  0
LINE
  5
1F8
  8
0
  6
CONTINUOUS
 62
     7
 10
451.854351637
 20
981.8815117081
 30
0.0
 11
452.0372484895
 21
981.8815117081
 31
0.0
  0
LINE
  5
1F9
  8
0
  6
CONTINUOUS
 62
     7
 10
579.5354356142
 20
981.8815117081
 30
0.0
 11
578.1587769362
 21
981.8815117081
 31
0.0
  0
LINE
  5
1FA
  8
0
  6
CONTINUOUS
 62
     7
 10
457.4419071051
 20
981.8815117081
 30
0.0
 11
456.065248427
 21
981.8815117081
 31
0.0
  0
LINE
  5
1FB
  8
0
  6
CONTINUOUS
 62
     7
 10
589.3926580521
 20
981.8815117081
 30
0.0
 11
589.3926580521
 21
1151.3815059637
 31
0.0
  0
LINE
  5
1FC
  8
0
  6
CONTINUOUS
 62
     7
 10
588.0924795839
 20
981.8815117081
 30
0.0
 11
589.3926580521
 21
981.8815117081
 31
0.0
  0
LINE
  5
1FD
  8
0
  6
CONTINUOUS
 62
     7
 10
446.2080259892
 20
981.8815117081
 30
0.0
 11
447.5082044574
 21
981.8815117081
 31
0.0
  0
LINE
  5
1FE
  8
0
  6
CONTINUOUS
 62
     7
 10
446.2080259892
 20
981.8815117081
 30
0.0
 11
446.2080259892
 21
1151.3815059637
 31
0.0
  0
LINE
  5
1FF
  8
0
  6
CONTINUOUS
 62
     7
 10
585.1447542282
 20
981.8815117081
 30
0.0
 11
588.0924795839
 21
981.8815117081
 31
0.0
  0
LINE
  5
200
  8
0
  6
CONTINUOUS
 62
     7
 10
447.5082044574
 20
981.8815117081
 30
0.0
 11
450.455929813
 21
981.8815117081
 31
0.0
  0
LINE
  5
201
  8
0
  6
CONTINUOUS
 62
     7
 10
589.3926580521
 20
981.8815117081
 30
0.0
 11
589.5197724077
 21
981.8815117081
 31
0.0
  0
LINE
  5
202
  8
0
  6
CONTINUOUS
 62
     7
 10
446.0809116336
 20
981.8815117081
 30
0.0
 11
446.2080259892
 21
981.8815117081
 31
0.0
  0
LINE
  5
203
  8
0
  6
CONTINUOUS
 62
     7
 10
585.1447542282
 20
981.8815117081
 30
0.0
 11
583.7833692404
 21
981.8815117081
 31
0.0
  0
LINE
  5
204
  8
0
  6
CONTINUOUS
 62
     7
 10
451.8173148009
 20
981.8815117081
 30
0.0
 11
450.455929813
 21
981.8815117081
 31
0.0
  0
LINE
  5
205
  8
0
  6
CONTINUOUS
 62
     7
 10
594.4375057789
 20
981.8815117081
 30
0.0
 11
594.4375057789
 21
1151.3815059637
 31
0.0
  0
LINE
  5
206
  8
0
  6
CONTINUOUS
 62
     7
 10
593.1595747443
 20
981.8815117081
 30
0.0
 11
594.4375057789
 21
981.8815117081
 31
0.0
  0
LINE
  5
207
  8
0
  6
CONTINUOUS
 62
     7
 10
441.1631782624
 20
981.8815117081
 30
0.0
 11
442.4411092969
 21
981.8815117081
 31
0.0
  0
LINE
  5
208
  8
0
  6
CONTINUOUS
 62
     7
 10
441.1631782624
 20
981.8815117081
 30
0.0
 11
441.1631782624
 21
1151.3815059637
 31
0.0
  0
LINE
  5
209
  8
0
  6
CONTINUOUS
 62
     7
 10
590.0162269446
 20
981.8815117081
 30
0.0
 11
593.1595747443
 21
981.8815117081
 31
0.0
  0
LINE
  5
20A
  8
0
  6
CONTINUOUS
 62
     7
 10
442.4411092969
 20
981.8815117081
 30
0.0
 11
445.5844570967
 21
981.8815117081
 31
0.0
  0
LINE
  5
20B
  8
0
  6
CONTINUOUS
 62
     7
 10
594.4375057789
 20
981.8815117081
 30
0.0
 11
594.5183967325
 21
981.8815117081
 31
0.0
  0
LINE
  5
20C
  8
0
  6
CONTINUOUS
 62
     7
 10
441.0822873088
 20
981.8815117081
 30
0.0
 11
441.1631782624
 21
981.8815117081
 31
0.0
  0
LINE
  5
20D
  8
0
  6
CONTINUOUS
 62
     7
 10
590.0162269446
 20
981.8815117081
 30
0.0
 11
589.5197724077
 21
981.8815117081
 31
0.0
  0
LINE
  5
20E
  8
0
  6
CONTINUOUS
 62
     7
 10
446.0809116336
 20
981.8815117081
 30
0.0
 11
445.5844570967
 21
981.8815117081
 31
0.0
  0
LINE
  5
20F
  8
0
  6
CONTINUOUS
 62
     7
 10
598.6426954242
 20
981.8815117081
 30
0.0
 11
598.6426954242
 21
1151.3815059637
 31
0.0
  0
LINE
  5
210
  8
0
  6
CONTINUOUS
 62
     7
 10
597.4010189148
 20
981.8815117081
 30
0.0
 11
598.6426954242
 21
981.8815117081
 31
0.0
  0
LINE
  5
211
  8
0
  6
CONTINUOUS
 62
     7
 10
436.9579886171
 20
981.8815117081
 30
0.0
 11
438.1996651264
 21
981.8815117081
 31
0.0
  0
LINE
  5
212
  8
0
  6
CONTINUOUS
 62
     7
 10
436.9579886171
 20
981.8815117081
 30
0.0
 11
436.9579886171
 21
1151.3815059637
 31
0.0
  0
LINE
  5
213
  8
0
  6
CONTINUOUS
 62
     7
 10
594.5183967325
 20
981.8815117081
 30
0.0
 11
597.4010189148
 21
981.8815117081
 31
0.0
  0
LINE
  5
214
  8
0
  6
CONTINUOUS
 62
     7
 10
438.1996651264
 20
981.8815117081
 30
0.0
 11
441.0822873088
 21
981.8815117081
 31
0.0
  0
LINE
  5
215
  8
0
  6
CONTINUOUS
 62
     7
 10
598.6426954242
 20
981.8815117081
 30
0.0
 11
598.6874361607
 21
981.8815117081
 31
0.0
  0
LINE
  5
216
  8
0
  6
CONTINUOUS
 62
     7
 10
436.9132478806
 20
981.8815117081
 30
0.0
 11
436.9579886171
 21
981.8815117081
 31
0.0
  0
LINE
  5
217
  8
0
  6
CONTINUOUS
 62
     7
 10
601.9621600481
 20
981.8815117081
 30
0.0
 11
601.9621600481
 21
1151.3815059637
 31
0.0
  0
LINE
  5
218
  8
0
  6
CONTINUOUS
 62
     7
 10
600.7703428241
 20
981.8815117081
 30
0.0
 11
601.9621600481
 21
981.8815117081
 31
0.0
  0
LINE
  5
219
  8
0
  6
CONTINUOUS
 62
     7
 10
433.6385239931
 20
981.8815117081
 30
0.0
 11
434.8303412172
 21
981.8815117081
 31
0.0
  0
LINE
  5
21A
  8
0
  6
CONTINUOUS
 62
     7
 10
433.6385239931
 20
981.8815117081
 30
0.0
 11
433.6385239931
 21
1151.3815059637
 31
0.0
  0
LINE
  5
21B
  8
0
  6
CONTINUOUS
 62
     7
 10
598.6874361607
 20
981.8815117081
 30
0.0
 11
600.7703428241
 21
981.8815117081
 31
0.0
  0
LINE
  5
21C
  8
0
  6
CONTINUOUS
 62
     7
 10
434.8303412172
 20
981.8815117081
 30
0.0
 11
436.9132478806
 21
981.8815117081
 31
0.0
  0
LINE
  5
21D
  8
0
  6
CONTINUOUS
 62
     7
 10
601.9621600481
 20
981.8815117081
 30
0.0
 11
601.9812186333
 21
981.8815117081
 31
0.0
  0
LINE
  5
21E
  8
0
  6
CONTINUOUS
 62
     7
 10
433.619465408
 20
981.8815117081
 30
0.0
 11
433.6385239931
 21
981.8815117081
 31
0.0
  0
LINE
  5
21F
  8
0
  6
CONTINUOUS
 62
     7
 10
603.8003449413
 20
1151.3815059637
 30
0.0
 11
603.8003449413
 21
981.8815117081
 31
0.0
  0
LINE
  5
220
  8
0
  6
CONTINUOUS
 62
     7
 10
603.8003449413
 20
981.8815117081
 30
0.0
 11
601.9812186333
 21
981.8815117081
 31
0.0
  0
LINE
  5
221
  8
0
  6
CONTINUOUS
 62
     7
 10
431.2411506745
 20
981.8815117081
 30
0.0
 11
431.2411506745
 21
1151.3815059637
 31
0.0
  0
LINE
  5
222
  8
0
  6
CONTINUOUS
 62
     7
 10
431.2411506745
 20
981.8815117081
 30
0.0
 11
432.3700551959
 21
981.8815117081
 31
0.0
  0
LINE
  5
223
  8
0
  6
CONTINUOUS
 62
     7
 10
432.3700551959
 20
981.8815117081
 30
0.0
 11
433.619465408
 21
981.8815117081
 31
0.0
  0
LINE
  5
224
  8
0
  6
CONTINUOUS
 62
     7
 10
431.2370305034
 20
981.8815117081
 30
0.0
 11
431.2411506745
 21
981.8815117081
 31
0.0
  0
LINE
  5
225
  8
0
  6
CONTINUOUS
 62
     7
 10
429.7921394082
 20
981.8815117081
 30
0.0
 11
429.7921394082
 21
1151.3815059637
 31
0.0
  0
LINE
  5
226
  8
0
  6
CONTINUOUS
 62
     7
 10
429.7921394082
 20
981.8815117081
 30
0.0
 11
430.8457632633
 21
981.8815117081
 31
0.0
  0
LINE
  5
227
  8
0
  6
CONTINUOUS
 62
     7
 10
430.8457632633
 20
981.8815117081
 30
0.0
 11
431.2370305034
 21
981.8815117081
 31
0.0
  0
LINE
  5
228
  8
0
  6
CONTINUOUS
 62
     7
 10
429.3073673817
 20
981.8815117081
 30
0.0
 11
429.3073673817
 21
1151.3815059637
 31
0.0
  0
LINE
  5
229
  8
0
  6
CONTINUOUS
 62
     7
 10
429.3073673817
 20
981.8815117081
 30
0.0
 11
429.7921394082
 21
981.8815117081
 31
0.0
  0
ARC
  5
22A
  8
0
  6
CONTINUOUS
 62
     7
 10
465.1865241451
 20
904.2661276422
 30
0.0
 40
5.118566582980158
 50
70.2854402371
 51
92.0195998183
  0
ARC
  5
22B
  8
0
  6
CONTINUOUS
 62
     7
 10
464.9681509276
 20
904.4962748172
 30
0.0
 40
4.983627973561751
 50
52.6540240947
 51
67.0276782216
  0
LINE
  5
22C
  8
0
  6
CONTINUOUS
 62
     7
 10
468.245766786
 20
908.2451521729
 30
0.0
 11
467.9913518103
 21
908.4581940745
 31
0.0
  0
ARC
  5
22D
  8
0
  6
CONTINUOUS
 62
     7
 10
462.8012664006
 20
902.5073382037
 30
0.0
 40
7.909809959274956
 50
29.3269843928
 51
46.5025313439
  0
LINE
  5
22E
  8
0
  6
CONTINUOUS
 62
     7
 10
469.6973447772
 20
906.3815086459
 30
0.0
 11
454.6202902766
 21
906.3815086459
 31
0.0
  0
ARC
  5
22F
  8
0
  6
CONTINUOUS
 62
     7
 10
461.5630202342
 20
902.4709906602
 30
0.0
 40
7.968290292163209
 50
133.5608868074
 51
150.609454888
  0
LINE
  5
230
  8
0
  6
CONTINUOUS
 62
     7
 10
456.3262869688
 20
908.4581940745
 30
0.0
 11
456.0718719932
 21
908.2451521729
 31
0.0
  0
POLYLINE
  5
231
  8
0
  6
CONTINUOUS
 62
     7
 66
     1
 10
0.0
 20
0.0
 30
0.0
 70
   128
  0
VERTEX
  5
6D5
  8
0
  6
CONTINUOUS
 62
     7
 10
457.4044455858
 20
909.0846686934
 30
0.0
  0
VERTEX
  5
6D6
  8
0
  6
CONTINUOUS
 62
     7
 10
457.2956671091
 20
909.0382366752
 30
0.0
  0
VERTEX
  5
6D7
  8
0
  6
CONTINUOUS
 62
     7
 10
456.3262869688
 20
908.4581940745
 30
0.0
  0
SEQEND
  5
A9D
  8
0
  6
CONTINUOUS
 62
     7
  0
ARC
  5
232
  8
0
  6
CONTINUOUS
 62
     7
 10
459.131114634
 20
904.2661276422
 30
0.0
 40
5.118566582980177
 50
87.9804001817
 51
109.7145597629
  0
ARC
  5
233
  8
0
  6
CONTINUOUS
 62
     7
 10
480.8537131216
 20
910.1671976696
 30
0.0
 40
11.78117124991076
 50
198.7436091994
 51
204.797537772
  0
ARC
  5
234
  8
0
  6
CONTINUOUS
 62
     7
 10
443.5857672603
 20
910.1185355901
 30
0.0
 40
11.65015315694432
 50
335.1683886217
 51
341.2904644069
  0
LINE
  5
235
  8
0
  6
CONTINUOUS
 62
     7
 10
461.3110159608
 20
904.3815120434
 30
0.0
 11
463.0066228184
 21
904.3815120434
 31
0.0
  0
POLYLINE
  5
236
  8
0
  6
CONTINUOUS
 62
     7
 66
     1
 10
0.0
 20
0.0
 30
0.0
 70
   128
  0
VERTEX
  5
6D8
  8
0
  6
CONTINUOUS
 62
     7
 10
459.1577422889
 20
910.138516066
 30
0.0
  0
VERTEX
  5
6D9
  8
0
  6
CONTINUOUS
 62
     7
 10
463.1661546501
 20
909.9987208222
 30
0.0
  0
VERTEX
  5
6DA
  8
0
  6
CONTINUOUS
 62
     7
 10
465.1598927649
 20
910.138516066
 30
0.0
  0
SEQEND
  5
A9E
  8
0
  6
CONTINUOUS
 62
     7
  0
ARC
  5
237
  8
0
  6
CONTINUOUS
 62
     7
 10
463.7356918213
 20
910.0336692399
 30
0.0
 40
1.428055035645892
 50
332.8273550391
 51
4.2104054449
  0
ARC
  5
238
  8
0
  6
CONTINUOUS
 62
     7
 10
460.5820061647
 20
910.0336882743
 30
0.0
 40
1.428116400633952
 50
175.7905415222
 51
207.1722395696
  0
LINE
  5
239
  8
0
  6
CONTINUOUS
 62
     7
 10
456.4396363767
 20
910.284666655
 30
0.0
 11
459.1577422889
 21
910.138516066
 31
0.0
  0
ARC
  5
23A
  8
0
  6
CONTINUOUS
 62
     7
 10
459.1128785526
 20
911.4461208868
 30
0.0
 40
2.914652580232701
 50
203.4836933408
 51
234.1154991268
  0
LINE
  5
23B
  8
0
  6
CONTINUOUS
 62
     7
 10
465.1598927649
 20
910.138516066
 30
0.0
 11
467.8780024024
 21
910.284666655
 31
0.0
  0
ARC
  5
23C
  8
0
  6
CONTINUOUS
 62
     7
 10
465.2047602266
 20
911.4461208868
 30
0.0
 40
2.91465258023229
 50
305.8845008732
 51
336.5163066592
  0
POLYLINE
  5
23D
  8
0
  6
CONTINUOUS
 62
     7
 66
     1
 10
0.0
 20
0.0
 30
0.0
 70
   128
  0
VERTEX
  5
6DB
  8
0
  6
CONTINUOUS
 62
     7
 10
456.3262869688
 20
908.4581940745
 30
0.0
  0
VERTEX
  5
6DC
  8
0
  6
CONTINUOUS
 62
     7
 10
456.2374946746
 20
908.5628225778
 30
0.0
  0
VERTEX
  5
6DD
  8
0
  6
CONTINUOUS
 62
     7
 10
456.1267455193
 20
908.6933120464
 30
0.0
  0
VERTEX
  5
6DE
  8
0
  6
CONTINUOUS
 62
     7
 10
455.9962895783
 20
908.8470398759
 30
0.0
  0
VERTEX
  5
6DF
  8
0
  6
CONTINUOUS
 62
     7
 10
455.8487531813
 20
909.0208842729
 30
0.0
  0
VERTEX
  5
6E0
  8
0
  6
CONTINUOUS
 62
     7
 10
455.6871240112
 20
909.2113360142
 30
0.0
  0
VERTEX
  5
6E1
  8
0
  6
CONTINUOUS
 62
     7
 10
455.5146654221
 20
909.4145505999
 30
0.0
  0
VERTEX
  5
6E2
  8
0
  6
CONTINUOUS
 62
     7
 10
455.3348642858
 20
909.6264078592
 30
0.0
  0
VERTEX
  5
6E3
  8
0
  6
CONTINUOUS
 62
     7
 10
455.1513527604
 20
909.8426460599
 30
0.0
  0
SEQEND
  5
A9F
  8
0
  6
CONTINUOUS
 62
     7
  0
ARC
  5
23E
  8
0
  6
CONTINUOUS
 62
     7
 10
457.0099616732
 20
906.5240518892
 30
0.0
 40
3.803615958587441
 50
98.6236189036
 51
119.2514046921
  0
POLYLINE
  5
23F
  8
0
  6
CONTINUOUS
 62
     7
 66
     1
 10
0.0
 20
0.0
 30
0.0
 70
   128
  0
VERTEX
  5
6E4
  8
0
  6
CONTINUOUS
 62
     7
 10
467.8780024024
 20
910.284666655
 30
0.0
  0
VERTEX
  5
6E5
  8
0
  6
CONTINUOUS
 62
     7
 10
468.1277533146
 20
910.2383314942
 30
0.0
  0
VERTEX
  5
6E6
  8
0
  6
CONTINUOUS
 62
     7
 10
469.1662822934
 20
909.8426460599
 30
0.0
  0
SEQEND
  5
AA0
  8
0
  6
CONTINUOUS
 62
     7
  0
POLYLINE
  5
240
  8
0
  6
CONTINUOUS
 62
     7
 66
     1
 10
0.0
 20
0.0
 30
0.0
 70
   128
  0
VERTEX
  5
6E7
  8
0
  6
CONTINUOUS
 62
     7
 10
469.1662822934
 20
909.8426460599
 30
0.0
  0
VERTEX
  5
6E8
  8
0
  6
CONTINUOUS
 62
     7
 10
468.9827744933
 20
909.6264078592
 30
0.0
  0
VERTEX
  5
6E9
  8
0
  6
CONTINUOUS
 62
     7
 10
468.8029733571
 20
909.4145505999
 30
0.0
  0
VERTEX
  5
6EA
  8
0
  6
CONTINUOUS
 62
     7
 10
468.630514768
 20
909.2113360142
 30
0.0
  0
VERTEX
  5
6EB
  8
0
  6
CONTINUOUS
 62
     7
 10
468.4688855978
 20
909.0208842729
 30
0.0
  0
VERTEX
  5
6EC
  8
0
  6
CONTINUOUS
 62
     7
 10
468.3213492008
 20
908.8470398759
 30
0.0
  0
VERTEX
  5
6ED
  8
0
  6
CONTINUOUS
 62
     7
 10
468.1908932599
 20
908.6933120464
 30
0.0
  0
VERTEX
  5
6EE
  8
0
  6
CONTINUOUS
 62
     7
 10
468.0801441046
 20
908.5628225778
 30
0.0
  0
VERTEX
  5
6EF
  8
0
  6
CONTINUOUS
 62
     7
 10
467.9913518103
 20
908.4581940745
 30
0.0
  0
SEQEND
  5
AA1
  8
0
  6
CONTINUOUS
 62
     7
  0
ARC
  5
241
  8
0
  6
CONTINUOUS
 62
     7
 10
467.008864857
 20
906.4302592254
 30
0.0
 40
3.971385461661887
 50
17.7285446998
 51
50.3393102705
  0
ARC
  5
242
  8
0
  6
CONTINUOUS
 62
     7
 10
471.7183711372
 20
905.7285236782
 30
0.0
 40
2.123896634918709
 50
115.8700295148
 51
162.0945772852
  0
POLYLINE
  5
243
  8
0
  6
CONTINUOUS
 62
     7
 66
     1
 10
0.0
 20
0.0
 30
0.0
 70
   128
  0
VERTEX
  5
6F0
  8
0
  6
CONTINUOUS
 62
     7
 10
469.5435610684
 20
909.487581191
 30
0.0
  0
VERTEX
  5
6F1
  8
0
  6
CONTINUOUS
 62
     7
 10
469.3426934155
 20
909.2952817057
 30
0.0
  0
VERTEX
  5
6F2
  8
0
  6
CONTINUOUS
 62
     7
 10
469.1457261416
 20
909.1067149614
 30
0.0
  0
VERTEX
  5
6F3
  8
0
  6
CONTINUOUS
 62
     7
 10
468.956488845
 20
908.9255540942
 30
0.0
  0
VERTEX
  5
6F4
  8
0
  6
CONTINUOUS
 62
     7
 10
468.778654662
 20
908.7553083276
 30
0.0
  0
VERTEX
  5
6F5
  8
0
  6
CONTINUOUS
 62
     7
 10
468.615680662
 20
908.5992857193
 30
0.0
  0
VERTEX
  5
6F6
  8
0
  6
CONTINUOUS
 62
     7
 10
468.4707333418
 20
908.4605186557
 30
0.0
  0
VERTEX
  5
6F7
  8
0
  6
CONTINUOUS
 62
     7
 10
468.3466252955
 20
908.3417042469
 30
0.0
  0
VERTEX
  5
6F8
  8
0
  6
CONTINUOUS
 62
     7
 10
468.245766786
 20
908.2451521729
 30
0.0
  0
SEQEND
  5
AA2
  8
0
  6
CONTINUOUS
 62
     7
  0
ARC
  5
244
  8
0
  6
CONTINUOUS
 62
     7
 10
452.5992945639
 20
905.7285558243
 30
0.0
 40
2.123857588935997
 50
17.9048516979
 51
64.130155165
  0
ARC
  5
245
  8
0
  6
CONTINUOUS
 62
     7
 10
457.3464192195
 20
906.4048424068
 30
0.0
 40
4.014999283785577
 50
129.8427628065
 51
162.0895408627
  0
POLYLINE
  5
246
  8
0
  6
CONTINUOUS
 62
     7
 66
     1
 10
0.0
 20
0.0
 30
0.0
 70
   128
  0
VERTEX
  5
6F9
  8
0
  6
CONTINUOUS
 62
     7
 10
456.0718719932
 20
908.2451521729
 30
0.0
  0
VERTEX
  5
6FA
  8
0
  6
CONTINUOUS
 62
     7
 10
455.9710134836
 20
908.3417042469
 30
0.0
  0
VERTEX
  5
6FB
  8
0
  6
CONTINUOUS
 62
     7
 10
455.8469054374
 20
908.4605186557
 30
0.0
  0
VERTEX
  5
6FC
  8
0
  6
CONTINUOUS
 62
     7
 10
455.7019581171
 20
908.5992857193
 30
0.0
  0
VERTEX
  5
6FD
  8
0
  6
CONTINUOUS
 62
     7
 10
455.5389841172
 20
908.7553083276
 30
0.0
  0
VERTEX
  5
6FE
  8
0
  6
CONTINUOUS
 62
     7
 10
455.3611499342
 20
908.9255540942
 30
0.0
  0
VERTEX
  5
6FF
  8
0
  6
CONTINUOUS
 62
     7
 10
455.1719089123
 20
909.1067149614
 30
0.0
  0
VERTEX
  5
700
  8
0
  6
CONTINUOUS
 62
     7
 10
454.9749453636
 20
909.2952817057
 30
0.0
  0
VERTEX
  5
701
  8
0
  6
CONTINUOUS
 62
     7
 10
454.7740777108
 20
909.487581191
 30
0.0
  0
SEQEND
  5
AA3
  8
0
  6
CONTINUOUS
 62
     7
  0
LINE
  5
247
  8
0
  6
CONTINUOUS
 62
     7
 10
454.7740777108
 20
909.487581191
 30
0.0
 11
455.1513527604
 21
909.8426460599
 31
0.0
  0
LINE
  5
248
  8
0
  6
CONTINUOUS
 62
     7
 10
469.1662822934
 20
909.8426460599
 30
0.0
 11
469.5435610684
 21
909.487581191
 31
0.0
  0
ARC
  5
249
  8
0
  6
CONTINUOUS
 62
     7
 10
462.1588192761
 20
921.3815113281
 30
0.0
 40
10.49999999999995
 50
297.2660444507
 51
242.7339555493
  0
POLYLINE
  5
24A
  8
0
  6
CONTINUOUS
 62
     7
 66
     1
 10
0.0
 20
0.0
 30
0.0
 70
   128
  0
VERTEX
  5
702
  8
0
  6
CONTINUOUS
 62
     7
 10
457.3485289785
 20
912.0481781041
 30
0.0
  0
VERTEX
  5
703
  8
0
  6
CONTINUOUS
 62
     7
 10
457.3324394497
 20
912.0169601713
 30
0.0
  0
VERTEX
  5
704
  8
0
  6
CONTINUOUS
 62
     7
 10
457.2845508429
 20
911.9240439807
 30
0.0
  0
VERTEX
  5
705
  8
0
  6
CONTINUOUS
 62
     7
 10
457.2059844705
 20
911.7716013764
 30
0.0
  0
VERTEX
  5
706
  8
0
  6
CONTINUOUS
 62
     7
 10
457.0985769006
 20
911.5632011865
 30
0.0
  0
VERTEX
  5
707
  8
0
  6
CONTINUOUS
 62
     7
 10
456.9648464295
 20
911.3037198161
 30
0.0
  0
VERTEX
  5
708
  8
0
  6
CONTINUOUS
 62
     7
 10
456.8079185756
 20
910.9992369388
 30
0.0
  0
VERTEX
  5
709
  8
0
  6
CONTINUOUS
 62
     7
 10
456.631473926
 20
910.6568827604
 30
0.0
  0
VERTEX
  5
70A
  8
0
  6
CONTINUOUS
 62
     7
 10
456.4396363767
 20
910.284666655
 30
0.0
  0
SEQEND
  5
AA4
  8
0
  6
CONTINUOUS
 62
     7
  0
POLYLINE
  5
24B
  8
0
  6
CONTINUOUS
 62
     7
 66
     1
 10
0.0
 20
0.0
 30
0.0
 70
   128
  0
VERTEX
  5
70B
  8
0
  6
CONTINUOUS
 62
     7
 10
467.8780024024
 20
910.284666655
 30
0.0
  0
VERTEX
  5
70C
  8
0
  6
CONTINUOUS
 62
     7
 10
467.6861648532
 20
910.6568827604
 30
0.0
  0
VERTEX
  5
70D
  8
0
  6
CONTINUOUS
 62
     7
 10
467.5097202035
 20
910.9992369388
 30
0.0
  0
VERTEX
  5
70E
  8
0
  6
CONTINUOUS
 62
     7
 10
467.3527923497
 20
911.3037198161
 30
0.0
  0
VERTEX
  5
70F
  8
0
  6
CONTINUOUS
 62
     7
 10
467.2190618786
 20
911.5632011865
 30
0.0
  0
VERTEX
  5
710
  8
0
  6
CONTINUOUS
 62
     7
 10
467.1116543087
 20
911.7716013764
 30
0.0
  0
VERTEX
  5
711
  8
0
  6
CONTINUOUS
 62
     7
 10
467.0330879363
 20
911.9240439807
 30
0.0
  0
VERTEX
  5
712
  8
0
  6
CONTINUOUS
 62
     7
 10
466.9851993295
 20
912.0169601713
 30
0.0
  0
VERTEX
  5
713
  8
0
  6
CONTINUOUS
 62
     7
 10
466.9691098007
 20
912.0481781041
 30
0.0
  0
SEQEND
  5
AA5
  8
0
  6
CONTINUOUS
 62
     7
  0
ARC
  5
24C
  8
0
  6
CONTINUOUS
 62
     7
 10
462.1588192761
 20
921.3815113281
 30
0.0
 40
16.99999999999999
 50
301.7568638593
 51
238.2431361407
  0
ARC
  5
24D
  8
0
  6
CONTINUOUS
 62
     7
 10
474.7524022503
 20
908.9610179308
 30
0.0
 40
4.175377289318628
 50
198.4504449239
 51
209.1595552875
  0
ARC
  5
24E
  8
0
  6
CONTINUOUS
 62
     7
 10
449.6535119484
 20
908.9220948626
 30
0.0
 40
4.079334315267328
 50
330.7137355289
 51
341.675763069
  0
ARC
  5
24F
  8
0
  6
CONTINUOUS
 62
     7
 10
462.1588193896
 20
921.3815193332
 30
0.0
 40
10.50000725420756
 50
242.7339727917
 51
297.2660272083
  0
ARC
  5
250
  8
0
  6
CONTINUOUS
 62
     7
 10
472.1588192761
 20
905.2260169067
 30
0.0
 40
1.999999999999943
 50
121.7568638593
 51
180.0
  0
ARC
  5
251
  8
0
  6
CONTINUOUS
 62
     7
 10
452.1588192761
 20
905.2260169067
 30
0.0
 40
2.0
 50
0.0
 51
58.2431361407
  0
LINE
  5
252
  8
0
  6
CONTINUOUS
 62
     7
 10
573.0708909305
 20
705.3815110897
 30
0.0
 11
573.0736029419
 21
705.3815110897
 31
0.0
  0
LINE
  5
253
  8
0
  6
CONTINUOUS
 62
     7
 10
569.3062317642
 20
705.3815110897
 30
0.0
 11
573.0708909305
 21
705.3815110897
 31
0.0
  0
LINE
  5
254
  8
0
  6
CONTINUOUS
 62
     7
 10
562.1189435097
 20
705.3815110897
 30
0.0
 11
569.3062317642
 21
705.3815110897
 31
0.0
  0
LINE
  5
255
  8
0
  6
CONTINUOUS
 62
     7
 10
558.6936024102
 20
705.3815110897
 30
0.0
 11
562.1189435097
 21
705.3815110897
 31
0.0
  0
LINE
  5
256
  8
0
  6
CONTINUOUS
 62
     7
 10
569.3062317642
 20
705.3815110897
 30
0.0
 11
569.3062317642
 21
700.0815256809
 31
0.0
  0
LINE
  5
257
  8
0
  6
CONTINUOUS
 62
     7
 10
573.0708909305
 20
705.3815110897
 30
0.0
 11
573.0708909305
 21
700.0815256809
 31
0.0
  0
LINE
  5
258
  8
0
  6
CONTINUOUS
 62
     7
 10
569.3062317642
 20
700.0815256809
 30
0.0
 11
573.0708909305
 21
700.0815256809
 31
0.0
  0
LINE
  5
259
  8
0
  6
CONTINUOUS
 62
     7
 10
562.1189435097
 20
705.3815110897
 30
0.0
 11
562.1189435097
 21
700.0815256809
 31
0.0
  0
LINE
  5
25A
  8
0
  6
CONTINUOUS
 62
     7
 10
562.1189435097
 20
700.0815256809
 30
0.0
 11
569.3062317642
 21
700.0815256809
 31
0.0
  0
LINE
  5
25B
  8
0
  6
CONTINUOUS
 62
     7
 10
558.6963144215
 20
705.3815110897
 30
0.0
 11
558.6963144215
 21
700.0815256809
 31
0.0
  0
LINE
  5
25C
  8
0
  6
CONTINUOUS
 62
     7
 10
558.6963144215
 20
700.0815256809
 30
0.0
 11
562.1189435097
 21
700.0815256809
 31
0.0
  0
LINE
  5
25D
  8
0
  6
CONTINUOUS
 62
     7
 10
475.8427214893
 20
705.3815110897
 30
0.0
 11
476.9070816311
 21
705.3815110897
 31
0.0
  0
LINE
  5
25E
  8
0
  6
CONTINUOUS
 62
     7
 10
469.5196111771
 20
705.3815110897
 30
0.0
 11
475.8427214893
 21
705.3815110897
 31
0.0
  0
LINE
  5
25F
  8
0
  6
CONTINUOUS
 62
     7
 10
463.393971053
 20
705.3815110897
 30
0.0
 11
469.5196111771
 21
705.3815110897
 31
0.0
  0
LINE
  5
260
  8
0
  6
CONTINUOUS
 62
     7
 10
462.5270810994
 20
705.3815110897
 30
0.0
 11
463.393971053
 21
705.3815110897
 31
0.0
  0
LINE
  5
261
  8
0
  6
CONTINUOUS
 62
     7
 10
469.5196111771
 20
705.3815110897
 30
0.0
 11
469.5196111771
 21
700.0815256809
 31
0.0
  0
LINE
  5
262
  8
0
  6
CONTINUOUS
 62
     7
 10
475.8427214893
 20
705.3815110897
 30
0.0
 11
475.8427214893
 21
700.0815256809
 31
0.0
  0
LINE
  5
263
  8
0
  6
CONTINUOUS
 62
     7
 10
469.5196111771
 20
700.0815256809
 30
0.0
 11
475.8427214893
 21
700.0815256809
 31
0.0
  0
LINE
  5
264
  8
0
  6
CONTINUOUS
 62
     7
 10
463.393971053
 20
705.3815110897
 30
0.0
 11
463.393971053
 21
700.0815256809
 31
0.0
  0
LINE
  5
265
  8
0
  6
CONTINUOUS
 62
     7
 10
463.393971053
 20
700.0815256809
 30
0.0
 11
469.5196111771
 21
700.0815256809
 31
0.0
  0
LINE
  5
266
  8
0
  6
CONTINUOUS
 62
     7
 10
476.0401879522
 20
705.3815110897
 30
0.0
 11
476.0401879522
 21
700.0815256809
 31
0.0
  0
LINE
  5
267
  8
0
  6
CONTINUOUS
 62
     7
 10
475.8427214893
 20
700.0815256809
 30
0.0
 11
476.0401879522
 21
700.0815256809
 31
0.0
  0
LINE
  5
268
  8
0
  6
CONTINUOUS
 62
     7
 10
467.9826607081
 20
721.3815137123
 30
0.0
 11
467.9826607081
 21
708.3815022682
 31
0.0
  0
LINE
  5
269
  8
0
  6
CONTINUOUS
 62
     7
 10
467.9826607081
 20
708.3815022682
 30
0.0
 11
465.7288190993
 21
708.3815022682
 31
0.0
  0
LINE
  5
26A
  8
0
  6
CONTINUOUS
 62
     7
 10
465.7288190993
 20
708.3815022682
 30
0.0
 11
465.7288190993
 21
721.3815137123
 31
0.0
  0
LINE
  5
26B
  8
0
  6
CONTINUOUS
 62
     7
 10
465.7288190993
 20
721.3815137123
 30
0.0
 11
467.9826607081
 21
721.3815137123
 31
0.0
  0
POLYLINE
  5
26C
  8
0
  6
CONTINUOUS
 62
     7
 66
     1
 10
0.0
 20
0.0
 30
0.0
 70
   128
  0
VERTEX
  5
714
  8
0
  6
CONTINUOUS
 62
     7
 10
467.0306068929
 20
706.3814982151
 30
0.0
  0
VERTEX
  5
715
  8
0
  6
CONTINUOUS
 62
     7
 10
466.7766389521
 20
706.419943211
 30
0.0
  0
VERTEX
  5
716
  8
0
  6
CONTINUOUS
 62
     7
 10
466.5324349972
 20
706.5337582802
 30
0.0
  0
VERTEX
  5
717
  8
0
  6
CONTINUOUS
 62
     7
 10
466.3073715838
 20
706.7185624813
 30
0.0
  0
VERTEX
  5
718
  8
0
  6
CONTINUOUS
 62
     7
 10
466.1101025614
 20
706.9672926639
 30
0.0
  0
VERTEX
  5
719
  8
0
  6
CONTINUOUS
 62
     7
 10
465.9482088956
 20
707.2703822826
 30
0.0
  0
VERTEX
  5
71A
  8
0
  6
CONTINUOUS
 62
     7
 10
465.8279118212
 20
707.616148827
 30
0.0
  0
VERTEX
  5
71B
  8
0
  6
CONTINUOUS
 62
     7
 10
465.7538306984
 20
707.9913302635
 30
0.0
  0
VERTEX
  5
71C
  8
0
  6
CONTINUOUS
 62
     7
 10
465.7288190993
 20
708.3815022682
 30
0.0
  0
SEQEND
  5
AA6
  8
0
  6
CONTINUOUS
 62
     7
  0
POLYLINE
  5
26D
  8
0
  6
CONTINUOUS
 62
     7
 66
     1
 10
0.0
 20
0.0
 30
0.0
 70
   128
  0
VERTEX
  5
71D
  8
0
  6
CONTINUOUS
 62
     7
 10
467.0306068929
 20
706.3814982151
 30
0.0
  0
VERTEX
  5
71E
  8
0
  6
CONTINUOUS
 62
     7
 10
467.2163424166
 20
706.419943211
 30
0.0
  0
VERTEX
  5
71F
  8
0
  6
CONTINUOUS
 62
     7
 10
467.3949402841
 20
706.5337582802
 30
0.0
  0
VERTEX
  5
720
  8
0
  6
CONTINUOUS
 62
     7
 10
467.5595385107
 20
706.7185624813
 30
0.0
  0
VERTEX
  5
721
  8
0
  6
CONTINUOUS
 62
     7
 10
467.7038078281
 20
706.9672926639
 30
0.0
  0
VERTEX
  5
722
  8
0
  6
CONTINUOUS
 62
     7
 10
467.8222087296
 20
707.2703822826
 30
0.0
  0
VERTEX
  5
723
  8
0
  6
CONTINUOUS
 62
     7
 10
467.9101889106
 20
707.616148827
 30
0.0
  0
VERTEX
  5
724
  8
0
  6
CONTINUOUS
 62
     7
 10
467.9643658074
 20
707.9913302635
 30
0.0
  0
VERTEX
  5
725
  8
0
  6
CONTINUOUS
 62
     7
 10
467.9826607081
 20
708.3815022682
 30
0.0
  0
SEQEND
  5
AA7
  8
0
  6
CONTINUOUS
 62
     7
  0
LINE
  5
26E
  8
0
  6
CONTINUOUS
 62
     7
 10
569.871864942
 20
721.3815137123
 30
0.0
 11
569.871864942
 21
708.3815022682
 31
0.0
  0
LINE
  5
26F
  8
0
  6
CONTINUOUS
 62
     7
 10
567.6180233332
 20
708.3815022682
 30
0.0
 11
569.871864942
 21
708.3815022682
 31
0.0
  0
LINE
  5
270
  8
0
  6
CONTINUOUS
 62
     7
 10
567.6180233332
 20
708.3815022682
 30
0.0
 11
567.6180233332
 21
721.3815137123
 31
0.0
  0
LINE
  5
271
  8
0
  6
CONTINUOUS
 62
     7
 10
567.6180233332
 20
721.3815137123
 30
0.0
 11
569.871864942
 21
721.3815137123
 31
0.0
  0
POLYLINE
  5
272
  8
0
  6
CONTINUOUS
 62
     7
 66
     1
 10
0.0
 20
0.0
 30
0.0
 70
   128
  0
VERTEX
  5
726
  8
0
  6
CONTINUOUS
 62
     7
 10
568.5700771483
 20
706.3814982151
 30
0.0
  0
VERTEX
  5
727
  8
0
  6
CONTINUOUS
 62
     7
 10
568.8240450891
 20
706.419943211
 30
0.0
  0
VERTEX
  5
728
  8
0
  6
CONTINUOUS
 62
     7
 10
569.0682490441
 20
706.5337582802
 30
0.0
  0
VERTEX
  5
729
  8
0
  6
CONTINUOUS
 62
     7
 10
569.2933124574
 20
706.7185624813
 30
0.0
  0
VERTEX
  5
72A
  8
0
  6
CONTINUOUS
 62
     7
 10
569.4905814799
 20
706.9672926639
 30
0.0
  0
VERTEX
  5
72B
  8
0
  6
CONTINUOUS
 62
     7
 10
569.6524751457
 20
707.2703822826
 30
0.0
  0
VERTEX
  5
72C
  8
0
  6
CONTINUOUS
 62
     7
 10
569.77277222
 20
707.616148827
 30
0.0
  0
VERTEX
  5
72D
  8
0
  6
CONTINUOUS
 62
     7
 10
569.8468533429
 20
707.9913302635
 30
0.0
  0
VERTEX
  5
72E
  8
0
  6
CONTINUOUS
 62
     7
 10
569.871864942
 20
708.3815022682
 30
0.0
  0
SEQEND
  5
AA8
  8
0
  6
CONTINUOUS
 62
     7
  0
POLYLINE
  5
273
  8
0
  6
CONTINUOUS
 62
     7
 66
     1
 10
0.0
 20
0.0
 30
0.0
 70
   128
  0
VERTEX
  5
72F
  8
0
  6
CONTINUOUS
 62
     7
 10
567.6180233332
 20
708.3815022682
 30
0.0
  0
VERTEX
  5
730
  8
0
  6
CONTINUOUS
 62
     7
 10
567.6363182339
 20
707.9913302635
 30
0.0
  0
VERTEX
  5
731
  8
0
  6
CONTINUOUS
 62
     7
 10
567.6904951307
 20
707.616148827
 30
0.0
  0
VERTEX
  5
732
  8
0
  6
CONTINUOUS
 62
     7
 10
567.7784753116
 20
707.2703822826
 30
0.0
  0
VERTEX
  5
733
  8
0
  6
CONTINUOUS
 62
     7
 10
567.8968762132
 20
706.9672926639
 30
0.0
  0
VERTEX
  5
734
  8
0
  6
CONTINUOUS
 62
     7
 10
568.0411455306
 20
706.7185624813
 30
0.0
  0
VERTEX
  5
735
  8
0
  6
CONTINUOUS
 62
     7
 10
568.2057437571
 20
706.5337582802
 30
0.0
  0
VERTEX
  5
736
  8
0
  6
CONTINUOUS
 62
     7
 10
568.3843416246
 20
706.419943211
 30
0.0
  0
VERTEX
  5
737
  8
0
  6
CONTINUOUS
 62
     7
 10
568.5700771483
 20
706.3814982151
 30
0.0
  0
SEQEND
  5
AA9
  8
0
  6
CONTINUOUS
 62
     7
  0
LINE
  5
274
  8
0
  6
CONTINUOUS
 62
     7
 10
550.3183414313
 20
721.3815137123
 30
0.0
 11
550.3183414313
 21
711.381523249
 31
0.0
  0
LINE
  5
275
  8
0
  6
CONTINUOUS
 62
     7
 10
485.28234261
 20
711.381523249
 30
0.0
 11
550.3183414313
 21
711.381523249
 31
0.0
  0
LINE
  5
276
  8
0
  6
CONTINUOUS
 62
     7
 10
485.28234261
 20
721.3815137123
 30
0.0
 11
485.28234261
 21
711.381523249
 31
0.0
  0
LINE
  5
277
  8
0
  6
CONTINUOUS
 62
     7
 10
456.8003413352
 20
746.3815047716
 30
0.0
 11
465.7170807096
 21
746.3815047716
 31
0.0
  0
LINE
  5
278
  8
0
  6
CONTINUOUS
 62
     7
 10
473.7170820209
 20
746.3815047716
 30
0.0
 11
561.8836020204
 21
746.3815047716
 31
0.0
  0
LINE
  5
279
  8
0
  6
CONTINUOUS
 62
     7
 10
569.8836033317
 20
746.3815047716
 30
0.0
 11
578.8003427061
 21
746.3815047716
 31
0.0
  0
ARC
  5
27A
  8
0
  6
CONTINUOUS
 62
     7
 10
545.3643363665
 20
711.3815823752
 30
0.0
 40
4.954005065086742
 50
322.7289201384
 51
359.9993161737
  0
ARC
  5
27B
  8
0
  6
CONTINUOUS
 62
     7
 10
545.7181228909
 20
710.0427463334
 30
0.0
 40
3.954379974439834
 50
292.1998458876
 51
335.1589546284
  0
LINE
  5
27C
  8
0
  6
CONTINUOUS
 62
     7
 10
547.2122390839
 20
706.3814982151
 30
0.0
 11
488.3884449574
 21
706.3814982151
 31
0.0
  0
POLYLINE
  5
27D
  8
0
  6
CONTINUOUS
 62
     7
 66
     1
 10
0.0
 20
0.0
 30
0.0
 70
   128
  0
VERTEX
  5
738
  8
0
  6
CONTINUOUS
 62
     7
 10
486.294053224
 20
708.3815022682
 30
0.0
  0
VERTEX
  5
739
  8
0
  6
CONTINUOUS
 62
     7
 10
486.8356992575
 20
707.6558753227
 30
0.0
  0
VERTEX
  5
73A
  8
0
  6
CONTINUOUS
 62
     7
 10
487.3980187895
 20
706.9641932224
 30
0.0
  0
VERTEX
  5
73B
  8
0
  6
CONTINUOUS
 62
     7
 10
487.974587557
 20
706.4905449127
 30
0.0
  0
VERTEX
  5
73C
  8
0
  6
CONTINUOUS
 62
     7
 10
488.3823429319
 20
706.3815280174
 30
0.0
  0
VERTEX
  5
73D
  8
0
  6
CONTINUOUS
 62
     7
 10
488.3884449574
 20
706.3814982151
 30
0.0
  0
SEQEND
  5
AAA
  8
0
  6
CONTINUOUS
 62
     7
  0
POLYLINE
  5
27E
  8
0
  6
CONTINUOUS
 62
     7
 66
     1
 10
0.0
 20
0.0
 30
0.0
 70
   128
  0
VERTEX
  5
73E
  8
0
  6
CONTINUOUS
 62
     7
 10
486.294053224
 20
708.3815022682
 30
0.0
  0
VERTEX
  5
73F
  8
0
  6
CONTINUOUS
 62
     7
 10
485.5812040242
 20
709.6868141865
 30
0.0
  0
VERTEX
  5
740
  8
0
  6
CONTINUOUS
 62
     7
 10
485.28234261
 20
711.381523249
 30
0.0
  0
SEQEND
  5
AAB
  8
0
  6
CONTINUOUS
 62
     7
  0
LINE
  5
27F
  8
0
  6
CONTINUOUS
 62
     7
 10
467.9826607081
 20
708.3815022682
 30
0.0
 11
486.294053224
 21
708.3815022682
 31
0.0
  0
LINE
  5
280
  8
0
  6
CONTINUOUS
 62
     7
 10
467.9826607081
 20
721.3815137123
 30
0.0
 11
485.28234261
 21
721.3815137123
 31
0.0
  0
LINE
  5
281
  8
0
  6
CONTINUOUS
 62
     7
 10
488.3884449574
 20
706.3814982151
 30
0.0
 11
467.0306068929
 21
706.3814982151
 31
0.0
  0
LINE
  5
282
  8
0
  6
CONTINUOUS
 62
     7
 10
549.3066308173
 20
708.3815022682
 30
0.0
 11
567.6180233332
 21
708.3815022682
 31
0.0
  0
LINE
  5
283
  8
0
  6
CONTINUOUS
 62
     7
 10
550.3183414313
 20
721.3815137123
 30
0.0
 11
567.6180233332
 21
721.3815137123
 31
0.0
  0
LINE
  5
284
  8
0
  6
CONTINUOUS
 62
     7
 10
568.5700771483
 20
706.3814982151
 30
0.0
 11
547.2122390839
 21
706.3814982151
 31
0.0
  0
LINE
  5
285
  8
0
  6
CONTINUOUS
 62
     7
 10
457.0668560537
 20
708.3815022682
 30
0.0
 11
465.7288190993
 21
708.3815022682
 31
0.0
  0
LINE
  5
286
  8
0
  6
CONTINUOUS
 62
     7
 10
457.0668560537
 20
721.3815137123
 30
0.0
 11
457.0668560537
 21
708.3815022682
 31
0.0
  0
LINE
  5
287
  8
0
  6
CONTINUOUS
 62
     7
 10
457.0668560537
 20
721.3815137123
 30
0.0
 11
465.7288190993
 21
721.3815137123
 31
0.0
  0
LINE
  5
288
  8
0
  6
CONTINUOUS
 62
     7
 10
467.0306068929
 20
706.3814982151
 30
0.0
 11
458.5851912471
 21
706.3814982151
 31
0.0
  0
ARC
  5
289
  8
0
  6
CONTINUOUS
 62
     7
 10
458.8642597179
 20
708.1696938245
 30
0.0
 40
1.809840531293878
 50
173.2791843088
 51
261.1298845867
  0
LINE
  5
28A
  8
0
  6
CONTINUOUS
 62
     7
 10
578.5338279876
 20
708.3815022682
 30
0.0
 11
578.5338279876
 21
721.3815137123
 31
0.0
  0
LINE
  5
28B
  8
0
  6
CONTINUOUS
 62
     7
 10
569.871864942
 20
708.3815022682
 30
0.0
 11
578.5338279876
 21
708.3815022682
 31
0.0
  0
LINE
  5
28C
  8
0
  6
CONTINUOUS
 62
     7
 10
569.871864942
 20
721.3815137123
 30
0.0
 11
578.5338279876
 21
721.3815137123
 31
0.0
  0
LINE
  5
28D
  8
0
  6
CONTINUOUS
 62
     7
 10
577.0154927942
 20
706.3814982151
 30
0.0
 11
568.5700771483
 21
706.3814982151
 31
0.0
  0
ARC
  5
28E
  8
0
  6
CONTINUOUS
 62
     7
 10
576.7364243234
 20
708.1696938245
 30
0.0
 40
1.809840531293852
 50
278.8701154133
 51
6.7208156912
  0
LINE
  5
28F
  8
0
  6
CONTINUOUS
 62
     7
 10
456.5851909193
 20
721.3815137123
 30
0.0
 11
457.0668560537
 21
721.3815137123
 31
0.0
  0
LINE
  5
290
  8
0
  6
CONTINUOUS
 62
     7
 10
578.5338279876
 20
721.3815137123
 30
0.0
 11
579.015493122
 21
721.3815137123
 31
0.0
  0
LINE
  5
291
  8
0
  6
CONTINUOUS
 62
     7
 10
523.7941403958
 20
701.3815029835
 30
0.0
 11
511.8065436455
 21
701.3815029835
 31
0.0
  0
ARC
  5
292
  8
0
  6
CONTINUOUS
 62
     7
 10
506.8091647308
 20
701.3841192646
 30
0.0
 40
4.99737959950812
 50
359.9700039047
 51
89.9707989654
  0
ARC
  5
293
  8
0
  6
CONTINUOUS
 62
     7
 10
528.7915193104
 20
701.3841192646
 30
0.0
 40
4.997379599508006
 50
90.0292010346
 51
180.0299960953
  0
LINE
  5
294
  8
0
  6
CONTINUOUS
 62
     7
 10
523.7941403958
 20
683.3815261101
 30
0.0
 11
523.7941403958
 21
701.3815029835
 31
0.0
  0
LINE
  5
295
  8
0
  6
CONTINUOUS
 62
     7
 10
511.8065436455
 20
683.3815261101
 30
0.0
 11
523.7941403958
 21
683.3815261101
 31
0.0
  0
LINE
  5
296
  8
0
  6
CONTINUOUS
 62
     7
 10
511.8065436455
 20
701.3815029835
 30
0.0
 11
511.8065436455
 21
683.3815261101
 31
0.0
  0
LINE
  5
297
  8
0
  6
CONTINUOUS
 62
     7
 10
521.7962076041
 20
681.3815220569
 30
0.0
 11
513.8044764372
 21
681.3815220569
 31
0.0
  0
ARC
  5
298
  8
0
  6
CONTINUOUS
 62
     7
 10
513.805482171
 20
683.3804606134
 30
0.0
 40
1.998938809493905
 50
179.9694595639
 51
269.9711725517
  0
ARC
  5
299
  8
0
  6
CONTINUOUS
 62
     7
 10
521.7952018702
 20
683.3804606134
 30
0.0
 40
1.998938809493938
 50
270.0288274483
 51
0.0305404361
  0
POLYLINE
  5
29A
  8
0
  6
CONTINUOUS
 62
     7
 66
     1
 10
0.0
 20
0.0
 30
0.0
 70
   128
  0
VERTEX
  5
741
  8
0
  6
CONTINUOUS
 62
     7
 10
508.1517879936
 20
701.3815029835
 30
0.0
  0
VERTEX
  5
742
  8
0
  6
CONTINUOUS
 62
     7
 10
508.126038787
 20
702.3569627975
 30
0.0
  0
VERTEX
  5
743
  8
0
  6
CONTINUOUS
 62
     7
 10
508.0497811633
 20
703.29493129
 30
0.0
  0
VERTEX
  5
744
  8
0
  6
CONTINUOUS
 62
     7
 10
507.9259450632
 20
704.1593476509
 30
0.0
  0
VERTEX
  5
745
  8
0
  6
CONTINUOUS
 62
     7
 10
507.7592886137
 20
704.9170418953
 30
0.0
  0
VERTEX
  5
746
  8
0
  6
CONTINUOUS
 62
     7
 10
507.556218383
 20
705.5388673519
 30
0.0
  0
VERTEX
  5
747
  8
0
  6
CONTINUOUS
 62
     7
 10
507.3245369914
 20
706.0009225582
 30
0.0
  0
VERTEX
  5
748
  8
0
  6
CONTINUOUS
 62
     7
 10
507.0731478828
 20
706.28544533
 30
0.0
  0
VERTEX
  5
749
  8
0
  6
CONTINUOUS
 62
     7
 10
506.8117116662
 20
706.3814982151
 30
0.0
  0
SEQEND
  5
AAC
  8
0
  6
CONTINUOUS
 62
     7
  0
LINE
  5
29B
  8
0
  6
CONTINUOUS
 62
     7
 10
508.1517879936
 20
701.3815029835
 30
0.0
 11
511.8065436455
 21
701.3815029835
 31
0.0
  0
POLYLINE
  5
29C
  8
0
  6
CONTINUOUS
 62
     7
 66
     1
 10
0.0
 20
0.0
 30
0.0
 70
   128
  0
VERTEX
  5
74A
  8
0
  6
CONTINUOUS
 62
     7
 10
528.788972375
 20
706.3814982151
 30
0.0
  0
VERTEX
  5
74B
  8
0
  6
CONTINUOUS
 62
     7
 10
528.5275361585
 20
706.28544533
 30
0.0
  0
VERTEX
  5
74C
  8
0
  6
CONTINUOUS
 62
     7
 10
528.2761470499
 20
706.0009225582
 30
0.0
  0
VERTEX
  5
74D
  8
0
  6
CONTINUOUS
 62
     7
 10
528.0444656583
 20
705.5388673519
 30
0.0
  0
VERTEX
  5
74E
  8
0
  6
CONTINUOUS
 62
     7
 10
527.8413954275
 20
704.9170418953
 30
0.0
  0
VERTEX
  5
74F
  8
0
  6
CONTINUOUS
 62
     7
 10
527.6747389781
 20
704.1593476509
 30
0.0
  0
VERTEX
  5
750
  8
0
  6
CONTINUOUS
 62
     7
 10
527.550902878
 20
703.29493129
 30
0.0
  0
VERTEX
  5
751
  8
0
  6
CONTINUOUS
 62
     7
 10
527.4746452543
 20
702.3569627975
 30
0.0
  0
VERTEX
  5
752
  8
0
  6
CONTINUOUS
 62
     7
 10
527.4488960477
 20
701.3815029835
 30
0.0
  0
SEQEND
  5
AAD
  8
0
  6
CONTINUOUS
 62
     7
  0
LINE
  5
29D
  8
0
  6
CONTINUOUS
 62
     7
 10
523.7941403958
 20
701.3815029835
 30
0.0
 11
527.4488960477
 21
701.3815029835
 31
0.0
  0
LINE
  5
29E
  8
0
  6
CONTINUOUS
 62
     7
 10
508.1517879936
 20
683.3815261101
 30
0.0
 11
511.8065436455
 21
683.3815261101
 31
0.0
  0
LINE
  5
29F
  8
0
  6
CONTINUOUS
 62
     7
 10
508.1517879936
 20
683.3815261101
 30
0.0
 11
508.1517879936
 21
701.3815029835
 31
0.0
  0
ARC
  5
2A0
  8
0
  6
CONTINUOUS
 62
     7
 10
510.4193105443
 20
682.9174219571
 30
0.0
 40
2.314530445425565
 50
168.4327699141
 51
221.5742659946
  0
LINE
  5
2A1
  8
0
  6
CONTINUOUS
 62
     7
 10
513.8044764372
 20
681.3815220569
 30
0.0
 11
508.6878190833
 21
681.3815220569
 31
0.0
  0
LINE
  5
2A2
  8
0
  6
CONTINUOUS
 62
     7
 10
527.4488960477
 20
701.3815029835
 30
0.0
 11
527.4488960477
 21
683.3815261101
 31
0.0
  0
LINE
  5
2A3
  8
0
  6
CONTINUOUS
 62
     7
 10
523.7941403958
 20
683.3815261101
 30
0.0
 11
527.4488960477
 21
683.3815261101
 31
0.0
  0
ARC
  5
2A4
  8
0
  6
CONTINUOUS
 62
     7
 10
525.181373497
 20
682.9174219571
 30
0.0
 40
2.314530445425959
 50
318.4257340055
 51
11.5672300859
  0
LINE
  5
2A5
  8
0
  6
CONTINUOUS
 62
     7
 10
526.912864958
 20
681.3815220569
 30
0.0
 11
521.7962076041
 21
681.3815220569
 31
0.0
  0
LINE
  5
2A6
  8
0
  6
CONTINUOUS
 62
     7
 10
508.6878190833
 20
681.3815220569
 30
0.0
 11
483.8003401729
 21
681.3815220569
 31
0.0
  0
LINE
  5
2A7
  8
0
  6
CONTINUOUS
 62
     7
 10
551.8003438684
 20
681.3815220569
 30
0.0
 11
526.912864958
 21
681.3815220569
 31
0.0
  0
POLYLINE
  5
2A8
  8
0
  6
CONTINUOUS
 62
     7
 66
     1
 10
0.0
 20
0.0
 30
0.0
 70
   128
  0
VERTEX
  5
753
  8
0
  6
CONTINUOUS
 62
     7
 10
481.8699580702
 20
681.3815220569
 30
0.0
  0
VERTEX
  5
754
  8
0
  6
CONTINUOUS
 62
     7
 10
481.6597101363
 20
681.4199372505
 30
0.0
  0
VERTEX
  5
755
  8
0
  6
CONTINUOUS
 62
     7
 10
481.4575423571
 20
681.5337523197
 30
0.0
  0
VERTEX
  5
756
  8
0
  6
CONTINUOUS
 62
     7
 10
481.2712219628
 20
681.7185863231
 30
0.0
  0
VERTEX
  5
757
  8
0
  6
CONTINUOUS
 62
     7
 10
481.1079126867
 20
681.9672867035
 30
0.0
  0
VERTEX
  5
758
  8
0
  6
CONTINUOUS
 62
     7
 10
480.9738879176
 20
682.2703763222
 30
0.0
  0
VERTEX
  5
759
  8
0
  6
CONTINUOUS
 62
     7
 10
480.8742997321
 20
682.6161428665
 30
0.0
  0
VERTEX
  5
75A
  8
0
  6
CONTINUOUS
 62
     7
 10
480.8129702779
 20
682.991324303
 30
0.0
  0
VERTEX
  5
75B
  8
0
  6
CONTINUOUS
 62
     7
 10
480.7922651144
 20
683.3815261101
 30
0.0
  0
SEQEND
  5
AAE
  8
0
  6
CONTINUOUS
 62
     7
  0
LINE
  5
2A9
  8
0
  6
CONTINUOUS
 62
     7
 10
483.8003401729
 20
681.3815220569
 30
0.0
 11
481.8699580702
 21
681.3815220569
 31
0.0
  0
POLYLINE
  5
2AA
  8
0
  6
CONTINUOUS
 62
     7
 66
     1
 10
0.0
 20
0.0
 30
0.0
 70
   128
  0
VERTEX
  5
75C
  8
0
  6
CONTINUOUS
 62
     7
 10
554.8084189268
 20
683.3815261101
 30
0.0
  0
VERTEX
  5
75D
  8
0
  6
CONTINUOUS
 62
     7
 10
554.7877137634
 20
682.991324303
 30
0.0
  0
VERTEX
  5
75E
  8
0
  6
CONTINUOUS
 62
     7
 10
554.7263843092
 20
682.6161428665
 30
0.0
  0
VERTEX
  5
75F
  8
0
  6
CONTINUOUS
 62
     7
 10
554.6267961236
 20
682.2703763222
 30
0.0
  0
VERTEX
  5
760
  8
0
  6
CONTINUOUS
 62
     7
 10
554.4927713546
 20
681.9672867035
 30
0.0
  0
VERTEX
  5
761
  8
0
  6
CONTINUOUS
 62
     7
 10
554.3294620785
 20
681.7185863231
 30
0.0
  0
VERTEX
  5
762
  8
0
  6
CONTINUOUS
 62
     7
 10
554.1431416842
 20
681.5337523197
 30
0.0
  0
VERTEX
  5
763
  8
0
  6
CONTINUOUS
 62
     7
 10
553.940973905
 20
681.4199372505
 30
0.0
  0
VERTEX
  5
764
  8
0
  6
CONTINUOUS
 62
     7
 10
553.7307259711
 20
681.3815220569
 30
0.0
  0
SEQEND
  5
AAF
  8
0
  6
CONTINUOUS
 62
     7
  0
LINE
  5
2AB
  8
0
  6
CONTINUOUS
 62
     7
 10
553.7307259711
 20
681.3815220569
 30
0.0
 11
551.8003438684
 21
681.3815220569
 31
0.0
  0
LINE
  5
2AC
  8
0
  6
CONTINUOUS
 62
     7
 10
480.7922651144
 20
683.3815261101
 30
0.0
 11
480.7922651144
 21
701.3815029835
 31
0.0
  0
LINE
  5
2AD
  8
0
  6
CONTINUOUS
 62
     7
 10
554.8084189268
 20
701.3815029835
 30
0.0
 11
554.8084189268
 21
683.3815261101
 31
0.0
  0
LINE
  5
2AE
  8
0
  6
CONTINUOUS
 62
     7
 10
481.8699580702
 20
681.3815220569
 30
0.0
 11
480.0253507766
 21
681.3815220569
 31
0.0
  0
LINE
  5
2AF
  8
0
  6
CONTINUOUS
 62
     7
 10
555.5753332647
 20
681.3815220569
 30
0.0
 11
553.7307259711
 21
681.3815220569
 31
0.0
  0
LINE
  5
2B0
  8
0
  6
CONTINUOUS
 62
     7
 10
578.8003427061
 20
782.381518123
 30
0.0
 11
569.8836033317
 21
782.381518123
 31
0.0
  0
LINE
  5
2B1
  8
0
  6
CONTINUOUS
 62
     7
 10
561.8836020204
 20
782.381518123
 30
0.0
 11
473.7170820209
 21
782.381518123
 31
0.0
  0
LINE
  5
2B2
  8
0
  6
CONTINUOUS
 62
     7
 10
465.7170807096
 20
782.381518123
 30
0.0
 11
456.8003413352
 21
782.381518123
 31
0.0
  0
LINE
  5
2B3
  8
0
  6
CONTINUOUS
 62
     7
 10
578.8003427061
 20
818.881510136
 30
0.0
 11
569.8836033317
 21
818.881510136
 31
0.0
  0
LINE
  5
2B4
  8
0
  6
CONTINUOUS
 62
     7
 10
561.8836020204
 20
818.881510136
 30
0.0
 11
473.7170820209
 21
818.881510136
 31
0.0
  0
LINE
  5
2B5
  8
0
  6
CONTINUOUS
 62
     7
 10
465.7170807096
 20
818.881510136
 30
0.0
 11
456.8003413352
 21
818.881510136
 31
0.0
  0
LINE
  5
2B6
  8
0
  6
CONTINUOUS
 62
     7
 10
478.800341216
 20
892.3815100764
 30
0.0
 11
478.800341216
 21
903.4654333567
 31
0.0
  0
ARC
  5
2B7
  8
0
  6
CONTINUOUS
 62
     7
 10
477.4831367648
 20
908.6236062988
 30
0.0
 40
5.32369943439315
 50
284.325057132
 51
341.344429591
  0
LINE
  5
2B8
  8
0
  6
CONTINUOUS
 62
     7
 10
482.5271216306
 20
892.3815100764
 30
0.0
 11
482.5271216306
 21
906.9206699108
 31
0.0
  0
LINE
  5
2B9
  8
0
  6
CONTINUOUS
 62
     7
 10
482.5271216306
 20
892.3815100764
 30
0.0
 11
478.800341216
 21
892.3815100764
 31
0.0
  0
POLYLINE
  5
2BA
  8
0
  6
CONTINUOUS
 62
     7
 66
     1
 10
0.0
 20
0.0
 30
0.0
 70
   128
  0
VERTEX
  5
765
  8
0
  6
CONTINUOUS
 62
     7
 10
478.800341216
 20
903.4654333567
 30
0.0
  0
VERTEX
  5
766
  8
0
  6
CONTINUOUS
 62
     7
 10
478.7678268822
 20
903.6577924465
 30
0.0
  0
VERTEX
  5
767
  8
0
  6
CONTINUOUS
 62
     7
 10
478.7365605208
 20
903.8427605604
 30
0.0
  0
VERTEX
  5
768
  8
0
  6
CONTINUOUS
 62
     7
 10
478.7077454003
 20
904.0132298445
 30
0.0
  0
VERTEX
  5
769
  8
0
  6
CONTINUOUS
 62
     7
 10
478.6824916574
 20
904.1626512383
 30
0.0
  0
VERTEX
  5
76A
  8
0
  6
CONTINUOUS
 62
     7
 10
478.6617641422
 20
904.2852728938
 30
0.0
  0
VERTEX
  5
76B
  8
0
  6
CONTINUOUS
 62
     7
 10
478.6463637921
 20
904.3763860439
 30
0.0
  0
VERTEX
  5
76C
  8
0
  6
CONTINUOUS
 62
     7
 10
478.636879203
 20
904.4324963664
 30
0.0
  0
VERTEX
  5
76D
  8
0
  6
CONTINUOUS
 62
     7
 10
478.6336754533
 20
904.4514431928
 30
0.0
  0
SEQEND
  5
AB0
  8
0
  6
CONTINUOUS
 62
     7
  0
ARC
  5
2BB
  8
0
  6
CONTINUOUS
 62
     7
 10
477.8003192189
 20
909.3815408364
 30
0.0
 40
5.000034538764416
 50
279.5942674755
 51
335.7861542159
  0
ARC
  5
2BC
  8
0
  6
CONTINUOUS
 62
     7
 10
482.7646569338
 20
907.2561288216
 30
0.0
 40
0.4110422133243606
 50
169.5320151789
 51
234.698048429
  0
LINE
  5
2BD
  8
0
  6
CONTINUOUS
 62
     7
 10
553.0735624107
 20
906.9206699108
 30
0.0
 11
553.0735624107
 21
892.3815100764
 31
0.0
  0
ARC
  5
2BE
  8
0
  6
CONTINUOUS
 62
     7
 10
558.1175472765
 20
908.6236062988
 30
0.0
 40
5.32369943439315
 50
198.655570409
 51
255.674942868
  0
LINE
  5
2BF
  8
0
  6
CONTINUOUS
 62
     7
 10
556.8003428253
 20
903.4654333567
 30
0.0
 11
556.8003428253
 21
892.3815100764
 31
0.0
  0
LINE
  5
2C0
  8
0
  6
CONTINUOUS
 62
     7
 10
556.8003428253
 20
892.3815100764
 30
0.0
 11
553.0735624107
 21
892.3815100764
 31
0.0
  0
POLYLINE
  5
2C1
  8
0
  6
CONTINUOUS
 62
     7
 66
     1
 10
0.0
 20
0.0
 30
0.0
 70
   128
  0
VERTEX
  5
76E
  8
0
  6
CONTINUOUS
 62
     7
 10
556.967008588
 20
904.4514431928
 30
0.0
  0
VERTEX
  5
76F
  8
0
  6
CONTINUOUS
 62
     7
 10
556.9638048383
 20
904.4324963664
 30
0.0
  0
VERTEX
  5
770
  8
0
  6
CONTINUOUS
 62
     7
 10
556.9543202492
 20
904.3763860439
 30
0.0
  0
VERTEX
  5
771
  8
0
  6
CONTINUOUS
 62
     7
 10
556.9389198991
 20
904.2852728938
 30
0.0
  0
VERTEX
  5
772
  8
0
  6
CONTINUOUS
 62
     7
 10
556.9181923839
 20
904.1626512383
 30
0.0
  0
VERTEX
  5
773
  8
0
  6
CONTINUOUS
 62
     7
 10
556.892938641
 20
904.0132298445
 30
0.0
  0
VERTEX
  5
774
  8
0
  6
CONTINUOUS
 62
     7
 10
556.8641235205
 20
903.8427605604
 30
0.0
  0
VERTEX
  5
775
  8
0
  6
CONTINUOUS
 62
     7
 10
556.832857159
 20
903.6577924465
 30
0.0
  0
VERTEX
  5
776
  8
0
  6
CONTINUOUS
 62
     7
 10
556.8003428253
 20
903.4654333567
 30
0.0
  0
SEQEND
  5
AB1
  8
0
  6
CONTINUOUS
 62
     7
  0
ARC
  5
2C2
  8
0
  6
CONTINUOUS
 62
     7
 10
552.8360271075
 20
907.2561288216
 30
0.0
 40
0.4110422133246177
 50
305.301951571
 51
10.4679848211
  0
ARC
  5
2C3
  8
0
  6
CONTINUOUS
 62
     7
 10
557.8003752125
 20
909.3815542844
 30
0.0
 40
5.000049530320955
 50
204.2139374952
 51
260.4056408135
  0
ARC
  5
2C4
  8
0
  6
CONTINUOUS
 62
     7
 10
517.8003420206
 20
931.8815113281
 30
0.0
 40
34.0
 50
0.0
 51
180.0
  0
LINE
  5
2C5
  8
0
  6
CONTINUOUS
 62
     7
 10
483.8003401729
 20
931.8815118944
 30
0.0
 11
482.8003418716
 21
931.8815118944
 31
0.0
  0
ARC
  5
2C6
  8
0
  6
CONTINUOUS
 62
     7
 10
517.8003420206
 20
931.8815113281
 30
0.0
 40
35.0
 50
0.0000000009
 51
179.9999999991
  0
LINE
  5
2C7
  8
0
  6
CONTINUOUS
 62
     7
 10
551.8003438684
 20
931.8815118944
 30
0.0
 11
552.8003421696
 21
931.8815118944
 31
0.0
  0
ARC
  5
2C8
  8
0
  6
CONTINUOUS
 62
     7
 10
477.8003420206
 20
909.3815113281
 30
0.0
 40
6.000000000000085
 50
335.7863818359
 51
0.0
  0
LINE
  5
2C9
  8
0
  6
CONTINUOUS
 62
     7
 10
483.8003401729
 20
931.8815118944
 30
0.0
 11
483.8003401729
 21
909.3815147256
 31
0.0
  0
LINE
  5
2CA
  8
0
  6
CONTINUOUS
 62
     7
 10
551.8003438684
 20
909.3815147256
 30
0.0
 11
551.8003438684
 21
931.8815118944
 31
0.0
  0
ARC
  5
2CB
  8
0
  6
CONTINUOUS
 62
     7
 10
557.8003420206
 20
909.3815113281
 30
0.0
 40
6.000000000005577
 50
180.0
 51
204.2136181642
  0
LINE
  5
2CC
  8
0
  6
CONTINUOUS
 62
     7
 10
552.3282063278
 20
892.3815100764
 30
0.0
 11
552.3282063278
 21
906.9206699108
 31
0.0
  0
LINE
  5
2CD
  8
0
  6
CONTINUOUS
 62
     7
 10
483.2724777135
 20
906.9206699108
 30
0.0
 11
483.2724777135
 21
892.3815100764
 31
0.0
  0
CIRCLE
  5
2CE
  8
0
  6
CONTINUOUS
 62
     7
 10
517.8003420206
 20
932.3815113281
 30
0.0
 40
24.76414699999998
  0
LINE
  5
2CF
  8
0
  6
CONTINUOUS
 62
     7
 10
483.2724777135
 20
892.3815100764
 30
0.0
 11
552.3282063278
 21
892.3815100764
 31
0.0
  0
CIRCLE
  5
2D0
  8
0
  6
CONTINUOUS
 62
     7
 10
517.8003420206
 20
932.3815113281
 30
0.0
 40
23.7319245014063
  0
LINE
  5
2D1
  8
0
  6
CONTINUOUS
 62
     7
 10
483.8003401729
 20
909.3815147256
 30
0.0
 11
482.8003418716
 21
909.3815147256
 31
0.0
  0
LINE
  5
2D2
  8
0
  6
CONTINUOUS
 62
     7
 10
482.8003418716
 20
909.3815147256
 30
0.0
 11
482.8003418716
 21
931.8815118944
 31
0.0
  0
POLYLINE
  5
2D3
  8
0
  6
CONTINUOUS
 62
     7
 66
     1
 10
0.0
 20
0.0
 30
0.0
 70
   128
  0
VERTEX
  5
777
  8
0
  6
CONTINUOUS
 62
     7
 10
482.3604558679
 20
907.3308094715
 30
0.0
  0
VERTEX
  5
778
  8
0
  6
CONTINUOUS
 62
     7
 10
482.3779796335
 20
907.3229342078
 30
0.0
  0
VERTEX
  5
779
  8
0
  6
CONTINUOUS
 62
     7
 10
482.4298803779
 20
907.2995915388
 30
0.0
  0
VERTEX
  5
77A
  8
0
  6
CONTINUOUS
 62
     7
 10
482.5141576203
 20
907.2616904353
 30
0.0
  0
VERTEX
  5
77B
  8
0
  6
CONTINUOUS
 62
     7
 10
482.627581534
 20
907.2106837605
 30
0.0
  0
VERTEX
  5
77C
  8
0
  6
CONTINUOUS
 62
     7
 10
482.7657860788
 20
907.1485310172
 30
0.0
  0
VERTEX
  5
77D
  8
0
  6
CONTINUOUS
 62
     7
 10
482.923462716
 20
907.0776238417
 30
0.0
  0
VERTEX
  5
77E
  8
0
  6
CONTINUOUS
 62
     7
 10
483.0945503982
 20
907.0006891464
 30
0.0
  0
VERTEX
  5
77F
  8
0
  6
CONTINUOUS
 62
     7
 10
483.2724777135
 20
906.9206699108
 30
0.0
  0
SEQEND
  5
AB2
  8
0
  6
CONTINUOUS
 62
     7
  0
ARC
  5
2D4
  8
0
  6
CONTINUOUS
 62
     7
 10
477.8003420206
 20
909.3815113281
 30
0.0
 40
5.000000000000055
 50
335.7863818358
 51
0.0
  0
LINE
  5
2D5
  8
0
  6
CONTINUOUS
 62
     7
 10
482.5271216306
 20
906.9206699108
 30
0.0
 11
483.2724777135
 21
906.9206699108
 31
0.0
  0
LINE
  5
2D6
  8
0
  6
CONTINUOUS
 62
     7
 10
482.5271216306
 20
892.3815100764
 30
0.0
 11
483.2724777135
 21
892.3815100764
 31
0.0
  0
LINE
  5
2D7
  8
0
  6
CONTINUOUS
 62
     7
 10
552.8003421696
 20
931.8815118944
 30
0.0
 11
552.8003421696
 21
909.3815147256
 31
0.0
  0
LINE
  5
2D8
  8
0
  6
CONTINUOUS
 62
     7
 10
551.8003438684
 20
909.3815147256
 30
0.0
 11
552.8003421696
 21
909.3815147256
 31
0.0
  0
ARC
  5
2D9
  8
0
  6
CONTINUOUS
 62
     7
 10
557.8003420206
 20
909.3815113281
 30
0.0
 40
5.0
 50
180.0
 51
204.2136181641
  0
POLYLINE
  5
2DA
  8
0
  6
CONTINUOUS
 62
     7
 66
     1
 10
0.0
 20
0.0
 30
0.0
 70
   128
  0
VERTEX
  5
780
  8
0
  6
CONTINUOUS
 62
     7
 10
552.3282063278
 20
906.9206699108
 30
0.0
  0
VERTEX
  5
781
  8
0
  6
CONTINUOUS
 62
     7
 10
552.506133643
 20
907.0006891464
 30
0.0
  0
VERTEX
  5
782
  8
0
  6
CONTINUOUS
 62
     7
 10
552.6772213253
 20
907.0776238417
 30
0.0
  0
VERTEX
  5
783
  8
0
  6
CONTINUOUS
 62
     7
 10
552.8348979625
 20
907.1485310172
 30
0.0
  0
VERTEX
  5
784
  8
0
  6
CONTINUOUS
 62
     7
 10
552.9731025072
 20
907.2106837605
 30
0.0
  0
VERTEX
  5
785
  8
0
  6
CONTINUOUS
 62
     7
 10
553.086526421
 20
907.2616904353
 30
0.0
  0
VERTEX
  5
786
  8
0
  6
CONTINUOUS
 62
     7
 10
553.1708036634
 20
907.2995915388
 30
0.0
  0
VERTEX
  5
787
  8
0
  6
CONTINUOUS
 62
     7
 10
553.2227044078
 20
907.3229342078
 30
0.0
  0
VERTEX
  5
788
  8
0
  6
CONTINUOUS
 62
     7
 10
553.2402281734
 20
907.3308094715
 30
0.0
  0
SEQEND
  5
AB3
  8
0
  6
CONTINUOUS
 62
     7
  0
LINE
  5
2DB
  8
0
  6
CONTINUOUS
 62
     7
 10
552.3282063278
 20
906.9206699108
 30
0.0
 11
553.0735624107
 21
906.9206699108
 31
0.0
  0
LINE
  5
2DC
  8
0
  6
CONTINUOUS
 62
     7
 10
552.3282063278
 20
892.3815100764
 30
0.0
 11
553.0735624107
 21
892.3815100764
 31
0.0
  0
LINE
  5
2DD
  8
0
  6
CONTINUOUS
 62
     7
 10
454.4974972578
 20
904.3815120434
 30
0.0
 11
454.4974972578
 21
903.3815100168
 31
0.0
  0
LINE
  5
2DE
  8
0
  6
CONTINUOUS
 62
     7
 10
454.4974972578
 20
903.3815100168
 30
0.0
 11
451.6840388151
 21
903.3815100168
 31
0.0
  0
POLYLINE
  5
2DF
  8
0
  6
CONTINUOUS
 62
     7
 66
     1
 10
0.0
 20
0.0
 30
0.0
 70
   128
  0
VERTEX
  5
789
  8
0
  6
CONTINUOUS
 62
     7
 10
451.6840388151
 20
903.3815100168
 30
0.0
  0
VERTEX
  5
78A
  8
0
  6
CONTINUOUS
 62
     7
 10
451.6948496076
 20
903.5766034697
 30
0.0
  0
VERTEX
  5
78B
  8
0
  6
CONTINUOUS
 62
     7
 10
451.726872203
 20
903.764194188
 30
0.0
  0
VERTEX
  5
78C
  8
0
  6
CONTINUOUS
 62
     7
 10
451.778869805
 20
903.9370849108
 30
0.0
  0
VERTEX
  5
78D
  8
0
  6
CONTINUOUS
 62
     7
 10
451.8488456579
 20
904.0886148189
 30
0.0
  0
VERTEX
  5
78E
  8
0
  6
CONTINUOUS
 62
     7
 10
451.9341175529
 20
904.2129799103
 30
0.0
  0
VERTEX
  5
78F
  8
0
  6
CONTINUOUS
 62
     7
 10
452.0313997837
 20
904.3053894614
 30
0.0
  0
VERTEX
  5
790
  8
0
  6
CONTINUOUS
 62
     7
 10
452.136952159
 20
904.362296996
 30
0.0
  0
VERTEX
  5
791
  8
0
  6
CONTINUOUS
 62
     7
 10
452.2467290136
 20
904.3815120434
 30
0.0
  0
SEQEND
  5
AB4
  8
0
  6
CONTINUOUS
 62
     7
  0
LINE
  5
2E0
  8
0
  6
CONTINUOUS
 62
     7
 10
454.4974972578
 20
904.3815120434
 30
0.0
 11
452.2467290136
 21
904.3815120434
 31
0.0
  0
LINE
  5
2E1
  8
0
  6
CONTINUOUS
 62
     7
 10
477.8003429147
 20
904.3815120434
 30
0.0
 11
477.8003429147
 21
903.3815100168
 31
0.0
  0
LINE
  5
2E2
  8
0
  6
CONTINUOUS
 62
     7
 10
477.8003429147
 20
903.3815100168
 30
0.0
 11
454.4974972578
 21
903.3815100168
 31
0.0
  0
LINE
  5
2E3
  8
0
  6
CONTINUOUS
 62
     7
 10
454.4974972578
 20
904.3815120434
 30
0.0
 11
461.3110159608
 21
904.3815120434
 31
0.0
  0
LINE
  5
2E4
  8
0
  6
CONTINUOUS
 62
     7
 10
463.0066228184
 20
904.3815120434
 30
0.0
 11
477.8003429147
 21
904.3815120434
 31
0.0
  0
LINE
  5
2E5
  8
0
  6
CONTINUOUS
 62
     7
 10
454.4974972578
 20
903.3815100168
 30
0.0
 11
454.4974972578
 21
892.3815100764
 31
0.0
  0
LINE
  5
2E6
  8
0
  6
CONTINUOUS
 62
     7
 10
451.6840388151
 20
892.3815100764
 30
0.0
 11
451.6840388151
 21
903.3815100168
 31
0.0
  0
LINE
  5
2E7
  8
0
  6
CONTINUOUS
 62
     7
 10
451.6840388151
 20
892.3815100764
 30
0.0
 11
454.4974972578
 21
892.3815100764
 31
0.0
  0
ARC
  5
2E8
  8
0
  6
CONTINUOUS
 62
     7
 10
477.8003420206
 20
909.3815113281
 30
0.0
 40
6.000000000000033
 50
270.0
 51
279.5940682267
  0
LINE
  5
2E9
  8
0
  6
CONTINUOUS
 62
     7
 10
454.4974972578
 20
892.3815100764
 30
0.0
 11
478.800341216
 21
892.3815100764
 31
0.0
  0
ARC
  5
2EA
  8
0
  6
CONTINUOUS
 62
     7
 10
477.8003420206
 20
909.3815113281
 30
0.0
 40
5.000000000000052
 50
270.0
 51
279.5940682267
  0
ARC
  5
2EB
  8
0
  6
CONTINUOUS
 62
     7
 10
557.8003420206
 20
909.3815113281
 30
0.0
 40
6.000000000000033
 50
260.4059317733
 51
270.0
  0
LINE
  5
2EC
  8
0
  6
CONTINUOUS
 62
     7
 10
581.1031867834
 20
903.3815100168
 30
0.0
 11
557.8003411266
 21
903.3815100168
 31
0.0
  0
LINE
  5
2ED
  8
0
  6
CONTINUOUS
 62
     7
 10
581.1031867834
 20
892.3815100764
 30
0.0
 11
581.1031867834
 21
903.3815100168
 31
0.0
  0
LINE
  5
2EE
  8
0
  6
CONTINUOUS
 62
     7
 10
556.8003428253
 20
892.3815100764
 30
0.0
 11
581.1031867834
 21
892.3815100764
 31
0.0
  0
LINE
  5
2EF
  8
0
  6
CONTINUOUS
 62
     7
 10
557.8003411266
 20
904.3815120434
 30
0.0
 11
557.8003411266
 21
903.3815100168
 31
0.0
  0
LINE
  5
2F0
  8
0
  6
CONTINUOUS
 62
     7
 10
557.8003411266
 20
904.3815120434
 30
0.0
 11
581.1031867834
 21
904.3815120434
 31
0.0
  0
LINE
  5
2F1
  8
0
  6
CONTINUOUS
 62
     7
 10
581.1031867834
 20
903.3815100168
 30
0.0
 11
581.1031867834
 21
904.3815120434
 31
0.0
  0
ARC
  5
2F2
  8
0
  6
CONTINUOUS
 62
     7
 10
557.8003420206
 20
909.3815113281
 30
0.0
 40
5.000000000000052
 50
260.4059317733
 51
270.0
  0
LINE
  5
2F3
  8
0
  6
CONTINUOUS
 62
     7
 10
583.9166452261
 20
903.3815100168
 30
0.0
 11
581.1031867834
 21
903.3815100168
 31
0.0
  0
LINE
  5
2F4
  8
0
  6
CONTINUOUS
 62
     7
 10
583.9166452261
 20
903.3815100168
 30
0.0
 11
583.9166452261
 21
892.3815100764
 31
0.0
  0
LINE
  5
2F5
  8
0
  6
CONTINUOUS
 62
     7
 10
581.1031867834
 20
892.3815100764
 30
0.0
 11
583.9166452261
 21
892.3815100764
 31
0.0
  0
POLYLINE
  5
2F6
  8
0
  6
CONTINUOUS
 62
     7
 66
     1
 10
0.0
 20
0.0
 30
0.0
 70
   128
  0
VERTEX
  5
792
  8
0
  6
CONTINUOUS
 62
     7
 10
583.3539550277
 20
904.3815120434
 30
0.0
  0
VERTEX
  5
793
  8
0
  6
CONTINUOUS
 62
     7
 10
583.4637318822
 20
904.362296996
 30
0.0
  0
VERTEX
  5
794
  8
0
  6
CONTINUOUS
 62
     7
 10
583.5692842575
 20
904.3053894614
 30
0.0
  0
VERTEX
  5
795
  8
0
  6
CONTINUOUS
 62
     7
 10
583.6665664884
 20
904.2129799103
 30
0.0
  0
VERTEX
  5
796
  8
0
  6
CONTINUOUS
 62
     7
 10
583.7518383833
 20
904.0886148189
 30
0.0
  0
VERTEX
  5
797
  8
0
  6
CONTINUOUS
 62
     7
 10
583.8218142363
 20
903.9370849108
 30
0.0
  0
VERTEX
  5
798
  8
0
  6
CONTINUOUS
 62
     7
 10
583.8738118383
 20
903.764194188
 30
0.0
  0
VERTEX
  5
799
  8
0
  6
CONTINUOUS
 62
     7
 10
583.9058344337
 20
903.5766034697
 30
0.0
  0
VERTEX
  5
79A
  8
0
  6
CONTINUOUS
 62
     7
 10
583.9166452261
 20
903.3815100168
 30
0.0
  0
SEQEND
  5
AB5
  8
0
  6
CONTINUOUS
 62
     7
  0
LINE
  5
2F7
  8
0
  6
CONTINUOUS
 62
     7
 10
583.3539550277
 20
904.3815120434
 30
0.0
 11
581.1031867834
 21
904.3815120434
 31
0.0
  0
ARC
  5
2F8
  8
0
  6
CONTINUOUS
 62
     7
 10
421.5894343637
 20
903.4606643705
 30
0.0
 40
0.9258132841422934
 50
95.9368569931
 51
184.9046108322
  0
LINE
  5
2F9
  8
0
  6
CONTINUOUS
 62
     7
 10
421.4936752888
 20
904.3815120434
 30
0.0
 11
452.2467290136
 21
904.3815120434
 31
0.0
  0
LINE
  5
2FA
  8
0
  6
CONTINUOUS
 62
     7
 10
451.6840388151
 20
903.3815100168
 30
0.0
 11
420.6670110198
 21
903.3815100168
 31
0.0
  0
LINE
  5
2FB
  8
0
  6
CONTINUOUS
 62
     7
 10
420.6670110198
 20
903.3815100168
 30
0.0
 11
420.6670110198
 21
892.3815100764
 31
0.0
  0
LINE
  5
2FC
  8
0
  6
CONTINUOUS
 62
     7
 10
420.6670110198
 20
892.3815100764
 30
0.0
 11
451.6840388151
 21
892.3815100764
 31
0.0
  0
LINE
  5
2FD
  8
0
  6
CONTINUOUS
 62
     7
 10
583.3539550277
 20
904.3815120434
 30
0.0
 11
614.1070087525
 21
904.3815120434
 31
0.0
  0
ARC
  5
2FE
  8
0
  6
CONTINUOUS
 62
     7
 10
614.0112496775
 20
903.4606643705
 30
0.0
 40
0.9258132841422042
 50
355.0953891678
 51
84.0631430069
  0
LINE
  5
2FF
  8
0
  6
CONTINUOUS
 62
     7
 10
614.9336730214
 20
903.3815100168
 30
0.0
 11
583.9166452261
 21
903.3815100168
 31
0.0
  0
LINE
  5
300
  8
0
  6
CONTINUOUS
 62
     7
 10
614.9336730214
 20
892.3815100764
 30
0.0
 11
614.9336730214
 21
903.3815100168
 31
0.0
  0
LINE
  5
301
  8
0
  6
CONTINUOUS
 62
     7
 10
583.9166452261
 20
892.3815100764
 30
0.0
 11
614.9336730214
 21
892.3815100764
 31
0.0
  0
POLYLINE
  5
302
  8
0
  6
CONTINUOUS
 62
     7
 66
     1
 10
0.0
 20
0.0
 30
0.0
 70
   128
  0
VERTEX
  5
79B
  8
0
  6
CONTINUOUS
 62
     7
 10
480.0225642594
 20
931.8815118944
 30
0.0
  0
VERTEX
  5
79C
  8
0
  6
CONTINUOUS
 62
     7
 10
480.2076515826
 20
935.8362055694
 30
0.0
  0
VERTEX
  5
79D
  8
0
  6
CONTINUOUS
 62
     7
 10
480.7684642347
 20
939.7909029697
 30
0.0
  0
VERTEX
  5
79E
  8
0
  6
CONTINUOUS
 62
     7
 10
482.600722191
 20
946.4050553118
 30
0.0
  0
VERTEX
  5
79F
  8
0
  6
CONTINUOUS
 62
     7
 10
485.5780785056
 20
952.7617249017
 30
0.0
  0
VERTEX
  5
7A0
  8
0
  6
CONTINUOUS
 62
     7
 10
489.2120693895
 20
958.0297622209
 30
0.0
  0
VERTEX
  5
7A1
  8
0
  6
CONTINUOUS
 62
     7
 10
493.7674623998
 20
962.7436514323
 30
0.0
  0
VERTEX
  5
7A2
  8
0
  6
CONTINUOUS
 62
     7
 10
498.4509979459
 20
966.236432859
 30
0.0
  0
VERTEX
  5
7A3
  8
0
  6
CONTINUOUS
 62
     7
 10
503.7936789068
 20
969.0305863817
 30
0.0
  0
VERTEX
  5
7A4
  8
0
  6
CONTINUOUS
 62
     7
 10
509.2527025464
 20
970.8441792366
 30
0.0
  0
VERTEX
  5
7A5
  8
0
  6
CONTINUOUS
 62
     7
 10
515.138984154
 20
971.7821302668
 30
0.0
  0
VERTEX
  5
7A6
  8
0
  6
CONTINUOUS
 62
     7
 10
517.8003420206
 20
971.8815112331
 30
0.0
  0
SEQEND
  5
AB6
  8
0
  6
CONTINUOUS
 62
     7
  0
POLYLINE
  5
303
  8
0
  6
CONTINUOUS
 62
     7
 66
     1
 10
0.0
 20
0.0
 30
0.0
 70
   128
  0
VERTEX
  5
7A7
  8
0
  6
CONTINUOUS
 62
     7
 10
517.8003420206
 20
971.8815112331
 30
0.0
  0
VERTEX
  5
7A8
  8
0
  6
CONTINUOUS
 62
     7
 10
522.7122304114
 20
971.5419631296
 30
0.0
  0
VERTEX
  5
7A9
  8
0
  6
CONTINUOUS
 62
     7
 10
527.6241188022
 20
970.5054127456
 30
0.0
  0
VERTEX
  5
7AA
  8
0
  6
CONTINUOUS
 62
     7
 10
533.7640714916
 20
968.1347355557
 30
0.0
  0
VERTEX
  5
7AB
  8
0
  6
CONTINUOUS
 62
     7
 10
539.5298113199
 20
964.6022537102
 30
0.0
  0
VERTEX
  5
7AC
  8
0
  6
CONTINUOUS
 62
     7
 10
544.2644652995
 20
960.4267862936
 30
0.0
  0
VERTEX
  5
7AD
  8
0
  6
CONTINUOUS
 62
     7
 10
548.3545285734
 20
955.4055615639
 30
0.0
  0
VERTEX
  5
7AE
  8
0
  6
CONTINUOUS
 62
     7
 10
551.3992381367
 20
950.1680604492
 30
0.0
  0
VERTEX
  5
7AF
  8
0
  6
CONTINUOUS
 62
     7
 10
553.6932421001
 20
944.3585745369
 30
0.0
  0
VERTEX
  5
7B0
  8
0
  6
CONTINUOUS
 62
     7
 10
555.08987951
 20
938.2916300868
 30
0.0
  0
VERTEX
  5
7B1
  8
0
  6
CONTINUOUS
 62
     7
 10
555.5781197819
 20
931.8815118944
 30
0.0
  0
SEQEND
  5
AB7
  8
0
  6
CONTINUOUS
 62
     7
  0
LINE
  5
304
  8
0
  6
CONTINUOUS
 62
     7
 10
555.5781197819
 20
931.8815118944
 30
0.0
 11
552.8003421696
 21
931.8815118944
 31
0.0
  0
LINE
  5
305
  8
0
  6
CONTINUOUS
 62
     7
 10
480.0225642594
 20
931.8815118944
 30
0.0
 11
482.8003418716
 21
931.8815118944
 31
0.0
  0
LINE
  5
306
  8
0
  6
CONTINUOUS
 62
     7
 10
555.5781197819
 20
931.8815118944
 30
0.0
 11
555.5781197819
 21
909.3815147256
 31
0.0
  0
LINE
  5
307
  8
0
  6
CONTINUOUS
 62
     7
 10
517.8003420206
 20
971.8815112331
 30
0.0
 11
602.8003429147
 21
971.8815112331
 31
0.0
  0
LINE
  5
308
  8
0
  6
CONTINUOUS
 62
     7
 10
432.8003411266
 20
971.8815112331
 30
0.0
 11
517.8003420206
 21
971.8815112331
 31
0.0
  0
LINE
  5
309
  8
0
  6
CONTINUOUS
 62
     7
 10
480.0225642594
 20
909.3815147256
 30
0.0
 11
480.0225642594
 21
931.8815118944
 31
0.0
  0
LINE
  5
30A
  8
0
  6
CONTINUOUS
 62
     7
 10
433.3906282755
 20
912.3815096294
 30
0.0
 11
433.3906282755
 21
909.3815147256
 31
0.0
  0
ARC
  5
30B
  8
0
  6
CONTINUOUS
 62
     7
 10
347.8109575641
 20
912.3472752368
 30
0.0
 40
85.5796775588263
 50
0.0229200006
 51
6.733431386
  0
LINE
  5
30C
  8
0
  6
CONTINUOUS
 62
     7
 10
492.809438807
 20
889.3815114473
 30
0.0
 11
432.8003411266
 21
889.3815114473
 31
0.0
  0
LINE
  5
30D
  8
0
  6
CONTINUOUS
 62
     7
 10
602.8003429147
 20
889.3815114473
 30
0.0
 11
542.7912452343
 21
889.3815114473
 31
0.0
  0
ARC
  5
30E
  8
0
  6
CONTINUOUS
 62
     7
 10
531.351957691
 20
1116.9533488783
 30
0.0
 40
227.8591637200625
 50
269.1069007779
 51
272.8776482689
  0
POLYLINE
  5
30F
  8
0
  6
CONTINUOUS
 62
     7
 66
     1
 10
0.0
 20
0.0
 30
0.0
 70
   128
  0
VERTEX
  5
7B2
  8
0
  6
CONTINUOUS
 62
     7
 10
507.8003422442
 20
889.1218661641
 30
0.0
  0
VERTEX
  5
7B3
  8
0
  6
CONTINUOUS
 62
     7
 10
517.8018777935
 20
889.280489025
 30
0.0
  0
VERTEX
  5
7B4
  8
0
  6
CONTINUOUS
 62
     7
 10
527.8003417971
 20
889.1218661641
 30
0.0
  0
SEQEND
  5
AB8
  8
0
  6
CONTINUOUS
 62
     7
  0
POLYLINE
  5
310
  8
0
  6
CONTINUOUS
 62
     7
 66
     1
 10
0.0
 20
0.0
 30
0.0
 70
   128
  0
VERTEX
  5
7B5
  8
0
  6
CONTINUOUS
 62
     7
 10
492.809438807
 20
889.3815114473
 30
0.0
  0
VERTEX
  5
7B6
  8
0
  6
CONTINUOUS
 62
     7
 10
500.2027691426
 20
889.1093417381
 30
0.0
  0
VERTEX
  5
7B7
  8
0
  6
CONTINUOUS
 62
     7
 10
507.8003422442
 20
889.1218661641
 30
0.0
  0
SEQEND
  5
AB9
  8
0
  6
CONTINUOUS
 62
     7
  0
LINE
  5
311
  8
0
  6
CONTINUOUS
 62
     7
 10
527.8003417971
 20
884.3815087651
 30
0.0
 11
527.8003417971
 21
889.1218661641
 31
0.0
  0
LINE
  5
312
  8
0
  6
CONTINUOUS
 62
     7
 10
527.8003417971
 20
884.3815087651
 30
0.0
 11
507.8003422442
 21
884.3815087651
 31
0.0
  0
LINE
  5
313
  8
0
  6
CONTINUOUS
 62
     7
 10
507.8003422442
 20
889.1218661641
 30
0.0
 11
507.8003422442
 21
884.3815087651
 31
0.0
  0
LINE
  5
314
  8
0
  6
CONTINUOUS
 62
     7
 10
507.8003422442
 20
884.3815087651
 30
0.0
 11
486.8003425273
 21
884.3815087651
 31
0.0
  0
ARC
  5
315
  8
0
  6
CONTINUOUS
 62
     7
 10
481.8003420206
 20
884.3815113281
 30
0.0
 40
5.0
 50
0.0
 51
90.0
  0
ARC
  5
316
  8
0
  6
CONTINUOUS
 62
     7
 10
553.8003420206
 20
884.3815113281
 30
0.0
 40
5.0
 50
90.0
 51
180.0
  0
LINE
  5
317
  8
0
  6
CONTINUOUS
 62
     7
 10
548.800341514
 20
884.3815087651
 30
0.0
 11
527.8003417971
 21
884.3815087651
 31
0.0
  0
POLYLINE
  5
318
  8
0
  6
CONTINUOUS
 62
     7
 66
     1
 10
0.0
 20
0.0
 30
0.0
 70
   128
  0
VERTEX
  5
7B8
  8
0
  6
CONTINUOUS
 62
     7
 10
486.879888651
 20
829.5863404249
 30
0.0
  0
VERTEX
  5
7B9
  8
0
  6
CONTINUOUS
 62
     7
 10
487.5217934223
 20
832.3396726822
 30
0.0
  0
VERTEX
  5
7BA
  8
0
  6
CONTINUOUS
 62
     7
 10
488.7392499568
 20
835.4190721487
 30
0.0
  0
VERTEX
  5
7BB
  8
0
  6
CONTINUOUS
 62
     7
 10
489.9498296055
 20
837.861059544
 30
0.0
  0
VERTEX
  5
7BC
  8
0
  6
CONTINUOUS
 62
     7
 10
491.3676564666
 20
840.3953149294
 30
0.0
  0
VERTEX
  5
7BD
  8
0
  6
CONTINUOUS
 62
     7
 10
494.7960187765
 20
845.8452358221
 30
0.0
  0
VERTEX
  5
7BE
  8
0
  6
CONTINUOUS
 62
     7
 10
497.358225015
 20
849.598018763
 30
0.0
  0
VERTEX
  5
7BF
  8
0
  6
CONTINUOUS
 62
     7
 10
500.0731867822
 20
853.4155696009
 30
0.0
  0
VERTEX
  5
7C0
  8
0
  6
CONTINUOUS
 62
     7
 10
502.9906543987
 20
857.4104740595
 30
0.0
  0
VERTEX
  5
7C1
  8
0
  6
CONTINUOUS
 62
     7
 10
505.9742859649
 20
861.4330052708
 30
0.0
  0
VERTEX
  5
7C2
  8
0
  6
CONTINUOUS
 62
     7
 10
507.2642422366
 20
863.163037536
 30
0.0
  0
VERTEX
  5
7C3
  8
0
  6
CONTINUOUS
 62
     7
 10
507.6428090307
 20
863.6703997229
 30
0.0
  0
VERTEX
  5
7C4
  8
0
  6
CONTINUOUS
 62
     7
 10
507.7752356502
 20
863.8478651022
 30
0.0
  0
VERTEX
  5
7C5
  8
0
  6
CONTINUOUS
 62
     7
 10
507.8003422442
 20
863.8815119242
 30
0.0
  0
SEQEND
  5
ABA
  8
0
  6
CONTINUOUS
 62
     7
  0
LINE
  5
319
  8
0
  6
CONTINUOUS
 62
     7
 10
486.879888651
 20
835.70410156
 30
0.0
 11
486.879888651
 21
829.5863404249
 31
0.0
  0
ARC
  5
31A
  8
0
  6
CONTINUOUS
 62
     7
 10
364.8351725698
 20
835.956257825
 30
0.0
 40
122.0449765706832
 50
359.88162151
 51
1.9843886403
  0
LINE
  5
31B
  8
0
  6
CONTINUOUS
 62
     7
 10
486.8003425273
 20
843.5683979963
 30
0.0
 11
486.8003425273
 21
884.3815087651
 31
0.0
  0
LINE
  5
31C
  8
0
  6
CONTINUOUS
 62
     7
 10
507.8003422442
 20
884.3815087651
 30
0.0
 11
507.8003422442
 21
863.8815119242
 31
0.0
  0
POLYLINE
  5
31D
  8
0
  6
CONTINUOUS
 62
     7
 66
     1
 10
0.0
 20
0.0
 30
0.0
 70
   128
  0
VERTEX
  5
7C6
  8
0
  6
CONTINUOUS
 62
     7
 10
507.8003422442
 20
863.8815119242
 30
0.0
  0
VERTEX
  5
7C7
  8
0
  6
CONTINUOUS
 62
     7
 10
507.7780650082
 20
863.8443037247
 30
0.0
  0
VERTEX
  5
7C8
  8
0
  6
CONTINUOUS
 62
     7
 10
507.6252861964
 20
863.5891511415
 30
0.0
  0
VERTEX
  5
7C9
  8
0
  6
CONTINUOUS
 62
     7
 10
506.2351512807
 20
861.266067562
 30
0.0
  0
VERTEX
  5
7CA
  8
0
  6
CONTINUOUS
 62
     7
 10
502.896683951
 20
855.6482552861
 30
0.0
  0
VERTEX
  5
7CB
  8
0
  6
CONTINUOUS
 62
     7
 10
499.6651557359
 20
850.0711157297
 30
0.0
  0
VERTEX
  5
7CC
  8
0
  6
CONTINUOUS
 62
     7
 10
496.6537782075
 20
844.6155025934
 30
0.0
  0
VERTEX
  5
7CD
  8
0
  6
CONTINUOUS
 62
     7
 10
493.7609338286
 20
838.8951107239
 30
0.0
  0
VERTEX
  5
7CE
  8
0
  6
CONTINUOUS
 62
     7
 10
491.462263939
 20
833.4784641241
 30
0.0
  0
VERTEX
  5
7CF
  8
0
  6
CONTINUOUS
 62
     7
 10
490.3732311996
 20
830.0112321352
 30
0.0
  0
VERTEX
  5
7D0
  8
0
  6
CONTINUOUS
 62
     7
 10
489.8325872692
 20
826.8348410105
 30
0.0
  0
SEQEND
  5
ABB
  8
0
  6
CONTINUOUS
 62
     7
  0
LINE
  5
31E
  8
0
  6
CONTINUOUS
 62
     7
 10
507.8003422442
 20
863.8815119242
 30
0.0
 11
527.8003417971
 21
863.8815119242
 31
0.0
  0
POLYLINE
  5
31F
  8
0
  6
CONTINUOUS
 62
     7
 66
     1
 10
0.0
 20
0.0
 30
0.0
 70
   128
  0
VERTEX
  5
7D1
  8
0
  6
CONTINUOUS
 62
     7
 10
545.7680967721
 20
826.8348410105
 30
0.0
  0
VERTEX
  5
7D2
  8
0
  6
CONTINUOUS
 62
     7
 10
545.2274528416
 20
830.0112321352
 30
0.0
  0
VERTEX
  5
7D3
  8
0
  6
CONTINUOUS
 62
     7
 10
544.1384201022
 20
833.4784641241
 30
0.0
  0
VERTEX
  5
7D4
  8
0
  6
CONTINUOUS
 62
     7
 10
541.8397502127
 20
838.8951107239
 30
0.0
  0
VERTEX
  5
7D5
  8
0
  6
CONTINUOUS
 62
     7
 10
538.9469058337
 20
844.6155025934
 30
0.0
  0
VERTEX
  5
7D6
  8
0
  6
CONTINUOUS
 62
     7
 10
535.9355283054
 20
850.0711157297
 30
0.0
  0
VERTEX
  5
7D7
  8
0
  6
CONTINUOUS
 62
     7
 10
532.7040000903
 20
855.6482552861
 30
0.0
  0
VERTEX
  5
7D8
  8
0
  6
CONTINUOUS
 62
     7
 10
529.3655327606
 20
861.266067562
 30
0.0
  0
VERTEX
  5
7D9
  8
0
  6
CONTINUOUS
 62
     7
 10
527.9753978449
 20
863.5891511415
 30
0.0
  0
VERTEX
  5
7DA
  8
0
  6
CONTINUOUS
 62
     7
 10
527.8226190331
 20
863.8443037247
 30
0.0
  0
VERTEX
  5
7DB
  8
0
  6
CONTINUOUS
 62
     7
 10
527.8003417971
 20
863.8815119242
 30
0.0
  0
SEQEND
  5
ABC
  8
0
  6
CONTINUOUS
 62
     7
  0
LINE
  5
320
  8
0
  6
CONTINUOUS
 62
     7
 10
489.8325872692
 20
826.8348410105
 30
0.0
 11
545.7680967721
 21
826.8348410105
 31
0.0
  0
ARC
  5
321
  8
0
  6
CONTINUOUS
 62
     7
 10
489.7409639777
 20
829.8832066571
 30
0.0
 40
3.049742274862139
 50
202.5559329294
 51
271.7215939759
  0
POLYLINE
  5
322
  8
0
  6
CONTINUOUS
 62
     7
 66
     1
 10
0.0
 20
0.0
 30
0.0
 70
   128
  0
VERTEX
  5
7DC
  8
0
  6
CONTINUOUS
 62
     7
 10
486.879888651
 20
829.5863404249
 30
0.0
  0
VERTEX
  5
7DD
  8
0
  6
CONTINUOUS
 62
     7
 10
486.8902840736
 20
829.0811016535
 30
0.0
  0
VERTEX
  5
7DE
  8
0
  6
CONTINUOUS
 62
     7
 10
486.9245101782
 20
828.7133707975
 30
0.0
  0
SEQEND
  5
ABD
  8
0
  6
CONTINUOUS
 62
     7
  0
LINE
  5
323
  8
0
  6
CONTINUOUS
 62
     7
 10
527.8003417971
 20
863.8815119242
 30
0.0
 11
527.8003417971
 21
884.3815087651
 31
0.0
  0
POLYLINE
  5
324
  8
0
  6
CONTINUOUS
 62
     7
 66
     1
 10
0.0
 20
0.0
 30
0.0
 70
   128
  0
VERTEX
  5
7DF
  8
0
  6
CONTINUOUS
 62
     7
 10
548.7207953903
 20
835.70410156
 30
0.0
  0
VERTEX
  5
7E0
  8
0
  6
CONTINUOUS
 62
     7
 10
548.7248261544
 20
836.4242597793
 30
0.0
  0
VERTEX
  5
7E1
  8
0
  6
CONTINUOUS
 62
     7
 10
548.762831566
 20
838.2229342436
 30
0.0
  0
VERTEX
  5
7E2
  8
0
  6
CONTINUOUS
 62
     7
 10
548.7955638292
 20
839.5955696081
 30
0.0
  0
VERTEX
  5
7E3
  8
0
  6
CONTINUOUS
 62
     7
 10
548.7946921113
 20
840.1889785503
 30
0.0
  0
SEQEND
  5
ABE
  8
0
  6
CONTINUOUS
 62
     7
  0
LINE
  5
325
  8
0
  6
CONTINUOUS
 62
     7
 10
548.7207953903
 20
829.5863404249
 30
0.0
 11
548.7207953903
 21
835.70410156
 31
0.0
  0
POLYLINE
  5
326
  8
0
  6
CONTINUOUS
 62
     7
 66
     1
 10
0.0
 20
0.0
 30
0.0
 70
   128
  0
VERTEX
  5
7E4
  8
0
  6
CONTINUOUS
 62
     7
 10
527.8003417971
 20
863.8815119242
 30
0.0
  0
VERTEX
  5
7E5
  8
0
  6
CONTINUOUS
 62
     7
 10
527.8254483911
 20
863.8478651022
 30
0.0
  0
VERTEX
  5
7E6
  8
0
  6
CONTINUOUS
 62
     7
 10
527.9578750106
 20
863.6703997229
 30
0.0
  0
VERTEX
  5
7E7
  8
0
  6
CONTINUOUS
 62
     7
 10
528.3364418047
 20
863.163037536
 30
0.0
  0
VERTEX
  5
7E8
  8
0
  6
CONTINUOUS
 62
     7
 10
529.6263980764
 20
861.4330052708
 30
0.0
  0
VERTEX
  5
7E9
  8
0
  6
CONTINUOUS
 62
     7
 10
532.5138119134
 20
857.5409262751
 30
0.0
  0
VERTEX
  5
7EA
  8
0
  6
CONTINUOUS
 62
     7
 10
535.3406478735
 20
853.6741420006
 30
0.0
  0
VERTEX
  5
7EB
  8
0
  6
CONTINUOUS
 62
     7
 10
538.153372434
 20
849.7254758452
 30
0.0
  0
VERTEX
  5
7EC
  8
0
  6
CONTINUOUS
 62
     7
 10
540.8046652647
 20
845.8452358221
 30
0.0
  0
VERTEX
  5
7ED
  8
0
  6
CONTINUOUS
 62
     7
 10
544.1402492198
 20
840.5532523369
 30
0.0
  0
VERTEX
  5
7EE
  8
0
  6
CONTINUOUS
 62
     7
 10
545.6102897497
 20
837.9374428963
 30
0.0
  0
VERTEX
  5
7EF
  8
0
  6
CONTINUOUS
 62
     7
 10
546.8614340844
 20
835.4190721487
 30
0.0
  0
VERTEX
  5
7F0
  8
0
  6
CONTINUOUS
 62
     7
 10
548.0568052354
 20
832.407696483
 30
0.0
  0
VERTEX
  5
7F1
  8
0
  6
CONTINUOUS
 62
     7
 10
548.7207953903
 20
829.5863404249
 30
0.0
  0
SEQEND
  5
ABF
  8
0
  6
CONTINUOUS
 62
     7
  0
LINE
  5
327
  8
0
  6
CONTINUOUS
 62
     7
 10
548.800341514
 20
884.3815087651
 30
0.0
 11
548.800341514
 21
843.5683979963
 31
0.0
  0
LINE
  5
328
  8
0
  6
CONTINUOUS
 62
     7
 10
548.6761738631
 20
828.7133707975
 30
0.0
 11
548.7207953903
 21
829.5863404249
 31
0.0
  0
ARC
  5
329
  8
0
  6
CONTINUOUS
 62
     7
 10
545.8597200635
 20
829.8832066571
 30
0.0
 40
3.049742274862235
 50
268.2784060241
 51
337.4440670706
  0
POLYLINE
  5
32A
  8
0
  6
CONTINUOUS
 62
     7
 66
     1
 10
0.0
 20
0.0
 30
0.0
 70
   128
  0
VERTEX
  5
7F2
  8
0
  6
CONTINUOUS
 62
     7
 10
557.8003411266
 20
904.3815120434
 30
0.0
  0
VERTEX
  5
7F3
  8
0
  6
CONTINUOUS
 62
     7
 10
557.3668067428
 20
904.4775872802
 30
0.0
  0
VERTEX
  5
7F4
  8
0
  6
CONTINUOUS
 62
     7
 10
556.9499355825
 20
904.762110052
 30
0.0
  0
VERTEX
  5
7F5
  8
0
  6
CONTINUOUS
 62
     7
 10
556.5657426688
 20
905.2241652583
 30
0.0
  0
VERTEX
  5
7F6
  8
0
  6
CONTINUOUS
 62
     7
 10
556.2289950522
 20
905.8459758138
 30
0.0
  0
VERTEX
  5
7F7
  8
0
  6
CONTINUOUS
 62
     7
 10
555.9526306661
 20
906.6036626076
 30
0.0
  0
VERTEX
  5
7F8
  8
0
  6
CONTINUOUS
 62
     7
 10
555.7472777637
 20
907.4680938696
 30
0.0
  0
VERTEX
  5
7F9
  8
0
  6
CONTINUOUS
 62
     7
 10
555.6208190593
 20
908.4060623621
 30
0.0
  0
VERTEX
  5
7FA
  8
0
  6
CONTINUOUS
 62
     7
 10
555.5781197819
 20
909.3815147256
 30
0.0
  0
SEQEND
  5
AC0
  8
0
  6
CONTINUOUS
 62
     7
  0
LINE
  5
32B
  8
0
  6
CONTINUOUS
 62
     7
 10
432.8003411266
 20
907.0323615645
 30
0.0
 11
432.8003411266
 21
907.348281083
 31
0.0
  0
POLYLINE
  5
32C
  8
0
  6
CONTINUOUS
 62
     7
 66
     1
 10
0.0
 20
0.0
 30
0.0
 70
   128
  0
VERTEX
  5
7FB
  8
0
  6
CONTINUOUS
 62
     7
 10
433.3906282755
 20
909.3815147256
 30
0.0
  0
VERTEX
  5
7FC
  8
0
  6
CONTINUOUS
 62
     7
 10
433.2740564915
 20
908.381512699
 30
0.0
  0
VERTEX
  5
7FD
  8
0
  6
CONTINUOUS
 62
     7
 10
433.1100468608
 20
907.8561797117
 30
0.0
  0
VERTEX
  5
7FE
  8
0
  6
CONTINUOUS
 62
     7
 10
432.9662357541
 20
907.541258571
 30
0.0
  0
VERTEX
  5
7FF
  8
0
  6
CONTINUOUS
 62
     7
 10
432.8691993924
 20
907.3814957713
 30
0.0
  0
VERTEX
  5
800
  8
0
  6
CONTINUOUS
 62
     7
 10
432.8097586604
 20
907.3252438878
 30
0.0
  0
VERTEX
  5
801
  8
0
  6
CONTINUOUS
 62
     7
 10
432.8003411266
 20
907.348281083
 30
0.0
  0
SEQEND
  5
AC1
  8
0
  6
CONTINUOUS
 62
     7
  0
POLYLINE
  5
32D
  8
0
  6
CONTINUOUS
 62
     7
 66
     1
 10
0.0
 20
0.0
 30
0.0
 70
   128
  0
VERTEX
  5
802
  8
0
  6
CONTINUOUS
 62
     7
 10
477.8003429147
 20
904.3815120434
 30
0.0
  0
VERTEX
  5
803
  8
0
  6
CONTINUOUS
 62
     7
 10
478.2338772985
 20
904.4775872802
 30
0.0
  0
VERTEX
  5
804
  8
0
  6
CONTINUOUS
 62
     7
 10
478.6507484587
 20
904.762110052
 30
0.0
  0
VERTEX
  5
805
  8
0
  6
CONTINUOUS
 62
     7
 10
479.0349413725
 20
905.2241652583
 30
0.0
  0
VERTEX
  5
806
  8
0
  6
CONTINUOUS
 62
     7
 10
479.371688989
 20
905.8459758138
 30
0.0
  0
VERTEX
  5
807
  8
0
  6
CONTINUOUS
 62
     7
 10
479.6480533751
 20
906.6036626076
 30
0.0
  0
VERTEX
  5
808
  8
0
  6
CONTINUOUS
 62
     7
 10
479.8534062775
 20
907.4680938696
 30
0.0
  0
VERTEX
  5
809
  8
0
  6
CONTINUOUS
 62
     7
 10
479.979864982
 20
908.4060623621
 30
0.0
  0
VERTEX
  5
80A
  8
0
  6
CONTINUOUS
 62
     7
 10
480.0225642594
 20
909.3815147256
 30
0.0
  0
SEQEND
  5
AC2
  8
0
  6
CONTINUOUS
 62
     7
  0
ARC
  5
32E
  8
0
  6
CONTINUOUS
 62
     7
 10
428.3628709295
 20
909.4210507164
 30
0.0
 40
5.039541409157859
 50
269.9402954443
 51
331.706430395
  0
LINE
  5
32F
  8
0
  6
CONTINUOUS
 62
     7
 10
480.0225642594
 20
909.3815147256
 30
0.0
 11
482.8003418716
 21
909.3815147256
 31
0.0
  0
LINE
  5
330
  8
0
  6
CONTINUOUS
 62
     7
 10
552.8003421696
 20
909.3815147256
 30
0.0
 11
555.5781197819
 21
909.3815147256
 31
0.0
  0
LINE
  5
331
  8
0
  6
CONTINUOUS
 62
     7
 10
420.6670110198
 20
903.3815100168
 30
0.0
 11
419.8003445836
 21
903.3815100168
 31
0.0
  0
ARC
  5
332
  8
0
  6
CONTINUOUS
 62
     7
 10
420.8003420206
 20
903.3815113281
 30
0.0
 40
1.0
 50
90.0
 51
180.0
  0
LINE
  5
333
  8
0
  6
CONTINUOUS
 62
     7
 10
421.4936752888
 20
904.3815120434
 30
0.0
 11
420.8003391596
 21
904.3815120434
 31
0.0
  0
LINE
  5
334
  8
0
  6
CONTINUOUS
 62
     7
 10
419.8003445836
 20
892.3815100764
 30
0.0
 11
419.8003445836
 21
903.3815100168
 31
0.0
  0
LINE
  5
335
  8
0
  6
CONTINUOUS
 62
     7
 10
419.8003445836
 20
892.3815100764
 30
0.0
 11
420.6670110198
 21
892.3815100764
 31
0.0
  0
ARC
  5
336
  8
0
  6
CONTINUOUS
 62
     7
 10
614.8003420206
 20
903.3815113281
 30
0.0
 40
1.0
 50
0.0
 51
90.0
  0
LINE
  5
337
  8
0
  6
CONTINUOUS
 62
     7
 10
615.8003394576
 20
903.3815100168
 30
0.0
 11
614.9336730214
 21
903.3815100168
 31
0.0
  0
LINE
  5
338
  8
0
  6
CONTINUOUS
 62
     7
 10
614.8003448817
 20
904.3815120434
 30
0.0
 11
614.1070087525
 21
904.3815120434
 31
0.0
  0
LINE
  5
339
  8
0
  6
CONTINUOUS
 62
     7
 10
615.8003394576
 20
903.3815100168
 30
0.0
 11
615.8003394576
 21
892.3815100764
 31
0.0
  0
LINE
  5
33A
  8
0
  6
CONTINUOUS
 62
     7
 10
614.9336730214
 20
892.3815100764
 30
0.0
 11
615.8003394576
 21
892.3815100764
 31
0.0
  0
LINE
  5
33B
  8
0
  6
CONTINUOUS
 62
     7
 10
489.8325872692
 20
826.8348410105
 30
0.0
 11
489.8003411564
 21
826.2009009098
 31
0.0
  0
ARC
  5
33C
  8
0
  6
CONTINUOUS
 62
     7
 10
489.6562722247
 20
829.7463887025
 30
0.0
 40
3.54841366599093
 50
227.5794083075
 51
272.3269021178
  0
LINE
  5
33D
  8
0
  6
CONTINUOUS
 62
     7
 10
486.9245101782
 20
828.7133707975
 30
0.0
 11
487.2626268389
 21
827.1269037699
 31
0.0
  0
LINE
  5
33E
  8
0
  6
CONTINUOUS
 62
     7
 10
545.8003428849
 20
826.2009009098
 30
0.0
 11
545.7680967721
 21
826.8348410105
 31
0.0
  0
LINE
  5
33F
  8
0
  6
CONTINUOUS
 62
     7
 10
548.3380572023
 20
827.1269037699
 30
0.0
 11
548.6761738631
 21
828.7133707975
 31
0.0
  0
ARC
  5
340
  8
0
  6
CONTINUOUS
 62
     7
 10
545.9444118166
 20
829.7463887025
 30
0.0
 40
3.548413665990904
 50
267.6730978822
 51
312.4205916925
  0
ARC
  5
341
  8
0
  6
CONTINUOUS
 62
     7
 10
501.8270513981
 20
748.907650306
 30
0.0
 40
74.69539874113703
 50
82.0975323731
 51
89.4242160933
  0
LINE
  5
342
  8
0
  6
CONTINUOUS
 62
     7
 10
489.1055111858
 20
823.5992773746
 30
0.0
 11
502.5776770982
 21
823.5992773746
 31
0.0
  0
POLYLINE
  5
343
  8
0
  6
CONTINUOUS
 62
     7
 66
     1
 10
0.0
 20
0.0
 30
0.0
 70
   128
  0
VERTEX
  5
80B
  8
0
  6
CONTINUOUS
 62
     7
 10
489.8003411564
 20
826.2009009098
 30
0.0
  0
VERTEX
  5
80C
  8
0
  6
CONTINUOUS
 62
     7
 10
489.8003392937
 20
826.1977269625
 30
0.0
  0
VERTEX
  5
80D
  8
0
  6
CONTINUOUS
 62
     7
 10
489.57703608
 20
825.1541688417
 30
0.0
  0
VERTEX
  5
80E
  8
0
  6
CONTINUOUS
 62
     7
 10
489.1082734885
 20
823.6136867975
 30
0.0
  0
VERTEX
  5
80F
  8
0
  6
CONTINUOUS
 62
     7
 10
489.1055111858
 20
823.5992773746
 30
0.0
  0
SEQEND
  5
AC3
  8
0
  6
CONTINUOUS
 62
     7
  0
POLYLINE
  5
344
  8
0
  6
CONTINUOUS
 62
     7
 66
     1
 10
0.0
 20
0.0
 30
0.0
 70
   128
  0
VERTEX
  5
810
  8
0
  6
CONTINUOUS
 62
     7
 10
546.4951728555
 20
823.5992773746
 30
0.0
  0
VERTEX
  5
811
  8
0
  6
CONTINUOUS
 62
     7
 10
546.4924105527
 20
823.6136867975
 30
0.0
  0
VERTEX
  5
812
  8
0
  6
CONTINUOUS
 62
     7
 10
546.0236479613
 20
825.1541688417
 30
0.0
  0
VERTEX
  5
813
  8
0
  6
CONTINUOUS
 62
     7
 10
545.8003428849
 20
826.2009009098
 30
0.0
  0
SEQEND
  5
AC4
  8
0
  6
CONTINUOUS
 62
     7
  0
LINE
  5
345
  8
0
  6
CONTINUOUS
 62
     7
 10
533.0230069431
 20
823.5992773746
 30
0.0
 11
546.4951728555
 21
823.5992773746
 31
0.0
  0
ARC
  5
346
  8
0
  6
CONTINUOUS
 62
     7
 10
534.1151348859
 20
744.3003509607
 30
0.0
 40
79.30644660960496
 50
90.7890443012
 51
97.6892072324
  0
LINE
  5
347
  8
0
  6
CONTINUOUS
 62
     7
 10
523.5039710152
 20
822.8937073921
 30
0.0
 11
512.0967130261
 21
822.8937073921
 31
0.0
  0
ARC
  5
348
  8
0
  6
CONTINUOUS
 62
     7
 10
492.2092777952
 20
858.8757015286
 30
0.0
 40
35.41270207505635
 50
261.9384843976
 51
264.9718269098
  0
LINE
  5
349
  8
0
  6
CONTINUOUS
 62
     7
 10
487.2477741065
 20
823.962239859
 30
0.0
 11
487.2431342574
 21
823.812945125
 31
0.0
  0
POLYLINE
  5
34A
  8
0
  6
CONTINUOUS
 62
     7
 66
     1
 10
0.0
 20
0.0
 30
0.0
 70
   128
  0
VERTEX
  5
814
  8
0
  6
CONTINUOUS
 62
     7
 10
487.2626268389
 20
827.1269037699
 30
0.0
  0
VERTEX
  5
815
  8
0
  6
CONTINUOUS
 62
     7
 10
487.290121344
 20
826.1818423246
 30
0.0
  0
VERTEX
  5
816
  8
0
  6
CONTINUOUS
 62
     7
 10
487.2477741065
 20
823.962239859
 30
0.0
  0
SEQEND
  5
AC5
  8
0
  6
CONTINUOUS
 62
     7
  0
ARC
  5
34B
  8
0
  6
CONTINUOUS
 62
     7
 10
580.6912147888
 20
825.696380191
 30
0.0
 40
32.38476807889779
 50
177.4682652796
 51
183.0695438892
  0
LINE
  5
34C
  8
0
  6
CONTINUOUS
 62
     7
 10
548.3575497838
 20
823.812945125
 30
0.0
 11
548.3529099348
 21
823.962239859
 31
0.0
  0
ARC
  5
34D
  8
0
  6
CONTINUOUS
 62
     7
 10
543.4766365283
 20
858.1328149161
 30
0.0
 40
34.66520988956164
 50
274.9954609439
 51
278.0942277487
  0
POLYLINE
  5
34E
  8
0
  6
CONTINUOUS
 62
     7
 66
     1
 10
0.0
 20
0.0
 30
0.0
 70
   128
  0
VERTEX
  5
817
  8
0
  6
CONTINUOUS
 62
     7
 10
548.8431190225
 20
842.1962990736
 30
0.0
  0
VERTEX
  5
818
  8
0
  6
CONTINUOUS
 62
     7
 10
548.8362123343
 20
841.8003305172
 30
0.0
  0
VERTEX
  5
819
  8
0
  6
CONTINUOUS
 62
     7
 10
548.8609557124
 20
841.2995173906
 30
0.0
  0
VERTEX
  5
81A
  8
0
  6
CONTINUOUS
 62
     7
 10
549.0171478214
 20
840.3057291483
 30
0.0
  0
VERTEX
  5
81B
  8
0
  6
CONTINUOUS
 62
     7
 10
549.4777445766
 20
838.8311698412
 30
0.0
  0
VERTEX
  5
81C
  8
0
  6
CONTINUOUS
 62
     7
 10
550.072606382
 20
837.3968585705
 30
0.0
  0
VERTEX
  5
81D
  8
0
  6
CONTINUOUS
 62
     7
 10
550.5607162687
 20
836.1464723324
 30
0.0
  0
VERTEX
  5
81E
  8
0
  6
CONTINUOUS
 62
     7
 10
550.7132222029
 20
835.70410156
 30
0.0
  0
SEQEND
  5
AC6
  8
0
  6
CONTINUOUS
 62
     7
  0
LINE
  5
34F
  8
0
  6
CONTINUOUS
 62
     7
 10
550.7132222029
 20
835.70410156
 30
0.0
 11
548.7207953903
 21
835.70410156
 31
0.0
  0
LINE
  5
350
  8
0
  6
CONTINUOUS
 62
     7
 10
484.8874618384
 20
835.70410156
 30
0.0
 11
486.879888651
 21
835.70410156
 31
0.0
  0
POLYLINE
  5
351
  8
0
  6
CONTINUOUS
 62
     7
 66
     1
 10
0.0
 20
0.0
 30
0.0
 70
   128
  0
VERTEX
  5
81F
  8
0
  6
CONTINUOUS
 62
     7
 10
484.8874618384
 20
835.70410156
 30
0.0
  0
VERTEX
  5
820
  8
0
  6
CONTINUOUS
 62
     7
 10
485.2897186848
 20
836.8117048715
 30
0.0
  0
VERTEX
  5
821
  8
0
  6
CONTINUOUS
 62
     7
 10
485.9862548383
 20
838.4869530176
 30
0.0
  0
VERTEX
  5
822
  8
0
  6
CONTINUOUS
 62
     7
 10
486.5696390244
 20
840.245155928
 30
0.0
  0
VERTEX
  5
823
  8
0
  6
CONTINUOUS
 62
     7
 10
486.6950993511
 20
840.9102841591
 30
0.0
  0
VERTEX
  5
824
  8
0
  6
CONTINUOUS
 62
     7
 10
486.7570583793
 20
841.5561600899
 30
0.0
  0
VERTEX
  5
825
  8
0
  6
CONTINUOUS
 62
     7
 10
486.7623166266
 20
842.0697286104
 30
0.0
  0
VERTEX
  5
826
  8
0
  6
CONTINUOUS
 62
     7
 10
486.7575650188
 20
842.1962990736
 30
0.0
  0
SEQEND
  5
AC7
  8
0
  6
CONTINUOUS
 62
     7
  0
LINE
  5
352
  8
0
  6
CONTINUOUS
 62
     7
 10
484.8874618384
 20
829.5863404249
 30
0.0
 11
484.8874618384
 21
835.70410156
 31
0.0
  0
LINE
  5
353
  8
0
  6
CONTINUOUS
 62
     7
 10
484.8874618384
 20
829.5863404249
 30
0.0
 11
486.879888651
 21
829.5863404249
 31
0.0
  0
POLYLINE
  5
354
  8
0
  6
CONTINUOUS
 62
     7
 66
     1
 10
0.0
 20
0.0
 30
0.0
 70
   128
  0
VERTEX
  5
827
  8
0
  6
CONTINUOUS
 62
     7
 10
484.9857908758
 20
828.3892705416
 30
0.0
  0
VERTEX
  5
828
  8
0
  6
CONTINUOUS
 62
     7
 10
484.9198122593
 20
828.8951947664
 30
0.0
  0
VERTEX
  5
829
  8
0
  6
CONTINUOUS
 62
     7
 10
484.8874618384
 20
829.5863404249
 30
0.0
  0
SEQEND
  5
AC8
  8
0
  6
CONTINUOUS
 62
     7
  0
POLYLINE
  5
355
  8
0
  6
CONTINUOUS
 62
     7
 66
     1
 10
0.0
 20
0.0
 30
0.0
 70
   128
  0
VERTEX
  5
82A
  8
0
  6
CONTINUOUS
 62
     7
 10
484.9857908758
 20
828.3892705416
 30
0.0
  0
VERTEX
  5
82B
  8
0
  6
CONTINUOUS
 62
     7
 10
485.325626758
 20
828.4460886692
 30
0.0
  0
VERTEX
  5
82C
  8
0
  6
CONTINUOUS
 62
     7
 10
485.6553000482
 20
828.5011931633
 30
0.0
  0
VERTEX
  5
82D
  8
0
  6
CONTINUOUS
 62
     7
 10
485.9649536284
 20
828.5529597973
 30
0.0
  0
VERTEX
  5
82E
  8
0
  6
CONTINUOUS
 62
     7
 10
486.2453301522
 20
828.5998388504
 30
0.0
  0
VERTEX
  5
82F
  8
0
  6
CONTINUOUS
 62
     7
 10
486.4880402657
 20
828.6404147123
 30
0.0
  0
VERTEX
  5
830
  8
0
  6
CONTINUOUS
 62
     7
 10
486.6858289661
 20
828.673480389
 30
0.0
  0
VERTEX
  5
831
  8
0
  6
CONTINUOUS
 62
     7
 10
486.8327842178
 20
828.6980375027
 30
0.0
  0
VERTEX
  5
832
  8
0
  6
CONTINUOUS
 62
     7
 10
486.9245101782
 20
828.7133707975
 30
0.0
  0
SEQEND
  5
AC9
  8
0
  6
CONTINUOUS
 62
     7
  0
LINE
  5
356
  8
0
  6
CONTINUOUS
 62
     7
 10
550.7132222029
 20
835.70410156
 30
0.0
 11
550.7132222029
 21
829.5863404249
 31
0.0
  0
LINE
  5
357
  8
0
  6
CONTINUOUS
 62
     7
 10
550.7132222029
 20
829.5863404249
 30
0.0
 11
548.7207953903
 21
829.5863404249
 31
0.0
  0
LINE
  5
358
  8
0
  6
CONTINUOUS
 62
     7
 10
550.7132222029
 20
829.5863404249
 30
0.0
 11
550.6148931655
 21
828.3892705416
 31
0.0
  0
POLYLINE
  5
359
  8
0
  6
CONTINUOUS
 62
     7
 66
     1
 10
0.0
 20
0.0
 30
0.0
 70
   128
  0
VERTEX
  5
833
  8
0
  6
CONTINUOUS
 62
     7
 10
550.6148931655
 20
828.3892705416
 30
0.0
  0
VERTEX
  5
834
  8
0
  6
CONTINUOUS
 62
     7
 10
550.2750572833
 20
828.4460886692
 30
0.0
  0
VERTEX
  5
835
  8
0
  6
CONTINUOUS
 62
     7
 10
549.945383993
 20
828.5011931633
 30
0.0
  0
VERTEX
  5
836
  8
0
  6
CONTINUOUS
 62
     7
 10
549.6357304128
 20
828.5529597973
 30
0.0
  0
VERTEX
  5
837
  8
0
  6
CONTINUOUS
 62
     7
 10
549.3553538891
 20
828.5998388504
 30
0.0
  0
VERTEX
  5
838
  8
0
  6
CONTINUOUS
 62
     7
 10
549.1126437756
 20
828.6404147123
 30
0.0
  0
VERTEX
  5
839
  8
0
  6
CONTINUOUS
 62
     7
 10
548.9148550751
 20
828.673480389
 30
0.0
  0
VERTEX
  5
83A
  8
0
  6
CONTINUOUS
 62
     7
 10
548.7678998234
 20
828.6980375027
 30
0.0
  0
VERTEX
  5
83B
  8
0
  6
CONTINUOUS
 62
     7
 10
548.6761738631
 20
828.7133707975
 30
0.0
  0
SEQEND
  5
ACA
  8
0
  6
CONTINUOUS
 62
     7
  0
LINE
  5
35A
  8
0
  6
CONTINUOUS
 62
     7
 10
485.5708179148
 20
826.4213784908
 30
0.0
 11
484.9857908758
 21
828.3892705416
 31
0.0
  0
POLYLINE
  5
35B
  8
0
  6
CONTINUOUS
 62
     7
 66
     1
 10
0.0
 20
0.0
 30
0.0
 70
   128
  0
VERTEX
  5
83C
  8
0
  6
CONTINUOUS
 62
     7
 10
485.5708179148
 20
826.4213784908
 30
0.0
  0
VERTEX
  5
83D
  8
0
  6
CONTINUOUS
 62
     7
 10
485.8373736116
 20
826.5325411533
 30
0.0
  0
VERTEX
  5
83E
  8
0
  6
CONTINUOUS
 62
     7
 10
486.0983413728
 20
826.6413643335
 30
0.0
  0
VERTEX
  5
83F
  8
0
  6
CONTINUOUS
 62
     7
 10
486.3482524725
 20
826.7455830549
 30
0.0
  0
VERTEX
  5
840
  8
0
  6
CONTINUOUS
 62
     7
 10
486.5818654271
 20
826.8430068468
 30
0.0
  0
VERTEX
  5
841
  8
0
  6
CONTINUOUS
 62
     7
 10
486.7942870679
 20
826.9315942501
 30
0.0
  0
VERTEX
  5
842
  8
0
  6
CONTINUOUS
 62
     7
 10
486.9810600849
 20
827.0094826197
 30
0.0
  0
VERTEX
  5
843
  8
0
  6
CONTINUOUS
 62
     7
 10
487.1382710608
 20
827.0750477289
 30
0.0
  0
VERTEX
  5
844
  8
0
  6
CONTINUOUS
 62
     7
 10
487.2626268389
 20
827.1269037699
 30
0.0
  0
SEQEND
  5
ACB
  8
0
  6
CONTINUOUS
 62
     7
  0
LINE
  5
35C
  8
0
  6
CONTINUOUS
 62
     7
 10
550.6148931655
 20
828.3892705416
 30
0.0
 11
550.0298661264
 21
826.4213784908
 31
0.0
  0
POLYLINE
  5
35D
  8
0
  6
CONTINUOUS
 62
     7
 66
     1
 10
0.0
 20
0.0
 30
0.0
 70
   128
  0
VERTEX
  5
845
  8
0
  6
CONTINUOUS
 62
     7
 10
550.0298661264
 20
826.4213784908
 30
0.0
  0
VERTEX
  5
846
  8
0
  6
CONTINUOUS
 62
     7
 10
549.7633104297
 20
826.5325411533
 30
0.0
  0
VERTEX
  5
847
  8
0
  6
CONTINUOUS
 62
     7
 10
549.5023426684
 20
826.6413643335
 30
0.0
  0
VERTEX
  5
848
  8
0
  6
CONTINUOUS
 62
     7
 10
549.2524315687
 20
826.7455830549
 30
0.0
  0
VERTEX
  5
849
  8
0
  6
CONTINUOUS
 62
     7
 10
549.0188186141
 20
826.8430068468
 30
0.0
  0
VERTEX
  5
84A
  8
0
  6
CONTINUOUS
 62
     7
 10
548.8063969734
 20
826.9315942501
 30
0.0
  0
VERTEX
  5
84B
  8
0
  6
CONTINUOUS
 62
     7
 10
548.6196239563
 20
827.0094826197
 30
0.0
  0
VERTEX
  5
84C
  8
0
  6
CONTINUOUS
 62
     7
 10
548.4624129804
 20
827.0750477289
 30
0.0
  0
VERTEX
  5
84D
  8
0
  6
CONTINUOUS
 62
     7
 10
548.3380572023
 20
827.1269037699
 30
0.0
  0
SEQEND
  5
ACC
  8
0
  6
CONTINUOUS
 62
     7
  0
POLYLINE
  5
35E
  8
0
  6
CONTINUOUS
 62
     7
 66
     1
 10
0.0
 20
0.0
 30
0.0
 70
   128
  0
VERTEX
  5
84E
  8
0
  6
CONTINUOUS
 62
     7
 10
512.0967130261
 20
822.8937073921
 30
0.0
  0
VERTEX
  5
84F
  8
0
  6
CONTINUOUS
 62
     7
 10
512.0831371369
 20
822.8109165405
 30
0.0
  0
VERTEX
  5
850
  8
0
  6
CONTINUOUS
 62
     7
 10
512.0695849965
 20
822.7282747005
 30
0.0
  0
VERTEX
  5
851
  8
0
  6
CONTINUOUS
 62
     7
 10
512.0560808192
 20
822.6459159826
 30
0.0
  0
VERTEX
  5
852
  8
0
  6
CONTINUOUS
 62
     7
 10
512.0426483537
 20
822.5640042995
 30
0.0
  0
VERTEX
  5
853
  8
0
  6
CONTINUOUS
 62
     7
 10
512.0293108831
 20
822.4826737617
 30
0.0
  0
VERTEX
  5
854
  8
0
  6
CONTINUOUS
 62
     7
 10
512.0160916905
 20
822.4020584797
 30
0.0
  0
VERTEX
  5
855
  8
0
  6
CONTINUOUS
 62
     7
 10
512.0030149902
 20
822.322307465
 30
0.0
  0
VERTEX
  5
856
  8
0
  6
CONTINUOUS
 62
     7
 10
511.9901026683
 20
822.2435697292
 30
0.0
  0
SEQEND
  5
ACD
  8
0
  6
CONTINUOUS
 62
     7
  0
POLYLINE
  5
35F
  8
0
  6
CONTINUOUS
 62
     7
 66
     1
 10
0.0
 20
0.0
 30
0.0
 70
   128
  0
VERTEX
  5
857
  8
0
  6
CONTINUOUS
 62
     7
 10
502.5776770982
 20
822.3101630186
 30
0.0
  0
VERTEX
  5
858
  8
0
  6
CONTINUOUS
 62
     7
 10
506.5678485754
 20
822.4290146803
 30
0.0
  0
VERTEX
  5
859
  8
0
  6
CONTINUOUS
 62
     7
 10
511.9901026683
 20
822.2435697292
 30
0.0
  0
SEQEND
  5
ACE
  8
0
  6
CONTINUOUS
 62
     7
  0
LINE
  5
360
  8
0
  6
CONTINUOUS
 62
     7
 10
502.5776770982
 20
823.5992773746
 30
0.0
 11
502.5776770982
 21
822.3101630186
 31
0.0
  0
POLYLINE
  5
361
  8
0
  6
CONTINUOUS
 62
     7
 66
     1
 10
0.0
 20
0.0
 30
0.0
 70
   128
  0
VERTEX
  5
85A
  8
0
  6
CONTINUOUS
 62
     7
 10
486.0043634745
 20
823.8815053676
 30
0.0
  0
VERTEX
  5
85B
  8
0
  6
CONTINUOUS
 62
     7
 10
485.8260971578
 20
825.3961040949
 30
0.0
  0
VERTEX
  5
85C
  8
0
  6
CONTINUOUS
 62
     7
 10
485.5708179148
 20
826.4213784908
 30
0.0
  0
SEQEND
  5
ACF
  8
0
  6
CONTINUOUS
 62
     7
  0
POLYLINE
  5
362
  8
0
  6
CONTINUOUS
 62
     7
 66
     1
 10
0.0
 20
0.0
 30
0.0
 70
   128
  0
VERTEX
  5
85D
  8
0
  6
CONTINUOUS
 62
     7
 10
486.0043634745
 20
823.8815053676
 30
0.0
  0
VERTEX
  5
85E
  8
0
  6
CONTINUOUS
 62
     7
 10
486.1719605597
 20
823.8923981165
 30
0.0
  0
VERTEX
  5
85F
  8
0
  6
CONTINUOUS
 62
     7
 10
486.3383730027
 20
823.9032014583
 30
0.0
  0
VERTEX
  5
860
  8
0
  6
CONTINUOUS
 62
     7
 10
486.5024273368
 20
823.9138557886
 30
0.0
  0
VERTEX
  5
861
  8
0
  6
CONTINUOUS
 62
     7
 10
486.6629612716
 20
823.9242717003
 30
0.0
  0
VERTEX
  5
862
  8
0
  6
CONTINUOUS
 62
     7
 10
486.8188441815
 20
823.9343895887
 30
0.0
  0
VERTEX
  5
863
  8
0
  6
CONTINUOUS
 62
     7
 10
486.9689733806
 20
823.9441498493
 30
0.0
  0
VERTEX
  5
864
  8
0
  6
CONTINUOUS
 62
     7
 10
487.112287161
 20
823.9534481739
 30
0.0
  0
VERTEX
  5
865
  8
0
  6
CONTINUOUS
 62
     7
 10
487.2477741065
 20
823.962239859
 30
0.0
  0
SEQEND
  5
AD0
  8
0
  6
CONTINUOUS
 62
     7
  0
ARC
  5
363
  8
0
  6
CONTINUOUS
 62
     7
 10
560.4586256006
 20
823.3342947668
 30
0.0
 40
10.87607972059361
 50
163.510382909
 51
177.1160471688
  0
POLYLINE
  5
364
  8
0
  6
CONTINUOUS
 62
     7
 66
     1
 10
0.0
 20
0.0
 30
0.0
 70
   128
  0
VERTEX
  5
866
  8
0
  6
CONTINUOUS
 62
     7
 10
549.5963205668
 20
823.8815053676
 30
0.0
  0
VERTEX
  5
867
  8
0
  6
CONTINUOUS
 62
     7
 10
549.4287234815
 20
823.8923981165
 30
0.0
  0
VERTEX
  5
868
  8
0
  6
CONTINUOUS
 62
     7
 10
549.2623110386
 20
823.9032014583
 30
0.0
  0
VERTEX
  5
869
  8
0
  6
CONTINUOUS
 62
     7
 10
549.0982567045
 20
823.9138557886
 30
0.0
  0
VERTEX
  5
86A
  8
0
  6
CONTINUOUS
 62
     7
 10
548.9377227696
 20
823.9242717003
 30
0.0
  0
VERTEX
  5
86B
  8
0
  6
CONTINUOUS
 62
     7
 10
548.7818398597
 20
823.9343895887
 30
0.0
  0
VERTEX
  5
86C
  8
0
  6
CONTINUOUS
 62
     7
 10
548.6317106607
 20
823.9441498493
 30
0.0
  0
VERTEX
  5
86D
  8
0
  6
CONTINUOUS
 62
     7
 10
548.4883968803
 20
823.9534481739
 30
0.0
  0
VERTEX
  5
86E
  8
0
  6
CONTINUOUS
 62
     7
 10
548.3529099348
 20
823.962239859
 30
0.0
  0
SEQEND
  5
AD1
  8
0
  6
CONTINUOUS
 62
     7
  0
LINE
  5
365
  8
0
  6
CONTINUOUS
 62
     7
 10
533.0230069431
 20
823.5992773746
 30
0.0
 11
533.0230069431
 21
822.3101630186
 31
0.0
  0
POLYLINE
  5
366
  8
0
  6
CONTINUOUS
 62
     7
 66
     1
 10
0.0
 20
0.0
 30
0.0
 70
   128
  0
VERTEX
  5
86F
  8
0
  6
CONTINUOUS
 62
     7
 10
523.6105813729
 20
822.2435697292
 30
0.0
  0
VERTEX
  5
870
  8
0
  6
CONTINUOUS
 62
     7
 10
527.6032879102
 20
822.4083169674
 30
0.0
  0
VERTEX
  5
871
  8
0
  6
CONTINUOUS
 62
     7
 10
533.0230069431
 20
822.3101630186
 30
0.0
  0
SEQEND
  5
AD2
  8
0
  6
CONTINUOUS
 62
     7
  0
POLYLINE
  5
367
  8
0
  6
CONTINUOUS
 62
     7
 66
     1
 10
0.0
 20
0.0
 30
0.0
 70
   128
  0
VERTEX
  5
872
  8
0
  6
CONTINUOUS
 62
     7
 10
523.5039710152
 20
822.8937073921
 30
0.0
  0
VERTEX
  5
873
  8
0
  6
CONTINUOUS
 62
     7
 10
523.5175469043
 20
822.8109165405
 30
0.0
  0
VERTEX
  5
874
  8
0
  6
CONTINUOUS
 62
     7
 10
523.5310990448
 20
822.7282747005
 30
0.0
  0
VERTEX
  5
875
  8
0
  6
CONTINUOUS
 62
     7
 10
523.5446032221
 20
822.6459159826
 30
0.0
  0
VERTEX
  5
876
  8
0
  6
CONTINUOUS
 62
     7
 10
523.5580356876
 20
822.5640042995
 30
0.0
  0
VERTEX
  5
877
  8
0
  6
CONTINUOUS
 62
     7
 10
523.5713731582
 20
822.4826737617
 30
0.0
  0
VERTEX
  5
878
  8
0
  6
CONTINUOUS
 62
     7
 10
523.5845923508
 20
822.4020584797
 30
0.0
  0
VERTEX
  5
879
  8
0
  6
CONTINUOUS
 62
     7
 10
523.5976690511
 20
822.322307465
 30
0.0
  0
VERTEX
  5
87A
  8
0
  6
CONTINUOUS
 62
     7
 10
523.6105813729
 20
822.2435697292
 30
0.0
  0
SEQEND
  5
AD3
  8
0
  6
CONTINUOUS
 62
     7
  0
LINE
  5
368
  8
0
  6
CONTINUOUS
 62
     7
 10
546.4951728555
 20
823.5992773746
 30
0.0
 11
546.4951728555
 21
821.8815162157
 31
0.0
  0
POLYLINE
  5
369
  8
0
  6
CONTINUOUS
 62
     7
 66
     1
 10
0.0
 20
0.0
 30
0.0
 70
   128
  0
VERTEX
  5
87B
  8
0
  6
CONTINUOUS
 62
     7
 10
547.5147997113
 20
821.8815162157
 30
0.0
  0
VERTEX
  5
87C
  8
0
  6
CONTINUOUS
 62
     7
 10
547.5208253684
 20
821.8815162157
 30
0.0
  0
VERTEX
  5
87D
  8
0
  6
CONTINUOUS
 62
     7
 10
547.8969977322
 20
821.9860180591
 30
0.0
  0
VERTEX
  5
87E
  8
0
  6
CONTINUOUS
 62
     7
 10
548.0932292613
 20
822.2511991237
 30
0.0
  0
VERTEX
  5
87F
  8
0
  6
CONTINUOUS
 62
     7
 10
548.2347381386
 20
822.6685508465
 30
0.0
  0
VERTEX
  5
880
  8
0
  6
CONTINUOUS
 62
     7
 10
548.3232324096
 20
823.2035025333
 30
0.0
  0
VERTEX
  5
881
  8
0
  6
CONTINUOUS
 62
     7
 10
548.3575497838
 20
823.812945125
 30
0.0
  0
SEQEND
  5
AD4
  8
0
  6
CONTINUOUS
 62
     7
  0
LINE
  5
36A
  8
0
  6
CONTINUOUS
 62
     7
 10
547.5147997113
 20
821.8815162157
 30
0.0
 11
546.4951728555
 21
821.8815162157
 31
0.0
  0
ARC
  5
36B
  8
0
  6
CONTINUOUS
 62
     7
 10
541.5018282236
 20
818.4567694679
 30
0.0
 40
9.31338027587529
 50
155.5594958502
 51
170.7542637675
  0
POLYLINE
  5
36C
  8
0
  6
CONTINUOUS
 62
     7
 66
     1
 10
0.0
 20
0.0
 30
0.0
 70
   128
  0
VERTEX
  5
882
  8
0
  6
CONTINUOUS
 62
     7
 10
532.3094443502
 20
819.9531420444
 30
0.0
  0
VERTEX
  5
883
  8
0
  6
CONTINUOUS
 62
     7
 10
525.5243780176
 20
821.0223748659
 30
0.0
  0
VERTEX
  5
884
  8
0
  6
CONTINUOUS
 62
     7
 10
523.4906451861
 20
821.2683632349
 30
0.0
  0
SEQEND
  5
AD5
  8
0
  6
CONTINUOUS
 62
     7
  0
ARC
  5
36D
  8
0
  6
CONTINUOUS
 62
     7
 10
554.2498976706
 20
817.980401892
 30
0.0
 40
30.93448404610717
 50
172.078697937
 51
173.8986269494
  0
LINE
  5
36E
  8
0
  6
CONTINUOUS
 62
     7
 10
489.1055111858
 20
823.5992773746
 30
0.0
 11
489.1055111858
 21
821.8815162157
 31
0.0
  0
LINE
  5
36F
  8
0
  6
CONTINUOUS
 62
     7
 10
489.1055111858
 20
821.8815162157
 30
0.0
 11
488.0858843299
 21
821.8815162157
 31
0.0
  0
POLYLINE
  5
370
  8
0
  6
CONTINUOUS
 62
     7
 66
     1
 10
0.0
 20
0.0
 30
0.0
 70
   128
  0
VERTEX
  5
885
  8
0
  6
CONTINUOUS
 62
     7
 10
487.2431342574
 20
823.812945125
 30
0.0
  0
VERTEX
  5
886
  8
0
  6
CONTINUOUS
 62
     7
 10
487.2774516317
 20
823.2035025333
 30
0.0
  0
VERTEX
  5
887
  8
0
  6
CONTINUOUS
 62
     7
 10
487.3659459027
 20
822.6685508465
 30
0.0
  0
VERTEX
  5
888
  8
0
  6
CONTINUOUS
 62
     7
 10
487.50745478
 20
822.2511991237
 30
0.0
  0
VERTEX
  5
889
  8
0
  6
CONTINUOUS
 62
     7
 10
487.7036863091
 20
821.9860180591
 30
0.0
  0
VERTEX
  5
88A
  8
0
  6
CONTINUOUS
 62
     7
 10
488.0798586729
 20
821.8815162157
 30
0.0
  0
VERTEX
  5
88B
  8
0
  6
CONTINUOUS
 62
     7
 10
488.0858843299
 20
821.8815162157
 30
0.0
  0
SEQEND
  5
AD6
  8
0
  6
CONTINUOUS
 62
     7
  0
POLYLINE
  5
371
  8
0
  6
CONTINUOUS
 62
     7
 66
     1
 10
0.0
 20
0.0
 30
0.0
 70
   128
  0
VERTEX
  5
88C
  8
0
  6
CONTINUOUS
 62
     7
 10
512.1100388552
 20
821.2683632349
 30
0.0
  0
VERTEX
  5
88D
  8
0
  6
CONTINUOUS
 62
     7
 10
509.9857707592
 20
821.0107668613
 30
0.0
  0
VERTEX
  5
88E
  8
0
  6
CONTINUOUS
 62
     7
 10
503.291239691
 20
819.9531420444
 30
0.0
  0
SEQEND
  5
AD7
  8
0
  6
CONTINUOUS
 62
     7
  0
ARC
  5
372
  8
0
  6
CONTINUOUS
 62
     7
 10
494.0988558177
 20
818.4567694679
 30
0.0
 40
9.313380275875241
 50
9.2457362325
 51
24.4405041498
  0
ARC
  5
373
  8
0
  6
CONTINUOUS
 62
     7
 10
481.3507863706
 20
817.980401892
 30
0.0
 40
30.93448404610712
 50
6.1013730506
 51
7.921302063
  0
POLYLINE
  5
374
  8
0
  6
CONTINUOUS
 62
     7
 66
     1
 10
0.0
 20
0.0
 30
0.0
 70
   128
  0
VERTEX
  5
88F
  8
0
  6
CONTINUOUS
 62
     7
 10
512.0967130261
 20
822.8937073921
 30
0.0
  0
VERTEX
  5
890
  8
0
  6
CONTINUOUS
 62
     7
 10
516.037204614
 20
822.2050204252
 30
0.0
  0
VERTEX
  5
891
  8
0
  6
CONTINUOUS
 62
     7
 10
517.7525652126
 20
821.8903079008
 30
0.0
  0
VERTEX
  5
892
  8
0
  6
CONTINUOUS
 62
     7
 10
517.8003420206
 20
821.8815162157
 30
0.0
  0
SEQEND
  5
AD8
  8
0
  6
CONTINUOUS
 62
     7
  0
POLYLINE
  5
375
  8
0
  6
CONTINUOUS
 62
     7
 66
     1
 10
0.0
 20
0.0
 30
0.0
 70
   128
  0
VERTEX
  5
893
  8
0
  6
CONTINUOUS
 62
     7
 10
511.9901026683
 20
822.2435697292
 30
0.0
  0
VERTEX
  5
894
  8
0
  6
CONTINUOUS
 62
     7
 10
515.9820011668
 20
822.0023199295
 30
0.0
  0
VERTEX
  5
895
  8
0
  6
CONTINUOUS
 62
     7
 10
517.6597649316
 20
821.8909188484
 30
0.0
  0
VERTEX
  5
896
  8
0
  6
CONTINUOUS
 62
     7
 10
517.749038585
 20
821.8849434828
 30
0.0
  0
VERTEX
  5
897
  8
0
  6
CONTINUOUS
 62
     7
 10
517.8003420206
 20
821.8815162157
 30
0.0
  0
SEQEND
  5
AD9
  8
0
  6
CONTINUOUS
 62
     7
  0
POLYLINE
  5
376
  8
0
  6
CONTINUOUS
 62
     7
 66
     1
 10
0.0
 20
0.0
 30
0.0
 70
   128
  0
VERTEX
  5
898
  8
0
  6
CONTINUOUS
 62
     7
 10
517.8003420206
 20
821.8815162157
 30
0.0
  0
VERTEX
  5
899
  8
0
  6
CONTINUOUS
 62
     7
 10
517.7503746036
 20
821.8762710069
 30
0.0
  0
VERTEX
  5
89A
  8
0
  6
CONTINUOUS
 62
     7
 10
517.3486643672
 20
821.8340709184
 30
0.0
  0
VERTEX
  5
89B
  8
0
  6
CONTINUOUS
 62
     7
 10
512.1100388552
 20
821.2683632349
 30
0.0
  0
SEQEND
  5
ADA
  8
0
  6
CONTINUOUS
 62
     7
  0
POLYLINE
  5
377
  8
0
  6
CONTINUOUS
 62
     7
 66
     1
 10
0.0
 20
0.0
 30
0.0
 70
   128
  0
VERTEX
  5
89C
  8
0
  6
CONTINUOUS
 62
     7
 10
493.1684617969
 20
821.8815162157
 30
0.0
  0
VERTEX
  5
89D
  8
0
  6
CONTINUOUS
 62
     7
 10
497.1237831833
 20
821.9733669733
 30
0.0
  0
VERTEX
  5
89E
  8
0
  6
CONTINUOUS
 62
     7
 10
502.5776770982
 20
822.3101630186
 30
0.0
  0
SEQEND
  5
ADB
  8
0
  6
CONTINUOUS
 62
     7
  0
LINE
  5
378
  8
0
  6
CONTINUOUS
 62
     7
 10
493.1684617969
 20
821.8815162157
 30
0.0
 11
489.1055111858
 21
821.8815162157
 31
0.0
  0
LINE
  5
379
  8
0
  6
CONTINUOUS
 62
     7
 10
546.4951728555
 20
821.8815162157
 30
0.0
 11
542.4322222444
 21
821.8815162157
 31
0.0
  0
POLYLINE
  5
37A
  8
0
  6
CONTINUOUS
 62
     7
 66
     1
 10
0.0
 20
0.0
 30
0.0
 70
   128
  0
VERTEX
  5
89F
  8
0
  6
CONTINUOUS
 62
     7
 10
533.0230069431
 20
822.3101630186
 30
0.0
  0
VERTEX
  5
8A0
  8
0
  6
CONTINUOUS
 62
     7
 10
536.9901822033
 20
822.0459207271
 30
0.0
  0
VERTEX
  5
8A1
  8
0
  6
CONTINUOUS
 62
     7
 10
542.4322222444
 20
821.8815162157
 30
0.0
  0
SEQEND
  5
ADC
  8
0
  6
CONTINUOUS
 62
     7
  0
POLYLINE
  5
37B
  8
0
  6
CONTINUOUS
 62
     7
 66
     1
 10
0.0
 20
0.0
 30
0.0
 70
   128
  0
VERTEX
  5
8A2
  8
0
  6
CONTINUOUS
 62
     7
 10
517.8003420206
 20
821.8815162157
 30
0.0
  0
VERTEX
  5
8A3
  8
0
  6
CONTINUOUS
 62
     7
 10
517.8516455799
 20
821.8849434828
 30
0.0
  0
VERTEX
  5
8A4
  8
0
  6
CONTINUOUS
 62
     7
 10
518.0705283038
 20
821.8995764231
 30
0.0
  0
VERTEX
  5
8A5
  8
0
  6
CONTINUOUS
 62
     7
 10
521.4869540269
 20
822.1213802074
 30
0.0
  0
VERTEX
  5
8A6
  8
0
  6
CONTINUOUS
 62
     7
 10
523.6105813729
 20
822.2435697292
 30
0.0
  0
SEQEND
  5
ADD
  8
0
  6
CONTINUOUS
 62
     7
  0
ARC
  5
37C
  8
0
  6
CONTINUOUS
 62
     7
 10
590.1875929836
 20
430.5601183281
 30
0.0
 40
397.9602373940175
 50
99.646187617
 51
100.4801977478
  0
POLYLINE
  5
37D
  8
0
  6
CONTINUOUS
 62
     7
 66
     1
 10
0.0
 20
0.0
 30
0.0
 70
   128
  0
VERTEX
  5
8A7
  8
0
  6
CONTINUOUS
 62
     7
 10
523.4906451861
 20
821.2683632349
 30
0.0
  0
VERTEX
  5
8A8
  8
0
  6
CONTINUOUS
 62
     7
 10
518.2520196741
 20
821.8340709184
 30
0.0
  0
VERTEX
  5
8A9
  8
0
  6
CONTINUOUS
 62
     7
 10
517.8503095795
 20
821.8762710069
 30
0.0
  0
VERTEX
  5
8AA
  8
0
  6
CONTINUOUS
 62
     7
 10
517.8003420206
 20
821.8815162157
 30
0.0
  0
SEQEND
  5
ADE
  8
0
  6
CONTINUOUS
 62
     7
  0
POLYLINE
  5
37E
  8
0
  6
CONTINUOUS
 62
     7
 66
     1
 10
0.0
 20
0.0
 30
0.0
 70
   128
  0
VERTEX
  5
8AB
  8
0
  6
CONTINUOUS
 62
     7
 10
503.291239691
 20
819.9531420444
 30
0.0
  0
VERTEX
  5
8AC
  8
0
  6
CONTINUOUS
 62
     7
 10
498.8047999414
 20
819.196923015
 30
0.0
  0
VERTEX
  5
8AD
  8
0
  6
CONTINUOUS
 62
     7
 10
494.3230819973
 20
818.881510136
 30
0.0
  0
SEQEND
  5
ADF
  8
0
  6
CONTINUOUS
 62
     7
  0
POLYLINE
  5
37F
  8
0
  6
CONTINUOUS
 62
     7
 66
     1
 10
0.0
 20
0.0
 30
0.0
 70
   128
  0
VERTEX
  5
8AE
  8
0
  6
CONTINUOUS
 62
     7
 10
541.277602044
 20
818.881510136
 30
0.0
  0
VERTEX
  5
8AF
  8
0
  6
CONTINUOUS
 62
     7
 10
536.8641258302
 20
819.1882207369
 30
0.0
  0
VERTEX
  5
8B0
  8
0
  6
CONTINUOUS
 62
     7
 10
532.3094443502
 20
819.9531420444
 30
0.0
  0
SEQEND
  5
AE0
  8
0
  6
CONTINUOUS
 62
     7
  0
LINE
  5
380
  8
0
  6
CONTINUOUS
 62
     7
 10
494.3230819973
 20
818.881510136
 30
0.0
 11
541.277602044
 21
818.881510136
 31
0.0
  0
ARC
  5
381
  8
0
  6
CONTINUOUS
 62
     7
 10
486.6263900968
 20
776.4047442289
 30
0.0
 40
47.4122124094638
 50
89.2546681057
 51
90.7453318943
  0
POLYLINE
  5
382
  8
0
  6
CONTINUOUS
 62
     7
 66
     1
 10
0.0
 20
0.0
 30
0.0
 70
   128
  0
VERTEX
  5
8B1
  8
0
  6
CONTINUOUS
 62
     7
 10
488.0858843299
 20
821.8815162157
 30
0.0
  0
VERTEX
  5
8B2
  8
0
  6
CONTINUOUS
 62
     7
 10
488.0743713203
 20
821.8815162157
 30
0.0
  0
VERTEX
  5
8B3
  8
0
  6
CONTINUOUS
 62
     7
 10
487.8880732777
 20
821.8841835235
 30
0.0
  0
VERTEX
  5
8B4
  8
0
  6
CONTINUOUS
 62
     7
 10
487.7095536413
 20
821.892826197
 30
0.0
  0
VERTEX
  5
8B5
  8
0
  6
CONTINUOUS
 62
     7
 10
487.3785690489
 20
821.9338192915
 30
0.0
  0
VERTEX
  5
8B6
  8
0
  6
CONTINUOUS
 62
     7
 10
486.841108379
 20
822.1250160908
 30
0.0
  0
VERTEX
  5
8B7
  8
0
  6
CONTINUOUS
 62
     7
 10
486.7015143009
 20
822.2170605635
 30
0.0
  0
VERTEX
  5
8B8
  8
0
  6
CONTINUOUS
 62
     7
 10
486.3633212718
 20
822.5769683098
 30
0.0
  0
VERTEX
  5
8B9
  8
0
  6
CONTINUOUS
 62
     7
 10
486.1053449186
 20
823.1525256609
 30
0.0
  0
VERTEX
  5
8BA
  8
0
  6
CONTINUOUS
 62
     7
 10
486.0102010044
 20
823.7926646446
 30
0.0
  0
VERTEX
  5
8BB
  8
0
  6
CONTINUOUS
 62
     7
 10
486.0096459361
 20
823.812945125
 30
0.0
  0
SEQEND
  5
AE1
  8
0
  6
CONTINUOUS
 62
     7
  0
ARC
  5
383
  8
0
  6
CONTINUOUS
 62
     7
 10
548.9742939445
 20
776.4047442289
 30
0.0
 40
47.4122124094638
 50
89.2546681057
 51
90.7453318943
  0
POLYLINE
  5
384
  8
0
  6
CONTINUOUS
 62
     7
 66
     1
 10
0.0
 20
0.0
 30
0.0
 70
   128
  0
VERTEX
  5
8BC
  8
0
  6
CONTINUOUS
 62
     7
 10
549.5910381051
 20
823.812945125
 30
0.0
  0
VERTEX
  5
8BD
  8
0
  6
CONTINUOUS
 62
     7
 10
549.5905128392
 20
823.7936481212
 30
0.0
  0
VERTEX
  5
8BE
  8
0
  6
CONTINUOUS
 62
     7
 10
549.4956036183
 20
823.1534793352
 30
0.0
  0
VERTEX
  5
8BF
  8
0
  6
CONTINUOUS
 62
     7
 10
549.2378805848
 20
822.5777431701
 30
0.0
  0
VERTEX
  5
8C0
  8
0
  6
CONTINUOUS
 62
     7
 10
548.8991697403
 20
822.2170605635
 30
0.0
  0
VERTEX
  5
8C1
  8
0
  6
CONTINUOUS
 62
     7
 10
548.7605367872
 20
822.1255674337
 30
0.0
  0
VERTEX
  5
8C2
  8
0
  6
CONTINUOUS
 62
     7
 10
548.2232120904
 20
821.9340279077
 30
0.0
  0
VERTEX
  5
8C3
  8
0
  6
CONTINUOUS
 62
     7
 10
547.8917413476
 20
821.8928709005
 30
0.0
  0
VERTEX
  5
8C4
  8
0
  6
CONTINUOUS
 62
     7
 10
547.7129311385
 20
821.8841984247
 30
0.0
  0
VERTEX
  5
8C5
  8
0
  6
CONTINUOUS
 62
     7
 10
547.526312721
 20
821.8815162157
 30
0.0
  0
VERTEX
  5
8C6
  8
0
  6
CONTINUOUS
 62
     7
 10
547.5147997113
 20
821.8815162157
 30
0.0
  0
SEQEND
  5
AE2
  8
0
  6
CONTINUOUS
 62
     7
  0
LINE
  5
385
  8
0
  6
CONTINUOUS
 62
     7
 10
486.0096459361
 20
823.812945125
 30
0.0
 11
486.0043634745
 21
823.8815053676
 31
0.0
  0
LINE
  5
386
  8
0
  6
CONTINUOUS
 62
     7
 10
549.5963205668
 20
823.8815053676
 30
0.0
 11
549.5910381051
 21
823.812945125
 31
0.0
  0
ARC
  5
387
  8
0
  6
CONTINUOUS
 62
     7
 10
553.8003420206
 20
841.8815113281
 30
0.0
 40
4.932743400441382
 50
180.0
 51
269.7739585912
  0
POLYLINE
  5
388
  8
0
  6
CONTINUOUS
 62
     7
 66
     1
 10
0.0
 20
0.0
 30
0.0
 70
   128
  0
VERTEX
  5
8C7
  8
0
  6
CONTINUOUS
 62
     7
 10
553.773097423
 20
834.9757178997
 30
0.0
  0
VERTEX
  5
8C8
  8
0
  6
CONTINUOUS
 62
     7
 10
553.7744757804
 20
835.3255673622
 30
0.0
  0
VERTEX
  5
8C9
  8
0
  6
CONTINUOUS
 62
     7
 10
553.7758168849
 20
835.6646134828
 30
0.0
  0
VERTEX
  5
8CA
  8
0
  6
CONTINUOUS
 62
     7
 10
553.7770685824
 20
835.9824105476
 30
0.0
  0
VERTEX
  5
8CB
  8
0
  6
CONTINUOUS
 62
     7
 10
553.7782010707
 20
836.2691833948
 30
0.0
  0
VERTEX
  5
8CC
  8
0
  6
CONTINUOUS
 62
     7
 10
553.7791733714
 20
836.5160658335
 30
0.0
  0
VERTEX
  5
8CD
  8
0
  6
CONTINUOUS
 62
     7
 10
553.7799594077
 20
836.7154582714
 30
0.0
  0
VERTEX
  5
8CE
  8
0
  6
CONTINUOUS
 62
     7
 10
553.7805368277
 20
836.861206529
 30
0.0
  0
VERTEX
  5
8CF
  8
0
  6
CONTINUOUS
 62
     7
 10
553.7808832797
 20
836.9488104557
 30
0.0
  0
SEQEND
  5
AE3
  8
0
  6
CONTINUOUS
 62
     7
  0
ARC
  5
389
  8
0
  6
CONTINUOUS
 62
     7
 10
553.8003420206
 20
841.8815113281
 30
0.0
 40
6.905840760617918
 50
243.4466763546
 51
269.7739585912
  0
POLYLINE
  5
38A
  8
0
  6
CONTINUOUS
 62
     7
 66
     1
 10
0.0
 20
0.0
 30
0.0
 70
   128
  0
VERTEX
  5
8D0
  8
0
  6
CONTINUOUS
 62
     7
 10
548.8431190225
 20
842.1962990736
 30
0.0
  0
VERTEX
  5
8D1
  8
0
  6
CONTINUOUS
 62
     7
 10
548.8665138456
 20
841.8939843153
 30
0.0
  0
VERTEX
  5
8D2
  8
0
  6
CONTINUOUS
 62
     7
 10
548.867597905
 20
841.8815120434
 30
0.0
  0
SEQEND
  5
AE4
  8
0
  6
CONTINUOUS
 62
     7
  0
POLYLINE
  5
38B
  8
0
  6
CONTINUOUS
 62
     7
 66
     1
 10
0.0
 20
0.0
 30
0.0
 70
   128
  0
VERTEX
  5
8D3
  8
0
  6
CONTINUOUS
 62
     7
 10
494.3230819973
 20
818.881510136
 30
0.0
  0
VERTEX
  5
8D4
  8
0
  6
CONTINUOUS
 62
     7
 10
494.3008960309
 20
819.4667830442
 30
0.0
  0
VERTEX
  5
8D5
  8
0
  6
CONTINUOUS
 62
     7
 10
494.2351912233
 20
820.029555199
 30
0.0
  0
VERTEX
  5
8D6
  8
0
  6
CONTINUOUS
 62
     7
 10
494.1284933212
 20
820.5482199167
 30
0.0
  0
VERTEX
  5
8D7
  8
0
  6
CONTINUOUS
 62
     7
 10
493.9849020066
 20
821.0028245424
 30
0.0
  0
VERTEX
  5
8D8
  8
0
  6
CONTINUOUS
 62
     7
 10
493.8099344345
 20
821.3759198164
 30
0.0
  0
VERTEX
  5
8D9
  8
0
  6
CONTINUOUS
 62
     7
 10
493.6103147539
 20
821.6531559204
 30
0.0
  0
VERTEX
  5
8DA
  8
0
  6
CONTINUOUS
 62
     7
 10
493.3937170627
 20
821.823863623
 30
0.0
  0
VERTEX
  5
8DB
  8
0
  6
CONTINUOUS
 62
     7
 10
493.1684617969
 20
821.8815162157
 30
0.0
  0
SEQEND
  5
AE5
  8
0
  6
CONTINUOUS
 62
     7
  0
POLYLINE
  5
38C
  8
0
  6
CONTINUOUS
 62
     7
 66
     1
 10
0.0
 20
0.0
 30
0.0
 70
   128
  0
VERTEX
  5
8DC
  8
0
  6
CONTINUOUS
 62
     7
 10
542.4322222444
 20
821.8815162157
 30
0.0
  0
VERTEX
  5
8DD
  8
0
  6
CONTINUOUS
 62
     7
 10
542.2069669786
 20
821.823863623
 30
0.0
  0
VERTEX
  5
8DE
  8
0
  6
CONTINUOUS
 62
     7
 10
541.9903692874
 20
821.6531559204
 30
0.0
  0
VERTEX
  5
8DF
  8
0
  6
CONTINUOUS
 62
     7
 10
541.7907496067
 20
821.3759198164
 30
0.0
  0
VERTEX
  5
8E0
  8
0
  6
CONTINUOUS
 62
     7
 10
541.6157820346
 20
821.0028245424
 30
0.0
  0
VERTEX
  5
8E1
  8
0
  6
CONTINUOUS
 62
     7
 10
541.4721907201
 20
820.5482199167
 30
0.0
  0
VERTEX
  5
8E2
  8
0
  6
CONTINUOUS
 62
     7
 10
541.365492818
 20
820.029555199
 30
0.0
  0
VERTEX
  5
8E3
  8
0
  6
CONTINUOUS
 62
     7
 10
541.2997880104
 20
819.4667830442
 30
0.0
  0
VERTEX
  5
8E4
  8
0
  6
CONTINUOUS
 62
     7
 10
541.277602044
 20
818.881510136
 30
0.0
  0
SEQEND
  5
AE6
  8
0
  6
CONTINUOUS
 62
     7
  0
POLYLINE
  5
38D
  8
0
  6
CONTINUOUS
 62
     7
 66
     1
 10
0.0
 20
0.0
 30
0.0
 70
   128
  0
VERTEX
  5
8E5
  8
0
  6
CONTINUOUS
 62
     7
 10
481.8198007616
 20
836.9488104557
 30
0.0
  0
VERTEX
  5
8E6
  8
0
  6
CONTINUOUS
 62
     7
 10
481.8201472136
 20
836.861206529
 30
0.0
  0
VERTEX
  5
8E7
  8
0
  6
CONTINUOUS
 62
     7
 10
481.8207246336
 20
836.7154582714
 30
0.0
  0
VERTEX
  5
8E8
  8
0
  6
CONTINUOUS
 62
     7
 10
481.8215106698
 20
836.5160658335
 30
0.0
  0
VERTEX
  5
8E9
  8
0
  6
CONTINUOUS
 62
     7
 10
481.8224829706
 20
836.2691833948
 30
0.0
  0
VERTEX
  5
8EA
  8
0
  6
CONTINUOUS
 62
     7
 10
481.8236154588
 20
835.9824105476
 30
0.0
  0
VERTEX
  5
8EB
  8
0
  6
CONTINUOUS
 62
     7
 10
481.8248671564
 20
835.6646134828
 30
0.0
  0
VERTEX
  5
8EC
  8
0
  6
CONTINUOUS
 62
     7
 10
481.8262082609
 20
835.3255673622
 30
0.0
  0
VERTEX
  5
8ED
  8
0
  6
CONTINUOUS
 62
     7
 10
481.8275866183
 20
834.9757178997
 30
0.0
  0
SEQEND
  5
AE7
  8
0
  6
CONTINUOUS
 62
     7
  0
ARC
  5
38E
  8
0
  6
CONTINUOUS
 62
     7
 10
481.8003420206
 20
841.8815113281
 30
0.0
 40
4.932743400441382
 50
270.2260414088
 51
0.0
  0
POLYLINE
  5
38F
  8
0
  6
CONTINUOUS
 62
     7
 66
     1
 10
0.0
 20
0.0
 30
0.0
 70
   128
  0
VERTEX
  5
8EE
  8
0
  6
CONTINUOUS
 62
     7
 10
486.7330861362
 20
841.8815120434
 30
0.0
  0
VERTEX
  5
8EF
  8
0
  6
CONTINUOUS
 62
     7
 10
486.7341701957
 20
841.8939843153
 30
0.0
  0
VERTEX
  5
8F0
  8
0
  6
CONTINUOUS
 62
     7
 10
486.7575650188
 20
842.1962990736
 30
0.0
  0
SEQEND
  5
AE8
  8
0
  6
CONTINUOUS
 62
     7
  0
ARC
  5
390
  8
0
  6
CONTINUOUS
 62
     7
 10
481.8003420206
 20
841.8815113281
 30
0.0
 40
6.905840760617893
 50
270.2260414088
 51
296.5533236454
  0
LINE
  5
391
  8
0
  6
CONTINUOUS
 62
     7
 10
464.309449968
 20
834.8815127586
 30
0.0
 11
465.6467211517
 21
834.8815127586
 31
0.0
  0
ARC
  5
392
  8
0
  6
CONTINUOUS
 62
     7
 10
466.0602068994
 20
835.1579714091
 30
0.0
 40
1.772450060908738
 50
103.4905421301
 51
188.9733720423
  0
LINE
  5
393
  8
0
  6
CONTINUOUS
 62
     7
 10
465.6467211517
 20
836.8815168117
 30
0.0
 11
465.6467211517
 21
834.8815127586
 31
0.0
  0
LINE
  5
394
  8
0
  6
CONTINUOUS
 62
     7
 10
474.1176252338
 20
836.8815168117
 30
0.0
 11
474.1176252338
 21
834.8815127586
 31
0.0
  0
LINE
  5
395
  8
0
  6
CONTINUOUS
 62
     7
 10
474.1176252338
 20
834.8815127586
 30
0.0
 11
465.6467211517
 21
834.8815127586
 31
0.0
  0
LINE
  5
396
  8
0
  6
CONTINUOUS
 62
     7
 10
465.6467211517
 20
836.8815168117
 30
0.0
 11
474.1176252338
 21
836.8815168117
 31
0.0
  0
LINE
  5
397
  8
0
  6
CONTINUOUS
 62
     7
 10
464.309449968
 20
823.8815053676
 30
0.0
 11
464.309449968
 21
834.8815127586
 31
0.0
  0
LINE
  5
398
  8
0
  6
CONTINUOUS
 62
     7
 10
465.6467211517
 20
834.8815127586
 30
0.0
 11
465.6467211517
 21
823.8815053676
 31
0.0
  0
LINE
  5
399
  8
0
  6
CONTINUOUS
 62
     7
 10
464.309449968
 20
823.8815053676
 30
0.0
 11
465.6467211517
 21
823.8815053676
 31
0.0
  0
POLYLINE
  5
39A
  8
0
  6
CONTINUOUS
 62
     7
 66
     1
 10
0.0
 20
0.0
 30
0.0
 70
   128
  0
VERTEX
  5
8F1
  8
0
  6
CONTINUOUS
 62
     7
 10
477.6586067947
 20
834.9600120758
 30
0.0
  0
VERTEX
  5
8F2
  8
0
  6
CONTINUOUS
 62
     7
 10
477.6176248761
 20
834.9598332619
 30
0.0
  0
VERTEX
  5
8F3
  8
0
  6
CONTINUOUS
 62
     7
 10
474.1176252338
 20
834.8815127586
 30
0.0
  0
SEQEND
  5
AE9
  8
0
  6
CONTINUOUS
 62
     7
  0
LINE
  5
39B
  8
0
  6
CONTINUOUS
 62
     7
 10
481.8275866183
 20
834.9757178997
 30
0.0
 11
477.6586067947
 21
834.9600120758
 31
0.0
  0
LINE
  5
39C
  8
0
  6
CONTINUOUS
 62
     7
 10
465.6467211517
 20
823.8815053676
 30
0.0
 11
486.0043634745
 21
823.8815053676
 31
0.0
  0
LINE
  5
39D
  8
0
  6
CONTINUOUS
 62
     7
 10
465.6467211517
 20
823.8815053676
 30
0.0
 11
465.6467211517
 21
821.8815162157
 31
0.0
  0
ARC
  5
39E
  8
0
  6
CONTINUOUS
 62
     7
 10
466.060169668
 20
823.6050346642
 30
0.0
 40
1.772415165213622
 50
171.0260553722
 51
256.5104249515
  0
LINE
  5
39F
  8
0
  6
CONTINUOUS
 62
     7
 10
488.0858843299
 20
821.8815162157
 30
0.0
 11
465.6467211517
 21
821.8815162157
 31
0.0
  0
LINE
  5
3A0
  8
0
  6
CONTINUOUS
 62
     7
 10
474.1176252338
 20
836.8815168117
 30
0.0
 11
477.6514952155
 21
836.9375749801
 31
0.0
  0
POLYLINE
  5
3A1
  8
0
  6
CONTINUOUS
 62
     7
 66
     1
 10
0.0
 20
0.0
 30
0.0
 70
   128
  0
VERTEX
  5
8F4
  8
0
  6
CONTINUOUS
 62
     7
 10
477.6514952155
 20
836.9375749801
 30
0.0
  0
VERTEX
  5
8F5
  8
0
  6
CONTINUOUS
 62
     7
 10
477.6517969641
 20
836.8537112449
 30
0.0
  0
VERTEX
  5
8F6
  8
0
  6
CONTINUOUS
 62
     7
 10
477.6523147794
 20
836.7102577661
 30
0.0
  0
VERTEX
  5
8F7
  8
0
  6
CONTINUOUS
 62
     7
 10
477.6530263099
 20
836.5117295955
 30
0.0
  0
VERTEX
  5
8F8
  8
0
  6
CONTINUOUS
 62
     7
 10
477.6539166542
 20
836.2643852209
 30
0.0
  0
VERTEX
  5
8F9
  8
0
  6
CONTINUOUS
 62
     7
 10
477.6549522849
 20
835.9759881471
 30
0.0
  0
VERTEX
  5
8FA
  8
0
  6
CONTINUOUS
 62
     7
 10
477.6561033996
 20
835.6556280826
 30
0.0
  0
VERTEX
  5
8FB
  8
0
  6
CONTINUOUS
 62
     7
 10
477.6573364707
 20
835.3133782123
 30
0.0
  0
VERTEX
  5
8FC
  8
0
  6
CONTINUOUS
 62
     7
 10
477.6586067947
 20
834.9600120758
 30
0.0
  0
SEQEND
  5
AEA
  8
0
  6
CONTINUOUS
 62
     7
  0
LINE
  5
3A2
  8
0
  6
CONTINUOUS
 62
     7
 10
477.6514952155
 20
836.9375749801
 30
0.0
 11
481.8198007616
 21
836.9488104557
 31
0.0
  0
LINE
  5
3A3
  8
0
  6
CONTINUOUS
 62
     7
 10
557.9420772465
 20
834.9600120758
 30
0.0
 11
553.773097423
 21
834.9757178997
 31
0.0
  0
LINE
  5
3A4
  8
0
  6
CONTINUOUS
 62
     7
 10
561.4830588075
 20
834.8815127586
 30
0.0
 11
557.9420772465
 21
834.9600120758
 31
0.0
  0
LINE
  5
3A5
  8
0
  6
CONTINUOUS
 62
     7
 10
569.9539628896
 20
834.8815127586
 30
0.0
 11
561.4830588075
 21
834.8815127586
 31
0.0
  0
LINE
  5
3A6
  8
0
  6
CONTINUOUS
 62
     7
 10
569.9539628896
 20
823.8815053676
 30
0.0
 11
569.9539628896
 21
834.8815127586
 31
0.0
  0
LINE
  5
3A7
  8
0
  6
CONTINUOUS
 62
     7
 10
549.5963205668
 20
823.8815053676
 30
0.0
 11
569.9539628896
 21
823.8815053676
 31
0.0
  0
LINE
  5
3A8
  8
0
  6
CONTINUOUS
 62
     7
 10
553.7808832797
 20
836.9488104557
 30
0.0
 11
557.9491888257
 21
836.9375749801
 31
0.0
  0
POLYLINE
  5
3A9
  8
0
  6
CONTINUOUS
 62
     7
 66
     1
 10
0.0
 20
0.0
 30
0.0
 70
   128
  0
VERTEX
  5
8FD
  8
0
  6
CONTINUOUS
 62
     7
 10
557.9420772465
 20
834.9600120758
 30
0.0
  0
VERTEX
  5
8FE
  8
0
  6
CONTINUOUS
 62
     7
 10
557.9433475705
 20
835.3133782123
 30
0.0
  0
VERTEX
  5
8FF
  8
0
  6
CONTINUOUS
 62
     7
 10
557.9445806416
 20
835.6556280826
 30
0.0
  0
VERTEX
  5
900
  8
0
  6
CONTINUOUS
 62
     7
 10
557.9457317563
 20
835.9759881471
 30
0.0
  0
VERTEX
  5
901
  8
0
  6
CONTINUOUS
 62
     7
 10
557.946767387
 20
836.2643852209
 30
0.0
  0
VERTEX
  5
902
  8
0
  6
CONTINUOUS
 62
     7
 10
557.9476577314
 20
836.5117295955
 30
0.0
  0
VERTEX
  5
903
  8
0
  6
CONTINUOUS
 62
     7
 10
557.9483692619
 20
836.7102577661
 30
0.0
  0
VERTEX
  5
904
  8
0
  6
CONTINUOUS
 62
     7
 10
557.9488870772
 20
836.8537112449
 30
0.0
  0
VERTEX
  5
905
  8
0
  6
CONTINUOUS
 62
     7
 10
557.9491888257
 20
836.9375749801
 30
0.0
  0
SEQEND
  5
AEB
  8
0
  6
CONTINUOUS
 62
     7
  0
LINE
  5
3AA
  8
0
  6
CONTINUOUS
 62
     7
 10
569.9539628896
 20
821.8815162157
 30
0.0
 11
569.9539628896
 21
823.8815053676
 31
0.0
  0
LINE
  5
3AB
  8
0
  6
CONTINUOUS
 62
     7
 10
569.9539628896
 20
821.8815162157
 30
0.0
 11
547.5147997113
 21
821.8815162157
 31
0.0
  0
POLYLINE
  5
3AC
  8
0
  6
CONTINUOUS
 62
     7
 66
     1
 10
0.0
 20
0.0
 30
0.0
 70
   128
  0
VERTEX
  5
906
  8
0
  6
CONTINUOUS
 62
     7
 10
557.9491888257
 20
836.9375749801
 30
0.0
  0
VERTEX
  5
907
  8
0
  6
CONTINUOUS
 62
     7
 10
557.9922122034
 20
836.9374557709
 30
0.0
  0
VERTEX
  5
908
  8
0
  6
CONTINUOUS
 62
     7
 10
561.4830588075
 20
836.8815168117
 30
0.0
  0
SEQEND
  5
AEC
  8
0
  6
CONTINUOUS
 62
     7
  0
LINE
  5
3AD
  8
0
  6
CONTINUOUS
 62
     7
 10
561.4830588075
 20
834.8815127586
 30
0.0
 11
561.4830588075
 21
836.8815168117
 31
0.0
  0
LINE
  5
3AE
  8
0
  6
CONTINUOUS
 62
     7
 10
561.4830588075
 20
836.8815168117
 30
0.0
 11
569.9539628896
 21
836.8815168117
 31
0.0
  0
LINE
  5
3AF
  8
0
  6
CONTINUOUS
 62
     7
 10
569.9539628896
 20
834.8815127586
 30
0.0
 11
569.9539628896
 21
836.8815168117
 31
0.0
  0
ARC
  5
3B0
  8
0
  6
CONTINUOUS
 62
     7
 10
569.5404771418
 20
835.1579714091
 30
0.0
 40
1.77245006090885
 50
351.0266279577
 51
76.5094578699
  0
LINE
  5
3B1
  8
0
  6
CONTINUOUS
 62
     7
 10
569.9539628896
 20
834.8815127586
 30
0.0
 11
571.2912340733
 21
834.8815127586
 31
0.0
  0
LINE
  5
3B2
  8
0
  6
CONTINUOUS
 62
     7
 10
571.2912340733
 20
834.8815127586
 30
0.0
 11
571.2912340733
 21
823.8815053676
 31
0.0
  0
LINE
  5
3B3
  8
0
  6
CONTINUOUS
 62
     7
 10
569.9539628896
 20
823.8815053676
 30
0.0
 11
571.2912340733
 21
823.8815053676
 31
0.0
  0
ARC
  5
3B4
  8
0
  6
CONTINUOUS
 62
     7
 10
569.5405143733
 20
823.6050346642
 30
0.0
 40
1.772415165213735
 50
283.4895750485
 51
8.9739446278
  0
ARC
  5
3B5
  8
0
  6
CONTINUOUS
 62
     7
 10
458.8642363531
 20
835.0933389401
 30
0.0
 40
1.809819403085351
 50
98.8694711592
 51
186.7214599453
  0
LINE
  5
3B6
  8
0
  6
CONTINUOUS
 62
     7
 10
458.5851912471
 20
836.8815168117
 30
0.0
 11
465.6467211517
 21
836.8815168117
 31
0.0
  0
LINE
  5
3B7
  8
0
  6
CONTINUOUS
 62
     7
 10
464.309449968
 20
834.8815127586
 30
0.0
 11
457.0668560537
 21
834.8815127586
 31
0.0
  0
LINE
  5
3B8
  8
0
  6
CONTINUOUS
 62
     7
 10
457.0668560537
 20
834.8815127586
 30
0.0
 11
457.0668560537
 21
823.8815053676
 31
0.0
  0
LINE
  5
3B9
  8
0
  6
CONTINUOUS
 62
     7
 10
457.0668560537
 20
823.8815053676
 30
0.0
 11
464.309449968
 21
823.8815053676
 31
0.0
  0
ARC
  5
3BA
  8
0
  6
CONTINUOUS
 62
     7
 10
458.8642020975
 20
823.6696665033
 30
0.0
 40
1.809786867436296
 50
173.278014356
 51
261.1314657202
  0
LINE
  5
3BB
  8
0
  6
CONTINUOUS
 62
     7
 10
465.6467211517
 20
821.8815162157
 30
0.0
 11
458.5851912471
 21
821.8815162157
 31
0.0
  0
LINE
  5
3BC
  8
0
  6
CONTINUOUS
 62
     7
 10
569.9539628896
 20
836.8815168117
 30
0.0
 11
577.0154927942
 21
836.8815168117
 31
0.0
  0
ARC
  5
3BD
  8
0
  6
CONTINUOUS
 62
     7
 10
576.7364476882
 20
835.0933389401
 30
0.0
 40
1.809819403085318
 50
353.2785400547
 51
81.1305288408
  0
LINE
  5
3BE
  8
0
  6
CONTINUOUS
 62
     7
 10
578.5338279876
 20
834.8815127586
 30
0.0
 11
571.2912340733
 21
834.8815127586
 31
0.0
  0
LINE
  5
3BF
  8
0
  6
CONTINUOUS
 62
     7
 10
578.5338279876
 20
823.8815053676
 30
0.0
 11
578.5338279876
 21
834.8815127586
 31
0.0
  0
LINE
  5
3C0
  8
0
  6
CONTINUOUS
 62
     7
 10
571.2912340733
 20
823.8815053676
 30
0.0
 11
578.5338279876
 21
823.8815053676
 31
0.0
  0
ARC
  5
3C1
  8
0
  6
CONTINUOUS
 62
     7
 10
576.7364819438
 20
823.6696665033
 30
0.0
 40
1.809786867436199
 50
278.8685342798
 51
6.721985644
  0
LINE
  5
3C2
  8
0
  6
CONTINUOUS
 62
     7
 10
577.0154927942
 20
821.8815162157
 30
0.0
 11
569.9539628896
 21
821.8815162157
 31
0.0
  0
ARC
  5
3C3
  8
0
  6
CONTINUOUS
 62
     7
 10
429.3133716403
 20
885.6307800778
 30
0.0
 40
52.62081535090075
 50
358.6396125013
 51
4.0874217786
  0
LINE
  5
3C4
  8
0
  6
CONTINUOUS
 62
     7
 10
481.9193554195
 20
884.3815087651
 30
0.0
 11
477.75273743
 21
884.3815087651
 31
0.0
  0
ARC
  5
3C5
  8
0
  6
CONTINUOUS
 62
     7
 10
425.1494992835
 20
885.6308063266
 30
0.0
 40
52.61807111525462
 50
358.6395129482
 51
4.0876066606
  0
LINE
  5
3C6
  8
0
  6
CONTINUOUS
 62
     7
 10
486.8003425273
 20
884.3815087651
 30
0.0
 11
481.9193554195
 21
884.3815087651
 31
0.0
  0
LINE
  5
3C7
  8
0
  6
CONTINUOUS
 62
     7
 10
481.9193554195
 20
841.8815120434
 30
0.0
 11
486.7330861362
 21
841.8815120434
 31
0.0
  0
LINE
  5
3C8
  8
0
  6
CONTINUOUS
 62
     7
 10
481.9193554195
 20
841.8815120434
 30
0.0
 11
481.9193554195
 21
884.3815087651
 31
0.0
  0
LINE
  5
3C9
  8
0
  6
CONTINUOUS
 62
     7
 10
486.8003425273
 20
843.5683979963
 30
0.0
 11
486.8003425273
 21
842.8474649166
 31
0.0
  0
ARC
  5
3CA
  8
0
  6
CONTINUOUS
 62
     7
 10
606.2873124009
 20
885.6307800778
 30
0.0
 40
52.62081535086788
 50
175.9125782214
 51
181.3603874987
  0
LINE
  5
3CB
  8
0
  6
CONTINUOUS
 62
     7
 10
553.6813286217
 20
884.3815087651
 30
0.0
 11
548.800341514
 21
884.3815087651
 31
0.0
  0
LINE
  5
3CC
  8
0
  6
CONTINUOUS
 62
     7
 10
548.867597905
 20
841.8815120434
 30
0.0
 11
553.6813286217
 21
841.8815120434
 31
0.0
  0
LINE
  5
3CD
  8
0
  6
CONTINUOUS
 62
     7
 10
553.6813286217
 20
884.3815087651
 30
0.0
 11
553.6813286217
 21
841.8815120434
 31
0.0
  0
LINE
  5
3CE
  8
0
  6
CONTINUOUS
 62
     7
 10
548.800341514
 20
842.8474649166
 30
0.0
 11
548.800341514
 21
843.5683979963
 31
0.0
  0
LINE
  5
3CF
  8
0
  6
CONTINUOUS
 62
     7
 10
557.8479466113
 20
884.3815087651
 30
0.0
 11
553.6813286217
 21
884.3815087651
 31
0.0
  0
ARC
  5
3D0
  8
0
  6
CONTINUOUS
 62
     7
 10
610.4511847577
 20
885.6308063266
 30
0.0
 40
52.61807111525457
 50
175.9123933394
 51
181.3604870518
  0
LINE
  5
3D1
  8
0
  6
CONTINUOUS
 62
     7
 10
494.3230819973
 20
818.881510136
 30
0.0
 11
473.7170820209
 21
818.881510136
 31
0.0
  0
LINE
  5
3D2
  8
0
  6
CONTINUOUS
 62
     7
 10
561.8836020204
 20
818.881510136
 30
0.0
 11
541.277602044
 21
818.881510136
 31
0.0
  0
LINE
  5
3D3
  8
0
  6
CONTINUOUS
 62
     7
 10
477.75273743
 20
884.3815087651
 30
0.0
 11
475.8003425869
 21
884.3815087651
 31
0.0
  0
ARC
  5
3D4
  8
0
  6
CONTINUOUS
 62
     7
 10
470.8003420206
 20
884.3815113281
 30
0.0
 40
5.0
 50
0.0
 51
90.0
  0
LINE
  5
3D5
  8
0
  6
CONTINUOUS
 62
     7
 10
559.8003414544
 20
884.3815087651
 30
0.0
 11
557.8479466113
 21
884.3815087651
 31
0.0
  0
ARC
  5
3D6
  8
0
  6
CONTINUOUS
 62
     7
 10
564.8003420206
 20
884.3815113281
 30
0.0
 40
5.0
 50
90.0
 51
180.0
  0
LINE
  5
3D7
  8
0
  6
CONTINUOUS
 62
     7
 10
557.8479466113
 20
841.8815120434
 30
0.0
 11
559.8003414544
 21
841.8815120434
 31
0.0
  0
ARC
  5
3D8
  8
0
  6
CONTINUOUS
 62
     7
 10
564.8003420206
 20
841.8815113281
 30
0.0
 40
5.0
 50
180.0
 51
270.0
  0
ARC
  5
3D9
  8
0
  6
CONTINUOUS
 62
     7
 10
629.6798149568
 20
840.8794838311
 30
0.0
 40
71.83885696849856
 50
179.2007967314
 51
183.1454875663
  0
ARC
  5
3DA
  8
0
  6
CONTINUOUS
 62
     7
 10
470.8003420206
 20
841.8815113281
 30
0.0
 40
5.0
 50
270.0
 51
0.0
  0
LINE
  5
3DB
  8
0
  6
CONTINUOUS
 62
     7
 10
475.8003425869
 20
841.8815120434
 30
0.0
 11
477.75273743
 21
841.8815120434
 31
0.0
  0
ARC
  5
3DC
  8
0
  6
CONTINUOUS
 62
     7
 10
405.9208690845
 20
840.8794838311
 30
0.0
 40
71.83885696853471
 50
356.8545124337
 51
0.7992032686
  0
LINE
  5
3DD
  8
0
  6
CONTINUOUS
 62
     7
 10
477.75273743
 20
841.8815120434
 30
0.0
 11
481.9193554195
 21
841.8815120434
 31
0.0
  0
ARC
  5
3DE
  8
0
  6
CONTINUOUS
 62
     7
 10
408.1785676909
 20
840.9024361643
 30
0.0
 40
73.74728716647148
 50
356.9268738525
 51
0.7606864723
  0
ARC
  5
3DF
  8
0
  6
CONTINUOUS
 62
     7
 10
627.4221163503
 20
840.9024361643
 30
0.0
 40
73.74728716643978
 50
179.2393135277
 51
183.0731261475
  0
LINE
  5
3E0
  8
0
  6
CONTINUOUS
 62
     7
 10
553.6813286217
 20
841.8815120434
 30
0.0
 11
557.8479466113
 21
841.8815120434
 31
0.0
  0
LINE
  5
3E1
  8
0
  6
CONTINUOUS
 62
     7
 10
477.75273743
 20
884.3815087651
 30
0.0
 11
477.75273743
 21
841.8815120434
 31
0.0
  0
LINE
  5
3E2
  8
0
  6
CONTINUOUS
 62
     7
 10
557.8479466113
 20
841.8815120434
 30
0.0
 11
557.8479466113
 21
884.3815087651
 31
0.0
  0
LINE
  5
3E3
  8
0
  6
CONTINUOUS
 62
     7
 10
475.8003425869
 20
841.8815120434
 30
0.0
 11
475.8003425869
 21
884.3815087651
 31
0.0
  0
LINE
  5
3E4
  8
0
  6
CONTINUOUS
 62
     7
 10
559.8003414544
 20
884.3815087651
 30
0.0
 11
559.8003414544
 21
841.8815120434
 31
0.0
  0
ARC
  5
3E5
  8
0
  6
CONTINUOUS
 62
     7
 10
475.9058202854
 20
790.8966138808
 30
0.0
 40
46.53353842623709
 50
94.359541549
 51
98.8069223247
  0
POLYLINE
  5
3E6
  8
0
  6
CONTINUOUS
 62
     7
 66
     1
 10
0.0
 20
0.0
 30
0.0
 70
   128
  0
VERTEX
  5
909
  8
0
  6
CONTINUOUS
 62
     7
 10
563.2321086797
 20
837.2955157732
 30
0.0
  0
VERTEX
  5
90A
  8
0
  6
CONTINUOUS
 62
     7
 10
563.8542358848
 20
837.2421696161
 30
0.0
  0
VERTEX
  5
90B
  8
0
  6
CONTINUOUS
 62
     7
 10
564.9906580421
 20
837.0681985592
 30
0.0
  0
VERTEX
  5
90C
  8
0
  6
CONTINUOUS
 62
     7
 10
566.3264726373
 20
836.899472711
 30
0.0
  0
VERTEX
  5
90D
  8
0
  6
CONTINUOUS
 62
     7
 10
566.8193918737
 20
836.8815168117
 30
0.0
  0
SEQEND
  5
AED
  8
0
  6
CONTINUOUS
 62
     7
  0
ARC
  5
3E7
  8
0
  6
CONTINUOUS
 62
     7
 10
469.1664386151
 20
841.5761350529
 30
0.0
 40
5.345781623053513
 50
306.7984928662
 51
3.2747957219
  0
LINE
  5
3E8
  8
0
  6
CONTINUOUS
 62
     7
 10
474.5034908029
 20
841.8815120434
 30
0.0
 11
474.5034908029
 21
844.881518123
 31
0.0
  0
LINE
  5
3E9
  8
0
  6
CONTINUOUS
 62
     7
 10
561.0971932384
 20
844.881518123
 30
0.0
 11
561.0971932384
 21
841.8815120434
 31
0.0
  0
ARC
  5
3EA
  8
0
  6
CONTINUOUS
 62
     7
 10
566.4342454262
 20
841.5761350529
 30
0.0
 40
5.345781623053513
 50
176.7252042781
 51
233.2015071338
  0
LINE
  5
3EB
  8
0
  6
CONTINUOUS
 62
     7
 10
561.0971932384
 20
841.8815120434
 30
0.0
 11
566.7980087074
 21
841.8815120434
 31
0.0
  0
ARC
  5
3EC
  8
0
  6
CONTINUOUS
 62
     7
 10
571.3663315824
 20
841.4379900254
 30
0.0
 40
4.589802356382762
 50
174.4547382899
 51
263.0909893127
  0
ARC
  5
3ED
  8
0
  6
CONTINUOUS
 62
     7
 10
464.2343524589
 20
841.4379900254
 30
0.0
 40
4.589802356382664
 50
276.9090106873
 51
5.5452617101
  0
LINE
  5
3EE
  8
0
  6
CONTINUOUS
 62
     7
 10
468.8026753339
 20
841.8815120434
 30
0.0
 11
474.5034908029
 21
841.8815120434
 31
0.0
  0
LINE
  5
3EF
  8
0
  6
CONTINUOUS
 62
     7
 10
458.800341663
 20
846.881507275
 30
0.0
 11
475.9230610999
 21
846.881507275
 31
0.0
  0
LINE
  5
3F0
  8
0
  6
CONTINUOUS
 62
     7
 10
559.6776229414
 20
846.881507275
 30
0.0
 11
576.8003423783
 21
846.881507275
 31
0.0
  0
LINE
  5
3F1
  8
0
  6
CONTINUOUS
 62
     7
 10
432.8003411266
 20
907.348281083
 30
0.0
 11
432.8003411266
 21
912.3815096294
 31
0.0
  0
LINE
  5
3F2
  8
0
  6
CONTINUOUS
 62
     7
 10
433.3906282755
 20
912.3815096294
 30
0.0
 11
432.8003411266
 21
912.3815096294
 31
0.0
  0
LINE
  5
3F3
  8
0
  6
CONTINUOUS
 62
     7
 10
432.8003411266
 20
912.3815096294
 30
0.0
 11
432.8003411266
 21
922.3815112685
 31
0.0
  0
POLYLINE
  5
3F4
  8
0
  6
CONTINUOUS
 62
     7
 66
     1
 10
0.0
 20
0.0
 30
0.0
 70
   128
  0
VERTEX
  5
90E
  8
0
  6
CONTINUOUS
 62
     7
 10
423.597637293
 20
1166.8815150236
 30
0.0
  0
VERTEX
  5
90F
  8
0
  6
CONTINUOUS
 62
     7
 10
423.5516895624
 20
1168.1162699436
 30
0.0
  0
VERTEX
  5
910
  8
0
  6
CONTINUOUS
 62
     7
 10
423.4175642105
 20
1169.2509933685
 30
0.0
  0
VERTEX
  5
911
  8
0
  6
CONTINUOUS
 62
     7
 10
423.2061316344
 20
1170.1937600349
 30
0.0
  0
VERTEX
  5
912
  8
0
  6
CONTINUOUS
 62
     7
 10
422.9345207187
 20
1170.8681865906
 30
0.0
  0
VERTEX
  5
913
  8
0
  6
CONTINUOUS
 62
     7
 10
422.6247330281
 20
1171.2196304773
 30
0.0
  0
VERTEX
  5
914
  8
0
  6
CONTINUOUS
 62
     7
 10
422.4414785477
 20
1171.2634398912
 30
0.0
  0
SEQEND
  5
AEE
  8
0
  6
CONTINUOUS
 62
     7
  0
POLYLINE
  5
3F5
  8
0
  6
CONTINUOUS
 62
     7
 66
     1
 10
0.0
 20
0.0
 30
0.0
 70
   128
  0
VERTEX
  5
915
  8
0
  6
CONTINUOUS
 62
     7
 10
422.4009995433
 20
1162.5053867077
 30
0.0
  0
VERTEX
  5
916
  8
0
  6
CONTINUOUS
 62
     7
 10
422.6247330281
 20
1162.5433846687
 30
0.0
  0
VERTEX
  5
917
  8
0
  6
CONTINUOUS
 62
     7
 10
422.9345207187
 20
1162.8948285555
 30
0.0
  0
VERTEX
  5
918
  8
0
  6
CONTINUOUS
 62
     7
 10
423.2061316344
 20
1163.5692551111
 30
0.0
  0
VERTEX
  5
919
  8
0
  6
CONTINUOUS
 62
     7
 10
423.4175642105
 20
1164.5120217775
 30
0.0
  0
VERTEX
  5
91A
  8
0
  6
CONTINUOUS
 62
     7
 10
423.5516895624
 20
1165.6467452024
 30
0.0
  0
VERTEX
  5
91B
  8
0
  6
CONTINUOUS
 62
     7
 10
423.597637293
 20
1166.8815150236
 30
0.0
  0
SEQEND
  5
AEF
  8
0
  6
CONTINUOUS
 62
     7
  0
POLYLINE
  5
3F6
  8
0
  6
CONTINUOUS
 62
     7
 66
     1
 10
0.0
 20
0.0
 30
0.0
 70
   128
  0
VERTEX
  5
91C
  8
0
  6
CONTINUOUS
 62
     7
 10
423.8847826692
 20
1166.8815150236
 30
0.0
  0
VERTEX
  5
91D
  8
0
  6
CONTINUOUS
 62
     7
 10
423.8376055928
 20
1168.149305818
 30
0.0
  0
VERTEX
  5
91E
  8
0
  6
CONTINUOUS
 62
     7
 10
423.6998890611
 20
1169.3143978094
 30
0.0
  0
VERTEX
  5
91F
  8
0
  6
CONTINUOUS
 62
     7
 10
423.4828014942
 20
1170.2823772405
 30
0.0
  0
VERTEX
  5
920
  8
0
  6
CONTINUOUS
 62
     7
 10
423.2039262625
 20
1170.9748491024
 30
0.0
  0
VERTEX
  5
921
  8
0
  6
CONTINUOUS
 62
     7
 10
422.8858460757
 20
1171.335710523
 30
0.0
  0
VERTEX
  5
922
  8
0
  6
CONTINUOUS
 62
     7
 10
422.7261801335
 20
1171.3814570879
 30
0.0
  0
SEQEND
  5
AF0
  8
0
  6
CONTINUOUS
 62
     7
  0
POLYLINE
  5
3F7
  8
0
  6
CONTINUOUS
 62
     7
 66
     1
 10
0.0
 20
0.0
 30
0.0
 70
   128
  0
VERTEX
  5
923
  8
0
  6
CONTINUOUS
 62
     7
 10
422.7511693808
 20
1162.3831077789
 30
0.0
  0
VERTEX
  5
924
  8
0
  6
CONTINUOUS
 62
     7
 10
422.8858460757
 20
1162.4273195242
 30
0.0
  0
VERTEX
  5
925
  8
0
  6
CONTINUOUS
 62
     7
 10
423.2039262625
 20
1162.7881660436
 30
0.0
  0
VERTEX
  5
926
  8
0
  6
CONTINUOUS
 62
     7
 10
423.4828014942
 20
1163.4806379055
 30
0.0
  0
VERTEX
  5
927
  8
0
  6
CONTINUOUS
 62
     7
 10
423.6998890611
 20
1164.4486322378
 30
0.0
  0
VERTEX
  5
928
  8
0
  6
CONTINUOUS
 62
     7
 10
423.8376055928
 20
1165.6137093281
 30
0.0
  0
VERTEX
  5
929
  8
0
  6
CONTINUOUS
 62
     7
 10
423.8847826692
 20
1166.8815150236
 30
0.0
  0
SEQEND
  5
AF1
  8
0
  6
CONTINUOUS
 62
     7
  0
POLYLINE
  5
3F8
  8
0
  6
CONTINUOUS
 62
     7
 66
     1
 10
0.0
 20
0.0
 30
0.0
 70
   128
  0
VERTEX
  5
92A
  8
0
  6
CONTINUOUS
 62
     7
 10
587.8588293763
 20
1171.2479575847
 30
0.0
  0
VERTEX
  5
92B
  8
0
  6
CONTINUOUS
 62
     7
 10
587.5918974253
 20
1171.2642445539
 30
0.0
  0
VERTEX
  5
92C
  8
0
  6
CONTINUOUS
 62
     7
 10
586.7187936875
 20
1171.0867121195
 30
0.0
  0
VERTEX
  5
92D
  8
0
  6
CONTINUOUS
 62
     7
 10
585.9164183112
 20
1170.5685093378
 30
0.0
  0
VERTEX
  5
92E
  8
0
  6
CONTINUOUS
 62
     7
 10
585.2497850629
 20
1169.7515978788
 30
0.0
  0
VERTEX
  5
92F
  8
0
  6
CONTINUOUS
 62
     7
 10
584.7728957506
 20
1168.7021687006
 30
0.0
  0
VERTEX
  5
930
  8
0
  6
CONTINUOUS
 62
     7
 10
584.5243816348
 20
1167.5052329277
 30
0.0
  0
VERTEX
  5
931
  8
0
  6
CONTINUOUS
 62
     7
 10
584.5243816348
 20
1166.2577822183
 30
0.0
  0
VERTEX
  5
932
  8
0
  6
CONTINUOUS
 62
     7
 10
584.7728957506
 20
1165.0608613466
 30
0.0
  0
VERTEX
  5
933
  8
0
  6
CONTINUOUS
 62
     7
 10
585.2497850629
 20
1164.0114321684
 30
0.0
  0
VERTEX
  5
934
  8
0
  6
CONTINUOUS
 62
     7
 10
585.9164183112
 20
1163.1945207094
 30
0.0
  0
VERTEX
  5
935
  8
0
  6
CONTINUOUS
 62
     7
 10
586.7187936875
 20
1162.6763030266
 30
0.0
  0
VERTEX
  5
936
  8
0
  6
CONTINUOUS
 62
     7
 10
587.5918974253
 20
1162.4987705921
 30
0.0
  0
VERTEX
  5
937
  8
0
  6
CONTINUOUS
 62
     7
 10
587.7632235261
 20
1162.5054761146
 30
0.0
  0
SEQEND
  5
AF2
  8
0
  6
CONTINUOUS
 62
     7
  0
LINE
  5
3F9
  8
0
  6
CONTINUOUS
 62
     7
 10
613.5003452274
 20
1108.8815166925
 30
0.0
 11
613.5003452274
 21
1148.8815083479
 31
0.0
  0
LINE
  5
3FA
  8
0
  6
CONTINUOUS
 62
     7
 10
604.5003418895
 20
1148.8815083479
 30
0.0
 11
604.5003418895
 21
1108.8815166925
 31
0.0
  0
POLYLINE
  5
3FB
  8
0
  6
CONTINUOUS
 62
     7
 66
     1
 10
0.0
 20
0.0
 30
0.0
 70
   128
  0
VERTEX
  5
938
  8
0
  6
CONTINUOUS
 62
     7
 10
621.5897609564
 20
1158.5345997785
 30
0.0
  0
VERTEX
  5
939
  8
0
  6
CONTINUOUS
 62
     7
 10
621.6542680832
 20
1158.3573653673
 30
0.0
  0
VERTEX
  5
93A
  8
0
  6
CONTINUOUS
 62
     7
 10
621.8414639207
 20
1157.8430368875
 30
0.0
  0
VERTEX
  5
93B
  8
0
  6
CONTINUOUS
 62
     7
 10
622.1330349418
 20
1157.0419504618
 30
0.0
  0
VERTEX
  5
93C
  8
0
  6
CONTINUOUS
 62
     7
 10
622.5004379722
 20
1156.0325160002
 30
0.0
  0
VERTEX
  5
93D
  8
0
  6
CONTINUOUS
 62
     7
 10
622.9077090594
 20
1154.9135580038
 30
0.0
  0
VERTEX
  5
93E
  8
0
  6
CONTINUOUS
 62
     7
 10
623.3149726959
 20
1153.7946000074
 30
0.0
  0
VERTEX
  5
93F
  8
0
  6
CONTINUOUS
 62
     7
 10
623.6823757263
 20
1152.785180447
 30
0.0
  0
VERTEX
  5
940
  8
0
  6
CONTINUOUS
 62
     7
 10
623.9739467474
 20
1151.9840940212
 30
0.0
  0
VERTEX
  5
941
  8
0
  6
CONTINUOUS
 62
     7
 10
624.1611500355
 20
1151.4697506403
 30
0.0
  0
VERTEX
  5
942
  8
0
  6
CONTINUOUS
 62
     7
 10
624.2256571623
 20
1151.2925311302
 30
0.0
  0
SEQEND
  5
AF3
  8
0
  6
CONTINUOUS
 62
     7
  0
POLYLINE
  5
3FC
  8
0
  6
CONTINUOUS
 62
     7
 66
     1
 10
0.0
 20
0.0
 30
0.0
 70
   128
  0
VERTEX
  5
943
  8
0
  6
CONTINUOUS
 62
     7
 10
621.26719552
 20
1158.5731788849
 30
0.0
  0
VERTEX
  5
944
  8
0
  6
CONTINUOUS
 62
     7
 10
621.3014979931
 20
1158.4789290403
 30
0.0
  0
VERTEX
  5
945
  8
0
  6
CONTINUOUS
 62
     7
 10
621.4504798027
 20
1158.0695941423
 30
0.0
  0
VERTEX
  5
946
  8
0
  6
CONTINUOUS
 62
     7
 10
621.7047457668
 20
1157.3710128044
 30
0.0
  0
VERTEX
  5
947
  8
0
  6
CONTINUOUS
 62
     7
 10
622.0416833731
 20
1156.4452781652
 30
0.0
  0
VERTEX
  5
948
  8
0
  6
CONTINUOUS
 62
     7
 10
622.4313710901
 20
1155.3746148323
 30
0.0
  0
VERTEX
  5
949
  8
0
  6
CONTINUOUS
 62
     7
 10
622.839178619
 20
1154.2541965221
 30
0.0
  0
VERTEX
  5
94A
  8
0
  6
CONTINUOUS
 62
     7
 10
623.228866336
 20
1153.1835331892
 30
0.0
  0
VERTEX
  5
94B
  8
0
  6
CONTINUOUS
 62
     7
 10
623.5658039423
 20
1152.25779855
 30
0.0
  0
VERTEX
  5
94C
  8
0
  6
CONTINUOUS
 62
     7
 10
623.8200699064
 20
1151.5592172121
 30
0.0
  0
VERTEX
  5
94D
  8
0
  6
CONTINUOUS
 62
     7
 10
623.969051716
 20
1151.1498674129
 30
0.0
  0
VERTEX
  5
94E
  8
0
  6
CONTINUOUS
 62
     7
 10
624.003354189
 20
1151.0556324695
 30
0.0
  0
SEQEND
  5
AF4
  8
0
  6
CONTINUOUS
 62
     7
  0
POLYLINE
  5
3FD
  8
0
  6
CONTINUOUS
 62
     7
 66
     1
 10
0.0
 20
0.0
 30
0.0
 70
   128
  0
VERTEX
  5
94F
  8
0
  6
CONTINUOUS
 62
     7
 10
652.7135928246
 20
1073.0225651835
 30
0.0
  0
VERTEX
  5
950
  8
0
  6
CONTINUOUS
 62
     7
 10
652.7780999514
 20
1072.8453382229
 30
0.0
  0
VERTEX
  5
951
  8
0
  6
CONTINUOUS
 62
     7
 10
652.9653032395
 20
1072.3310097431
 30
0.0
  0
VERTEX
  5
952
  8
0
  6
CONTINUOUS
 62
     7
 10
653.2568742605
 20
1071.5299233173
 30
0.0
  0
VERTEX
  5
953
  8
0
  6
CONTINUOUS
 62
     7
 10
653.6242772909
 20
1070.5204963063
 30
0.0
  0
VERTEX
  5
954
  8
0
  6
CONTINUOUS
 62
     7
 10
654.0315409275
 20
1069.4015308594
 30
0.0
  0
VERTEX
  5
955
  8
0
  6
CONTINUOUS
 62
     7
 10
654.4388045641
 20
1068.282572863
 30
0.0
  0
VERTEX
  5
956
  8
0
  6
CONTINUOUS
 62
     7
 10
654.8062075945
 20
1067.273145852
 30
0.0
  0
VERTEX
  5
957
  8
0
  6
CONTINUOUS
 62
     7
 10
655.0977786156
 20
1066.4720594262
 30
0.0
  0
VERTEX
  5
958
  8
0
  6
CONTINUOUS
 62
     7
 10
655.2849819037
 20
1065.9577309464
 30
0.0
  0
VERTEX
  5
959
  8
0
  6
CONTINUOUS
 62
     7
 10
655.3494890305
 20
1065.7805039858
 30
0.0
  0
VERTEX
  5
95A
  8
0
  6
CONTINUOUS
 62
     7
 10
655.3494890305
 20
1065.7805039858
 30
0.0
  0
SEQEND
  5
AF5
  8
0
  6
CONTINUOUS
 62
     7
  0
POLYLINE
  5
3FE
  8
0
  6
CONTINUOUS
 62
     7
 66
     1
 10
0.0
 20
0.0
 30
0.0
 70
   128
  0
VERTEX
  5
95B
  8
0
  6
CONTINUOUS
 62
     7
 10
652.3910273882
 20
1073.0611442899
 30
0.0
  0
VERTEX
  5
95C
  8
0
  6
CONTINUOUS
 62
     7
 10
652.4253298613
 20
1072.9669093465
 30
0.0
  0
VERTEX
  5
95D
  8
0
  6
CONTINUOUS
 62
     7
 10
652.5743116709
 20
1072.5575669979
 30
0.0
  0
VERTEX
  5
95E
  8
0
  6
CONTINUOUS
 62
     7
 10
652.8285701844
 20
1071.8589931105
 30
0.0
  0
VERTEX
  5
95F
  8
0
  6
CONTINUOUS
 62
     7
 10
653.1655152413
 20
1070.9332435702
 30
0.0
  0
VERTEX
  5
960
  8
0
  6
CONTINUOUS
 62
     7
 10
653.5552104088
 20
1069.8625951384
 30
0.0
  0
VERTEX
  5
961
  8
0
  6
CONTINUOUS
 62
     7
 10
653.9630104872
 20
1068.7421619271
 30
0.0
  0
VERTEX
  5
962
  8
0
  6
CONTINUOUS
 62
     7
 10
654.3526907536
 20
1067.6715060448
 30
0.0
  0
VERTEX
  5
963
  8
0
  6
CONTINUOUS
 62
     7
 10
654.6896358105
 20
1066.745763955
 30
0.0
  0
VERTEX
  5
964
  8
0
  6
CONTINUOUS
 62
     7
 10
654.9438943239
 20
1066.0471826171
 30
0.0
  0
VERTEX
  5
965
  8
0
  6
CONTINUOUS
 62
     7
 10
655.0928910347
 20
1065.6378477191
 30
0.0
  0
VERTEX
  5
966
  8
0
  6
CONTINUOUS
 62
     7
 10
655.1271935078
 20
1065.5436053251
 30
0.0
  0
SEQEND
  5
AF6
  8
0
  6
CONTINUOUS
 62
     7
  0
POLYLINE
  5
3FF
  8
0
  6
CONTINUOUS
 62
     7
 66
     1
 10
0.0
 20
0.0
 30
0.0
 70
   128
  0
VERTEX
  5
967
  8
0
  6
CONTINUOUS
 62
     7
 10
623.20543426
 20
1150.7652088379
 30
0.0
  0
VERTEX
  5
968
  8
0
  6
CONTINUOUS
 62
     7
 10
623.3335171911
 20
1150.4719539856
 30
0.0
  0
VERTEX
  5
969
  8
0
  6
CONTINUOUS
 62
     7
 10
623.605105755
 20
1149.8501434301
 30
0.0
  0
VERTEX
  5
96A
  8
0
  6
CONTINUOUS
 62
     7
 10
623.9360307428
 20
1149.0924491857
 30
0.0
  0
VERTEX
  5
96B
  8
0
  6
CONTINUOUS
 62
     7
 10
624.3135889145
 20
1148.2280179237
 30
0.0
  0
VERTEX
  5
96C
  8
0
  6
CONTINUOUS
 62
     7
 10
624.7232516381
 20
1147.2900494312
 30
0.0
  0
VERTEX
  5
96D
  8
0
  6
CONTINUOUS
 62
     7
 10
625.1492981883
 20
1146.3146045183
 30
0.0
  0
SEQEND
  5
AF7
  8
0
  6
CONTINUOUS
 62
     7
  0
POLYLINE
  5
400
  8
0
  6
CONTINUOUS
 62
     7
 66
     1
 10
0.0
 20
0.0
 30
0.0
 70
   128
  0
VERTEX
  5
96E
  8
0
  6
CONTINUOUS
 62
     7
 10
650.2374817702
 20
1077.3853718613
 30
0.0
  0
VERTEX
  5
96F
  8
0
  6
CONTINUOUS
 62
     7
 10
650.5711038681
 20
1076.4687492822
 30
0.0
  0
VERTEX
  5
970
  8
0
  6
CONTINUOUS
 62
     7
 10
650.8919109675
 20
1075.5873530482
 30
0.0
  0
VERTEX
  5
971
  8
0
  6
CONTINUOUS
 62
     7
 10
651.1875649067
 20
1074.7750460481
 30
0.0
  0
VERTEX
  5
972
  8
0
  6
CONTINUOUS
 62
     7
 10
651.446711001
 20
1074.0630611156
 30
0.0
  0
VERTEX
  5
973
  8
0
  6
CONTINUOUS
 62
     7
 10
651.6593803736
 20
1073.4787493323
 30
0.0
  0
VERTEX
  5
974
  8
0
  6
CONTINUOUS
 62
     7
 10
651.8174071881
 20
1073.0445592974
 30
0.0
  0
VERTEX
  5
975
  8
0
  6
CONTINUOUS
 62
     7
 10
651.8791874024
 20
1072.8748499726
 30
0.0
  0
SEQEND
  5
AF8
  8
0
  6
CONTINUOUS
 62
     7
  0
LINE
  5
401
  8
0
  6
CONTINUOUS
 62
     7
 10
616.2003387781
 20
1075.8815094208
 30
0.0
 11
643.3356066319
 21
1075.8815094208
 31
0.0
  0
LINE
  5
402
  8
0
  6
CONTINUOUS
 62
     7
 10
618.3843498203
 20
1144.4345250105
 30
0.0
 11
616.2003387781
 21
1143.6396076654
 31
0.0
  0
LINE
  5
403
  8
0
  6
CONTINUOUS
 62
     7
 10
453.2498826357
 20
1197.1648617958
 30
0.0
 11
609.0884764763
 21
1197.1648617958
 31
0.0
  0
LINE
  5
404
  8
0
  6
CONTINUOUS
 62
     7
 10
426.512207565
 20
1197.1648617958
 30
0.0
 11
453.2498826357
 21
1197.1648617958
 31
0.0
  0
LINE
  5
405
  8
0
  6
CONTINUOUS
 62
     7
 10
610.6003408405
 20
1194.6787520622
 30
0.0
 11
425.0003432008
 21
1194.6787520622
 31
0.0
  0
ARC
  5
406
  8
0
  6
CONTINUOUS
 62
     7
 10
586.6006808854
 20
1174.2274832953
 30
0.0
 40
4.192865544506281
 50
12.0232220981
 51
79.4895897838
  0
ARC
  5
407
  8
0
  6
CONTINUOUS
 62
     7
 10
428.1214449452
 20
1176.9247186803
 30
0.0
 40
1.913517656243227
 50
131.8538858695
 51
176.1559464534
  0
LINE
  5
408
  8
0
  6
CONTINUOUS
 62
     7
 10
591.9482817026
 20
1206.0457899546
 30
0.0
 11
443.6524023386
 21
1206.0457899546
 31
0.0
  0
LINE
  5
409
  8
0
  6
CONTINUOUS
 62
     7
 10
465.8279937776
 20
1207.1112676834
 30
0.0
 11
591.300341961
 21
1207.1112676834
 31
0.0
  0
LINE
  5
40A
  8
0
  6
CONTINUOUS
 62
     7
 10
444.3003420802
 20
1207.1112676834
 30
0.0
 11
465.8279937776
 21
1207.1112676834
 31
0.0
  0
LINE
  5
40B
  8
0
  6
CONTINUOUS
 62
     7
 10
591.300341961
 20
1209.5815076803
 30
0.0
 11
444.3003420802
 21
1209.5815076803
 31
0.0
  0
LINE
  5
40C
  8
0
  6
CONTINUOUS
 62
     7
 10
590.435076234
 20
1151.3815059637
 30
0.0
 11
590.435076234
 21
1165.5125304436
 31
0.0
  0
LINE
  5
40D
  8
0
  6
CONTINUOUS
 62
     7
 10
590.435076234
 20
1168.2504847025
 30
0.0
 11
590.435076234
 21
1173.3815058445
 31
0.0
  0
LINE
  5
40E
  8
0
  6
CONTINUOUS
 62
     7
 10
590.435076234
 20
1173.3815058445
 30
0.0
 11
591.3137530061
 21
1173.3815058445
 31
0.0
  0
ARC
  5
40F
  8
0
  6
CONTINUOUS
 62
     7
 10
589.0778808882
 20
1178.040082675
 30
0.0
 40
1.740181614402194
 50
169.7411914152
 51
253.8778313445
  0
LINE
  5
410
  8
0
  6
CONTINUOUS
 62
     7
 10
422.4126969548
 20
1173.3815058445
 30
0.0
 11
422.4126969548
 21
1167.3965140556
 31
0.0
  0
LINE
  5
411
  8
0
  6
CONTINUOUS
 62
     7
 10
422.4126969548
 20
1166.3665159916
 30
0.0
 11
422.4126969548
 21
1151.3815059637
 31
0.0
  0
LINE
  5
412
  8
0
  6
CONTINUOUS
 62
     7
 10
422.3104749891
 20
1173.3815058445
 30
0.0
 11
422.4126969548
 21
1173.3815058445
 31
0.0
  0
ARC
  5
413
  8
0
  6
CONTINUOUS
 62
     7
 10
424.893130583
 20
1178.301671589
 30
0.0
 40
1.952150004021807
 50
293.4540675269
 51
1.4185887993
  0
LINE
  5
414
  8
0
  6
CONTINUOUS
 62
     7
 10
451.8173148009
 20
1151.3815059637
 30
0.0
 11
451.8173148009
 21
981.8815117081
 31
0.0
  0
LINE
  5
415
  8
0
  6
CONTINUOUS
 62
     7
 10
457.4419071051
 20
1151.3815059637
 30
0.0
 11
457.4419071051
 21
981.8815117081
 31
0.0
  0
LINE
  5
416
  8
0
  6
CONTINUOUS
 62
     7
 10
463.7277980419
 20
1151.3815059637
 30
0.0
 11
463.7277980419
 21
981.8815117081
 31
0.0
  0
LINE
  5
417
  8
0
  6
CONTINUOUS
 62
     7
 10
470.606121895
 20
1151.3815059637
 30
0.0
 11
470.606121895
 21
981.8815117081
 31
0.0
  0
LINE
  5
418
  8
0
  6
CONTINUOUS
 62
     7
 10
478.0015123161
 20
1151.3815059637
 30
0.0
 11
478.0015123161
 21
981.8815117081
 31
0.0
  0
LINE
  5
419
  8
0
  6
CONTINUOUS
 62
     7
 10
557.5991717252
 20
981.8815117081
 30
0.0
 11
557.5991717252
 21
1151.3815059637
 31
0.0
  0
LINE
  5
41A
  8
0
  6
CONTINUOUS
 62
     7
 10
564.9945621463
 20
981.8815117081
 30
0.0
 11
564.9945621463
 21
1151.3815059637
 31
0.0
  0
LINE
  5
41B
  8
0
  6
CONTINUOUS
 62
     7
 10
571.8728859993
 20
981.8815117081
 30
0.0
 11
571.8728859993
 21
1151.3815059637
 31
0.0
  0
LINE
  5
41C
  8
0
  6
CONTINUOUS
 62
     7
 10
578.1587769362
 20
981.8815117081
 30
0.0
 11
578.1587769362
 21
1151.3815059637
 31
0.0
  0
LINE
  5
41D
  8
0
  6
CONTINUOUS
 62
     7
 10
583.7833692404
 20
981.8815117081
 30
0.0
 11
583.7833692404
 21
1151.3815059637
 31
0.0
  0
LINE
  5
41E
  8
0
  6
CONTINUOUS
 62
     7
 10
560.8001832935
 20
981.8815117081
 30
0.0
 11
560.8001832935
 21
1151.3815059637
 31
0.0
  0
LINE
  5
41F
  8
0
  6
CONTINUOUS
 62
     7
 10
474.8005007478
 20
1151.3815059637
 30
0.0
 11
474.8005007478
 21
981.8815117081
 31
0.0
  0
LINE
  5
420
  8
0
  6
CONTINUOUS
 62
     7
 10
558.9313169094
 20
1151.3815059637
 30
0.0
 11
558.9313169094
 21
981.8815117081
 31
0.0
  0
LINE
  5
421
  8
0
  6
CONTINUOUS
 62
     7
 10
476.6693671318
 20
981.8815117081
 30
0.0
 11
476.6693671318
 21
1151.3815059637
 31
0.0
  0
LINE
  5
422
  8
0
  6
CONTINUOUS
 62
     7
 10
568.5339343818
 20
981.8815117081
 30
0.0
 11
568.5339343818
 21
1151.3815059637
 31
0.0
  0
LINE
  5
423
  8
0
  6
CONTINUOUS
 62
     7
 10
467.0667496594
 20
1151.3815059637
 30
0.0
 11
467.0667496594
 21
981.8815117081
 31
0.0
  0
LINE
  5
424
  8
0
  6
CONTINUOUS
 62
     7
 10
566.3565208288
 20
1151.3815059637
 30
0.0
 11
566.3565208288
 21
981.8815117081
 31
0.0
  0
LINE
  5
425
  8
0
  6
CONTINUOUS
 62
     7
 10
469.2441632124
 20
981.8815117081
 30
0.0
 11
469.2441632124
 21
1151.3815059637
 31
0.0
  0
LINE
  5
426
  8
0
  6
CONTINUOUS
 62
     7
 10
575.7118386301
 20
981.8815117081
 30
0.0
 11
575.7118386301
 21
1151.3815059637
 31
0.0
  0
LINE
  5
427
  8
0
  6
CONTINUOUS
 62
     7
 10
459.8888454112
 20
1151.3815059637
 30
0.0
 11
459.8888454112
 21
981.8815117081
 31
0.0
  0
LINE
  5
428
  8
0
  6
CONTINUOUS
 62
     7
 10
573.2497383925
 20
1151.3815059637
 30
0.0
 11
573.2497383925
 21
981.8815117081
 31
0.0
  0
LINE
  5
429
  8
0
  6
CONTINUOUS
 62
     7
 10
462.3509456488
 20
981.8815117081
 30
0.0
 11
462.3509456488
 21
1151.3815059637
 31
0.0
  0
LINE
  5
42A
  8
0
  6
CONTINUOUS
 62
     7
 10
582.2552477094
 20
981.8815117081
 30
0.0
 11
582.2552477094
 21
1151.3815059637
 31
0.0
  0
LINE
  5
42B
  8
0
  6
CONTINUOUS
 62
     7
 10
453.3454363319
 20
1151.3815059637
 30
0.0
 11
453.3454363319
 21
981.8815117081
 31
0.0
  0
LINE
  5
42C
  8
0
  6
CONTINUOUS
 62
     7
 10
579.5354356142
 20
1151.3815059637
 30
0.0
 11
579.5354356142
 21
981.8815117081
 31
0.0
  0
LINE
  5
42D
  8
0
  6
CONTINUOUS
 62
     7
 10
456.065248427
 20
981.8815117081
 30
0.0
 11
456.065248427
 21
1151.3815059637
 31
0.0
  0
LINE
  5
42E
  8
0
  6
CONTINUOUS
 62
     7
 10
588.0924795839
 20
981.8815117081
 30
0.0
 11
588.0924795839
 21
1151.3815059637
 31
0.0
  0
LINE
  5
42F
  8
0
  6
CONTINUOUS
 62
     7
 10
447.5082044574
 20
1151.3815059637
 30
0.0
 11
447.5082044574
 21
981.8815117081
 31
0.0
  0
LINE
  5
430
  8
0
  6
CONTINUOUS
 62
     7
 10
585.1447542282
 20
1151.3815059637
 30
0.0
 11
585.1447542282
 21
981.8815117081
 31
0.0
  0
LINE
  5
431
  8
0
  6
CONTINUOUS
 62
     7
 10
450.455929813
 20
981.8815117081
 30
0.0
 11
450.455929813
 21
1151.3815059637
 31
0.0
  0
LINE
  5
432
  8
0
  6
CONTINUOUS
 62
     7
 10
593.1595747443
 20
981.8815117081
 30
0.0
 11
593.1595747443
 21
1151.3815059637
 31
0.0
  0
LINE
  5
433
  8
0
  6
CONTINUOUS
 62
     7
 10
442.4411092969
 20
1151.3815059637
 30
0.0
 11
442.4411092969
 21
981.8815117081
 31
0.0
  0
LINE
  5
434
  8
0
  6
CONTINUOUS
 62
     7
 10
590.0162269446
 20
1151.3815059637
 30
0.0
 11
590.0162269446
 21
981.8815117081
 31
0.0
  0
LINE
  5
435
  8
0
  6
CONTINUOUS
 62
     7
 10
445.5844570967
 20
981.8815117081
 30
0.0
 11
445.5844570967
 21
1151.3815059637
 31
0.0
  0
LINE
  5
436
  8
0
  6
CONTINUOUS
 62
     7
 10
597.4010189148
 20
981.8815117081
 30
0.0
 11
597.4010189148
 21
1151.3815059637
 31
0.0
  0
LINE
  5
437
  8
0
  6
CONTINUOUS
 62
     7
 10
438.1996651264
 20
1151.3815059637
 30
0.0
 11
438.1996651264
 21
981.8815117081
 31
0.0
  0
LINE
  5
438
  8
0
  6
CONTINUOUS
 62
     7
 10
600.7703428241
 20
981.8815117081
 30
0.0
 11
600.7703428241
 21
1151.3815059637
 31
0.0
  0
LINE
  5
439
  8
0
  6
CONTINUOUS
 62
     7
 10
434.8303412172
 20
1151.3815059637
 30
0.0
 11
434.8303412172
 21
981.8815117081
 31
0.0
  0
LINE
  5
43A
  8
0
  6
CONTINUOUS
 62
     7
 10
432.3700551959
 20
1151.3815059637
 30
0.0
 11
432.3700551959
 21
981.8815117081
 31
0.0
  0
LINE
  5
43B
  8
0
  6
CONTINUOUS
 62
     7
 10
430.8457632633
 20
1151.3815059637
 30
0.0
 11
430.8457632633
 21
981.8815117081
 31
0.0
  0
LINE
  5
43C
  8
0
  6
CONTINUOUS
 62
     7
 10
457.0668560537
 20
708.3815022682
 30
0.0
 11
456.5851909193
 21
708.3815022682
 31
0.0
  0
LINE
  5
43D
  8
0
  6
CONTINUOUS
 62
     7
 10
579.015493122
 20
708.3815022682
 30
0.0
 11
578.5338279876
 21
708.3815022682
 31
0.0
  0
LINE
  5
43E
  8
0
  6
CONTINUOUS
 62
     7
 10
508.1517879936
 20
701.3815029835
 30
0.0
 11
481.8003435704
 21
701.3815029835
 31
0.0
  0
LINE
  5
43F
  8
0
  6
CONTINUOUS
 62
     7
 10
553.8003404709
 20
701.3815029835
 30
0.0
 11
527.4488960477
 21
701.3815029835
 31
0.0
  0
LINE
  5
440
  8
0
  6
CONTINUOUS
 62
     7
 10
481.8003435704
 20
683.3815261101
 30
0.0
 11
508.1517879936
 21
683.3815261101
 31
0.0
  0
LINE
  5
441
  8
0
  6
CONTINUOUS
 62
     7
 10
527.4488960477
 20
683.3815261101
 30
0.0
 11
553.8003404709
 21
683.3815261101
 31
0.0
  0
LINE
  5
442
  8
0
  6
CONTINUOUS
 62
     7
 10
480.7922651144
 20
683.3815261101
 30
0.0
 11
481.8003435704
 21
683.3815261101
 31
0.0
  0
LINE
  5
443
  8
0
  6
CONTINUOUS
 62
     7
 10
553.8003404709
 20
683.3815261101
 30
0.0
 11
554.8084189268
 21
683.3815261101
 31
0.0
  0
ARC
  5
444
  8
0
  6
CONTINUOUS
 62
     7
 10
474.0258676003
 20
701.6873903774
 30
0.0
 40
6.773308085197845
 50
357.4116016425
 51
34.4041327053
  0
LINE
  5
445
  8
0
  6
CONTINUOUS
 62
     7
 10
480.7922651144
 20
701.3815029835
 30
0.0
 11
481.8003435704
 21
701.3815029835
 31
0.0
  0
ARC
  5
446
  8
0
  6
CONTINUOUS
 62
     7
 10
561.7324275363
 20
701.6424702776
 30
0.0
 40
6.928924819374576
 50
146.025797742
 51
182.1584679101
  0
LINE
  5
447
  8
0
  6
CONTINUOUS
 62
     7
 10
553.8003404709
 20
701.3815029835
 30
0.0
 11
554.8084189268
 21
701.3815029835
 31
0.0
  0
LINE
  5
448
  8
0
  6
CONTINUOUS
 62
     7
 10
480.7922651144
 20
701.3815029835
 30
0.0
 11
478.0253504487
 21
701.3815029835
 31
0.0
  0
LINE
  5
449
  8
0
  6
CONTINUOUS
 62
     7
 10
557.5753335925
 20
701.3815029835
 30
0.0
 11
554.8084189268
 21
701.3815029835
 31
0.0
  0
LINE
  5
44A
  8
0
  6
CONTINUOUS
 62
     7
 10
478.0253504487
 20
683.3815261101
 30
0.0
 11
480.7922651144
 21
683.3815261101
 31
0.0
  0
LINE
  5
44B
  8
0
  6
CONTINUOUS
 62
     7
 10
554.8084189268
 20
683.3815261101
 30
0.0
 11
557.5753335925
 21
683.3815261101
 31
0.0
  0
LINE
  5
44C
  8
0
  6
CONTINUOUS
 62
     7
 10
433.3906282755
 20
909.3815147256
 30
0.0
 11
450.1172264191
 21
909.3815147256
 31
0.0
  0
LINE
  5
44D
  8
0
  6
CONTINUOUS
 62
     7
 10
474.2004123601
 20
909.3815147256
 30
0.0
 11
480.0225642594
 21
909.3815147256
 31
0.0
  0
LINE
  5
44E
  8
0
  6
CONTINUOUS
 62
     7
 10
555.5781197819
 20
909.3815147256
 30
0.0
 11
602.8003429147
 21
909.3815147256
 31
0.0
  0
LINE
  5
44F
  8
0
  6
CONTINUOUS
 62
     7
 10
456.5851909193
 20
834.8815127586
 30
0.0
 11
457.0668560537
 21
834.8815127586
 31
0.0
  0
LINE
  5
450
  8
0
  6
CONTINUOUS
 62
     7
 10
456.5851909193
 20
823.8815053676
 30
0.0
 11
457.0668560537
 21
823.8815053676
 31
0.0
  0
LINE
  5
451
  8
0
  6
CONTINUOUS
 62
     7
 10
578.5338279876
 20
834.8815127586
 30
0.0
 11
579.015493122
 21
834.8815127586
 31
0.0
  0
LINE
  5
452
  8
0
  6
CONTINUOUS
 62
     7
 10
578.5338279876
 20
823.8815053676
 30
0.0
 11
579.015493122
 21
823.8815053676
 31
0.0
  0
ARC
  5
453
  8
0
  6
CONTINUOUS
 62
     7
 10
559.2766984561
 20
845.1149153222
 30
0.0
 40
1.835395190421008
 50
352.6942270848
 51
73.4230634144
  0
LINE
  5
454
  8
0
  6
CONTINUOUS
 62
     7
 10
561.0971932384
 20
844.881518123
 30
0.0
 11
559.8003414544
 21
844.881518123
 31
0.0
  0
ARC
  5
455
  8
0
  6
CONTINUOUS
 62
     7
 10
476.3239855852
 20
845.1149153222
 30
0.0
 40
1.835395190420966
 50
106.5769365856
 51
187.3057729152
  0
LINE
  5
456
  8
0
  6
CONTINUOUS
 62
     7
 10
475.8003425869
 20
844.881518123
 30
0.0
 11
474.5034908029
 21
844.881518123
 31
0.0
  0
LINE
  5
457
  8
0
  6
CONTINUOUS
 62
     7
 10
474.5034908029
 20
841.8815120434
 30
0.0
 11
475.8003425869
 21
841.8815120434
 31
0.0
  0
LINE
  5
458
  8
0
  6
CONTINUOUS
 62
     7
 10
559.8003414544
 20
841.8815120434
 30
0.0
 11
561.0971932384
 21
841.8815120434
 31
0.0
  0
LINE
  5
459
  8
0
  6
CONTINUOUS
 62
     7
 10
474.5034908029
 20
844.881518123
 30
0.0
 11
456.8003413352
 21
844.881518123
 31
0.0
  0
POLYLINE
  5
45A
  8
0
  6
CONTINUOUS
 62
     7
 66
     1
 10
0.0
 20
0.0
 30
0.0
 70
   128
  0
VERTEX
  5
976
  8
0
  6
CONTINUOUS
 62
     7
 10
464.9478231641
 20
836.8904724096
 30
0.0
  0
VERTEX
  5
977
  8
0
  6
CONTINUOUS
 62
     7
 10
464.9531540545
 20
836.9555755829
 30
0.0
  0
VERTEX
  5
978
  8
0
  6
CONTINUOUS
 62
     7
 10
465.433139083
 20
838.7892230724
 30
0.0
  0
VERTEX
  5
979
  8
0
  6
CONTINUOUS
 62
     7
 10
466.2216824564
 20
840.3287961458
 30
0.0
  0
VERTEX
  5
97A
  8
0
  6
CONTINUOUS
 62
     7
 10
467.3858356746
 20
841.4664550995
 30
0.0
  0
VERTEX
  5
97B
  8
0
  6
CONTINUOUS
 62
     7
 10
468.8026753339
 20
841.8815120434
 30
0.0
  0
SEQEND
  5
AF9
  8
0
  6
CONTINUOUS
 62
     7
  0
POLYLINE
  5
45B
  8
0
  6
CONTINUOUS
 62
     7
 66
     1
 10
0.0
 20
0.0
 30
0.0
 70
   128
  0
VERTEX
  5
97C
  8
0
  6
CONTINUOUS
 62
     7
 10
465.7170807096
 20
821.1937829231
 30
0.0
  0
VERTEX
  5
97D
  8
0
  6
CONTINUOUS
 62
     7
 10
465.5692611905
 20
821.5127571796
 30
0.0
  0
VERTEX
  5
97E
  8
0
  6
CONTINUOUS
 62
     7
 10
465.4775743457
 20
821.7806055521
 30
0.0
  0
SEQEND
  5
AFA
  8
0
  6
CONTINUOUS
 62
     7
  0
LINE
  5
45C
  8
0
  6
CONTINUOUS
 62
     7
 10
578.8003427061
 20
844.881518123
 30
0.0
 11
561.0971932384
 21
844.881518123
 31
0.0
  0
POLYLINE
  5
45D
  8
0
  6
CONTINUOUS
 62
     7
 66
     1
 10
0.0
 20
0.0
 30
0.0
 70
   128
  0
VERTEX
  5
97F
  8
0
  6
CONTINUOUS
 62
     7
 10
570.1644306155
 20
821.8815162157
 30
0.0
  0
VERTEX
  5
980
  8
0
  6
CONTINUOUS
 62
     7
 10
570.0314228507
 20
821.5127571796
 30
0.0
  0
VERTEX
  5
981
  8
0
  6
CONTINUOUS
 62
     7
 10
569.8836033317
 20
821.2411239122
 30
0.0
  0
SEQEND
  5
AFB
  8
0
  6
CONTINUOUS
 62
     7
  0
POLYLINE
  5
45E
  8
0
  6
CONTINUOUS
 62
     7
 66
     1
 10
0.0
 20
0.0
 30
0.0
 70
   128
  0
VERTEX
  5
982
  8
0
  6
CONTINUOUS
 62
     7
 10
566.7980087074
 20
841.8815120434
 30
0.0
  0
VERTEX
  5
983
  8
0
  6
CONTINUOUS
 62
     7
 10
568.3199723336
 20
841.3988187288
 30
0.0
  0
VERTEX
  5
984
  8
0
  6
CONTINUOUS
 62
     7
 10
569.5925277742
 20
840.0001510357
 30
0.0
  0
VERTEX
  5
985
  8
0
  6
CONTINUOUS
 62
     7
 10
570.4590638253
 20
837.850524423
 30
0.0
  0
VERTEX
  5
986
  8
0
  6
CONTINUOUS
 62
     7
 10
570.5952604386
 20
836.9205280517
 30
0.0
  0
SEQEND
  5
AFC
  8
0
  6
CONTINUOUS
 62
     7
  0
ARC
  5
45F
  8
0
  6
CONTINUOUS
 62
     7
 10
474.8681129654
 20
848.0902280789
 30
0.0
 40
1.214195525080894
 50
275.4429912874
 51
320.1545521148
  0
ARC
  5
460
  8
0
  6
CONTINUOUS
 62
     7
 10
560.7325710759
 20
848.0902280789
 30
0.0
 40
1.214195525081042
 50
219.8454478852
 51
264.5570087126
  0
LINE
  5
461
  8
SLD-0
 62
     7
 10
422.1463138379
 20
915.7509334844
 30
0.0
 11
458.8460412883
 21
915.7509334844
 31
0.0
  0
LINE
  5
462
  8
SLD-0
  6
HIDDEN
 62
     7
 10
432.8003420206
 20
922.3815113281
 30
0.0
 11
457.3355899147
 21
922.3815113281
 31
0.0
  0
LINE
  5
463
  8
SLD-0
  6
HIDDEN
 62
     7
 10
432.8003420206
 20
909.1203556406
 30
0.0
 11
454.5290832338
 21
909.1203556406
 31
0.0
  0
INSERT
  5
46F
  8
SLD-0
 62
    11
  2
SW_CENTERMARKSYMBOL_0
 10
517.8003420206
 20
932.3815113281
 30
0.0
  0
LINE
  5
470
  8
0
  6
CONTINUOUS
 62
     7
 10
617.5189350816
 20
444.1587185263
 30
0.0
 11
615.8003394576
 21
444.1587185263
 31
0.0
  0
LINE
  5
471
  8
0
  6
CONTINUOUS
 62
     7
 10
615.8003394576
 20
440.1587197332
 30
0.0
 11
617.5189350816
 21
440.1587197332
 31
0.0
  0
LINE
  5
472
  8
0
  6
CONTINUOUS
 62
     7
 10
648.2085098597
 20
386.1587183325
 30
0.0
 11
646.6694136235
 21
386.1587183325
 31
0.0
  0
LINE
  5
473
  8
0
  6
CONTINUOUS
 62
     7
 10
646.6694136235
 20
382.1587195395
 30
0.0
 11
648.1700201603
 21
382.1587195395
 31
0.0
  0
LINE
  5
474
  8
0
  6
CONTINUOUS
 62
     7
 10
653.4031142565
 20
380.1587192117
 30
0.0
 11
653.7591029974
 21
380.1587192117
 31
0.0
  0
LINE
  5
475
  8
0
  6
CONTINUOUS
 62
     7
 10
653.9061923596
 20
388.1088556497
 30
0.0
 11
653.7885923954
 21
388.1331277787
 31
0.0
  0
LINE
  5
476
  8
0
  6
CONTINUOUS
 62
     7
 10
653.7591029974
 20
380.1587192117
 30
0.0
 11
653.9725323292
 21
380.2057510017
 31
0.0
  0
ARC
  5
477
  8
0
  6
CONTINUOUS
 62
     7
 10
649.1126152918
 20
384.1587190329
 30
0.0
 40
6.50000000000002
 50
328.9823638146
 51
31.0176361854
  0
LINE
  5
478
  8
0
  6
CONTINUOUS
 62
     7
 10
648.0481435629
 20
444.1587185263
 30
0.0
 11
646.6694136235
 21
444.1587185263
 31
0.0
  0
LINE
  5
479
  8
0
  6
CONTINUOUS
 62
     7
 10
646.6694136235
 20
440.1587197332
 30
0.0
 11
648.2085098597
 21
440.1587197332
 31
0.0
  0
LINE
  5
47A
  8
0
  6
CONTINUOUS
 62
     7
 10
653.7591029974
 20
446.1587188541
 30
0.0
 11
653.0190219256
 21
446.1587188541
 31
0.0
  0
LINE
  5
47B
  8
0
  6
CONTINUOUS
 62
     7
 10
653.9061923596
 20
446.1088558434
 30
0.0
 11
653.7885923954
 21
446.1331261097
 31
0.0
  0
LINE
  5
47C
  8
0
  6
CONTINUOUS
 62
     7
 10
653.7591029974
 20
438.1587194054
 30
0.0
 11
653.9725323292
 21
438.2057493328
 31
0.0
  0
ARC
  5
47D
  8
0
  6
CONTINUOUS
 62
     7
 10
649.1126152918
 20
442.1587190329
 30
0.0
 40
6.50000000000002
 50
328.9823638146
 51
31.0176361854
  0
LINE
  5
47E
  8
0
  6
CONTINUOUS
 62
     7
 10
617.5189350816
 20
386.1587183325
 30
0.0
 11
615.8003394576
 21
386.1587183325
 31
0.0
  0
LINE
  5
47F
  8
0
  6
CONTINUOUS
 62
     7
 10
615.8003394576
 20
382.1587195395
 30
0.0
 11
617.5189350816
 21
382.1587195395
 31
0.0
  0
LINE
  5
480
  8
0
  6
CONTINUOUS
 62
     7
 10
655.5051614615
 20
423.9266678466
 30
0.0
 11
655.4551531645
 21
423.9266678466
 31
0.0
  0
LINE
  5
481
  8
0
  6
CONTINUOUS
 62
     7
 10
655.4551531645
 20
402.3907702192
 30
0.0
 11
655.5051614615
 21
402.3907702192
 31
0.0
  0
POLYLINE
  5
482
  8
0
  6
CONTINUOUS
 62
     7
 66
     1
 10
0.0
 20
0.0
 30
0.0
 70
   128
  0
VERTEX
  5
987
  8
0
  6
CONTINUOUS
 62
     7
 10
653.7781764838
 20
442.1587181984
 30
0.0
  0
VERTEX
  5
988
  8
0
  6
CONTINUOUS
 62
     7
 10
653.7614126774
 20
442.8272885977
 30
0.0
  0
VERTEX
  5
989
  8
0
  6
CONTINUOUS
 62
     7
 10
653.6364664408
 20
444.0680281966
 30
0.0
  0
VERTEX
  5
98A
  8
0
  6
CONTINUOUS
 62
     7
 10
653.3842046829
 20
445.2263047694
 30
0.0
  0
VERTEX
  5
98B
  8
0
  6
CONTINUOUS
 62
     7
 10
652.9678662392
 20
446.2893349825
 30
0.0
  0
VERTEX
  5
98C
  8
0
  6
CONTINUOUS
 62
     7
 10
652.4668593975
 20
447.0270653962
 30
0.0
  0
VERTEX
  5
98D
  8
0
  6
CONTINUOUS
 62
     7
 10
651.8861611458
 20
447.5187217592
 30
0.0
  0
VERTEX
  5
98E
  8
0
  6
CONTINUOUS
 62
     7
 10
651.1778940531
 20
447.8077633082
 30
0.0
  0
VERTEX
  5
98F
  8
0
  6
CONTINUOUS
 62
     7
 10
650.7100869986
 20
447.8587178289
 30
0.0
  0
SEQEND
  5
AFD
  8
0
  6
CONTINUOUS
 62
     7
  0
LINE
  5
483
  8
0
  6
CONTINUOUS
 62
     7
 10
653.7781764838
 20
383.1587197034
 30
0.0
 11
653.7781764838
 21
442.1587181984
 31
0.0
  0
POLYLINE
  5
484
  8
0
  6
CONTINUOUS
 62
     7
 66
     1
 10
0.0
 20
0.0
 30
0.0
 70
   128
  0
VERTEX
  5
990
  8
0
  6
CONTINUOUS
 62
     7
 10
650.7100869986
 20
377.4587182103
 30
0.0
  0
VERTEX
  5
991
  8
0
  6
CONTINUOUS
 62
     7
 10
651.4868696305
 20
377.6016538738
 30
0.0
  0
VERTEX
  5
992
  8
0
  6
CONTINUOUS
 62
     7
 10
652.1183212372
 20
377.9612971245
 30
0.0
  0
VERTEX
  5
993
  8
0
  6
CONTINUOUS
 62
     7
 10
652.6149769398
 20
378.4693037866
 30
0.0
  0
VERTEX
  5
994
  8
0
  6
CONTINUOUS
 62
     7
 10
653.0354728075
 20
379.1631763576
 30
0.0
  0
VERTEX
  5
995
  8
0
  6
CONTINUOUS
 62
     7
 10
653.4048427912
 20
380.1634056269
 30
0.0
  0
VERTEX
  5
996
  8
0
  6
CONTINUOUS
 62
     7
 10
653.6570449444
 20
381.3881991206
 30
0.0
  0
VERTEX
  5
997
  8
0
  6
CONTINUOUS
 62
     7
 10
653.7689377638
 20
382.6618833243
 30
0.0
  0
VERTEX
  5
998
  8
0
  6
CONTINUOUS
 62
     7
 10
653.7781764838
 20
383.1587197034
 30
0.0
  0
SEQEND
  5
AFE
  8
0
  6
CONTINUOUS
 62
     7
  0
ARC
  5
485
  8
0
  6
CONTINUOUS
 62
     7
 10
612.5064242119
 20
442.1587181984
 30
0.0
 40
3.780879050844102
 50
330.5988022273
 51
29.4011977727
  0
POLYLINE
  5
486
  8
0
  6
CONTINUOUS
 62
     7
 66
     1
 10
0.0
 20
0.0
 30
0.0
 70
   128
  0
VERTEX
  5
999
  8
0
  6
CONTINUOUS
 62
     7
 10
646.6694136235
 20
382.1587195395
 30
0.0
  0
VERTEX
  5
99A
  8
0
  6
CONTINUOUS
 62
     7
 10
646.4076449248
 20
382.3109591155
 30
0.0
  0
VERTEX
  5
99B
  8
0
  6
CONTINUOUS
 62
     7
 10
646.1857219311
 20
382.7445046752
 30
0.0
  0
VERTEX
  5
99C
  8
0
  6
CONTINUOUS
 62
     7
 10
646.0374404761
 20
383.393351525
 30
0.0
  0
VERTEX
  5
99D
  8
0
  6
CONTINUOUS
 62
     7
 10
645.9853758189
 20
384.1587198674
 30
0.0
  0
VERTEX
  5
99E
  8
0
  6
CONTINUOUS
 62
     7
 10
646.0374404761
 20
384.9240863471
 30
0.0
  0
VERTEX
  5
99F
  8
0
  6
CONTINUOUS
 62
     7
 10
646.1857219311
 20
385.5729331969
 30
0.0
  0
VERTEX
  5
9A0
  8
0
  6
CONTINUOUS
 62
     7
 10
646.4076449248
 20
386.0064787566
 30
0.0
  0
VERTEX
  5
9A1
  8
0
  6
CONTINUOUS
 62
     7
 10
646.6694136235
 20
386.1587183325
 30
0.0
  0
VERTEX
  5
9A2
  8
0
  6
CONTINUOUS
 62
     7
 10
646.9311823221
 20
386.0064787566
 30
0.0
  0
VERTEX
  5
9A3
  8
0
  6
CONTINUOUS
 62
     7
 10
647.1531053158
 20
385.5729331969
 30
0.0
  0
VERTEX
  5
9A4
  8
0
  6
CONTINUOUS
 62
     7
 10
647.3013867708
 20
384.9240863471
 30
0.0
  0
VERTEX
  5
9A5
  8
0
  6
CONTINUOUS
 62
     7
 10
647.3534514281
 20
384.1587198674
 30
0.0
  0
VERTEX
  5
9A6
  8
0
  6
CONTINUOUS
 62
     7
 10
647.3013867708
 20
383.393351525
 30
0.0
  0
VERTEX
  5
9A7
  8
0
  6
CONTINUOUS
 62
     7
 10
647.1531053158
 20
382.7445046752
 30
0.0
  0
VERTEX
  5
9A8
  8
0
  6
CONTINUOUS
 62
     7
 10
646.9311823221
 20
382.3109591155
 30
0.0
  0
VERTEX
  5
9A9
  8
0
  6
CONTINUOUS
 62
     7
 10
646.6694136235
 20
382.1587195395
 30
0.0
  0
SEQEND
  5
AFF
  8
0
  6
CONTINUOUS
 62
     7
  0
POLYLINE
  5
487
  8
0
  6
CONTINUOUS
 62
     7
 66
     1
 10
0.0
 20
0.0
 30
0.0
 70
   128
  0
VERTEX
  5
9AA
  8
0
  6
CONTINUOUS
 62
     7
 10
654.115523872
 20
388.0043072401
 30
0.0
  0
VERTEX
  5
9AB
  8
0
  6
CONTINUOUS
 62
     7
 10
654.4388045641
 20
387.823539391
 30
0.0
  0
VERTEX
  5
9AC
  8
0
  6
CONTINUOUS
 62
     7
 10
654.8062075945
 20
387.2762011139
 30
0.0
  0
VERTEX
  5
9AD
  8
0
  6
CONTINUOUS
 62
     7
 10
655.0977786156
 20
386.4237019568
 30
0.0
  0
VERTEX
  5
9AE
  8
0
  6
CONTINUOUS
 62
     7
 10
655.2849819037
 20
385.3494921475
 30
0.0
  0
VERTEX
  5
9AF
  8
0
  6
CONTINUOUS
 62
     7
 10
655.3494890305
 20
384.1587198674
 30
0.0
  0
VERTEX
  5
9B0
  8
0
  6
CONTINUOUS
 62
     7
 10
655.2849819037
 20
382.9679475873
 30
0.0
  0
VERTEX
  5
9B1
  8
0
  6
CONTINUOUS
 62
     7
 10
655.0977786156
 20
381.8937359153
 30
0.0
  0
VERTEX
  5
9B2
  8
0
  6
CONTINUOUS
 62
     7
 10
654.8062075945
 20
381.0412367581
 30
0.0
  0
VERTEX
  5
9B3
  8
0
  6
CONTINUOUS
 62
     7
 10
654.4388045641
 20
380.493898481
 30
0.0
  0
VERTEX
  5
9B4
  8
0
  6
CONTINUOUS
 62
     7
 10
654.1567404839
 20
380.3227251171
 30
0.0
  0
SEQEND
  5
B00
  8
0
  6
CONTINUOUS
 62
     7
  0
POLYLINE
  5
488
  8
0
  6
CONTINUOUS
 62
     7
 66
     1
 10
0.0
 20
0.0
 30
0.0
 70
   128
  0
VERTEX
  5
9B5
  8
0
  6
CONTINUOUS
 62
     7
 10
646.6694136235
 20
440.1587197332
 30
0.0
  0
VERTEX
  5
9B6
  8
0
  6
CONTINUOUS
 62
     7
 10
646.4076449248
 20
440.3109593092
 30
0.0
  0
VERTEX
  5
9B7
  8
0
  6
CONTINUOUS
 62
     7
 10
646.1857219311
 20
440.7445048689
 30
0.0
  0
VERTEX
  5
9B8
  8
0
  6
CONTINUOUS
 62
     7
 10
646.0374404761
 20
441.3933517187
 30
0.0
  0
VERTEX
  5
9B9
  8
0
  6
CONTINUOUS
 62
     7
 10
645.9853758189
 20
442.1587181984
 30
0.0
  0
VERTEX
  5
9BA
  8
0
  6
CONTINUOUS
 62
     7
 10
646.0374404761
 20
442.9240865408
 30
0.0
  0
VERTEX
  5
9BB
  8
0
  6
CONTINUOUS
 62
     7
 10
646.1857219311
 20
443.5729333906
 30
0.0
  0
VERTEX
  5
9BC
  8
0
  6
CONTINUOUS
 62
     7
 10
646.4076449248
 20
444.0064789503
 30
0.0
  0
VERTEX
  5
9BD
  8
0
  6
CONTINUOUS
 62
     7
 10
646.6694136235
 20
444.1587185263
 30
0.0
  0
VERTEX
  5
9BE
  8
0
  6
CONTINUOUS
 62
     7
 10
646.9311823221
 20
444.0064789503
 30
0.0
  0
VERTEX
  5
9BF
  8
0
  6
CONTINUOUS
 62
     7
 10
647.1531053158
 20
443.5729333906
 30
0.0
  0
VERTEX
  5
9C0
  8
0
  6
CONTINUOUS
 62
     7
 10
647.3013867708
 20
442.9240865408
 30
0.0
  0
VERTEX
  5
9C1
  8
0
  6
CONTINUOUS
 62
     7
 10
647.3534514281
 20
442.1587181984
 30
0.0
  0
VERTEX
  5
9C2
  8
0
  6
CONTINUOUS
 62
     7
 10
647.3013867708
 20
441.3933517187
 30
0.0
  0
VERTEX
  5
9C3
  8
0
  6
CONTINUOUS
 62
     7
 10
647.1531053158
 20
440.7445048689
 30
0.0
  0
VERTEX
  5
9C4
  8
0
  6
CONTINUOUS
 62
     7
 10
646.9311823221
 20
440.3109593092
 30
0.0
  0
VERTEX
  5
9C5
  8
0
  6
CONTINUOUS
 62
     7
 10
646.6694136235
 20
440.1587197332
 30
0.0
  0
SEQEND
  5
B01
  8
0
  6
CONTINUOUS
 62
     7
  0
POLYLINE
  5
489
  8
0
  6
CONTINUOUS
 62
     7
 66
     1
 10
0.0
 20
0.0
 30
0.0
 70
   128
  0
VERTEX
  5
9C6
  8
0
  6
CONTINUOUS
 62
     7
 10
654.115523872
 20
446.0043092965
 30
0.0
  0
VERTEX
  5
9C7
  8
0
  6
CONTINUOUS
 62
     7
 10
654.4388045641
 20
445.8235395848
 30
0.0
  0
VERTEX
  5
9C8
  8
0
  6
CONTINUOUS
 62
     7
 10
654.8062075945
 20
445.2762013077
 30
0.0
  0
VERTEX
  5
9C9
  8
0
  6
CONTINUOUS
 62
     7
 10
655.0977786156
 20
444.4237021505
 30
0.0
  0
VERTEX
  5
9CA
  8
0
  6
CONTINUOUS
 62
     7
 10
655.2849819037
 20
443.3494904785
 30
0.0
  0
VERTEX
  5
9CB
  8
0
  6
CONTINUOUS
 62
     7
 10
655.3494890305
 20
442.1587181984
 30
0.0
  0
VERTEX
  5
9CC
  8
0
  6
CONTINUOUS
 62
     7
 10
655.2849819037
 20
440.9679459183
 30
0.0
  0
VERTEX
  5
9CD
  8
0
  6
CONTINUOUS
 62
     7
 10
655.0977786156
 20
439.893736109
 30
0.0
  0
VERTEX
  5
9CE
  8
0
  6
CONTINUOUS
 62
     7
 10
654.8062075945
 20
439.0412369518
 30
0.0
  0
VERTEX
  5
9CF
  8
0
  6
CONTINUOUS
 62
     7
 10
654.4388045641
 20
438.4938986747
 30
0.0
  0
VERTEX
  5
9D0
  8
0
  6
CONTINUOUS
 62
     7
 10
654.1567404839
 20
438.3227271735
 30
0.0
  0
SEQEND
  5
B02
  8
0
  6
CONTINUOUS
 62
     7
  0
ARC
  5
48A
  8
0
  6
CONTINUOUS
 62
     7
 10
612.5064242119
 20
384.1587198674
 30
0.0
 40
3.780879050843975
 50
330.5988022273
 51
29.4011977727
  0
LINE
  5
48B
  8
0
  6
CONTINUOUS
 62
     7
 10
655.5051614615
 20
422.926668614
 30
0.0
 11
655.5051614615
 21
403.3907694517
 31
0.0
  0
LINE
  5
48C
  8
0
  6
CONTINUOUS
 62
     7
 10
655.5051614615
 20
423.9266678466
 30
0.0
 11
655.5051614615
 21
422.926668614
 31
0.0
  0
LINE
  5
48D
  8
0
  6
CONTINUOUS
 62
     7
 10
655.5051614615
 20
403.3907694517
 30
0.0
 11
655.5051614615
 21
402.3907702192
 31
0.0
  0
LINE
  5
48E
  8
0
  6
CONTINUOUS
 62
     7
 10
655.5551548573
 20
422.0606429278
 30
0.0
 11
655.5051614615
 21
422.0606429278
 31
0.0
  0
LINE
  5
48F
  8
0
  6
CONTINUOUS
 62
     7
 10
655.5551548573
 20
422.0606429278
 30
0.0
 11
655.5551548573
 21
404.256795138
 31
0.0
  0
LINE
  5
490
  8
0
  6
CONTINUOUS
 62
     7
 10
655.5551548573
 20
404.256795138
 30
0.0
 11
655.5051614615
 21
404.256795138
 31
0.0
  0
POLYLINE
  5
491
  8
0
  6
CONTINUOUS
 62
     7
 66
     1
 10
0.0
 20
0.0
 30
0.0
 70
   128
  0
VERTEX
  5
9D1
  8
0
  6
CONTINUOUS
 62
     7
 10
648.6189325424
 20
442.1587181984
 30
0.0
  0
VERTEX
  5
9D2
  8
0
  6
CONTINUOUS
 62
     7
 10
648.5814710232
 20
443.2707341163
 30
0.0
  0
VERTEX
  5
9D3
  8
0
  6
CONTINUOUS
 62
     7
 10
648.4705318781
 20
444.3400153666
 30
0.0
  0
VERTEX
  5
9D4
  8
0
  6
CONTINUOUS
 62
     7
 10
648.2903768393
 20
445.3254682719
 30
0.0
  0
VERTEX
  5
9D5
  8
0
  6
CONTINUOUS
 62
     7
 10
648.0479349467
 20
446.1892289816
 30
0.0
  0
VERTEX
  5
9D6
  8
0
  6
CONTINUOUS
 62
     7
 10
647.7525045248
 20
446.8980958461
 30
0.0
  0
VERTEX
  5
9D7
  8
0
  6
CONTINUOUS
 62
     7
 10
647.4154551598
 20
447.4248332678
 30
0.0
  0
VERTEX
  5
9D8
  8
0
  6
CONTINUOUS
 62
     7
 10
647.0497508618
 20
447.7491942941
 30
0.0
  0
VERTEX
  5
9D9
  8
0
  6
CONTINUOUS
 62
     7
 10
646.6694136235
 20
447.8587178289
 30
0.0
  0
SEQEND
  5
B03
  8
0
  6
CONTINUOUS
 62
     7
  0
LINE
  5
492
  8
0
  6
CONTINUOUS
 62
     7
 10
646.6694136235
 20
447.8587178289
 30
0.0
 11
650.7100869986
 21
447.8587178289
 31
0.0
  0
LINE
  5
493
  8
0
  6
CONTINUOUS
 62
     7
 10
646.6694136235
 20
447.8587178289
 30
0.0
 11
615.8003394576
 21
447.8587178289
 31
0.0
  0
LINE
  5
494
  8
0
  6
CONTINUOUS
 62
     7
 10
648.6189325424
 20
383.1587197034
 30
0.0
 11
648.6189325424
 21
442.1587181984
 31
0.0
  0
POLYLINE
  5
495
  8
0
  6
CONTINUOUS
 62
     7
 66
     1
 10
0.0
 20
0.0
 30
0.0
 70
   128
  0
VERTEX
  5
9DA
  8
0
  6
CONTINUOUS
 62
     7
 10
646.6694136235
 20
377.4587182103
 30
0.0
  0
VERTEX
  5
9DB
  8
0
  6
CONTINUOUS
 62
     7
 10
647.0497508618
 20
377.5682417451
 30
0.0
  0
VERTEX
  5
9DC
  8
0
  6
CONTINUOUS
 62
     7
 10
647.4154551598
 20
377.8926064967
 30
0.0
  0
VERTEX
  5
9DD
  8
0
  6
CONTINUOUS
 62
     7
 10
647.7525045248
 20
378.4193439185
 30
0.0
  0
VERTEX
  5
9DE
  8
0
  6
CONTINUOUS
 62
     7
 10
648.0479349467
 20
379.1282107829
 30
0.0
  0
VERTEX
  5
9DF
  8
0
  6
CONTINUOUS
 62
     7
 10
648.2903768393
 20
379.9919677674
 30
0.0
  0
VERTEX
  5
9E0
  8
0
  6
CONTINUOUS
 62
     7
 10
648.4705318781
 20
380.9774225353
 30
0.0
  0
VERTEX
  5
9E1
  8
0
  6
CONTINUOUS
 62
     7
 10
648.5814710232
 20
382.0467037855
 30
0.0
  0
VERTEX
  5
9E2
  8
0
  6
CONTINUOUS
 62
     7
 10
648.6189325424
 20
383.1587197034
 30
0.0
  0
SEQEND
  5
B04
  8
0
  6
CONTINUOUS
 62
     7
  0
LINE
  5
496
  8
0
  6
CONTINUOUS
 62
     7
 10
615.8003394576
 20
377.4587182103
 30
0.0
 11
646.6694136235
 21
377.4587182103
 31
0.0
  0
LINE
  5
497
  8
0
  6
CONTINUOUS
 62
     7
 10
615.8003394576
 20
378.6587198972
 30
0.0
 11
646.6694136235
 21
378.6587198972
 31
0.0
  0
POLYLINE
  5
498
  8
0
  6
CONTINUOUS
 62
     7
 66
     1
 10
0.0
 20
0.0
 30
0.0
 70
   128
  0
VERTEX
  5
9E3
  8
0
  6
CONTINUOUS
 62
     7
 10
648.2085098597
 20
383.1587197034
 30
0.0
  0
VERTEX
  5
9E4
  8
0
  6
CONTINUOUS
 62
     7
 10
648.1789310547
 20
382.2808122038
 30
0.0
  0
VERTEX
  5
9E5
  8
0
  6
CONTINUOUS
 62
     7
 10
648.0913420292
 20
381.4366427957
 30
0.0
  0
VERTEX
  5
9E6
  8
0
  6
CONTINUOUS
 62
     7
 10
647.9491253468
 20
380.6586531698
 30
0.0
  0
VERTEX
  5
9E7
  8
0
  6
CONTINUOUS
 62
     7
 10
647.7577199312
 20
379.9767387806
 30
0.0
  0
VERTEX
  5
9E8
  8
0
  6
CONTINUOUS
 62
     7
 10
647.5244869562
 20
379.4171070455
 30
0.0
  0
VERTEX
  5
9E9
  8
0
  6
CONTINUOUS
 62
     7
 10
647.2583969208
 20
379.0012603401
 30
0.0
  0
VERTEX
  5
9EA
  8
0
  6
CONTINUOUS
 62
     7
 10
646.9696720215
 20
378.745183885
 30
0.0
  0
VERTEX
  5
9EB
  8
0
  6
CONTINUOUS
 62
     7
 10
646.6694136235
 20
378.6587198972
 30
0.0
  0
SEQEND
  5
B05
  8
0
  6
CONTINUOUS
 62
     7
  0
LINE
  5
499
  8
0
  6
CONTINUOUS
 62
     7
 10
648.2085098597
 20
383.1587197034
 30
0.0
 11
648.2085098597
 21
442.1587181984
 31
0.0
  0
POLYLINE
  5
49A
  8
0
  6
CONTINUOUS
 62
     7
 66
     1
 10
0.0
 20
0.0
 30
0.0
 70
   128
  0
VERTEX
  5
9EC
  8
0
  6
CONTINUOUS
 62
     7
 10
646.6694136235
 20
446.6587198674
 30
0.0
  0
VERTEX
  5
9ED
  8
0
  6
CONTINUOUS
 62
     7
 10
646.9696720215
 20
446.5722521542
 30
0.0
  0
VERTEX
  5
9EE
  8
0
  6
CONTINUOUS
 62
     7
 10
647.2583969208
 20
446.3161756991
 30
0.0
  0
VERTEX
  5
9EF
  8
0
  6
CONTINUOUS
 62
     7
 10
647.5244869562
 20
445.900332719
 30
0.0
  0
VERTEX
  5
9F0
  8
0
  6
CONTINUOUS
 62
     7
 10
647.7577199312
 20
445.3407009839
 30
0.0
  0
VERTEX
  5
9F1
  8
0
  6
CONTINUOUS
 62
     7
 10
647.9491253468
 20
444.6587865948
 30
0.0
  0
VERTEX
  5
9F2
  8
0
  6
CONTINUOUS
 62
     7
 10
648.0913420292
 20
443.8807951062
 30
0.0
  0
VERTEX
  5
9F3
  8
0
  6
CONTINUOUS
 62
     7
 10
648.1789310547
 20
443.0366256981
 30
0.0
  0
VERTEX
  5
9F4
  8
0
  6
CONTINUOUS
 62
     7
 10
648.2085098597
 20
442.1587181984
 30
0.0
  0
SEQEND
  5
B06
  8
0
  6
CONTINUOUS
 62
     7
  0
LINE
  5
49B
  8
0
  6
CONTINUOUS
 62
     7
 10
646.6694136235
 20
446.6587198674
 30
0.0
 11
615.8003394576
 21
446.6587198674
 31
0.0
  0
LINE
  5
49C
  8
0
  6
CONTINUOUS
 62
     7
 10
650.7100869986
 20
377.4587182103
 30
0.0
 11
646.6694136235
 21
377.4587182103
 31
0.0
  0
ARC
  5
49D
  8
0
  6
CONTINUOUS
 62
     7
 10
653.4551540489
 20
436.3587190329
 30
0.0
 40
1.999999999999963
 50
0.0
 51
77.6654072805
  0
LINE
  5
49E
  8
0
  6
CONTINUOUS
 62
     7
 10
655.4551531645
 20
436.3587187378
 30
0.0
 11
655.4551531645
 21
433.3587182461
 31
0.0
  0
LINE
  5
49F
  8
0
  6
CONTINUOUS
 62
     7
 10
655.4551531645
 20
433.3587182461
 30
0.0
 11
655.4551531645
 21
391.9587196558
 31
0.0
  0
LINE
  5
4A0
  8
0
  6
CONTINUOUS
 62
     7
 10
655.4551531645
 20
391.9587196558
 30
0.0
 11
655.4551531645
 21
388.958719164
 31
0.0
  0
ARC
  5
4A1
  8
0
  6
CONTINUOUS
 62
     7
 10
653.4551540489
 20
388.9587190329
 30
0.0
 40
2.00000000000003
 50
309.7655702555
 51
0.0
  0
POLYLINE
  5
4A2
  8
0
  6
CONTINUOUS
 62
     7
 66
     1
 10
0.0
 20
0.0
 30
0.0
 70
   128
  0
VERTEX
  5
9F5
  8
0
  6
CONTINUOUS
 62
     7
 10
619.3351854655
 20
384.658719018
 30
0.0
  0
VERTEX
  5
9F6
  8
0
  6
CONTINUOUS
 62
     7
 10
619.2167957398
 20
384.6809999793
 30
0.0
  0
VERTEX
  5
9F7
  8
0
  6
CONTINUOUS
 62
     7
 10
619.1003580662
 20
384.747475922
 30
0.0
  0
VERTEX
  5
9F8
  8
0
  6
CONTINUOUS
 62
     7
 10
618.9877946945
 20
384.8570497482
 30
0.0
  0
VERTEX
  5
9F9
  8
0
  6
CONTINUOUS
 62
     7
 10
618.8809682699
 20
385.0079128294
 30
0.0
  0
VERTEX
  5
9FA
  8
0
  6
CONTINUOUS
 62
     7
 10
618.7816371294
 20
385.1975748091
 30
0.0
  0
VERTEX
  5
9FB
  8
0
  6
CONTINUOUS
 62
     7
 10
618.6914404007
 20
385.4229064434
 30
0.0
  0
VERTEX
  5
9FC
  8
0
  6
CONTINUOUS
 62
     7
 10
618.6118756505
 20
385.6801861672
 30
0.0
  0
VERTEX
  5
9FD
  8
0
  6
CONTINUOUS
 62
     7
 10
618.5442392799
 20
385.9651708751
 30
0.0
  0
SEQEND
  5
B07
  8
0
  6
CONTINUOUS
 62
     7
  0
LINE
  5
4A3
  8
0
  6
CONTINUOUS
 62
     7
 10
646.0071017119
 20
384.658719018
 30
0.0
 11
619.3351854655
 21
384.658719018
 31
0.0
  0
ARC
  5
4A4
  8
0
  6
CONTINUOUS
 62
     7
 10
651.1185811004
 20
385.4407644592
 30
0.0
 40
3.531936332182868
 50
148.0573509404
 51
168.2714702335
  0
LINE
  5
4A5
  8
0
  6
CONTINUOUS
 62
     7
 10
648.2085098597
 20
387.4499058126
 30
0.0
 11
648.121457276
 21
387.309406489
 31
0.0
  0
LINE
  5
4A6
  8
0
  6
CONTINUOUS
 62
     7
 10
648.121457276
 20
439.0080315768
 30
0.0
 11
648.2085098597
 21
438.8675322532
 31
0.0
  0
ARC
  5
4A7
  8
0
  6
CONTINUOUS
 62
     7
 10
651.1185811004
 20
440.8766736066
 30
0.0
 40
3.531936332181741
 50
191.7285297665
 51
211.9426490596
  0
LINE
  5
4A8
  8
0
  6
CONTINUOUS
 62
     7
 10
619.3351854655
 20
441.6587190478
 30
0.0
 11
646.0071017119
 21
441.6587190478
 31
0.0
  0
POLYLINE
  5
4A9
  8
0
  6
CONTINUOUS
 62
     7
 66
     1
 10
0.0
 20
0.0
 30
0.0
 70
   128
  0
VERTEX
  5
9FE
  8
0
  6
CONTINUOUS
 62
     7
 10
618.5442392799
 20
440.3522671907
 30
0.0
  0
VERTEX
  5
9FF
  8
0
  6
CONTINUOUS
 62
     7
 10
618.6118756505
 20
440.6372518985
 30
0.0
  0
VERTEX
  5
A00
  8
0
  6
CONTINUOUS
 62
     7
 10
618.6914404007
 20
440.8945316224
 30
0.0
  0
VERTEX
  5
A01
  8
0
  6
CONTINUOUS
 62
     7
 10
618.7816371294
 20
441.1198632567
 30
0.0
  0
VERTEX
  5
A02
  8
0
  6
CONTINUOUS
 62
     7
 10
618.8809682699
 20
441.3095252364
 30
0.0
  0
VERTEX
  5
A03
  8
0
  6
CONTINUOUS
 62
     7
 10
618.9877946945
 20
441.4603883176
 30
0.0
  0
VERTEX
  5
A04
  8
0
  6
CONTINUOUS
 62
     7
 10
619.1003580662
 20
441.5699621438
 30
0.0
  0
VERTEX
  5
A05
  8
0
  6
CONTINUOUS
 62
     7
 10
619.2167957398
 20
441.6364380865
 30
0.0
  0
VERTEX
  5
A06
  8
0
  6
CONTINUOUS
 62
     7
 10
619.3351854655
 20
441.6587190478
 30
0.0
  0
SEQEND
  5
B08
  8
0
  6
CONTINUOUS
 62
     7
  0
ARC
  5
4AA
  8
0
  6
CONTINUOUS
 62
     7
 10
614.8773589895
 20
440.9605096832
 30
0.0
 40
3.716983991555983
 50
328.3125293881
 51
350.5818360842
  0
LINE
  5
4AB
  8
0
  6
CONTINUOUS
 62
     7
 10
617.948408899
 20
438.8587182163
 30
0.0
 11
618.0402373048
 21
439.0080315768
 31
0.0
  0
LINE
  5
4AC
  8
0
  6
CONTINUOUS
 62
     7
 10
618.0402373048
 20
387.309406489
 30
0.0
 11
617.948408899
 21
387.4587198495
 31
0.0
  0
ARC
  5
4AD
  8
0
  6
CONTINUOUS
 62
     7
 10
614.8773589895
 20
385.3569283826
 30
0.0
 40
3.716983991557122
 50
9.4181639158
 51
31.6874706119
  0
POLYLINE
  5
4AE
  8
0
  6
CONTINUOUS
 62
     7
 66
     1
 10
0.0
 20
0.0
 30
0.0
 70
   128
  0
VERTEX
  5
A07
  8
0
  6
CONTINUOUS
 62
     7
 10
616.4593284103
 20
382.1587195395
 30
0.0
  0
VERTEX
  5
A08
  8
0
  6
CONTINUOUS
 62
     7
 10
616.4947857233
 20
381.9920090734
 30
0.0
  0
VERTEX
  5
A09
  8
0
  6
CONTINUOUS
 62
     7
 10
616.6223918172
 20
381.5373969971
 30
0.0
  0
VERTEX
  5
A0A
  8
0
  6
CONTINUOUS
 62
     7
 10
616.7778779837
 20
381.1643091737
 30
0.0
  0
VERTEX
  5
A0B
  8
0
  6
CONTINUOUS
 62
     7
 10
616.9552688571
 20
380.8870805203
 30
0.0
  0
VERTEX
  5
A0C
  8
0
  6
CONTINUOUS
 62
     7
 10
617.1477546068
 20
380.7163616418
 30
0.0
  0
VERTEX
  5
A0D
  8
0
  6
CONTINUOUS
 62
     7
 10
617.3479293557
 20
380.658720225
 30
0.0
  0
SEQEND
  5
B09
  8
0
  6
CONTINUOUS
 62
     7
  0
LINE
  5
4AF
  8
0
  6
CONTINUOUS
 62
     7
 10
616.3218651983
 20
386.1587183325
 30
0.0
 11
616.3218651983
 21
387.4587198495
 31
0.0
  0
LINE
  5
4B0
  8
0
  6
CONTINUOUS
 62
     7
 10
616.3218651983
 20
438.8587182163
 30
0.0
 11
616.3218651983
 21
440.1587197332
 31
0.0
  0
POLYLINE
  5
4B1
  8
0
  6
CONTINUOUS
 62
     7
 66
     1
 10
0.0
 20
0.0
 30
0.0
 70
   128
  0
VERTEX
  5
A0E
  8
0
  6
CONTINUOUS
 62
     7
 10
617.3479293557
 20
445.6587178408
 30
0.0
  0
VERTEX
  5
A0F
  8
0
  6
CONTINUOUS
 62
     7
 10
617.1477546068
 20
445.601076424
 30
0.0
  0
VERTEX
  5
A10
  8
0
  6
CONTINUOUS
 62
     7
 10
616.9552688571
 20
445.4303575455
 30
0.0
  0
VERTEX
  5
A11
  8
0
  6
CONTINUOUS
 62
     7
 10
616.7778779837
 20
445.1531288921
 30
0.0
  0
VERTEX
  5
A12
  8
0
  6
CONTINUOUS
 62
     7
 10
616.6223918172
 20
444.7800410687
 30
0.0
  0
VERTEX
  5
A13
  8
0
  6
CONTINUOUS
 62
     7
 10
616.4947857233
 20
444.3254289924
 30
0.0
  0
VERTEX
  5
A14
  8
0
  6
CONTINUOUS
 62
     7
 10
616.4593284103
 20
444.1587185263
 30
0.0
  0
SEQEND
  5
B0A
  8
0
  6
CONTINUOUS
 62
     7
  0
LINE
  5
4B2
  8
0
  6
CONTINUOUS
 62
     7
 10
617.3479293557
 20
445.6587178408
 30
0.0
 11
647.6367970082
 21
445.6587178408
 31
0.0
  0
LINE
  5
4B3
  8
0
  6
CONTINUOUS
 62
     7
 10
647.9491402479
 20
380.658720225
 30
0.0
 11
617.3479293557
 21
380.658720225
 31
0.0
  0
POLYLINE
  5
4B4
  8
0
  6
CONTINUOUS
 62
     7
 66
     1
 10
0.0
 20
0.0
 30
0.0
 70
   128
  0
VERTEX
  5
A15
  8
0
  6
CONTINUOUS
 62
     7
 10
618.2029728862
 20
442.1587181984
 30
0.0
  0
VERTEX
  5
A16
  8
0
  6
CONTINUOUS
 62
     7
 10
618.150908229
 20
441.3933517187
 30
0.0
  0
VERTEX
  5
A17
  8
0
  6
CONTINUOUS
 62
     7
 10
618.002626774
 20
440.7445048689
 30
0.0
  0
VERTEX
  5
A18
  8
0
  6
CONTINUOUS
 62
     7
 10
617.7807037803
 20
440.3109593092
 30
0.0
  0
VERTEX
  5
A19
  8
0
  6
CONTINUOUS
 62
     7
 10
617.5189350816
 20
440.1587197332
 30
0.0
  0
SEQEND
  5
B0B
  8
0
  6
CONTINUOUS
 62
     7
  0
POLYLINE
  5
4B5
  8
0
  6
CONTINUOUS
 62
     7
 66
     1
 10
0.0
 20
0.0
 30
0.0
 70
   128
  0
VERTEX
  5
A1A
  8
0
  6
CONTINUOUS
 62
     7
 10
617.5189350816
 20
444.1587185263
 30
0.0
  0
VERTEX
  5
A1B
  8
0
  6
CONTINUOUS
 62
     7
 10
617.7807037803
 20
444.0064789503
 30
0.0
  0
VERTEX
  5
A1C
  8
0
  6
CONTINUOUS
 62
     7
 10
618.002626774
 20
443.5729333906
 30
0.0
  0
VERTEX
  5
A1D
  8
0
  6
CONTINUOUS
 62
     7
 10
618.150908229
 20
442.9240865408
 30
0.0
  0
VERTEX
  5
A1E
  8
0
  6
CONTINUOUS
 62
     7
 10
618.2029728862
 20
442.1587181984
 30
0.0
  0
SEQEND
  5
B0C
  8
0
  6
CONTINUOUS
 62
     7
  0
POLYLINE
  5
4B6
  8
0
  6
CONTINUOUS
 62
     7
 66
     1
 10
0.0
 20
0.0
 30
0.0
 70
   128
  0
VERTEX
  5
A1F
  8
0
  6
CONTINUOUS
 62
     7
 10
618.2029728862
 20
384.1587198674
 30
0.0
  0
VERTEX
  5
A20
  8
0
  6
CONTINUOUS
 62
     7
 10
618.150908229
 20
383.393351525
 30
0.0
  0
VERTEX
  5
A21
  8
0
  6
CONTINUOUS
 62
     7
 10
618.002626774
 20
382.7445046752
 30
0.0
  0
VERTEX
  5
A22
  8
0
  6
CONTINUOUS
 62
     7
 10
617.7807037803
 20
382.3109591155
 30
0.0
  0
VERTEX
  5
A23
  8
0
  6
CONTINUOUS
 62
     7
 10
617.5189350816
 20
382.1587195395
 30
0.0
  0
SEQEND
  5
B0D
  8
0
  6
CONTINUOUS
 62
     7
  0
POLYLINE
  5
4B7
  8
0
  6
CONTINUOUS
 62
     7
 66
     1
 10
0.0
 20
0.0
 30
0.0
 70
   128
  0
VERTEX
  5
A24
  8
0
  6
CONTINUOUS
 62
     7
 10
617.5189350816
 20
386.1587183325
 30
0.0
  0
VERTEX
  5
A25
  8
0
  6
CONTINUOUS
 62
     7
 10
617.7807037803
 20
386.0064787566
 30
0.0
  0
VERTEX
  5
A26
  8
0
  6
CONTINUOUS
 62
     7
 10
618.002626774
 20
385.5729331969
 30
0.0
  0
VERTEX
  5
A27
  8
0
  6
CONTINUOUS
 62
     7
 10
618.150908229
 20
384.9240863471
 30
0.0
  0
VERTEX
  5
A28
  8
0
  6
CONTINUOUS
 62
     7
 10
618.2029728862
 20
384.1587198674
 30
0.0
  0
SEQEND
  5
B0E
  8
0
  6
CONTINUOUS
 62
     7
  0
POLYLINE
  5
4B8
  8
0
  6
CONTINUOUS
 62
     7
 66
     1
 10
0.0
 20
0.0
 30
0.0
 70
   128
  0
VERTEX
  5
A29
  8
0
  6
CONTINUOUS
 62
     7
 10
647.2383697602
 20
440.1587197332
 30
0.0
  0
VERTEX
  5
A2A
  8
0
  6
CONTINUOUS
 62
     7
 10
647.2819407555
 20
440.0155735909
 30
0.0
  0
VERTEX
  5
A2B
  8
0
  6
CONTINUOUS
 62
     7
 10
647.3245282742
 20
439.8361375331
 30
0.0
  0
SEQEND
  5
B0F
  8
0
  6
CONTINUOUS
 62
     7
  0
ARC
  5
4B9
  8
0
  6
CONTINUOUS
 62
     7
 10
652.038817529
 20
440.6180357413
 30
0.0
 40
4.7786910327504
 50
189.4171835704
 51
211.6878148288
  0
ARC
  5
4BA
  8
0
  6
CONTINUOUS
 62
     7
 10
646.4841309904
 20
437.1821504804
 30
0.0
 40
1.752766944716888
 50
10.3259834565
 51
31.8789822001
  0
ARC
  5
4BB
  8
0
  6
CONTINUOUS
 62
     7
 10
646.4841309904
 20
389.1352875854
 30
0.0
 40
1.752766944716766
 50
328.1210177999
 51
349.6740165435
  0
ARC
  5
4BC
  8
0
  6
CONTINUOUS
 62
     7
 10
652.038817529
 20
385.6994023245
 30
0.0
 40
4.778691032750406
 50
148.3121851712
 51
170.5828164296
  0
POLYLINE
  5
4BD
  8
0
  6
CONTINUOUS
 62
     7
 66
     1
 10
0.0
 20
0.0
 30
0.0
 70
   128
  0
VERTEX
  5
A2C
  8
0
  6
CONTINUOUS
 62
     7
 10
647.3245282742
 20
386.4813005327
 30
0.0
  0
VERTEX
  5
A2D
  8
0
  6
CONTINUOUS
 62
     7
 10
647.2819407555
 20
386.3018644749
 30
0.0
  0
VERTEX
  5
A2E
  8
0
  6
CONTINUOUS
 62
     7
 10
647.2383697602
 20
386.1587183325
 30
0.0
  0
SEQEND
  5
B10
  8
0
  6
CONTINUOUS
 62
     7
  0
LINE
  5
4BE
  8
0
  6
CONTINUOUS
 62
     7
 10
646.2169696661
 20
385.6587191819
 30
0.0
 11
619.3351854655
 21
385.6587191819
 31
0.0
  0
POLYLINE
  5
4BF
  8
0
  6
CONTINUOUS
 62
     7
 66
     1
 10
0.0
 20
0.0
 30
0.0
 70
   128
  0
VERTEX
  5
A2F
  8
0
  6
CONTINUOUS
 62
     7
 10
619.3351854655
 20
385.6587191819
 30
0.0
  0
VERTEX
  5
A30
  8
0
  6
CONTINUOUS
 62
     7
 10
619.2606424066
 20
385.6727486252
 30
0.0
  0
VERTEX
  5
A31
  8
0
  6
CONTINUOUS
 62
     7
 10
619.1873361441
 20
385.7146041243
 30
0.0
  0
VERTEX
  5
A32
  8
0
  6
CONTINUOUS
 62
     7
 10
619.1164587709
 20
385.783594638
 30
0.0
  0
VERTEX
  5
A33
  8
0
  6
CONTINUOUS
 62
     7
 10
619.0492023798
 20
385.87858209
 30
0.0
  0
VERTEX
  5
A34
  8
0
  6
CONTINUOUS
 62
     7
 10
618.9866547557
 20
385.9979981332
 30
0.0
  0
VERTEX
  5
A35
  8
0
  6
CONTINUOUS
 62
     7
 10
618.9298664304
 20
386.1398739516
 30
0.0
  0
VERTEX
  5
A36
  8
0
  6
CONTINUOUS
 62
     7
 10
618.8797687265
 20
386.3018644749
 30
0.0
  0
VERTEX
  5
A37
  8
0
  6
CONTINUOUS
 62
     7
 10
618.8371812078
 20
386.4813005327
 30
0.0
  0
SEQEND
  5
B11
  8
0
  6
CONTINUOUS
 62
     7
  0
ARC
  5
4C0
  8
0
  6
CONTINUOUS
 62
     7
 10
612.1578328132
 20
385.1499920755
 30
0.0
 40
6.810732499796265
 50
11.2723060144
 51
19.8149718987
  0
ARC
  5
4C1
  8
0
  6
CONTINUOUS
 62
     7
 10
612.1578328132
 20
441.1674459902
 30
0.0
 40
6.810732499798061
 50
340.1850281013
 51
348.7276939856
  0
POLYLINE
  5
4C2
  8
0
  6
CONTINUOUS
 62
     7
 66
     1
 10
0.0
 20
0.0
 30
0.0
 70
   128
  0
VERTEX
  5
A38
  8
0
  6
CONTINUOUS
 62
     7
 10
618.8371812078
 20
439.8361375331
 30
0.0
  0
VERTEX
  5
A39
  8
0
  6
CONTINUOUS
 62
     7
 10
618.8797687265
 20
440.0155735909
 30
0.0
  0
VERTEX
  5
A3A
  8
0
  6
CONTINUOUS
 62
     7
 10
618.9298664304
 20
440.1775641142
 30
0.0
  0
VERTEX
  5
A3B
  8
0
  6
CONTINUOUS
 62
     7
 10
618.9866547557
 20
440.3194399326
 30
0.0
  0
VERTEX
  5
A3C
  8
0
  6
CONTINUOUS
 62
     7
 10
619.0492023798
 20
440.4388559758
 30
0.0
  0
VERTEX
  5
A3D
  8
0
  6
CONTINUOUS
 62
     7
 10
619.1164587709
 20
440.5338434278
 30
0.0
  0
VERTEX
  5
A3E
  8
0
  6
CONTINUOUS
 62
     7
 10
619.1873361441
 20
440.6028339415
 30
0.0
  0
VERTEX
  5
A3F
  8
0
  6
CONTINUOUS
 62
     7
 10
619.2606424066
 20
440.6446894406
 30
0.0
  0
VERTEX
  5
A40
  8
0
  6
CONTINUOUS
 62
     7
 10
619.3351854655
 20
440.6587188839
 30
0.0
  0
SEQEND
  5
B12
  8
0
  6
CONTINUOUS
 62
     7
  0
LINE
  5
4C3
  8
0
  6
CONTINUOUS
 62
     7
 10
619.3351854655
 20
440.6587188839
 30
0.0
 11
646.2169696661
 21
440.6587188839
 31
0.0
  0
LINE
  5
4C4
  8
0
  6
CONTINUOUS
 62
     7
 10
616.2003387781
 20
438.8587182163
 30
0.0
 11
644.5061971518
 21
438.8587182163
 31
0.0
  0
CIRCLE
  5
4C5
  8
0
  6
CONTINUOUS
 62
     7
 10
631.2003420206
 20
413.1587190329
 30
0.0
 40
11.00000000000011
  0
LINE
  5
4C6
  8
0
  6
CONTINUOUS
 62
     7
 10
644.5061971518
 20
387.4587198495
 30
0.0
 11
616.2003387781
 21
387.4587198495
 31
0.0
  0
POLYLINE
  5
4C7
  8
0
  6
CONTINUOUS
 62
     7
 66
     1
 10
0.0
 20
0.0
 30
0.0
 70
   128
  0
VERTEX
  5
A41
  8
0
  6
CONTINUOUS
 62
     7
 10
615.8003394576
 20
387.4991280733
 30
0.0
  0
VERTEX
  5
A42
  8
0
  6
CONTINUOUS
 62
     7
 10
615.8101593229
 20
387.4971480815
 30
0.0
  0
VERTEX
  5
A43
  8
0
  6
CONTINUOUS
 62
     7
 10
616.2003387781
 20
387.4587198495
 30
0.0
  0
SEQEND
  5
B13
  8
0
  6
CONTINUOUS
 62
     7
  0
POLYLINE
  5
4C8
  8
0
  6
CONTINUOUS
 62
     7
 66
     1
 10
0.0
 20
0.0
 30
0.0
 70
   128
  0
VERTEX
  5
A44
  8
0
  6
CONTINUOUS
 62
     7
 10
616.2003387781
 20
438.8587182163
 30
0.0
  0
VERTEX
  5
A45
  8
0
  6
CONTINUOUS
 62
     7
 10
615.8101593229
 20
438.8202899842
 30
0.0
  0
VERTEX
  5
A46
  8
0
  6
CONTINUOUS
 62
     7
 10
615.8003394576
 20
438.8183099924
 30
0.0
  0
SEQEND
  5
B14
  8
0
  6
CONTINUOUS
 62
     7
  0
LINE
  5
4C9
  8
0
  6
CONTINUOUS
 62
     7
 10
562.4609735879
 20
454.9188731014
 30
0.0
 11
558.6963144215
 21
461.0445095002
 31
0.0
  0
LINE
  5
4CA
  8
0
  6
CONTINUOUS
 62
     7
 10
573.0708909305
 20
461.4394498764
 30
0.0
 11
569.6482618424
 21
455.1163395642
 31
0.0
  0
LINE
  5
4CB
  8
0
  6
CONTINUOUS
 62
     7
 10
569.6482618424
 20
455.1163395642
 30
0.0
 11
562.4609735879
 21
454.9188731014
 31
0.0
  0
LINE
  5
4CC
  8
0
  6
CONTINUOUS
 62
     7
 10
569.3062317642
 20
467.5650900005
 30
0.0
 11
573.0708909305
 21
461.4394498764
 31
0.0
  0
LINE
  5
4CD
  8
0
  6
CONTINUOUS
 62
     7
 10
558.6963144215
 20
461.0445095002
 30
0.0
 11
562.1189435097
 21
467.3676198124
 31
0.0
  0
LINE
  5
4CE
  8
0
  6
CONTINUOUS
 62
     7
 10
562.1189435097
 20
467.3676198124
 30
0.0
 11
569.3062317642
 21
467.5650900005
 31
0.0
  0
ARC
  5
4CF
  8
0
  6
CONTINUOUS
 62
     7
 10
565.8836031413
 20
461.2419801536
 30
0.0
 40
7.190000000000024
 50
1.5737995268
 51
61.5737995268
  0
ARC
  5
4D0
  8
0
  6
CONTINUOUS
 62
     7
 10
565.8836031413
 20
461.2419801536
 30
0.0
 40
7.190000000000049
 50
121.5737995268
 51
181.5737995268
  0
ARC
  5
4D1
  8
0
  6
CONTINUOUS
 62
     7
 10
565.8836031413
 20
461.2419801536
 30
0.0
 40
7.190000000000049
 50
61.5737995268
 51
121.5737995268
  0
ARC
  5
4D2
  8
0
  6
CONTINUOUS
 62
     7
 10
565.8836031413
 20
461.2419801536
 30
0.0
 40
7.190000000000001
 50
301.5737995268
 51
1.5737995268
  0
ARC
  5
4D3
  8
0
  6
CONTINUOUS
 62
     7
 10
565.8836031413
 20
461.2419801536
 30
0.0
 40
7.190000000000001
 50
241.5737995268
 51
301.5737995268
  0
ARC
  5
4D4
  8
0
  6
CONTINUOUS
 62
     7
 10
565.8836031413
 20
461.2419801536
 30
0.0
 40
7.190000000000032
 50
181.5737995268
 51
241.5737995268
  0
LINE
  5
4D5
  8
0
  6
CONTINUOUS
 62
     7
 10
475.8427214893
 20
361.3107992112
 30
0.0
 11
469.5196111771
 21
357.888170123
 31
0.0
  0
LINE
  5
4D6
  8
0
  6
CONTINUOUS
 62
     7
 10
469.5196111771
 20
357.888170123
 30
0.0
 11
463.393971053
 21
361.6528292893
 31
0.0
  0
LINE
  5
4D7
  8
0
  6
CONTINUOUS
 62
     7
 10
463.393971053
 20
361.6528292893
 30
0.0
 11
463.5914412411
 21
368.8401175438
 31
0.0
  0
LINE
  5
4D8
  8
0
  6
CONTINUOUS
 62
     7
 10
476.0401879522
 20
368.4980874657
 30
0.0
 11
475.8427214893
 21
361.3107992112
 31
0.0
  0
LINE
  5
4D9
  8
0
  6
CONTINUOUS
 62
     7
 10
469.9145515534
 20
372.262746632
 30
0.0
 11
476.0401879522
 21
368.4980874657
 31
0.0
  0
LINE
  5
4DA
  8
0
  6
CONTINUOUS
 62
     7
 10
463.5914412411
 20
368.8401175438
 30
0.0
 11
469.9145515534
 21
372.262746632
 31
0.0
  0
ARC
  5
4DB
  8
0
  6
CONTINUOUS
 62
     7
 10
469.7170808999
 20
365.0754579122
 30
0.0
 40
7.189999999999977
 50
208.4262004732
 51
268.4262004732
  0
ARC
  5
4DC
  8
0
  6
CONTINUOUS
 62
     7
 10
469.7170808999
 20
365.0754579122
 30
0.0
 40
7.189999999999983
 50
148.4262004732
 51
208.4262004732
  0
ARC
  5
4DD
  8
0
  6
CONTINUOUS
 62
     7
 10
469.7170808999
 20
365.0754579122
 30
0.0
 40
7.189999999999983
 50
88.4262004732
 51
148.4262004732
  0
ARC
  5
4DE
  8
0
  6
CONTINUOUS
 62
     7
 10
469.7170808999
 20
365.0754579122
 30
0.0
 40
7.19000000000002
 50
28.4262004732
 51
88.4262004732
  0
ARC
  5
4DF
  8
0
  6
CONTINUOUS
 62
     7
 10
469.7170808999
 20
365.0754579122
 30
0.0
 40
7.190000000000012
 50
268.4262004732
 51
328.4262004732
  0
ARC
  5
4E0
  8
0
  6
CONTINUOUS
 62
     7
 10
469.7170808999
 20
365.0754579122
 30
0.0
 40
7.19000000000002
 50
328.4262004732
 51
28.4262004732
  0
LINE
  5
4E1
  8
0
  6
CONTINUOUS
 62
     7
 10
475.8427214893
 20
465.0066388546
 30
0.0
 11
476.0401879522
 21
457.8193506001
 31
0.0
  0
LINE
  5
4E2
  8
0
  6
CONTINUOUS
 62
     7
 10
476.0401879522
 20
457.8193506001
 30
0.0
 11
469.9145515534
 21
454.0546914338
 31
0.0
  0
LINE
  5
4E3
  8
0
  6
CONTINUOUS
 62
     7
 10
463.5914412411
 20
457.477320522
 30
0.0
 11
463.393971053
 21
464.6646087765
 31
0.0
  0
LINE
  5
4E4
  8
0
  6
CONTINUOUS
 62
     7
 10
463.393971053
 20
464.6646087765
 30
0.0
 11
469.5196111771
 21
468.4292679428
 31
0.0
  0
LINE
  5
4E5
  8
0
  6
CONTINUOUS
 62
     7
 10
469.5196111771
 20
468.4292679428
 30
0.0
 11
475.8427214893
 21
465.0066388546
 31
0.0
  0
LINE
  5
4E6
  8
0
  6
CONTINUOUS
 62
     7
 10
469.9145515534
 20
454.0546914338
 30
0.0
 11
463.5914412411
 21
457.477320522
 31
0.0
  0
ARC
  5
4E7
  8
0
  6
CONTINUOUS
 62
     7
 10
469.7170808999
 20
461.2419801536
 30
0.0
 40
7.190000000000049
 50
331.5737995268
 51
31.5737995268
  0
ARC
  5
4E8
  8
0
  6
CONTINUOUS
 62
     7
 10
469.7170808999
 20
461.2419801536
 30
0.0
 40
7.190000000000034
 50
211.5737995268
 51
271.5737995268
  0
ARC
  5
4E9
  8
0
  6
CONTINUOUS
 62
     7
 10
469.7170808999
 20
461.2419801536
 30
0.0
 40
7.190000000000031
 50
151.5737995268
 51
211.5737995268
  0
ARC
  5
4EA
  8
0
  6
CONTINUOUS
 62
     7
 10
469.7170808999
 20
461.2419801536
 30
0.0
 40
7.189999999999997
 50
91.5737995268
 51
151.5737995268
  0
ARC
  5
4EB
  8
0
  6
CONTINUOUS
 62
     7
 10
469.7170808999
 20
461.2419801536
 30
0.0
 40
7.190000000000034
 50
271.5737995268
 51
331.5737995268
  0
ARC
  5
4EC
  8
0
  6
CONTINUOUS
 62
     7
 10
469.7170808999
 20
461.2419801536
 30
0.0
 40
7.190000000000049
 50
31.5737995268
 51
91.5737995268
  0
LINE
  5
4ED
  8
0
  6
CONTINUOUS
 62
     7
 10
573.0708909305
 20
364.8779881893
 30
0.0
 11
569.3062317642
 21
358.7523480653
 31
0.0
  0
LINE
  5
4EE
  8
0
  6
CONTINUOUS
 62
     7
 10
569.3062317642
 20
358.7523480653
 30
0.0
 11
562.1189435097
 21
358.9498182534
 31
0.0
  0
LINE
  5
4EF
  8
0
  6
CONTINUOUS
 62
     7
 10
562.1189435097
 20
358.9498182534
 30
0.0
 11
558.6963144215
 21
365.2729285656
 31
0.0
  0
LINE
  5
4F0
  8
0
  6
CONTINUOUS
 62
     7
 10
558.6963144215
 20
365.2729285656
 30
0.0
 11
562.4609735879
 21
371.3985649644
 31
0.0
  0
LINE
  5
4F1
  8
0
  6
CONTINUOUS
 62
     7
 10
562.4609735879
 20
371.3985649644
 30
0.0
 11
569.6482618424
 21
371.2010985016
 31
0.0
  0
LINE
  5
4F2
  8
0
  6
CONTINUOUS
 62
     7
 10
569.6482618424
 20
371.2010985016
 30
0.0
 11
573.0708909305
 21
364.8779881893
 31
0.0
  0
ARC
  5
4F3
  8
0
  6
CONTINUOUS
 62
     7
 10
565.8836031413
 20
365.0754579122
 30
0.0
 40
7.190000000000034
 50
178.4262004732
 51
238.4262004732
  0
ARC
  5
4F4
  8
0
  6
CONTINUOUS
 62
     7
 10
565.8836031413
 20
365.0754579122
 30
0.0
 40
7.190000000000034
 50
118.4262004732
 51
178.4262004732
  0
ARC
  5
4F5
  8
0
  6
CONTINUOUS
 62
     7
 10
565.8836031413
 20
365.0754579122
 30
0.0
 40
7.190000000000074
 50
238.4262004732
 51
298.4262004732
  0
ARC
  5
4F6
  8
0
  6
CONTINUOUS
 62
     7
 10
565.8836031413
 20
365.0754579122
 30
0.0
 40
7.189999999999974
 50
58.4262004732
 51
118.4262004732
  0
ARC
  5
4F7
  8
0
  6
CONTINUOUS
 62
     7
 10
565.8836031413
 20
365.0754579122
 30
0.0
 40
7.190000000000036
 50
358.4262004732
 51
58.4262004732
  0
ARC
  5
4F8
  8
0
  6
CONTINUOUS
 62
     7
 10
565.8836031413
 20
365.0754579122
 30
0.0
 40
7.190000000000074
 50
298.4262004732
 51
358.4262004732
  0
ARC
  5
4F9
  8
0
  6
CONTINUOUS
 62
     7
 10
557.5026607141
 20
402.9251521882
 30
0.0
 40
5.000000000000043
 50
165.5462043307
 51
237.3947487349
  0
ARC
  5
4FA
  8
0
  6
CONTINUOUS
 62
     7
 10
517.8003420206
 20
413.1587190329
 30
0.0
 40
36.00000000000003
 50
105.5462043307
 51
194.4537956693
  0
ARC
  5
4FB
  8
0
  6
CONTINUOUS
 62
     7
 10
551.5753327682
 20
393.6587190329
 30
0.0
 40
5.999999999999989
 50
242.6052512651
 51
57.3947487349
  0
ARC
  5
4FC
  8
0
  6
CONTINUOUS
 62
     7
 10
478.0980233272
 20
402.9251521882
 30
0.0
 40
4.999999999999988
 50
302.6052512651
 51
14.4537956693
  0
ARC
  5
4FD
  8
0
  6
CONTINUOUS
 62
     7
 10
546.5140302262
 20
383.8922858776
 30
0.0
 40
5.000000000000043
 50
62.6052512651
 51
134.4537956693
  0
ARC
  5
4FE
  8
0
  6
CONTINUOUS
 62
     7
 10
528.7889725086
 20
452.6587190329
 30
0.0
 40
4.999999999999934
 50
182.6052512651
 51
254.4537956693
  0
ARC
  5
4FF
  8
0
  6
CONTINUOUS
 62
     7
 10
517.8003420206
 20
452.1587190329
 30
0.0
 40
6.000000000000078
 50
2.6052512651
 51
177.3947487349
  0
ARC
  5
500
  8
0
  6
CONTINUOUS
 62
     7
 10
517.8003420206
 20
413.1587190329
 30
0.0
 40
36.0
 50
345.5462043307
 51
74.4537956693
  0
ARC
  5
501
  8
0
  6
CONTINUOUS
 62
     7
 10
506.8117115327
 20
452.6587190329
 30
0.0
 40
4.999999999999988
 50
285.5462043307
 51
357.3947487349
  0
CIRCLE
  5
502
  8
0
  6
CONTINUOUS
 62
     7
 10
517.8003420206
 20
413.1587190329
 30
0.0
 40
25.0
  0
CIRCLE
  5
503
  8
0
  6
CONTINUOUS
 62
     7
 10
517.8003420206
 20
452.1587190329
 30
0.0
 40
2.5
  0
CIRCLE
  5
504
  8
0
  6
CONTINUOUS
 62
     7
 10
551.5753327682
 20
393.6587190329
 30
0.0
 40
2.5
  0
CIRCLE
  5
505
  8
0
  6
CONTINUOUS
 62
     7
 10
484.025351273
 20
393.6587190329
 30
0.0
 40
2.5
  0
ARC
  5
506
  8
0
  6
CONTINUOUS
 62
     7
 10
484.025351273
 20
393.6587190329
 30
0.0
 40
6.00000000000002
 50
122.6052512651
 51
297.3947487349
  0
ARC
  5
507
  8
0
  6
CONTINUOUS
 62
     7
 10
517.8003420206
 20
413.1587190329
 30
0.0
 40
36.00000000000001
 50
225.5462043307
 51
314.4537956693
  0
ARC
  5
508
  8
0
  6
CONTINUOUS
 62
     7
 10
489.0866538151
 20
383.8922858776
 30
0.0
 40
5.000000000000017
 50
45.5462043307
 51
117.3947487349
  0
CIRCLE
  5
509
  8
0
  6
CONTINUOUS
 62
     7
 10
517.8003420206
 20
452.1587190329
 30
0.0
 40
2.100000000000023
  0
CIRCLE
  5
50A
  8
0
  6
CONTINUOUS
 62
     7
 10
551.5753327682
 20
393.6587190329
 30
0.0
 40
2.099999999999909
  0
CIRCLE
  5
50B
  8
0
  6
CONTINUOUS
 62
     7
 10
484.025351273
 20
393.6587190329
 30
0.0
 40
2.100000000000023
  0
LINE
  5
50C
  8
0
  6
CONTINUOUS
 62
     7
 10
467.9826607081
 20
474.1327320932
 30
0.0
 11
486.294053224
 21
464.2209714054
 31
0.0
  0
POLYLINE
  5
50D
  8
0
  6
CONTINUOUS
 62
     7
 66
     1
 10
0.0
 20
0.0
 30
0.0
 70
   128
  0
VERTEX
  5
A47
  8
0
  6
CONTINUOUS
 62
     7
 10
486.294053224
 20
464.2209714054
 30
0.0
  0
VERTEX
  5
A48
  8
0
  6
CONTINUOUS
 62
     7
 10
486.8356992575
 20
463.7728227078
 30
0.0
  0
VERTEX
  5
A49
  8
0
  6
CONTINUOUS
 62
     7
 10
487.3980187895
 20
462.9537878333
 30
0.0
  0
VERTEX
  5
A4A
  8
0
  6
CONTINUOUS
 62
     7
 10
487.974587557
 20
461.7777323126
 30
0.0
  0
VERTEX
  5
A4B
  8
0
  6
CONTINUOUS
 62
     7
 10
488.3823429319
 20
460.8275560438
 30
0.0
  0
VERTEX
  5
A4C
  8
0
  6
CONTINUOUS
 62
     7
 10
488.3884449574
 20
460.8131019174
 30
0.0
  0
SEQEND
  5
B15
  8
0
  6
CONTINUOUS
 62
     7
  0
LINE
  5
50E
  8
0
  6
CONTINUOUS
 62
     7
 10
456.8263289603
 20
363.3410377203
 30
0.0
 11
466.7380896481
 21
381.6524302362
 31
0.0
  0
POLYLINE
  5
50F
  8
0
  6
CONTINUOUS
 62
     7
 66
     1
 10
0.0
 20
0.0
 30
0.0
 70
   128
  0
VERTEX
  5
A4D
  8
0
  6
CONTINUOUS
 62
     7
 10
466.7380896481
 20
381.6524302362
 30
0.0
  0
VERTEX
  5
A4E
  8
0
  6
CONTINUOUS
 62
     7
 10
467.1862383457
 20
382.1940762698
 30
0.0
  0
VERTEX
  5
A4F
  8
0
  6
CONTINUOUS
 62
     7
 10
468.0052732202
 20
382.7563958018
 30
0.0
  0
VERTEX
  5
A50
  8
0
  6
CONTINUOUS
 62
     7
 10
469.181328741
 20
383.3329645692
 30
0.0
  0
VERTEX
  5
A51
  8
0
  6
CONTINUOUS
 62
     7
 10
470.1315050098
 20
383.7407199441
 30
0.0
  0
VERTEX
  5
A52
  8
0
  6
CONTINUOUS
 62
     7
 10
470.1459591361
 20
383.7468219696
 30
0.0
  0
SEQEND
  5
B16
  8
0
  6
CONTINUOUS
 62
     7
  0
LINE
  5
510
  8
0
  6
CONTINUOUS
 62
     7
 10
567.6180233332
 20
352.1847059726
 30
0.0
 11
549.3066308173
 21
362.0964666604
 31
0.0
  0
POLYLINE
  5
511
  8
0
  6
CONTINUOUS
 62
     7
 66
     1
 10
0.0
 20
0.0
 30
0.0
 70
   128
  0
VERTEX
  5
A53
  8
0
  6
CONTINUOUS
 62
     7
 10
549.3066308173
 20
362.0964666604
 30
0.0
  0
VERTEX
  5
A54
  8
0
  6
CONTINUOUS
 62
     7
 10
548.7649847838
 20
362.544615358
 30
0.0
  0
VERTEX
  5
A55
  8
0
  6
CONTINUOUS
 62
     7
 10
548.2026652517
 20
363.3636502324
 30
0.0
  0
VERTEX
  5
A56
  8
0
  6
CONTINUOUS
 62
     7
 10
547.6260964843
 20
364.5397057532
 30
0.0
  0
VERTEX
  5
A57
  8
0
  6
CONTINUOUS
 62
     7
 10
547.2183411094
 20
365.489882022
 30
0.0
  0
VERTEX
  5
A58
  8
0
  6
CONTINUOUS
 62
     7
 10
547.2122390839
 20
365.5043361484
 30
0.0
  0
SEQEND
  5
B17
  8
0
  6
CONTINUOUS
 62
     7
  0
ARC
  5
512
  8
0
  6
CONTINUOUS
 62
     7
 10
517.8003420206
 20
413.1587190329
 30
0.0
 40
61.00000000000003
 50
147.7860739307
 51
212.2139260693
  0
ARC
  5
513
  8
0
  6
CONTINUOUS
 62
     7
 10
472.7505852694
 20
450.6284456073
 30
0.0
 40
8.468334766921075
 50
224.7652966519
 51
252.0870066098
  0
ARC
  5
514
  8
0
  6
CONTINUOUS
 62
     7
 10
517.8003420206
 20
413.1587190329
 30
0.0
 40
61.00000000000001
 50
237.7860739307
 51
302.2139260693
  0
ARC
  5
515
  8
0
  6
CONTINUOUS
 62
     7
 10
480.3306154463
 20
368.1089622816
 30
0.0
 40
8.468334766826912
 50
314.7652966518
 51
342.0870066099
  0
LINE
  5
516
  8
0
  6
CONTINUOUS
 62
     7
 10
578.774355081
 20
462.9764003455
 30
0.0
 11
568.8625943931
 21
444.6650078296
 31
0.0
  0
POLYLINE
  5
517
  8
0
  6
CONTINUOUS
 62
     7
 66
     1
 10
0.0
 20
0.0
 30
0.0
 70
   128
  0
VERTEX
  5
A59
  8
0
  6
CONTINUOUS
 62
     7
 10
568.8625943931
 20
444.6650078296
 30
0.0
  0
VERTEX
  5
A5A
  8
0
  6
CONTINUOUS
 62
     7
 10
568.4144456955
 20
444.123361796
 30
0.0
  0
VERTEX
  5
A5B
  8
0
  6
CONTINUOUS
 62
     7
 10
567.5954108211
 20
443.561042264
 30
0.0
  0
VERTEX
  5
A5C
  8
0
  6
CONTINUOUS
 62
     7
 10
566.4193553003
 20
442.9844734966
 30
0.0
  0
VERTEX
  5
A5D
  8
0
  6
CONTINUOUS
 62
     7
 10
565.4691790315
 20
442.5767181217
 30
0.0
  0
VERTEX
  5
A5E
  8
0
  6
CONTINUOUS
 62
     7
 10
565.4547249051
 20
442.5706160961
 30
0.0
  0
SEQEND
  5
B18
  8
0
  6
CONTINUOUS
 62
     7
  0
ARC
  5
518
  8
0
  6
CONTINUOUS
 62
     7
 10
517.8003420206
 20
413.1587190329
 30
0.0
 40
61.00000000000002
 50
57.7860739307
 51
122.2139260693
  0
ARC
  5
519
  8
0
  6
CONTINUOUS
 62
     7
 10
555.270068595
 20
458.2084757841
 30
0.0
 40
8.468334766920988
 50
134.7652966519
 51
162.0870066098
  0
ARC
  5
51A
  8
0
  6
CONTINUOUS
 62
     7
 10
517.8003420206
 20
413.1587190329
 30
0.0
 40
61.0
 50
327.7860739307
 51
32.2139260693
  0
ARC
  5
51B
  8
0
  6
CONTINUOUS
 62
     7
 10
562.8500987719
 20
375.6889924585
 30
0.0
 40
8.468334766920899
 50
44.7652966519
 51
72.0870066098
  0
LINE
  5
51C
  8
0
  6
CONTINUOUS
 62
     7
 10
568.8625943931
 20
381.6524302362
 30
0.0
 11
578.774355081
 21
363.3410377203
 31
0.0
  0
LINE
  5
51D
  8
0
  6
CONTINUOUS
 62
     7
 10
486.294053224
 20
362.0964666604
 30
0.0
 11
467.9826607081
 21
352.1847059726
 31
0.0
  0
LINE
  5
51E
  8
0
  6
CONTINUOUS
 62
     7
 10
466.7380896481
 20
444.6650078296
 30
0.0
 11
456.8263289603
 21
462.9764003455
 31
0.0
  0
LINE
  5
51F
  8
0
  6
CONTINUOUS
 62
     7
 10
549.3066308173
 20
464.2209714054
 30
0.0
 11
567.6180233332
 21
474.1327320932
 31
0.0
  0
ARC
  5
520
  8
0
  6
CONTINUOUS
 62
     7
 10
517.8003420206
 20
413.1587190329
 30
0.0
 40
80.00000000000003
 50
130.6090428911
 51
139.3909571089
  0
ARC
  5
521
  8
0
  6
CONTINUOUS
 62
     7
 10
458.5851922081
 20
362.388983632
 30
0.0
 40
2.000000000000053
 50
151.5737995268
 51
220.6090428911
  0
ARC
  5
522
  8
0
  6
CONTINUOUS
 62
     7
 10
517.8003420206
 20
413.1587190329
 30
0.0
 40
80.00000000000003
 50
310.6090428911
 51
319.3909571089
  0
ARC
  5
523
  8
0
  6
CONTINUOUS
 62
     7
 10
467.0306066197
 20
353.9435692203
 30
0.0
 40
1.999999999999986
 50
229.3909571089
 51
298.4262004732
  0
ARC
  5
524
  8
0
  6
CONTINUOUS
 62
     7
 10
467.0306066197
 20
472.3738688455
 30
0.0
 40
2.00000000000009
 50
61.5737995268
 51
130.6090428911
  0
ARC
  5
525
  8
0
  6
CONTINUOUS
 62
     7
 10
568.5700774215
 20
353.9435692203
 30
0.0
 40
1.99999999999999
 50
241.5737995268
 51
310.6090428911
  0
ARC
  5
526
  8
0
  6
CONTINUOUS
 62
     7
 10
458.5851922081
 20
463.9284544338
 30
0.0
 40
1.999999999999973
 50
139.3909571089
 51
208.4262004732
  0
ARC
  5
527
  8
0
  6
CONTINUOUS
 62
     7
 10
577.0154918332
 20
362.388983632
 30
0.0
 40
2.000000000000013
 50
319.3909571089
 51
28.4262004732
  0
ARC
  5
528
  8
0
  6
CONTINUOUS
 62
     7
 10
517.8003420206
 20
413.1587190329
 30
0.0
 40
80.0
 50
220.6090428911
 51
229.3909571089
  0
ARC
  5
529
  8
0
  6
CONTINUOUS
 62
     7
 10
577.0154918332
 20
463.9284544338
 30
0.0
 40
2.000000000000103
 50
331.5737995268
 51
40.6090428911
  0
ARC
  5
52A
  8
0
  6
CONTINUOUS
 62
     7
 10
517.8003420206
 20
413.1587190329
 30
0.0
 40
80.00000000000004
 50
40.6090428911
 51
49.3909571089
  0
ARC
  5
52B
  8
0
  6
CONTINUOUS
 62
     7
 10
568.5700774215
 20
472.3738688455
 30
0.0
 40
2.000000000000036
 50
49.3909571089
 51
118.4262004732
  0
ARC
  5
52C
  8
0
  6
CONTINUOUS
 62
     7
 10
517.8003420206
 20
413.1587190329
 30
0.0
 40
61.0
 50
0.0
 51
32.2139260693
  0
ARC
  5
52D
  8
0
  6
CONTINUOUS
 62
     7
 10
517.8003420206
 20
413.1587190329
 30
0.0
 40
61.0
 50
327.7860739307
 51
0.0
  0
ARC
  5
52E
  8
0
  6
CONTINUOUS
 62
     7
 10
529.0697696902
 20
350.1587190329
 30
0.0
 40
3.0
 50
90.0
 51
100.1417933657
  0
ARC
  5
52F
  8
0
  6
CONTINUOUS
 62
     7
 10
506.530914351
 20
350.1587190329
 30
0.0
 40
3.000000000000003
 50
79.8582066343
 51
90.0
  0
ARC
  5
530
  8
0
  6
CONTINUOUS
 62
     7
 10
486.00881644
 20
475.1587847348
 30
0.0
 40
2.00124068139273
 50
270.023748582
 51
308.0811028954
  0
ARC
  5
531
  8
0
  6
CONTINUOUS
 62
     7
 10
549.5918676013
 20
475.1587847348
 30
0.0
 40
2.001240681392758
 50
231.9188971046
 51
269.976251418
  0
ARC
  5
532
  8
0
  6
CONTINUOUS
 62
     7
 10
575.163024738
 20
380.516374885
 30
0.0
 40
5.000000000000091
 50
150.3578770506
 51
208.4262004732
  0
ARC
  5
533
  8
0
  6
CONTINUOUS
 62
     7
 10
460.4376593033
 20
445.8010631808
 30
0.0
 40
5.000000000000096
 50
330.3578770506
 51
28.4262004732
  0
LINE
  5
534
  8
0
  6
CONTINUOUS
 62
     7
 10
506.5309141847
 20
353.158720374
 30
0.0
 11
469.7820876809
 21
353.158720374
 31
0.0
  0
LINE
  5
535
  8
0
  6
CONTINUOUS
 62
     7
 10
512.0967130261
 20
474.1587197183
 30
0.0
 11
517.8003420206
 21
474.1587197183
 31
0.0
  0
LINE
  5
536
  8
0
  6
CONTINUOUS
 62
     7
 10
549.5963205668
 20
473.1587176918
 30
0.0
 11
565.8185963603
 21
473.1587176918
 31
0.0
  0
LINE
  5
537
  8
0
  6
CONTINUOUS
 62
     7
 10
517.8003420206
 20
474.1587197183
 30
0.0
 11
523.5039710152
 21
474.1587197183
 31
0.0
  0
LINE
  5
538
  8
0
  6
CONTINUOUS
 62
     7
 10
565.8185963603
 20
353.158720374
 30
0.0
 11
529.0697698566
 21
353.158720374
 31
0.0
  0
LINE
  5
539
  8
0
  6
CONTINUOUS
 62
     7
 10
469.7820876809
 20
473.1587176918
 30
0.0
 11
486.0043634745
 21
473.1587176918
 31
0.0
  0
ARC
  5
53A
  8
0
  6
CONTINUOUS
 62
     7
 10
526.6449110179
 20
782.1180735108
 30
0.0
 40
307.9753709184549
 50
269.4156489683
 51
271.1866666616
  0
ARC
  5
53B
  8
0
  6
CONTINUOUS
 62
     7
 10
575.163024738
 20
445.8010631808
 30
0.0
 40
5.000000000000096
 50
151.5737995268
 51
209.6421229494
  0
ARC
  5
53C
  8
0
  6
CONTINUOUS
 62
     7
 10
460.4376593033
 20
380.516374885
 30
0.0
 40
5.000000000000091
 50
331.5737995268
 51
29.6421229494
  0
POLYLINE
  5
53D
  8
0
  6
CONTINUOUS
 62
     7
 66
     1
 10
0.0
 20
0.0
 30
0.0
 70
   128
  0
VERTEX
  5
A5F
  8
0
  6
CONTINUOUS
 62
     7
 10
502.5776770982
 20
474.2087540923
 30
0.0
  0
VERTEX
  5
A60
  8
0
  6
CONTINUOUS
 62
     7
 10
503.4296081486
 20
474.2076476811
 30
0.0
  0
VERTEX
  5
A61
  8
0
  6
CONTINUOUS
 62
     7
 10
507.765127075
 20
474.1798197626
 30
0.0
  0
VERTEX
  5
A62
  8
0
  6
CONTINUOUS
 62
     7
 10
512.0967130261
 20
474.1587197183
 30
0.0
  0
SEQEND
  5
B19
  8
0
  6
CONTINUOUS
 62
     7
  0
ARC
  5
53E
  8
0
  6
CONTINUOUS
 62
     7
 10
508.4784679298
 20
347.8203485035
 30
0.0
 40
5.000000000000011
 50
3.8140748343
 51
81.8803640556
  0
ARC
  5
53F
  8
0
  6
CONTINUOUS
 62
     7
 10
527.1222161115
 20
347.8203485035
 30
0.0
 40
5.000000000000003
 50
98.1196359444
 51
176.1859251657
  0
LINE
  5
540
  8
0
  6
CONTINUOUS
 62
     7
 10
507.8003422442
 20
494.1587192713
 30
0.0
 11
527.8003417971
 21
494.1587192713
 31
0.0
  0
ARC
  5
541
  8
0
  6
CONTINUOUS
 62
     7
 10
527.7987047701
 20
473.1569338233
 30
0.0
 40
21.00178551184586
 50
4.9930072042
 51
89.9955339636
  0
ARC
  5
542
  8
0
  6
CONTINUOUS
 62
     7
 10
507.8019792712
 20
473.1569338233
 30
0.0
 40
21.00178551184603
 50
90.0044660364
 51
175.0069927958
  0
ARC
  5
543
  8
0
  6
CONTINUOUS
 62
     7
 10
484.8874635459
 20
475.1587190329
 30
0.0
 40
2.000000000000054
 50
270.0
 51
355.0114580244
  0
ARC
  5
544
  8
0
  6
CONTINUOUS
 62
     7
 10
550.7132204954
 20
475.1587190329
 30
0.0
 40
2.0
 50
184.9885419756
 51
270.0
  0
LINE
  5
545
  8
0
  6
CONTINUOUS
 62
     7
 10
522.1332904967
 20
348.1529472171
 30
0.0
 11
521.9768180596
 21
345.8058578669
 31
0.0
  0
LINE
  5
546
  8
0
  6
CONTINUOUS
 62
     7
 10
513.6238659816
 20
345.8058578669
 30
0.0
 11
513.4673935446
 21
348.1529472171
 31
0.0
  0
ARC
  5
547
  8
0
  6
CONTINUOUS
 62
     7
 10
515.6714482044
 20
345.1587190329
 30
0.0
 40
2.000000000000064
 50
183.8140748343
 51
270.0
  0
POLYLINE
  5
548
  8
0
  6
CONTINUOUS
 62
     7
 66
     1
 10
0.0
 20
0.0
 30
0.0
 70
   128
  0
VERTEX
  5
A63
  8
0
  6
CONTINUOUS
 62
     7
 10
513.6238659816
 20
345.8058578669
 30
0.0
  0
VERTEX
  5
A64
  8
0
  6
CONTINUOUS
 62
     7
 10
513.6460305276
 20
345.4733906089
 30
0.0
  0
VERTEX
  5
A65
  8
0
  6
CONTINUOUS
 62
     7
 10
513.6624222706
 20
345.2275139986
 30
0.0
  0
VERTEX
  5
A66
  8
0
  6
CONTINUOUS
 62
     7
 10
513.672485211
 20
345.0765726863
 30
0.0
  0
VERTEX
  5
A67
  8
0
  6
CONTINUOUS
 62
     7
 10
513.6758780191
 20
345.0256777703
 30
0.0
  0
SEQEND
  5
B1A
  8
0
  6
CONTINUOUS
 62
     7
  0
ARC
  5
549
  8
0
  6
CONTINUOUS
 62
     7
 10
519.9292358369
 20
345.1587190329
 30
0.0
 40
2.0
 50
270.0
 51
356.1859251657
  0
POLYLINE
  5
54A
  8
0
  6
CONTINUOUS
 62
     7
 66
     1
 10
0.0
 20
0.0
 30
0.0
 70
   128
  0
VERTEX
  5
A68
  8
0
  6
CONTINUOUS
 62
     7
 10
521.9248060221
 20
345.0256777703
 30
0.0
  0
VERTEX
  5
A69
  8
0
  6
CONTINUOUS
 62
     7
 10
521.9281988303
 20
345.0765726863
 30
0.0
  0
VERTEX
  5
A6A
  8
0
  6
CONTINUOUS
 62
     7
 10
521.9382617707
 20
345.2275139986
 30
0.0
  0
VERTEX
  5
A6B
  8
0
  6
CONTINUOUS
 62
     7
 10
521.9546535137
 20
345.4733906089
 30
0.0
  0
VERTEX
  5
A6C
  8
0
  6
CONTINUOUS
 62
     7
 10
521.9768180596
 20
345.8058578669
 30
0.0
  0
SEQEND
  5
B1B
  8
0
  6
CONTINUOUS
 62
     7
  0
LINE
  5
54B
  8
0
  6
CONTINUOUS
 62
     7
 10
519.929235763
 20
343.1587187349
 30
0.0
 11
515.6714482783
 21
343.1587187349
 31
0.0
  0
POLYLINE
  5
54C
  8
0
  6
CONTINUOUS
 62
     7
 66
     1
 10
0.0
 20
0.0
 30
0.0
 70
   128
  0
VERTEX
  5
A6D
  8
0
  6
CONTINUOUS
 62
     7
 10
507.8003422442
 20
497.568432778
 30
0.0
  0
VERTEX
  5
A6E
  8
0
  6
CONTINUOUS
 62
     7
 10
517.8018777935
 20
498.158719927
 30
0.0
  0
VERTEX
  5
A6F
  8
0
  6
CONTINUOUS
 62
     7
 10
527.8003417971
 20
497.568432778
 30
0.0
  0
SEQEND
  5
B1C
  8
0
  6
CONTINUOUS
 62
     7
  0
ARC
  5
54D
  8
0
  6
CONTINUOUS
 62
     7
 10
517.8004586616
 20
413.1593142753
 30
0.0
 40
84.99939381621054
 50
72.9017369019
 51
83.2437038873
  0
POLYLINE
  5
54E
  8
0
  6
CONTINUOUS
 62
     7
 66
     1
 10
0.0
 20
0.0
 30
0.0
 70
   128
  0
VERTEX
  5
A70
  8
0
  6
CONTINUOUS
 62
     7
 10
492.809438807
 20
494.4018987714
 30
0.0
  0
VERTEX
  5
A71
  8
0
  6
CONTINUOUS
 62
     7
 10
500.2027691426
 20
496.3171524702
 30
0.0
  0
VERTEX
  5
A72
  8
0
  6
CONTINUOUS
 62
     7
 10
507.8003422442
 20
497.568432778
 30
0.0
  0
SEQEND
  5
B1D
  8
0
  6
CONTINUOUS
 62
     7
  0
ARC
  5
54F
  8
0
  6
CONTINUOUS
 62
     7
 10
517.8003420206
 20
413.1587190329
 30
0.0
 40
84.99999999999997
 50
107.0982198349
 51
72.9017801651
  0
ARC
  5
550
  8
0
  6
CONTINUOUS
 62
     7
 10
581.1031855587
 20
320.1587190329
 30
0.0
 40
4.999999999999943
 50
270.0
 51
304.2421687026
  0
LINE
  5
551
  8
0
  6
CONTINUOUS
 62
     7
 10
581.1031867834
 20
315.1587215959
 30
0.0
 11
454.4974972578
 21
315.1587215959
 31
0.0
  0
ARC
  5
552
  8
0
  6
CONTINUOUS
 62
     7
 10
454.4974984826
 20
320.1587190329
 30
0.0
 40
5.0
 50
235.7578312974
 51
270.0
  0
ARC
  5
553
  8
0
  6
CONTINUOUS
 62
     7
 10
517.8003420206
 20
413.1587190329
 30
0.0
 40
117.5
 50
214.2421687026
 51
235.7578312974
  0
ARC
  5
554
  8
0
  6
CONTINUOUS
 62
     7
 10
424.8003420206
 20
349.8558754949
 30
0.0
 40
4.999999999999966
 50
180.0
 51
214.2421687026
  0
LINE
  5
555
  8
0
  6
CONTINUOUS
 62
     7
 10
419.8003445836
 20
349.8558742701
 30
0.0
 11
419.8003445836
 21
476.4615637957
 31
0.0
  0
ARC
  5
556
  8
0
  6
CONTINUOUS
 62
     7
 10
424.8003420206
 20
476.4615625709
 30
0.0
 40
5.0
 50
145.7578312974
 51
180.0
  0
ARC
  5
557
  8
0
  6
CONTINUOUS
 62
     7
 10
517.8003420206
 20
413.1587190329
 30
0.0
 40
117.5
 50
124.2421687026
 51
145.7578312974
  0
ARC
  5
558
  8
0
  6
CONTINUOUS
 62
     7
 10
454.4974984826
 20
506.1587190329
 30
0.0
 40
5.0
 50
90.0
 51
124.2421687026
  0
LINE
  5
559
  8
0
  6
CONTINUOUS
 62
     7
 10
454.4974972578
 20
511.1587164699
 30
0.0
 11
478.800341216
 21
511.1587164699
 31
0.0
  0
ARC
  5
55A
  8
0
  6
CONTINUOUS
 62
     7
 10
478.8003420206
 20
516.1587190329
 30
0.0
 40
5.000000000000012
 50
270.0
 51
318.1896851042
  0
ARC
  5
55B
  8
0
  6
CONTINUOUS
 62
     7
 10
483.2724779756
 20
512.1587190329
 30
0.0
 40
1.0
 50
90.0
 51
138.1896851042
  0
LINE
  5
55C
  8
0
  6
CONTINUOUS
 62
     7
 10
483.2724777135
 20
513.158720523
 30
0.0
 11
552.3282063278
 21
513.158720523
 31
0.0
  0
ARC
  5
55D
  8
0
  6
CONTINUOUS
 62
     7
 10
552.3282060657
 20
512.1587190329
 30
0.0
 40
1.0
 50
41.8103148954
 51
90.0
  0
ARC
  5
55E
  8
0
  6
CONTINUOUS
 62
     7
 10
556.8003420207
 20
516.1587190329
 30
0.0
 40
4.99999999999996
 50
221.8103148958
 51
270.0
  0
LINE
  5
55F
  8
0
  6
CONTINUOUS
 62
     7
 10
556.8003428253
 20
511.1587164699
 30
0.0
 11
581.1031867834
 21
511.1587164699
 31
0.0
  0
ARC
  5
560
  8
0
  6
CONTINUOUS
 62
     7
 10
581.1031855587
 20
506.1587190329
 30
0.0
 40
5.0
 50
55.7578312974
 51
90.0
  0
ARC
  5
561
  8
0
  6
CONTINUOUS
 62
     7
 10
517.8003420206
 20
413.1587190329
 30
0.0
 40
117.5
 50
34.2421687026
 51
55.7578312974
  0
ARC
  5
562
  8
0
  6
CONTINUOUS
 62
     7
 10
610.8003420206
 20
476.4615625709
 30
0.0
 40
5.000000000000078
 50
0.0
 51
34.2421687026
  0
LINE
  5
563
  8
0
  6
CONTINUOUS
 62
     7
 10
615.8003394576
 20
476.4615637957
 30
0.0
 11
615.8003394576
 21
349.8558742701
 31
0.0
  0
ARC
  5
564
  8
0
  6
CONTINUOUS
 62
     7
 10
610.8003420206
 20
349.8558754949
 30
0.0
 40
5.000000000000014
 50
325.7578312974
 51
0.0
  0
ARC
  5
565
  8
0
  6
CONTINUOUS
 62
     7
 10
517.8003420206
 20
413.1587190329
 30
0.0
 40
117.5
 50
304.2421687026
 51
325.7578312974
  0
CIRCLE
  5
566
  8
0
  6
CONTINUOUS
 62
     7
 10
441.7863630431
 20
489.1726980104
 30
0.0
 40
6.000000000000057
  0
CIRCLE
  5
567
  8
0
  6
CONTINUOUS
 62
     7
 10
441.7863630431
 20
337.1447400553
 30
0.0
 40
6.0
  0
CIRCLE
  5
568
  8
0
  6
CONTINUOUS
 62
     7
 10
593.8143209982
 20
337.1447400553
 30
0.0
 40
6.000000000000114
  0
CIRCLE
  5
569
  8
0
  6
CONTINUOUS
 62
     7
 10
593.8143209982
 20
489.1726980104
 30
0.0
 40
6.0
  0
CIRCLE
  5
56A
  8
0
  6
CONTINUOUS
 62
     7
 10
573.4418647651
 20
324.1136689365
 30
0.0
 40
3.999999999999886
  0
CIRCLE
  5
56B
  8
0
  6
CONTINUOUS
 62
     7
 10
462.1588192761
 20
502.2037691293
 30
0.0
 40
3.999999999999943
  0
INSERT
  5
593
  8
SLD-0
 62
    11
  2
SW_CENTERMARKSYMBOL_1
 10
441.7863630431
 20
489.1726980104
 30
0.0
  0
INSERT
  5
59F
  8
SLD-0
 62
    11
  2
SW_CENTERMARKSYMBOL_2
 10
631.2003420206
 20
413.1587190329
 30
0.0
  0
ENDSEC
  0
EOF
