  0
SECTION
  2
HEADER
  9
$ACADVER
  1
AC1015
  9
$ACADMAINTVER
 70
     6
  9
$DWGCODEPAGE
  3
DOS932
  9
$INSBASE
 10
0.0
 20
0.0
 30
0.0
  9
$EXTMIN
 10
0.0
 20
0.0
 30
0.0
  9
$EXTMAX
 10
841.0
 20
594.0
 30
0.0
  9
$LIMMIN
 10
0.0
 20
0.0
  9
$LIMMAX
 10
841.0
 20
594.0
  9
$ORTHOMODE
 70
     0
  9
$REGENMODE
 70
     1
  9
$FILLMODE
 70
     1
  9
$QTEXTMODE
 70
     0
  9
$MIRRTEXT
 70
     1
  9
$LTSCALE
 40
1.0
  9
$ATTMODE
 70
     1
  9
$TEXTSIZE
 40
3.5
  9
$TRACEWID
 40
1.0
  9
$TEXTSTYLE
  7
Standard
  9
$CLAYER
  8
0
  9
$CELTYPE
  6
ByLayer
  9
$CECOLOR
 62
   256
  9
$CELTSCALE
 40
1.0
  9
$DISPSILH
 70
     0
  9
$DIMSCALE
 40
1.0
  9
$DIMASZ
 40
3.8637032976
  9
$DIMEXO
 40
1.0
  9
$DIMDLI
 40
3.75
  9
$DIMRND
 40
0.0
  9
$DIMDLE
 40
0.0
  9
$DIMEXE
 40
1.0
  9
$DIMTP
 40
0.0
  9
$DIMTM
 40
0.0
  9
$DIMTXT
 40
2.7999999523
  9
$DIMCEN
 40
2.5
  9
$DIMTSZ
 40
0.0
  9
$DIMTOL
 70
     0
  9
$DIMLIM
 70
     0
  9
$DIMTIH
 70
     1
  9
$DIMTOH
 70
     1
  9
$DIMSE1
 70
     0
  9
$DIMSE2
 70
     0
  9
$DIMTAD
 70
     1
  9
$DIMZIN
 70
     1
  9
$DIMBLK
  1

  9
$DIMASO
 70
     1
  9
$DIMSHO
 70
     1
  9
$DIMPOST
  1

  9
$DIMAPOST
  1

  9
$DIMALT
 70
     0
  9
$DIMALTD
 70
     3
  9
$DIMALTF
 40
0.0393700787
  9
$DIMLFAC
 40
1.0
  9
$DIMTOFL
 70
     1
  9
$DIMTVP
 40
0.0
  9
$DIMTIX
 70
     0
  9
$DIMSOXD
 70
     0
  9
$DIMSAH
 70
     0
  9
$DIMBLK1
  1

  9
$DIMBLK2
  1

  9
$DIMSTYLE
  2
ISO-25
  9
$DIMCLRD
 70
     0
  9
$DIMCLRE
 70
     0
  9
$DIMCLRT
 70
     0
  9
$DIMTFAC
 40
1.0
  9
$DIMGAP
 40
1.524
  9
$DIMJUST
 70
     0
  9
$DIMSD1
 70
     0
  9
$DIMSD2
 70
     0
  9
$DIMTOLJ
 70
     0
  9
$DIMTZIN
 70
     1
  9
$DIMALTZ
 70
     0
  9
$DIMALTTZ
 70
     0
  9
$DIMUPT
 70
     0
  9
$DIMDEC
 70
     2
  9
$DIMTDEC
 70
     2
  9
$DIMALTU
 70
     2
  9
$DIMALTTD
 70
     3
  9
$DIMTXSTY
  7
Standard
  9
$DIMAUNIT
 70
     0
  9
$DIMADEC
 70
     0
  9
$DIMALTRND
 40
0.0
  9
$DIMAZIN
 70
     0
  9
$DIMDSEP
 70
    44
  9
$DIMATFIT
 70
     3
  9
$DIMFRAC
 70
     0
  9
$DIMLDRBLK
  1

  9
$DIMLUNIT
 70
     2
  9
$DIMLWD
 70
    -2
  9
$DIMLWE
 70
    -2
  9
$DIMTMOVE
 70
     0
  9
$LUNITS
 70
     2
  9
$LUPREC
 70
     3
  9
$SKETCHINC
 40
1.0
  9
$FILLETRAD
 40
10.0
  9
$AUNITS
 70
     0
  9
$AUPREC
 70
     0
  9
$MENU
  1
.
  9
$ELEVATION
 40
0.0
  9
$PELEVATION
 40
0.0
  9
$THICKNESS
 40
0.0
  9
$LIMCHECK
 70
     0
  9
$CHAMFERA
 40
10.0
  9
$CHAMFERB
 40
10.0
  9
$CHAMFERC
 40
20.0
  9
$CHAMFERD
 40
0.0
  9
$SKPOLY
 70
     0
  9
$TDCREATE
 40
2456366.749530335
  9
$TDUCREATE
 40
2456366.374530335
  9
$TDUPDATE
 40
2456366.749530347
  9
$TDUUPDATE
 40
2456366.374530347
  9
$TDINDWG
 40
0.0000000116
  9
$TDUSRTIMER
 40
0.0000000116
  9
$USRTIMER
 70
     1
  9
$ANGBASE
 50
0.0
  9
$ANGDIR
 70
     0
  9
$PDMODE
 70
     0
  9
$PDSIZE
 40
-1.0
  9
$PLINEWID
 40
0.0
  9
$SPLFRAME
 70
     0
  9
$SPLINETYPE
 70
     6
  9
$SPLINESEGS
 70
     8
  9
$HANDSEED
  5
25E
  9
$SURFTAB1
 70
     6
  9
$SURFTAB2
 70
     6
  9
$SURFTYPE
 70
     6
  9
$SURFU
 70
     6
  9
$SURFV
 70
     6
  9
$UCSBASE
  2

  9
$UCSNAME
  2

  9
$UCSORG
 10
0.0
 20
0.0
 30
0.0
  9
$UCSXDIR
 10
1.0
 20
0.0
 30
0.0
  9
$UCSYDIR
 10
0.0
 20
1.0
 30
0.0
  9
$UCSORTHOREF
  2

  9
$UCSORTHOVIEW
 70
     0
  9
$UCSORGTOP
 10
0.0
 20
0.0
 30
0.0
  9
$UCSORGBOTTOM
 10
0.0
 20
0.0
 30
0.0
  9
$UCSORGLEFT
 10
0.0
 20
0.0
 30
0.0
  9
$UCSORGRIGHT
 10
0.0
 20
0.0
 30
0.0
  9
$UCSORGFRONT
 10
0.0
 20
0.0
 30
0.0
  9
$UCSORGBACK
 10
0.0
 20
0.0
 30
0.0
  9
$PUCSBASE
  2

  9
$PUCSNAME
  2

  9
$PUCSORG
 10
0.0
 20
0.0
 30
0.0
  9
$PUCSXDIR
 10
1.0
 20
0.0
 30
0.0
  9
$PUCSYDIR
 10
0.0
 20
1.0
 30
0.0
  9
$PUCSORTHOREF
  2

  9
$PUCSORTHOVIEW
 70
     0
  9
$PUCSORGTOP
 10
0.0
 20
0.0
 30
0.0
  9
$PUCSORGBOTTOM
 10
0.0
 20
0.0
 30
0.0
  9
$PUCSORGLEFT
 10
0.0
 20
0.0
 30
0.0
  9
$PUCSORGRIGHT
 10
0.0
 20
0.0
 30
0.0
  9
$PUCSORGFRONT
 10
0.0
 20
0.0
 30
0.0
  9
$PUCSORGBACK
 10
0.0
 20
0.0
 30
0.0
  9
$USERI1
 70
     0
  9
$USERI2
 70
     0
  9
$USERI3
 70
     0
  9
$USERI4
 70
     0
  9
$USERI5
 70
     0
  9
$USERR1
 40
0.0
  9
$USERR2
 40
0.0
  9
$USERR3
 40
0.0
  9
$USERR4
 40
0.0
  9
$USERR5
 40
0.0
  9
$WORLDVIEW
 70
     1
  9
$SHADEDGE
 70
     3
  9
$SHADEDIF
 70
    70
  9
$TILEMODE
 70
     1
  9
$MAXACTVP
 70
    64
  9
$PINSBASE
 10
0.0
 20
0.0
 30
0.0
  9
$PLIMCHECK
 70
     0
  9
$PEXTMIN
 10
1.0000000000E+20
 20
1.0000000000E+20
 30
1.0000000000E+20
  9
$PEXTMAX
 10
-1.0000000000E+20
 20
-1.0000000000E+20
 30
-1.0000000000E+20
  9
$PLIMMIN
 10
0.0
 20
0.0
  9
$PLIMMAX
 10
420.0
 20
297.0
  9
$UNITMODE
 70
     0
  9
$VISRETAIN
 70
     1
  9
$PLINEGEN
 70
     0
  9
$PSLTSCALE
 70
     1
  9
$TREEDEPTH
 70
  3020
  9
$CMLSTYLE
  2
Standard
  9
$CMLJUST
 70
     0
  9
$CMLSCALE
 40
20.0
  9
$PROXYGRAPHICS
 70
     1
  9
$MEASUREMENT
 70
     1
  9
$CELWEIGHT
370
    -1
  9
$ENDCAPS
280
     0
  9
$JOINSTYLE
280
     0
  9
$LWDISPLAY
290
     1
  9
$INSUNITS
 70
     4
  9
$HYPERLINKBASE
  1

  9
$STYLESHEET
  1

  9
$XEDIT
290
     1
  9
$CEPSNTYPE
380
     0
  9
$PSTYLEMODE
290
     1
  9
$FINGERPRINTGUID
  2
{35E0FDAD-442E-444E-88DF-FA35CDF37A2D}
  9
$VERSIONGUID
  2
{FAEB1C32-E019-11D5-929B-00C0DF256EC4}
  9
$EXTNAMES
290
     1
  9
$PSVPSCALE
 40
0.0
  9
$OLESTARTUP
290
     0
  0
ENDSEC
  0
SECTION
  2
CLASSES
  0
CLASS
  1
ACDBDICTIONARYWDFLT
  2
AcDbDictionaryWithDefault
  3
ObjectDBX Classes
 90
        0
280
     0
281
     0
  0
CLASS
  1
VISUALSTYLE
  2
AcDbVisualStyle
  3
ObjectDBX Classes
 90
     4095
280
     0
281
     0
  0
CLASS
  1
DICTIONARYVAR
  2
AcDbDictionaryVar
  3
ObjectDBX Classes
 90
        0
280
     0
281
     0
  0
CLASS
  1
ACDBPLACEHOLDER
  2
AcDbPlaceHolder
  3
ObjectDBX Classes
 90
        0
280
     0
281
     0
  0
CLASS
  1
LAYOUT
  2
AcDbLayout
  3
ObjectDBX Classes
 90
        0
280
     0
281
     0
  0
ENDSEC
  0
SECTION
  2
TABLES
  0
TABLE
  2
VPORT
  5
8
330
0
100
AcDbSymbolTable
 70
     1
  0
VPORT
  5
29
330
8
100
AcDbSymbolTableRecord
100
AcDbViewportTableRecord
  2
*Active
 70
     0
 10
0.0
 20
0.0
 11
1.0
 21
1.0
 12
420.5
 22
297.0
 13
0.0
 23
0.0
 14
10.0
 24
10.0
 15
10.0
 25
10.0
 16
0.0
 26
0.0
 36
1.0
 17
0.0
 27
0.0
 37
0.0
 40
594.0
 41
1.4158249158
 42
50.0
 43
0.0
 44
0.0
 50
0.0
 51
0.0
 71
     0
 72
  2000
 73
     1
 74
     3
 75
     0
 76
     0
 77
     0
 78
     0
281
     0
 65
     1
110
0.0
120
0.0
130
0.0
111
1.0
121
0.0
131
0.0
112
0.0
122
1.0
132
0.0
 79
     0
146
0.0
  0
ENDTAB
  0
TABLE
  2
LTYPE
  5
5
330
0
100
AcDbSymbolTable
 70
     6
  0
LTYPE
  5
14
330
5
100
AcDbSymbolTableRecord
100
AcDbLinetypeTableRecord
  2
ByBlock
 70
     0
  3

 72
    65
 73
     0
 40
0.0
  0
LTYPE
  5
15
330
5
100
AcDbSymbolTableRecord
100
AcDbLinetypeTableRecord
  2
ByLayer
 70
     0
  3

 72
    65
 73
     0
 40
0.0
  0
LTYPE
  5
16
330
5
100
AcDbSymbolTableRecord
100
AcDbLinetypeTableRecord
  2
Continuous
 70
     0
  3
Solid line
 72
    65
 73
     0
 40
0.0
  0
LTYPE
  5
3B
330
5
100
AcDbSymbolTableRecord
100
AcDbLinetypeTableRecord
  2
HIDDEN
 70
     0
  3
Hidden __ __ __ __ __ __ __ __ __ __ __ __ __ __
 72
    65
 73
     2
 40
1.905
 49
1.27
 74
     0
 49
-0.635
 74
     0
  0
LTYPE
  5
3C
330
5
100
AcDbSymbolTableRecord
100
AcDbLinetypeTableRecord
  2
PHANTOM
 70
     0
  3
Phantom ______  __  __  ______  __  __  ______
 72
    65
 73
     6
 40
12.7
 49
6.35
 74
     0
 49
-1.27
 74
     0
 49
1.27
 74
     0
 49
-1.27
 74
     0
 49
1.27
 74
     0
 49
-1.27
 74
     0
  0
LTYPE
  5
3D
330
5
100
AcDbSymbolTableRecord
100
AcDbLinetypeTableRecord
  2
CENTER
 70
     0
  3
Center ____ _ ____ _ ____ _ ____ _ ____ _ ____
 72
    65
 73
     4
 40
10.16
 49
6.35
 74
     0
 49
-1.27
 74
     0
 49
1.27
 74
     0
 49
-1.27
 74
     0
  0
LTYPE
  5
3E
330
5
100
AcDbSymbolTableRecord
100
AcDbLinetypeTableRecord
  2
CENTERX2
 70
     0
  3
Center (2x) ________  __  ________  __  _____
 72
    65
 73
     4
 40
20.32
 49
12.7
 74
     0
 49
-2.54
 74
     0
 49
2.54
 74
     0
 49
-2.54
 74
     0
  0
LTYPE
  5
3F
330
5
100
AcDbSymbolTableRecord
100
AcDbLinetypeTableRecord
  2
DOT2
 70
     0
  3
Dot (.5x) ........................................
 72
    65
 73
     2
 40
0.635
 49
0.0
 74
     0
 49
-0.635
 74
     0
  0
ENDTAB
  0
TABLE
  2
LAYER
  5
2
330
0
100
AcDbSymbolTable
 70
     4
  0
LAYER
  5
10
330
2
100
AcDbSymbolTableRecord
100
AcDbLayerTableRecord
  2
0
 70
     0
 62
     7
  6
Continuous
370
    -3
390
F
  0
LAYER
  5
40
330
2
100
AcDbSymbolTableRecord
100
AcDbLayerTableRecord
  2
SLD-0
 70
     0
 62
     3
  6
Continuous
370
    -3
390
F
  0
LAYER
  5
41
330
2
100
AcDbSymbolTableRecord
100
AcDbLayerTableRecord
  2
SLD-DEFPOINTS
 70
     0
 62
   179
  6
Continuous
370
    -3
390
F
  0
LAYER
  5
42
330
2
100
AcDbSymbolTableRecord
100
AcDbLayerTableRecord
  2
AM_REFDIM
 70
     0
 62
     4
  6
Continuous
370
    15
390
F
  0
ENDTAB
  0
TABLE
  2
STYLE
  5
3
330
0
100
AcDbSymbolTable
 70
     1
  0
STYLE
  5
11
330
3
100
AcDbSymbolTableRecord
100
AcDbTextStyleTableRecord
  2
Standard
 70
     0
 40
0.0
 41
1.0
 50
0.0
 71
     0
 42
2.5
  3
txt
  4
bigfont
  0
ENDTAB
  0
TABLE
  2
VIEW
  5
6
330
0
100
AcDbSymbolTable
 70
     0
  0
ENDTAB
  0
TABLE
  2
UCS
  5
7
330
0
100
AcDbSymbolTable
 70
     0
  0
ENDTAB
  0
TABLE
  2
APPID
  5
9
330
0
100
AcDbSymbolTable
 70
     1
  0
APPID
  5
12
330
9
100
AcDbSymbolTableRecord
100
AcDbRegAppTableRecord
  2
ACAD
 70
     0
  0
ENDTAB
  0
TABLE
  2
DIMSTYLE
  5
A
330
0
100
AcDbSymbolTable
 70
     1
100
AcDbDimStyleTable
  0
DIMSTYLE
105
27
330
A
100
AcDbSymbolTableRecord
100
AcDbDimStyleTableRecord
  2
ISO-25
 70
     0
 41
2.5
 42
0.625
 43
3.75
 44
1.25
 73
     0
 74
     0
 77
     1
 78
     8
140
2.5
141
2.5
143
0.0393700787
147
0.625
171
     3
172
     1
271
     2
272
     2
274
     3
278
    44
283
     0
284
     8
340
11
  0
ENDTAB
  0
TABLE
  2
BLOCK_RECORD
  5
1
330
0
100
AcDbSymbolTable
 70
     1
  0
BLOCK_RECORD
  5
1F
330
1
100
AcDbSymbolTableRecord
100
AcDbBlockTableRecord
  2
*Model_Space
340
22
  0
BLOCK_RECORD
  5
1B
330
1
100
AcDbSymbolTableRecord
100
AcDbBlockTableRecord
  2
*Paper_Space
340
1E
  0
BLOCK_RECORD
  5
23
330
1
100
AcDbSymbolTableRecord
100
AcDbBlockTableRecord
  2
*Paper_Space0
340
26
  0
ENDTAB
  0
ENDSEC
  0
SECTION
  2
BLOCKS
  0
BLOCK
  5
20
330
1F
100
AcDbEntity
  8
0
100
AcDbBlockBegin
  2
*Model_Space
 70
     0
 10
0.0
 20
0.0
 30
0.0
  3
*Model_Space
  1

  0
ENDBLK
  5
21
330
1F
100
AcDbEntity
  8
0
100
AcDbBlockEnd
  0
BLOCK
  5
1C
330
1B
100
AcDbEntity
 67
     1
  8
0
100
AcDbBlockBegin
  2
*Paper_Space
 70
     0
 10
0.0
 20
0.0
 30
0.0
  3
*Paper_Space
  1

  0
ENDBLK
  5
1D
330
1B
100
AcDbEntity
 67
     1
  8
0
100
AcDbBlockEnd
  0
BLOCK
  5
24
330
23
100
AcDbEntity
  8
0
100
AcDbBlockBegin
  2
*Paper_Space0
 70
     0
 10
0.0
 20
0.0
 30
0.0
  3
*Paper_Space0
  1

  0
ENDBLK
  5
25
330
23
100
AcDbEntity
  8
0
100
AcDbBlockEnd
  0
ENDSEC
  0
SECTION
  2
ENTITIES
  0
LINE
  5
43
330
1F
100
AcDbEntity
  8
0
  6
Continuous
 62
     7
370
    15
100
AcDbLine
 10
277.4358902732
 20
340.6610270257
 30
0.0
 11
220.4358865181
 21
340.6610270257
 31
0.0
  0
LINE
  5
44
330
1F
100
AcDbEntity
  8
0
  6
Continuous
 62
     7
370
    15
100
AcDbLine
 10
157.4358929554
 20
250.4610275145
 30
0.0
 11
277.4358902732
 21
250.4610275145
 31
0.0
  0
LINE
  5
45
330
1F
100
AcDbEntity
  8
0
  6
Continuous
 62
     7
370
    15
100
AcDbLine
 10
336.1636417592
 20
316.0610278364
 30
0.0
 11
329.935888634
 21
337.1395734365
 31
0.0
  0
LINE
  5
46
330
1F
100
AcDbEntity
  8
0
  6
Continuous
 62
     7
370
    15
100
AcDbLine
 10
299.4358882913
 20
378.5610241111
 30
0.0
 11
299.4358882913
 21
376.5610275085
 31
0.0
  0
LINE
  5
47
330
1F
100
AcDbEntity
  8
0
  6
Continuous
 62
     7
370
    15
100
AcDbLine
 10
350.4358892003
 20
376.5610275085
 30
0.0
 11
350.4358892003
 21
378.5610241111
 31
0.0
  0
LINE
  5
48
330
1F
100
AcDbEntity
  8
0
  6
Continuous
 62
     7
370
    15
100
AcDbLine
 10
350.4358892003
 20
212.5610304292
 30
0.0
 11
350.4358892003
 21
214.5610270317
 31
0.0
  0
LINE
  5
49
330
1F
100
AcDbEntity
  8
0
  6
Continuous
 62
     7
370
    15
100
AcDbLine
 10
299.4358882913
 20
214.5610270317
 30
0.0
 11
299.4358882913
 21
212.5610304292
 31
0.0
  0
ARC
  5
4A
330
1F
100
AcDbEntity
  8
0
  6
Continuous
 62
     7
370
    15
100
AcDbCircle
 10
343.7045793552
 20
371.5610264475
 30
0.0
 40
5.000001577880641
100
AcDbArc
 50
90.0260517119
 51
165.8358646679
  0
ARC
  5
4B
330
1F
100
AcDbEntity
  8
0
  6
Continuous
 62
     7
370
    15
100
AcDbCircle
 10
303.6058195177
 20
371.5610272701
 30
0.0
 40
5.000000000000023
100
AcDbArc
 50
5.5522566646
 51
89.9999781179
  0
ARC
  5
4C
330
1F
100
AcDbEntity
  8
0
  6
Continuous
 62
     7
370
    15
100
AcDbCircle
 10
303.1262871534
 20
219.5610324394
 30
0.0
 40
5.000005756865998
100
AcDbArc
 50
270.0214125603
 51
351.4488025533
  0
ARC
  5
4D
330
1F
100
AcDbEntity
  8
0
  6
Continuous
 62
     7
370
    15
100
AcDbCircle
 10
347.5478088577
 20
219.5610268615
 30
0.0
 40
4.999999849583039
100
AcDbArc
 50
173.0256110266
 51
269.9949056909
  0
LINE
  5
4E
330
1F
100
AcDbEntity
  8
0
  6
Continuous
 62
     7
370
    15
100
AcDbLine
 10
343.9358890662
 20
316.0610278364
 30
0.0
 11
336.1636417592
 21
316.0610278364
 31
0.0
  0
LWPOLYLINE
  5
4F
330
1F
100
AcDbEntity
  8
0
  6
Continuous
 62
     7
370
    15
100
AcDbPolyline
 90
       15
 70
   128
 43
0.0
 10
368.4358884254
 20
287.5610268901
 10
368.4358884254
 20
291.5684017579
 10
368.37120621
 20
297.0747037552
 10
367.7436251798
 20
300.446707778
 10
366.7298991838
 20
303.1018828268
 10
365.6001527467
 20
305.1097267534
 10
364.5402257004
 20
306.5645243268
 10
363.8010014453
 20
307.4194700684
 10
362.6577731827
 20
308.5507699515
 10
361.0270050028
 20
309.8565289046
 10
358.8174943486
 20
311.1873124953
 10
355.9437383571
 20
312.3327759321
 10
352.3423847416
 20
313.0052150454
 10
348.0401643226
 20
313.0610273446
 10
343.9358890662
 20
313.0610273446
  0
LWPOLYLINE
  5
50
330
1F
100
AcDbEntity
  8
0
  6
Continuous
 62
     7
370
    15
100
AcDbPolyline
 90
       17
 70
   128
 43
0.0
 10
342.6270791003
 20
220.1638338383
 10
343.0152599373
 20
222.5107667263
 10
343.8580882409
 20
225.138742965
 10
345.5334816733
 20
228.4233388718
 10
347.27434522
 20
230.7750699337
 10
348.8065198669
 20
232.5110626634
 10
350.3735688189
 20
234.2837867554
 10
352.0234868535
 20
236.1502466019
 10
355.5056479433
 20
240.0894281681
 10
359.1259223083
 20
244.1848521347
 10
362.1239204565
 20
247.5763266201
 10
364.731798754
 20
250.9944965358
 10
366.6162778297
 20
254.637115192
 10
367.8547915676
 20
258.5544777329
 10
368.4099417785
 20
262.6877916272
 10
368.4358884254
 20
266.9391450699
 10
368.4358884254
 20
267.5610264059
  0
ARC
  5
51
330
1F
100
AcDbEntity
  8
0
  6
Continuous
 62
     7
370
    15
100
AcDbCircle
 10
360.880062511
 20
210.8699136743
 30
0.0
 40
53.37064387769249
100
AcDbArc
 50
141.7920728658
 51
171.4508120722
  0
LWPOLYLINE
  5
52
330
1F
100
AcDbEntity
  8
0
  6
Continuous
 62
     7
370
    15
100
AcDbPolyline
 90
        7
 70
   128
 43
0.0
 10
308.582570278
 20
372.0474210794
 10
309.081297242
 20
366.966788214
 10
309.7018924215
 20
360.7137692388
 10
310.301339128
 20
354.8708600219
 10
310.7348688552
 20
350.8332153078
 10
311.1524301255
 20
347.2425756271
 10
311.2727514142
 20
346.3393193896
  0
LWPOLYLINE
  5
53
330
1F
100
AcDbEntity
  8
0
  6
Continuous
 62
     7
370
    15
100
AcDbPolyline
 90
        9
 70
   128
 43
0.0
 10
329.935888634
 20
341.1257085617
 10
330.6349347019
 20
342.9676373716
 10
331.4682951802
 20
345.4309371527
 10
332.433998459
 20
348.5884038027
 10
333.528284789
 20
352.4579559679
 10
334.7445678571
 20
356.9520157988
 10
336.0741016129
 20
362.0034870918
 10
337.5066247442
 20
367.5423381145
 10
338.8539076456
 20
372.7765945013
  0
LINE
  5
54
330
1F
100
AcDbEntity
  8
0
  6
Continuous
 62
     7
370
    15
100
AcDbLine
 10
311.9358894089
 20
243.7178050394
 30
0.0
 11
318.8187103858
 21
243.7178050394
 31
0.0
  0
LINE
  5
55
330
1F
100
AcDbEntity
  8
0
  6
Continuous
 62
     7
370
    15
100
AcDbLine
 10
309.9358890811
 20
244.5610282238
 30
0.0
 11
311.9358894089
 21
244.5610282238
 31
0.0
  0
LINE
  5
56
330
1F
100
AcDbEntity
  8
0
  6
Continuous
 62
     7
370
    15
100
AcDbLine
 10
311.3418238842
 20
346.5610263164
 30
0.0
 11
309.9358890811
 21
346.5610263164
 31
0.0
  0
ARC
  5
57
330
1F
100
AcDbEntity
  8
0
  6
Continuous
 62
     7
370
    15
100
AcDbCircle
 10
207.4196168564
 20
318.7716418015
 30
0.0
 40
3.988226636427466
100
AcDbArc
 50
2.6083216715
 51
177.2782304473
  0
LINE
  5
58
330
1F
100
AcDbEntity
  8
0
  6
Continuous
 62
     7
370
    15
100
AcDbLine
 10
211.4358906308
 20
318.4110266383
 30
0.0
 11
211.4358906308
 21
318.9610266353
 31
0.0
  0
LINE
  5
59
330
1F
100
AcDbEntity
  8
0
  6
Continuous
 62
     7
370
    15
100
AcDbLine
 10
203.4358893195
 20
318.9610266353
 30
0.0
 11
203.4358893195
 21
318.4110266383
 31
0.0
  0
LINE
  5
5A
330
1F
100
AcDbEntity
  8
0
  6
Continuous
 62
     7
370
    15
100
AcDbLine
 10
150.1358885923
 20
264.0610267635
 30
0.0
 11
150.9358872333
 21
264.0610267635
 31
0.0
  0
LINE
  5
5B
330
1F
100
AcDbEntity
  8
0
  6
Continuous
 62
     7
370
    15
100
AcDbLine
 10
150.9358872333
 20
273.0610263761
 30
0.0
 11
150.1358885923
 21
273.0610263761
 31
0.0
  0
LINE
  5
5C
330
1F
100
AcDbEntity
  8
0
  6
Continuous
 62
     7
370
    15
100
AcDbLine
 10
150.1358885923
 20
272.5610272254
 30
0.0
 11
149.035884873
 21
272.5610272254
 31
0.0
  0
LINE
  5
5D
330
1F
100
AcDbEntity
  8
0
  6
Continuous
 62
     7
370
    15
100
AcDbLine
 10
149.035884873
 20
264.5610277768
 30
0.0
 11
150.1358885923
 21
264.5610277768
 31
0.0
  0
ARC
  5
5E
330
1F
100
AcDbEntity
  8
0
  6
Continuous
 62
     7
370
    15
100
AcDbCircle
 10
149.0358890215
 20
270.5610272701
 30
0.0
 40
2.000000000000057
100
AcDbArc
 50
90.0
 51
132.3072493592
  0
ARC
  5
5F
330
1F
100
AcDbEntity
  8
0
  6
Continuous
 62
     7
370
    15
100
AcDbCircle
 10
149.0358890215
 20
266.5610272701
 30
0.0
 40
2.000000000000057
100
AcDbArc
 50
227.7525973771
 51
270.0
  0
LINE
  5
60
330
1F
100
AcDbEntity
  8
0
  6
Continuous
 62
     7
370
    15
100
AcDbLine
 10
184.8358948389
 20
333.11177839
 30
0.0
 11
184.8358948389
 21
334.8218803521
 31
0.0
  0
LINE
  5
61
330
1F
100
AcDbEntity
  8
0
  6
Continuous
 62
     7
370
    15
100
AcDbLine
 10
176.0358948865
 20
334.8218803521
 30
0.0
 11
176.0358948865
 21
333.11177839
 31
0.0
  0
LINE
  5
62
330
1F
100
AcDbEntity
  8
0
  6
Continuous
 62
     7
370
    15
100
AcDbLine
 10
186.6858889022
 20
335.1638992544
 30
0.0
 11
186.6858889022
 21
335.5059181567
 31
0.0
  0
LINE
  5
63
330
1F
100
AcDbEntity
  8
0
  6
Continuous
 62
     7
370
    15
100
AcDbLine
 10
174.185885922
 20
335.5059181567
 30
0.0
 11
174.185885922
 21
335.1638992544
 31
0.0
  0
LINE
  5
64
330
1F
100
AcDbEntity
  8
0
  6
Continuous
 62
     7
370
    15
100
AcDbLine
 10
190.435885326
 20
336.5319785889
 30
0.0
 11
190.435885326
 21
337.5580390211
 31
0.0
  0
LINE
  5
65
330
1F
100
AcDbEntity
  8
0
  6
Continuous
 62
     7
370
    15
100
AcDbLine
 10
170.4358894983
 20
337.5580390211
 30
0.0
 11
170.4358894983
 21
336.5319785889
 31
0.0
  0
LINE
  5
66
330
1F
100
AcDbEntity
  8
0
  6
Continuous
 62
     7
370
    15
100
AcDbLine
 10
238.0358864227
 20
381.809358042
 30
0.0
 11
220.4358865181
 21
381.809358042
 31
0.0
  0
LINE
  5
67
330
1F
100
AcDbEntity
  8
0
  6
Continuous
 62
     7
370
    15
100
AcDbLine
 10
220.4358865181
 20
341.8093552108
 30
0.0
 11
238.0358864227
 21
341.8093552108
 31
0.0
  0
LINE
  5
68
330
1F
100
AcDbEntity
  8
0
  6
Continuous
 62
     7
370
    15
100
AcDbLine
 10
159.0632487693
 20
341.2610260065
 30
0.0
 11
157.4358929554
 21
341.2610260065
 31
0.0
  0
ARC
  5
69
330
1F
100
AcDbEntity
  8
0
  6
Continuous
 62
     7
370
    15
100
AcDbCircle
 10
171.0358890215
 20
376.0453506074
 30
0.0
 40
10.59999999999999
100
AcDbArc
 50
90.0
 51
180.0
  0
LINE
  5
6A
330
1F
100
AcDbEntity
  8
0
  6
Continuous
 62
     7
370
    15
100
AcDbLine
 10
220.4358865181
 20
386.6453510936
 30
0.0
 11
171.0358847538
 21
386.6453510936
 31
0.0
  0
ARC
  5
6B
330
1F
100
AcDbEntity
  8
0
  6
Continuous
 62
     7
370
    15
100
AcDbCircle
 10
158.7208269909
 20
342.946661398
 30
0.0
 40
1.702993756585729
100
AcDbArc
 50
280.1828005418
 51
3.9714736418
  0
LINE
  5
6C
330
1F
100
AcDbEntity
  8
0
  6
Continuous
 62
     7
370
    15
100
AcDbLine
 10
282.4358892301
 20
291.5610270801
 30
0.0
 11
293.4358891705
 21
291.5610270801
 31
0.0
  0
LINE
  5
6D
330
1F
100
AcDbEntity
  8
0
  6
Continuous
 62
     7
370
    15
100
AcDbLine
 10
293.4358891705
 20
299.5610274601
 30
0.0
 11
282.4358892301
 21
299.5610274601
 31
0.0
  0
LINE
  5
6E
330
1F
100
AcDbEntity
  8
0
  6
Continuous
 62
     7
370
    15
100
AcDbLine
 10
288.9829528192
 20
338.7410198565
 30
0.0
 11
289.4718003133
 21
336.9166110869
 31
0.0
  0
LINE
  5
6F
330
1F
100
AcDbEntity
  8
0
  6
Continuous
 62
     7
370
    15
100
AcDbLine
 10
286.1722622672
 20
351.4464912231
 30
0.0
 11
286.6898988047
 21
349.5146376307
 31
0.0
  0
LINE
  5
70
330
1F
100
AcDbEntity
  8
0
  6
Continuous
 62
     7
370
    15
100
AcDbLine
 10
294.4173057237
 20
351.5851912315
 30
0.0
 11
293.8996691862
 21
353.5170410986
 31
0.0
  0
LINE
  5
71
330
1F
100
AcDbEntity
  8
0
  6
Continuous
 62
     7
370
    15
100
AcDbLine
 10
150.9358872333
 20
249.5610271807
 30
0.0
 11
157.4358929554
 21
249.5610271807
 31
0.0
  0
LINE
  5
72
330
1F
100
AcDbEntity
  8
0
  6
Continuous
 62
     7
370
    15
100
AcDbLine
 10
157.4358929554
 20
341.5610273595
 30
0.0
 11
150.9358872333
 21
341.5610273595
 31
0.0
  0
ARC
  5
73
330
1F
100
AcDbEntity
  8
0
  6
Continuous
 62
     7
370
    15
100
AcDbCircle
 10
148.9358890215
 20
317.543147292
 30
0.0
 40
2.0
100
AcDbArc
 50
274.0960437582
 51
0.0
  0
ARC
  5
74
330
1F
100
AcDbEntity
  8
0
  6
Continuous
 62
     7
370
    15
100
AcDbCircle
 10
148.9358890215
 20
273.5789072482
 30
0.0
 40
2.0
100
AcDbArc
 50
0.0
 51
85.9039562418
  0
ARC
  5
75
330
1F
100
AcDbEntity
  8
0
  6
Continuous
 62
     7
370
    15
100
AcDbCircle
 10
149.4358890215
 20
310.5610272701
 30
0.0
 40
5.0
100
AcDbArc
 50
94.0960437582
 51
180.0
  0
ARC
  5
76
330
1F
100
AcDbEntity
  8
0
  6
Continuous
 62
     7
370
    15
100
AcDbCircle
 10
149.4358890215
 20
280.5610272701
 30
0.0
 40
5.000000000000036
100
AcDbArc
 50
180.0
 51
265.9039562418
  0
LINE
  5
77
330
1F
100
AcDbEntity
  8
0
  6
Continuous
 62
     7
370
    15
100
AcDbLine
 10
282.4358892301
 20
341.5610273595
 30
0.0
 11
277.4358902732
 21
341.5610273595
 31
0.0
  0
LINE
  5
78
330
1F
100
AcDbEntity
  8
0
  6
Continuous
 62
     7
370
    15
100
AcDbLine
 10
277.4358902732
 20
249.5610271807
 30
0.0
 11
282.4358892301
 21
249.5610271807
 31
0.0
  0
LINE
  5
79
330
1F
100
AcDbEntity
  8
0
  6
Continuous
 62
     7
370
    15
100
AcDbLine
 10
293.4358891705
 20
281.0610276874
 30
0.0
 11
297.4358898261
 21
281.0610276874
 31
0.0
  0
ARC
  5
7A
330
1F
100
AcDbEntity
  8
0
  6
Continuous
 62
     7
370
    15
100
AcDbCircle
 10
293.4358890215
 20
313.0610272701
 30
0.0
 40
6.999999999999965
100
AcDbArc
 50
235.150095421
 51
270.0
  0
LINE
  5
7B
330
1F
100
AcDbEntity
  8
0
  6
Continuous
 62
     7
370
    15
100
AcDbLine
 10
316.4445109339
 20
415.5610245879
 30
0.0
 11
316.4445109339
 21
398.5610273893
 31
0.0
  0
LINE
  5
7C
330
1F
100
AcDbEntity
  8
0
  6
Continuous
 62
     7
370
    15
100
AcDbLine
 10
333.4272670233
 20
415.5610245879
 30
0.0
 11
333.4272670233
 21
398.5610273893
 31
0.0
  0
LINE
  5
7D
330
1F
100
AcDbEntity
  8
0
  6
Continuous
 62
     7
370
    15
100
AcDbLine
 10
333.4272670233
 20
415.5610245879
 30
0.0
 11
316.4445109339
 21
415.5610245879
 31
0.0
  0
LINE
  5
7E
330
1F
100
AcDbEntity
  8
0
  6
Continuous
 62
     7
370
    15
100
AcDbLine
 10
345.4358883807
 20
415.5610245879
 30
0.0
 11
345.4358883807
 21
398.5610273893
 31
0.0
  0
LINE
  5
7F
330
1F
100
AcDbEntity
  8
0
  6
Continuous
 62
     7
370
    15
100
AcDbLine
 10
345.4358883807
 20
415.5610245879
 30
0.0
 11
333.4272670233
 21
415.5610245879
 31
0.0
  0
LINE
  5
80
330
1F
100
AcDbEntity
  8
0
  6
Continuous
 62
     7
370
    15
100
AcDbLine
 10
304.4358891109
 20
415.5610245879
 30
0.0
 11
304.4358891109
 21
398.5610273893
 31
0.0
  0
LINE
  5
81
330
1F
100
AcDbEntity
  8
0
  6
Continuous
 62
     7
370
    15
100
AcDbLine
 10
316.4445109339
 20
415.5610245879
 30
0.0
 11
304.4358891109
 21
415.5610245879
 31
0.0
  0
LINE
  5
82
330
1F
100
AcDbEntity
  8
0
  6
Continuous
 62
     7
370
    15
100
AcDbLine
 10
333.4272670233
 20
175.5610299523
 30
0.0
 11
333.4272670233
 21
192.5610271509
 31
0.0
  0
LINE
  5
83
330
1F
100
AcDbEntity
  8
0
  6
Continuous
 62
     7
370
    15
100
AcDbLine
 10
316.4445109339
 20
175.5610299523
 30
0.0
 11
316.4445109339
 21
192.5610271509
 31
0.0
  0
LINE
  5
84
330
1F
100
AcDbEntity
  8
0
  6
Continuous
 62
     7
370
    15
100
AcDbLine
 10
316.4445109339
 20
175.5610299523
 30
0.0
 11
333.4272670233
 21
175.5610299523
 31
0.0
  0
LINE
  5
85
330
1F
100
AcDbEntity
  8
0
  6
Continuous
 62
     7
370
    15
100
AcDbLine
 10
345.4358883807
 20
175.5610299523
 30
0.0
 11
345.4358883807
 21
192.5610271509
 31
0.0
  0
LINE
  5
86
330
1F
100
AcDbEntity
  8
0
  6
Continuous
 62
     7
370
    15
100
AcDbLine
 10
333.4272670233
 20
175.5610299523
 30
0.0
 11
345.4358883807
 21
175.5610299523
 31
0.0
  0
LINE
  5
87
330
1F
100
AcDbEntity
  8
0
  6
Continuous
 62
     7
370
    15
100
AcDbLine
 10
304.4358891109
 20
175.5610299523
 30
0.0
 11
304.4358891109
 21
192.5610271509
 31
0.0
  0
LINE
  5
88
330
1F
100
AcDbEntity
  8
0
  6
Continuous
 62
     7
370
    15
100
AcDbLine
 10
304.4358891109
 20
175.5610299523
 30
0.0
 11
316.4445109339
 21
175.5610299523
 31
0.0
  0
LINE
  5
89
330
1F
100
AcDbEntity
  8
0
  6
Continuous
 62
     7
370
    15
100
AcDbLine
 10
312.7165891835
 20
398.5610273893
 30
0.0
 11
312.7165891835
 21
378.5610241111
 31
0.0
  0
LINE
  5
8A
330
1F
100
AcDbEntity
  8
0
  6
Continuous
 62
     7
370
    15
100
AcDbLine
 10
337.1551883081
 20
398.5610273893
 30
0.0
 11
337.1551883081
 21
378.5610241111
 31
0.0
  0
LINE
  5
8B
330
1F
100
AcDbEntity
  8
0
  6
Continuous
 62
     7
370
    15
100
AcDbLine
 10
337.1551883081
 20
398.5610273893
 30
0.0
 11
312.7165891835
 21
398.5610273893
 31
0.0
  0
LINE
  5
8C
330
1F
100
AcDbEntity
  8
0
  6
Continuous
 62
     7
370
    15
100
AcDbLine
 10
312.7165891835
 20
378.5610241111
 30
0.0
 11
337.1551883081
 21
378.5610241111
 31
0.0
  0
LINE
  5
8D
330
1F
100
AcDbEntity
  8
0
  6
Continuous
 62
     7
370
    15
100
AcDbLine
 10
354.4358898559
 20
398.5610273893
 30
0.0
 11
354.4358898559
 21
378.5610241111
 31
0.0
  0
LINE
  5
8E
330
1F
100
AcDbEntity
  8
0
  6
Continuous
 62
     7
370
    15
100
AcDbLine
 10
354.4358898559
 20
398.5610273893
 30
0.0
 11
337.1551883081
 21
398.5610273893
 31
0.0
  0
LINE
  5
8F
330
1F
100
AcDbEntity
  8
0
  6
Continuous
 62
     7
370
    15
100
AcDbLine
 10
337.1551883081
 20
378.5610241111
 30
0.0
 11
354.4358898559
 21
378.5610241111
 31
0.0
  0
LINE
  5
90
330
1F
100
AcDbEntity
  8
0
  6
Continuous
 62
     7
370
    15
100
AcDbLine
 10
295.4358894983
 20
398.5610273893
 30
0.0
 11
295.4358894983
 21
378.5610241111
 31
0.0
  0
LINE
  5
91
330
1F
100
AcDbEntity
  8
0
  6
Continuous
 62
     7
370
    15
100
AcDbLine
 10
312.7165891835
 20
398.5610273893
 30
0.0
 11
295.4358894983
 21
398.5610273893
 31
0.0
  0
LINE
  5
92
330
1F
100
AcDbEntity
  8
0
  6
Continuous
 62
     7
370
    15
100
AcDbLine
 10
295.4358894983
 20
378.5610241111
 30
0.0
 11
312.7165891835
 21
378.5610241111
 31
0.0
  0
LINE
  5
93
330
1F
100
AcDbEntity
  8
0
  6
Continuous
 62
     7
370
    15
100
AcDbLine
 10
337.1551883081
 20
192.5610271509
 30
0.0
 11
337.1551883081
 21
212.5610304292
 31
0.0
  0
LINE
  5
94
330
1F
100
AcDbEntity
  8
0
  6
Continuous
 62
     7
370
    15
100
AcDbLine
 10
312.7165891835
 20
192.5610271509
 30
0.0
 11
312.7165891835
 21
212.5610304292
 31
0.0
  0
LINE
  5
95
330
1F
100
AcDbEntity
  8
0
  6
Continuous
 62
     7
370
    15
100
AcDbLine
 10
312.7165891835
 20
192.5610271509
 30
0.0
 11
337.1551883081
 21
192.5610271509
 31
0.0
  0
LINE
  5
96
330
1F
100
AcDbEntity
  8
0
  6
Continuous
 62
     7
370
    15
100
AcDbLine
 10
337.1551883081
 20
212.5610304292
 30
0.0
 11
312.7165891835
 21
212.5610304292
 31
0.0
  0
LINE
  5
97
330
1F
100
AcDbEntity
  8
0
  6
Continuous
 62
     7
370
    15
100
AcDbLine
 10
354.4358898559
 20
192.5610271509
 30
0.0
 11
354.4358898559
 21
212.5610304292
 31
0.0
  0
LINE
  5
98
330
1F
100
AcDbEntity
  8
0
  6
Continuous
 62
     7
370
    15
100
AcDbLine
 10
337.1551883081
 20
192.5610271509
 30
0.0
 11
354.4358898559
 21
192.5610271509
 31
0.0
  0
LINE
  5
99
330
1F
100
AcDbEntity
  8
0
  6
Continuous
 62
     7
370
    15
100
AcDbLine
 10
354.4358898559
 20
212.5610304292
 30
0.0
 11
337.1551883081
 21
212.5610304292
 31
0.0
  0
LINE
  5
9A
330
1F
100
AcDbEntity
  8
0
  6
Continuous
 62
     7
370
    15
100
AcDbLine
 10
295.4358894983
 20
192.5610271509
 30
0.0
 11
295.4358894983
 21
212.5610304292
 31
0.0
  0
LINE
  5
9B
330
1F
100
AcDbEntity
  8
0
  6
Continuous
 62
     7
370
    15
100
AcDbLine
 10
295.4358894983
 20
192.5610271509
 30
0.0
 11
312.7165891835
 21
192.5610271509
 31
0.0
  0
LINE
  5
9C
330
1F
100
AcDbEntity
  8
0
  6
Continuous
 62
     7
370
    15
100
AcDbLine
 10
312.7165891835
 20
212.5610304292
 30
0.0
 11
295.4358894983
 21
212.5610304292
 31
0.0
  0
LWPOLYLINE
  5
9D
330
1F
100
AcDbEntity
  8
0
  6
Continuous
 62
     7
370
    15
100
AcDbPolyline
 90
        6
 70
   128
 43
0.0
 10
165.4358942667
 20
255.8359620388
 10
165.5484576383
 20
256.1536473449
 10
165.8737201849
 20
256.4426888938
 10
166.3748164335
 20
256.6668135341
 10
166.9955690065
 20
256.7968336161
 10
167.4358834186
 20
256.8219346221
  0
LINE
  5
9E
330
1F
100
AcDbEntity
  8
0
  6
Continuous
 62
     7
370
    15
100
AcDbLine
 10
165.4358942667
 20
255.5356589373
 30
0.0
 11
165.4358942667
 21
255.8359620388
 31
0.0
  0
LWPOLYLINE
  5
9F
330
1F
100
AcDbEntity
  8
0
  6
Continuous
 62
     7
370
    15
100
AcDbPolyline
 90
        6
 70
   128
 43
0.0
 10
167.4358834186
 20
254.6533425565
 10
166.7738844314
 20
254.7009368654
 10
166.1865253606
 20
254.8397896107
 10
165.740056769
 20
255.0578830059
 10
165.4848147789
 20
255.3347801085
 10
165.4358942667
 20
255.5356589373
  0
LINE
  5
A0
330
1F
100
AcDbEntity
  8
0
  6
Continuous
 62
     7
370
    15
100
AcDbLine
 10
176.4358867565
 20
254.6533425565
 30
0.0
 11
167.4358834186
 21
254.6533425565
 31
0.0
  0
LWPOLYLINE
  5
A1
330
1F
100
AcDbEntity
  8
0
  6
Continuous
 62
     7
370
    15
100
AcDbPolyline
 90
        6
 70
   128
 43
0.0
 10
178.4358908096
 20
255.5356589373
 10
178.3233125368
 20
255.2349050756
 10
177.9980499902
 20
254.9752746935
 10
177.4969537416
 20
254.7825542505
 10
176.8762011686
 20
254.6740290935
 10
176.4358867565
 20
254.6533425565
  0
LINE
  5
A2
330
1F
100
AcDbEntity
  8
0
  6
Continuous
 62
     7
370
    15
100
AcDbLine
 10
178.4358908096
 20
255.5356589373
 30
0.0
 11
178.4358908096
 21
255.8359620388
 31
0.0
  0
LWPOLYLINE
  5
A3
330
1F
100
AcDbEntity
  8
0
  6
Continuous
 62
     7
370
    15
100
AcDbPolyline
 90
        6
 70
   128
 43
0.0
 10
176.4358867565
 20
256.8219346221
 10
177.0978857437
 20
256.7643304582
 10
177.6852597156
 20
256.5993671532
 10
178.1317134061
 20
256.3491654809
 10
178.3869553962
 20
256.0461801703
 10
178.4358908096
 20
255.8359620388
  0
LINE
  5
A4
330
1F
100
AcDbEntity
  8
0
  6
Continuous
 62
     7
370
    15
100
AcDbLine
 10
176.4358867565
 20
256.8219346221
 30
0.0
 11
167.4358834186
 21
256.8219346221
 31
0.0
  0
LWPOLYLINE
  5
A5
330
1F
100
AcDbEntity
  8
0
  6
Continuous
 62
     7
370
    15
100
AcDbPolyline
 90
        6
 70
   128
 43
0.0
 10
165.4358942667
 20
262.2876693721
 10
165.5484576383
 20
262.7381202991
 10
165.8737201849
 20
263.1437932368
 10
166.3748164335
 20
263.4558012004
 10
166.9955690065
 20
263.6358295794
 10
167.4358834186
 20
263.6705120321
  0
LINE
  5
A6
330
1F
100
AcDbEntity
  8
0
  6
Continuous
 62
     7
370
    15
100
AcDbLine
 10
165.4358942667
 20
261.8571189459
 30
0.0
 11
165.4358942667
 21
262.2876693721
 31
0.0
  0
LWPOLYLINE
  5
A7
330
1F
100
AcDbEntity
  8
0
  6
Continuous
 62
     7
370
    15
100
AcDbPolyline
 90
        6
 70
   128
 43
0.0
 10
167.4358834186
 20
260.5613325949
 10
166.7738844314
 20
260.6325452443
 10
166.1865253606
 20
260.8393770869
 10
165.740056769
 20
261.1615997966
 10
165.4848147789
 20
261.5663376863
 10
165.4358942667
 20
261.8571189459
  0
LINE
  5
A8
330
1F
100
AcDbEntity
  8
0
  6
Continuous
 62
     7
370
    15
100
AcDbLine
 10
176.4358867565
 20
260.5613325949
 30
0.0
 11
167.4358834186
 21
260.5613325949
 31
0.0
  0
LWPOLYLINE
  5
A9
330
1F
100
AcDbEntity
  8
0
  6
Continuous
 62
     7
370
    15
100
AcDbPolyline
 90
        6
 70
   128
 43
0.0
 10
178.4358908096
 20
261.8571189459
 10
178.3233125368
 20
261.4208911772
 10
177.9980499902
 20
261.0399206396
 10
177.4969537416
 20
260.7542840059
 10
176.8762011686
 20
260.5923046585
 10
176.4358867565
 20
260.5613325949
  0
LINE
  5
AA
330
1F
100
AcDbEntity
  8
0
  6
Continuous
 62
     7
370
    15
100
AcDbLine
 10
178.4358908096
 20
261.8571189459
 30
0.0
 11
178.4358908096
 21
262.2876693721
 31
0.0
  0
LWPOLYLINE
  5
AB
330
1F
100
AcDbEntity
  8
0
  6
Continuous
 62
     7
370
    15
100
AcDbPolyline
 90
        6
 70
   128
 43
0.0
 10
176.4358867565
 20
263.6705120321
 10
177.0978857437
 20
263.5908914025
 10
177.6852597156
 20
263.3621325012
 10
178.1317134061
 20
263.0129461403
 10
178.3869553962
 20
262.586296093
 10
178.4358908096
 20
262.2876693721
  0
LINE
  5
AC
330
1F
100
AcDbEntity
  8
0
  6
Continuous
 62
     7
370
    15
100
AcDbLine
 10
176.4358867565
 20
263.6705120321
 30
0.0
 11
167.4358834186
 21
263.6705120321
 31
0.0
  0
ARC
  5
AD
330
1F
100
AcDbEntity
  8
0
  6
Continuous
 62
     7
370
    15
100
AcDbCircle
 10
167.3216311723
 20
270.5753005572
 30
0.0
 40
1.896039867524463
100
AcDbArc
 50
86.5453576624
 51
174.0242585221
  0
LINE
  5
AE
330
1F
100
AcDbEntity
  8
0
  6
Continuous
 62
     7
370
    15
100
AcDbLine
 10
165.4358942667
 20
270.2381988283
 30
0.0
 11
165.4358942667
 21
270.7726923044
 31
0.0
  0
ARC
  5
AF
330
1F
100
AcDbEntity
  8
0
  6
Continuous
 62
     7
370
    15
100
AcDbCircle
 10
167.2361506786
 20
270.4050371499
 30
0.0
 40
1.80797073380858
100
AcDbArc
 50
185.2947487031
 51
276.3426078179
  0
LINE
  5
B0
330
1F
100
AcDbEntity
  8
0
  6
Continuous
 62
     7
370
    15
100
AcDbLine
 10
176.4358867565
 20
268.6081328656
 30
0.0
 11
167.4358834186
 21
268.6081328656
 31
0.0
  0
ARC
  5
B1
330
1F
100
AcDbEntity
  8
0
  6
Continuous
 62
     7
370
    15
100
AcDbCircle
 10
176.5837538651
 20
270.4686899721
 30
0.0
 40
1.866423700159691
100
AcDbArc
 50
265.4559894033
 51
352.9062359636
  0
LINE
  5
B2
330
1F
100
AcDbEntity
  8
0
  6
Continuous
 62
     7
370
    15
100
AcDbLine
 10
178.4358908096
 20
270.2381988283
 30
0.0
 11
178.4358908096
 21
270.7726923044
 31
0.0
  0
ARC
  5
B3
330
1F
100
AcDbEntity
  8
0
  6
Continuous
 62
     7
370
    15
100
AcDbCircle
 10
176.5929914084
 20
270.6258413492
 30
0.0
 40
1.84874103267582
100
AcDbArc
 50
4.5559724742
 51
94.8748324593
  0
LINE
  5
B4
330
1F
100
AcDbEntity
  8
0
  6
Continuous
 62
     7
370
    15
100
AcDbLine
 10
176.4358867565
 20
272.467894968
 30
0.0
 11
167.4358834186
 21
272.467894968
 31
0.0
  0
ARC
  5
B5
330
1F
100
AcDbEntity
  8
0
  6
Continuous
 62
     7
370
    15
100
AcDbCircle
 10
167.0571459658
 20
249.7089396651
 30
0.0
 40
2.647738574804559
100
AcDbArc
 50
81.7760959157
 51
127.7571266895
  0
LINE
  5
B6
330
1F
100
AcDbEntity
  8
0
  6
Continuous
 62
     7
370
    15
100
AcDbLine
 10
165.4358942667
 20
251.6511199291
 30
0.0
 11
165.4358942667
 21
251.8022773083
 31
0.0
  0
LWPOLYLINE
  5
B7
330
1F
100
AcDbEntity
  8
0
  6
Continuous
 62
     7
370
    15
100
AcDbPolyline
 90
        6
 70
   128
 43
0.0
 10
167.4358834186
 20
251.2378995533
 10
166.7738844314
 20
251.2588729377
 10
166.1865253606
 20
251.3209847029
 10
165.740056769
 20
251.4211950119
 10
165.4848147789
 20
251.552794617
 10
165.4358942667
 20
251.6511199291
  0
LINE
  5
B8
330
1F
100
AcDbEntity
  8
0
  6
Continuous
 62
     7
370
    15
100
AcDbLine
 10
176.4358867565
 20
251.2378995533
 30
0.0
 11
167.4358834186
 21
251.2378995533
 31
0.0
  0
ARC
  5
B9
330
1F
100
AcDbEntity
  8
0
  6
Continuous
 62
     7
370
    15
100
AcDbCircle
 10
176.8589088664
 20
254.2371168815
 30
0.0
 40
3.028902819055105
100
AcDbArc
 50
261.9717217278
 51
301.3755009605
  0
LINE
  5
BA
330
1F
100
AcDbEntity
  8
0
  6
Continuous
 62
     7
370
    15
100
AcDbLine
 10
178.4358908096
 20
251.6511199291
 30
0.0
 11
178.4358908096
 21
251.8022773083
 31
0.0
  0
LWPOLYLINE
  5
BB
330
1F
100
AcDbEntity
  8
0
  6
Continuous
 62
     7
370
    15
100
AcDbPolyline
 90
        6
 70
   128
 43
0.0
 10
176.4358867565
 20
252.329450589
 10
177.0978857437
 20
252.2974726971
 10
177.6852597156
 20
252.2066575702
 10
178.1317134061
 20
252.0711538608
 10
178.3869553962
 20
251.9108732458
 10
178.4358908096
 20
251.8022773083
  0
LINE
  5
BC
330
1F
100
AcDbEntity
  8
0
  6
Continuous
 62
     7
370
    15
100
AcDbLine
 10
176.4358867565
 20
252.329450589
 30
0.0
 11
167.4358834186
 21
252.329450589
 31
0.0
  0
LWPOLYLINE
  5
BD
330
1F
100
AcDbEntity
  8
0
  6
Continuous
 62
     7
370
    15
100
AcDbPolyline
 90
        6
 70
   128
 43
0.0
 10
269.4358889618
 20
255.5356589373
 10
269.3233144143
 20
255.2349050756
 10
268.9980555931
 20
254.9752746935
 10
268.4969593444
 20
254.7825542505
 10
267.8762067714
 20
254.6740290935
 10
267.435888634
 20
254.6533425565
  0
LINE
  5
BE
330
1F
100
AcDbEntity
  8
0
  6
Continuous
 62
     7
370
    15
100
AcDbLine
 10
269.4358889618
 20
255.5356589373
 30
0.0
 11
269.4358889618
 21
255.8359620388
 31
0.0
  0
LWPOLYLINE
  5
BF
330
1F
100
AcDbEntity
  8
0
  6
Continuous
 62
     7
370
    15
100
AcDbPolyline
 90
        6
 70
   128
 43
0.0
 10
267.435888634
 20
256.8219346221
 10
268.0978876212
 20
256.7643304582
 10
268.6852541426
 20
256.5993671532
 10
269.1317152837
 20
256.3491654809
 10
269.3869609991
 20
256.0461801703
 10
269.4358889618
 20
255.8359620388
  0
LINE
  5
C0
330
1F
100
AcDbEntity
  8
0
  6
Continuous
 62
     7
370
    15
100
AcDbLine
 10
258.4358890215
 20
256.8219346221
 30
0.0
 11
267.435888634
 21
256.8219346221
 31
0.0
  0
LWPOLYLINE
  5
C1
330
1F
100
AcDbEntity
  8
0
  6
Continuous
 62
     7
370
    15
100
AcDbPolyline
 90
        6
 70
   128
 43
0.0
 10
256.4358924189
 20
255.8359620388
 10
256.5484632412
 20
256.1536473449
 10
256.8737183371
 20
256.4426888938
 10
257.3748145857
 20
256.6668135341
 10
257.9955671588
 20
256.7968336161
 10
258.4358890215
 20
256.8219346221
  0
LINE
  5
C2
330
1F
100
AcDbEntity
  8
0
  6
Continuous
 62
     7
370
    15
100
AcDbLine
 10
256.4358924189
 20
255.5356589373
 30
0.0
 11
256.4358924189
 21
255.8359620388
 31
0.0
  0
LWPOLYLINE
  5
C3
330
1F
100
AcDbEntity
  8
0
  6
Continuous
 62
     7
370
    15
100
AcDbPolyline
 90
        6
 70
   128
 43
0.0
 10
258.4358890215
 20
254.6533425565
 10
257.7738900343
 20
254.7009368654
 10
257.1865235129
 20
254.8397896107
 10
256.7400623718
 20
255.0578830059
 10
256.4848203817
 20
255.3347801085
 10
256.4358924189
 20
255.5356589373
  0
LINE
  5
C4
330
1F
100
AcDbEntity
  8
0
  6
Continuous
 62
     7
370
    15
100
AcDbLine
 10
258.4358890215
 20
254.6533425565
 30
0.0
 11
267.435888634
 21
254.6533425565
 31
0.0
  0
LWPOLYLINE
  5
C5
330
1F
100
AcDbEntity
  8
0
  6
Continuous
 62
     7
370
    15
100
AcDbPolyline
 90
        6
 70
   128
 43
0.0
 10
269.4358889618
 20
261.8571189459
 10
269.3233144143
 20
261.4208911772
 10
268.9980555931
 20
261.0399206396
 10
268.4969593444
 20
260.7542840059
 10
267.8762067714
 20
260.5923046585
 10
267.435888634
 20
260.5613325949
  0
LINE
  5
C6
330
1F
100
AcDbEntity
  8
0
  6
Continuous
 62
     7
370
    15
100
AcDbLine
 10
269.4358889618
 20
261.8571189459
 30
0.0
 11
269.4358889618
 21
262.2876693721
 31
0.0
  0
LWPOLYLINE
  5
C7
330
1F
100
AcDbEntity
  8
0
  6
Continuous
 62
     7
370
    15
100
AcDbPolyline
 90
        6
 70
   128
 43
0.0
 10
267.435888634
 20
263.6705120321
 10
268.0978876212
 20
263.5908914025
 10
268.6852541426
 20
263.3621325012
 10
269.1317152837
 20
263.0129461403
 10
269.3869609991
 20
262.586296093
 10
269.4358889618
 20
262.2876693721
  0
LINE
  5
C8
330
1F
100
AcDbEntity
  8
0
  6
Continuous
 62
     7
370
    15
100
AcDbLine
 10
258.4358890215
 20
263.6705120321
 30
0.0
 11
267.435888634
 21
263.6705120321
 31
0.0
  0
LWPOLYLINE
  5
C9
330
1F
100
AcDbEntity
  8
0
  6
Continuous
 62
     7
370
    15
100
AcDbPolyline
 90
        6
 70
   128
 43
0.0
 10
256.4358924189
 20
262.2876693721
 10
256.5484632412
 20
262.7381202991
 10
256.8737183371
 20
263.1437932368
 10
257.3748145857
 20
263.4558012004
 10
257.9955671588
 20
263.6358295794
 10
258.4358890215
 20
263.6705120321
  0
LINE
  5
CA
330
1F
100
AcDbEntity
  8
0
  6
Continuous
 62
     7
370
    15
100
AcDbLine
 10
256.4358924189
 20
261.8571189459
 30
0.0
 11
256.4358924189
 21
262.2876693721
 31
0.0
  0
LWPOLYLINE
  5
CB
330
1F
100
AcDbEntity
  8
0
  6
Continuous
 62
     7
370
    15
100
AcDbPolyline
 90
        6
 70
   128
 43
0.0
 10
258.4358890215
 20
260.5613325949
 10
257.7738900343
 20
260.6325452443
 10
257.1865235129
 20
260.8393770869
 10
256.7400623718
 20
261.1615997966
 10
256.4848203817
 20
261.5663376863
 10
256.4358924189
 20
261.8571189459
  0
LINE
  5
CC
330
1F
100
AcDbEntity
  8
0
  6
Continuous
 62
     7
370
    15
100
AcDbLine
 10
258.4358890215
 20
260.5613325949
 30
0.0
 11
267.435888634
 21
260.5613325949
 31
0.0
  0
ARC
  5
CD
330
1F
100
AcDbEntity
  8
0
  6
Continuous
 62
     7
370
    15
100
AcDbCircle
 10
267.5837617008
 20
270.468678429
 30
0.0
 40
1.866412665396126
100
AcDbArc
 50
265.4557789999
 51
352.9065508946
  0
LINE
  5
CE
330
1F
100
AcDbEntity
  8
0
  6
Continuous
 62
     7
370
    15
100
AcDbLine
 10
269.4358889618
 20
270.2381988283
 30
0.0
 11
269.4358889618
 21
270.7726923044
 31
0.0
  0
ARC
  5
CF
330
1F
100
AcDbEntity
  8
0
  6
Continuous
 62
     7
370
    15
100
AcDbCircle
 10
267.5930048803
 20
270.6258590781
 30
0.0
 40
1.848724353274227
100
AcDbArc
 50
4.5554624703
 51
94.875237184
  0
LINE
  5
D0
330
1F
100
AcDbEntity
  8
0
  6
Continuous
 62
     7
370
    15
100
AcDbLine
 10
258.4358890215
 20
272.467894968
 30
0.0
 11
267.435888634
 21
272.467894968
 31
0.0
  0
ARC
  5
D1
330
1F
100
AcDbEntity
  8
0
  6
Continuous
 62
     7
370
    15
100
AcDbCircle
 10
258.3216377233
 20
270.5752911506
 30
0.0
 40
1.896049199953969
100
AcDbArc
 50
86.5454033913
 51
174.0240022338
  0
LINE
  5
D2
330
1F
100
AcDbEntity
  8
0
  6
Continuous
 62
     7
370
    15
100
AcDbLine
 10
256.4358924189
 20
270.2381988283
 30
0.0
 11
256.4358924189
 21
270.7726923044
 31
0.0
  0
ARC
  5
D3
330
1F
100
AcDbEntity
  8
0
  6
Continuous
 62
     7
370
    15
100
AcDbCircle
 10
258.2361677273
 20
270.4050594217
 30
0.0
 40
1.807991604949783
100
AcDbArc
 50
185.2953962338
 51
276.3421693437
  0
LINE
  5
D4
330
1F
100
AcDbEntity
  8
0
  6
Continuous
 62
     7
370
    15
100
AcDbLine
 10
258.4358890215
 20
268.6081328656
 30
0.0
 11
267.435888634
 21
268.6081328656
 31
0.0
  0
ARC
  5
D5
330
1F
100
AcDbEntity
  8
0
  6
Continuous
 62
     7
370
    15
100
AcDbCircle
 10
267.8589149665
 20
254.2370822272
 30
0.0
 40
3.028869094064865
100
AcDbArc
 50
261.9715510796
 51
301.3757139028
  0
LINE
  5
D6
330
1F
100
AcDbEntity
  8
0
  6
Continuous
 62
     7
370
    15
100
AcDbLine
 10
269.4358889618
 20
251.6511199291
 30
0.0
 11
269.4358889618
 21
251.8022773083
 31
0.0
  0
LWPOLYLINE
  5
D7
330
1F
100
AcDbEntity
  8
0
  6
Continuous
 62
     7
370
    15
100
AcDbPolyline
 90
        6
 70
   128
 43
0.0
 10
267.435888634
 20
252.329450589
 10
268.0978876212
 20
252.2974726971
 10
268.6852541426
 20
252.2066575702
 10
269.1317152837
 20
252.0711538608
 10
269.3869609991
 20
251.9108732458
 10
269.4358889618
 20
251.8022773083
  0
LINE
  5
D8
330
1F
100
AcDbEntity
  8
0
  6
Continuous
 62
     7
370
    15
100
AcDbLine
 10
258.4358890215
 20
252.329450589
 30
0.0
 11
267.435888634
 21
252.329450589
 31
0.0
  0
ARC
  5
D9
330
1F
100
AcDbEntity
  8
0
  6
Continuous
 62
     7
370
    15
100
AcDbCircle
 10
258.0571522993
 20
249.7089139797
 30
0.0
 40
2.647763891482829
100
AcDbArc
 50
81.7761910686
 51
127.7569263242
  0
LINE
  5
DA
330
1F
100
AcDbEntity
  8
0
  6
Continuous
 62
     7
370
    15
100
AcDbLine
 10
256.4358924189
 20
251.6511199291
 30
0.0
 11
256.4358924189
 21
251.8022773083
 31
0.0
  0
LWPOLYLINE
  5
DB
330
1F
100
AcDbEntity
  8
0
  6
Continuous
 62
     7
370
    15
100
AcDbPolyline
 90
        6
 70
   128
 43
0.0
 10
258.4358890215
 20
251.2378995533
 10
257.7738900343
 20
251.2588729377
 10
257.1865235129
 20
251.3209847029
 10
256.7400623718
 20
251.4211950119
 10
256.4848203817
 20
251.552794617
 10
256.4358924189
 20
251.6511199291
  0
LINE
  5
DC
330
1F
100
AcDbEntity
  8
0
  6
Continuous
 62
     7
370
    15
100
AcDbLine
 10
258.4358890215
 20
251.2378995533
 30
0.0
 11
267.435888634
 21
251.2378995533
 31
0.0
  0
ARC
  5
DD
330
1F
100
AcDbEntity
  8
0
  6
Continuous
 62
     7
370
    15
100
AcDbCircle
 10
167.3425680789
 20
259.5986274027
 30
0.0
 40
3.495261927002266
100
AcDbArc
 50
245.2016815565
 51
271.5298454268
  0
ARC
  5
DE
330
1F
100
AcDbEntity
  8
0
  6
Continuous
 62
     7
370
    15
100
AcDbCircle
 10
176.6049876906
 20
259.0899087987
 30
0.0
 40
2.99008294051486
100
AcDbArc
 50
266.7579688758
 51
297.7355210113
  0
LINE
  5
DF
330
1F
100
AcDbEntity
  8
0
  6
Continuous
 62
     7
370
    15
100
AcDbLine
 10
176.4358867565
 20
256.1046113487
 30
0.0
 11
167.4358834186
 21
256.1046113487
 31
0.0
  0
ARC
  5
E0
330
1F
100
AcDbEntity
  8
0
  6
Continuous
 62
     7
370
    15
100
AcDbCircle
 10
167.1669045191
 20
263.6990905548
 30
0.0
 40
1.915065146514154
100
AcDbArc
 50
212.0169762193
 51
278.07412837
  0
ARC
  5
E1
330
1F
100
AcDbEntity
  8
0
  6
Continuous
 62
     7
370
    15
100
AcDbCircle
 10
176.6632544467
 20
263.7499017479
 30
0.0
 40
1.960124238941955
100
AcDbArc
 50
263.338890943
 51
328.1779153708
  0
LINE
  5
E2
330
1F
100
AcDbEntity
  8
0
  6
Continuous
 62
     7
370
    15
100
AcDbLine
 10
176.4358867565
 20
261.8030091043
 30
0.0
 11
167.4358834186
 21
261.8030091043
 31
0.0
  0
ARC
  5
E3
330
1F
100
AcDbEntity
  8
0
  6
Continuous
 62
     7
370
    15
100
AcDbCircle
 10
167.2524440523
 20
271.3778661584
 30
0.0
 40
1.822787090124499
100
AcDbArc
 50
196.6186478016
 51
275.7758384653
  0
ARC
  5
E4
330
1F
100
AcDbEntity
  8
0
  6
Continuous
 62
     7
370
    15
100
AcDbCircle
 10
176.6353780508
 20
271.3614499892
 30
0.0
 40
1.808155553426797
100
AcDbArc
 50
263.6657409908
 51
354.7301418736
  0
LINE
  5
E5
330
1F
100
AcDbEntity
  8
0
  6
Continuous
 62
     7
370
    15
100
AcDbLine
 10
176.4358867565
 20
269.5643329288
 30
0.0
 11
167.4358834186
 21
269.5643329288
 31
0.0
  0
ARC
  5
E6
330
1F
100
AcDbEntity
  8
0
  6
Continuous
 62
     7
370
    15
100
AcDbCircle
 10
267.6049886319
 20
259.0898825063
 30
0.0
 40
2.99005663724226
100
AcDbArc
 50
266.7579582938
 51
297.7356449966
  0
LINE
  5
E7
330
1F
100
AcDbEntity
  8
0
  6
Continuous
 62
     7
370
    15
100
AcDbLine
 10
258.4358890215
 20
256.1046113487
 30
0.0
 11
267.435888634
 21
256.1046113487
 31
0.0
  0
ARC
  5
E8
330
1F
100
AcDbEntity
  8
0
  6
Continuous
 62
     7
370
    15
100
AcDbCircle
 10
258.342565027
 20
259.5985853675
 30
0.0
 40
3.495220137869155
100
AcDbArc
 50
245.2015213364
 51
271.5300056469
  0
ARC
  5
E9
330
1F
100
AcDbEntity
  8
0
  6
Continuous
 62
     7
370
    15
100
AcDbCircle
 10
267.6632488642
 20
263.7499172083
 30
0.0
 40
1.960138729683053
100
AcDbArc
 50
263.3391599514
 51
328.1776463624
  0
LINE
  5
EA
330
1F
100
AcDbEntity
  8
0
  6
Continuous
 62
     7
370
    15
100
AcDbLine
 10
258.4358890215
 20
261.8030091043
 30
0.0
 11
267.435888634
 21
261.8030091043
 31
0.0
  0
ARC
  5
EB
330
1F
100
AcDbEntity
  8
0
  6
Continuous
 62
     7
370
    15
100
AcDbCircle
 10
258.1668227002
 20
263.6989164235
 30
0.0
 40
1.91490502331645
100
AcDbArc
 50
212.0138271581
 51
278.0774499723
  0
ARC
  5
EC
330
1F
100
AcDbEntity
  8
0
  6
Continuous
 62
     7
370
    15
100
AcDbCircle
 10
267.6353729208
 20
271.3614544695
 30
0.0
 40
1.808159233261925
100
AcDbArc
 50
263.6659773474
 51
354.7300100574
  0
LINE
  5
ED
330
1F
100
AcDbEntity
  8
0
  6
Continuous
 62
     7
370
    15
100
AcDbLine
 10
258.4358890215
 20
269.5643329288
 30
0.0
 11
267.435888634
 21
269.5643329288
 31
0.0
  0
ARC
  5
EE
330
1F
100
AcDbEntity
  8
0
  6
Continuous
 62
     7
370
    15
100
AcDbCircle
 10
258.2524165437
 20
271.3778167023
 30
0.0
 40
1.822741217695955
100
AcDbArc
 50
196.6174558159
 51
275.7770304509
  0
LINE
  5
EF
330
1F
100
AcDbEntity
  8
0
  6
Continuous
 62
     7
370
    15
100
AcDbLine
 10
317.9358889954
 20
299.2422986071
 30
0.0
 11
317.9358889954
 21
291.8797559331
 31
0.0
  0
LINE
  5
F0
330
1F
100
AcDbEntity
  8
0
  6
Continuous
 62
     7
370
    15
100
AcDbLine
 10
309.9358890811
 20
299.2422986071
 30
0.0
 11
309.9358890811
 21
291.8797559331
 31
0.0
  0
LINE
  5
F1
330
1F
100
AcDbEntity
  8
0
  6
Continuous
 62
     7
370
    15
100
AcDbLine
 10
317.9358889954
 20
291.8797559331
 30
0.0
 11
317.9358889954
 21
253.0550812598
 31
0.0
  0
LINE
  5
F2
330
1F
100
AcDbEntity
  8
0
  6
Continuous
 62
     7
370
    15
100
AcDbLine
 10
309.9358890811
 20
291.8797559331
 30
0.0
 11
309.9358890811
 21
253.0550812598
 31
0.0
  0
LINE
  5
F3
330
1F
100
AcDbEntity
  8
0
  6
Continuous
 62
     7
370
    15
100
AcDbLine
 10
317.9358889954
 20
338.0669732805
 30
0.0
 11
317.9358889954
 21
299.2422986071
 31
0.0
  0
LINE
  5
F4
330
1F
100
AcDbEntity
  8
0
  6
Continuous
 62
     7
370
    15
100
AcDbLine
 10
309.9358890811
 20
338.0669732805
 30
0.0
 11
309.9358890811
 21
299.2422986071
 31
0.0
  0
LINE
  5
F5
330
1F
100
AcDbEntity
  8
0
  6
Continuous
 62
     7
370
    15
100
AcDbLine
 10
317.9358889954
 20
253.0550812598
 30
0.0
 11
317.9358889954
 21
247.5038250204
 31
0.0
  0
LINE
  5
F6
330
1F
100
AcDbEntity
  8
0
  6
Continuous
 62
     7
370
    15
100
AcDbLine
 10
309.9358890811
 20
253.0550812598
 30
0.0
 11
309.9358890811
 21
247.5038250204
 31
0.0
  0
LINE
  5
F7
330
1F
100
AcDbEntity
  8
0
  6
Continuous
 62
     7
370
    15
100
AcDbLine
 10
317.9358889954
 20
343.6182295199
 30
0.0
 11
317.9358889954
 21
338.0669732805
 31
0.0
  0
LINE
  5
F8
330
1F
100
AcDbEntity
  8
0
  6
Continuous
 62
     7
370
    15
100
AcDbLine
 10
309.9358890811
 20
343.6182295199
 30
0.0
 11
309.9358890811
 21
338.0669732805
 31
0.0
  0
LWPOLYLINE
  5
F9
330
1F
100
AcDbEntity
  8
0
  6
Continuous
 62
     7
370
    15
100
AcDbPolyline
 90
        3
 70
   128
 43
0.0
 10
329.4179913261
 20
302.5117237347
 10
329.807545864
 20
308.034372073
 10
329.935888634
 20
313.4158351685
  0
LINE
  5
FA
330
1F
100
AcDbEntity
  8
0
  6
Continuous
 62
     7
370
    15
100
AcDbLine
 10
329.935888634
 20
313.4158351685
 30
0.0
 11
329.935888634
 21
255.9599285241
 31
0.0
  0
ARC
  5
FB
330
1F
100
AcDbEntity
  8
0
  6
Continuous
 62
     7
370
    15
100
AcDbCircle
 10
322.5587539525
 20
255.5793066049
 30
0.0
 40
7.386947214825234
100
AcDbArc
 50
272.9264662006
 51
2.9535463527
  0
LINE
  5
FC
330
1F
100
AcDbEntity
  8
0
  6
Continuous
 62
     7
370
    15
100
AcDbLine
 10
329.935888634
 20
331.7333688255
 30
0.0
 11
329.935888634
 21
313.4158351685
 31
0.0
  0
LINE
  5
FD
330
1F
100
AcDbEntity
  8
0
  6
Continuous
 62
     7
370
    15
100
AcDbLine
 10
311.9358894089
 20
244.9213345762
 30
0.0
 11
317.9358889954
 21
244.9213345762
 31
0.0
  0
LINE
  5
FE
330
1F
100
AcDbEntity
  8
0
  6
Continuous
 62
     7
370
    15
100
AcDbLine
 10
317.9358889954
 20
247.5038250204
 30
0.0
 11
317.9358889954
 21
244.9213345762
 31
0.0
  0
LINE
  5
FF
330
1F
100
AcDbEntity
  8
0
  6
Continuous
 62
     7
370
    15
100
AcDbLine
 10
309.9358890811
 20
247.5038250204
 30
0.0
 11
309.9358890811
 21
244.6940620656
 31
0.0
  0
ARC
  5
100
330
1F
100
AcDbEntity
  8
0
  6
Continuous
 62
     7
370
    15
100
AcDbCircle
 10
316.8528879239
 20
369.5407174538
 30
0.0
 40
23.74178522914533
100
AcDbArc
 50
256.7812412295
 51
272.6145013795
  0
LINE
  5
101
330
1F
100
AcDbEntity
  8
0
  6
Continuous
 62
     7
370
    15
100
AcDbLine
 10
317.9358889954
 20
345.8236460801
 30
0.0
 11
317.9358889954
 21
343.6182295199
 31
0.0
  0
LINE
  5
102
330
1F
100
AcDbEntity
  8
0
  6
Continuous
 62
     7
370
    15
100
AcDbLine
 10
309.9358890811
 20
346.4279924746
 30
0.0
 11
309.9358890811
 21
343.6182295199
 31
0.0
  0
LINE
  5
103
330
1F
100
AcDbEntity
  8
0
  6
Continuous
 62
     7
370
    15
100
AcDbLine
 10
336.1636417592
 20
283.3963376697
 30
0.0
 11
336.1636417592
 21
316.0610278364
 31
0.0
  0
ARC
  5
104
330
1F
100
AcDbEntity
  8
0
  6
Continuous
 62
     7
370
    15
100
AcDbCircle
 10
43.4223580584
 20
339.7720828059
 30
0.0
 40
298.1202506077553
100
AcDbArc
 50
343.9595759509
 51
349.0994981149
  0
LINE
  5
105
330
1F
100
AcDbEntity
  8
0
  6
Continuous
 62
     7
370
    15
100
AcDbLine
 10
334.3726972723
 20
248.2019928511
 30
0.0
 11
322.9358891164
 21
248.2019928511
 31
0.0
  0
ARC
  5
106
330
1F
100
AcDbEntity
  8
0
  6
Continuous
 62
     7
370
    15
100
AcDbCircle
 10
340.6617610527
 20
194.3276791697
 30
0.0
 40
54.24015116013648
100
AcDbArc
 50
96.6583356778
 51
110.6047516157
  0
LINE
  5
107
330
1F
100
AcDbEntity
  8
0
  6
Continuous
 62
     7
370
    15
100
AcDbLine
 10
329.935888634
 20
335.5247159715
 30
0.0
 11
329.935888634
 21
331.7333688255
 31
0.0
  0
LINE
  5
108
330
1F
100
AcDbEntity
  8
0
  6
Continuous
 62
     7
370
    15
100
AcDbLine
 10
299.4358882913
 20
376.5610275085
 30
0.0
 11
350.4358892003
 21
376.5610275085
 31
0.0
  0
LINE
  5
109
330
1F
100
AcDbEntity
  8
0
  6
Continuous
 62
     7
370
    15
100
AcDbLine
 10
299.4358882913
 20
214.5610270317
 30
0.0
 11
350.4358892003
 21
214.5610270317
 31
0.0
  0
LINE
  5
10A
330
1F
100
AcDbEntity
  8
0
  6
Continuous
 62
     7
370
    15
100
AcDbLine
 10
343.9358890662
 20
316.0610278364
 30
0.0
 11
343.9358890662
 21
283.3963376697
 31
0.0
  0
LINE
  5
10B
330
1F
100
AcDbEntity
  8
0
  6
Continuous
 62
     7
370
    15
100
AcDbLine
 10
343.9358890662
 20
283.3963376697
 30
0.0
 11
336.1636417592
 21
283.3963376697
 31
0.0
  0
LINE
  5
10C
330
1F
100
AcDbEntity
  8
0
  6
Continuous
 62
     7
370
    15
100
AcDbLine
 10
329.935888634
 20
337.11671133
 30
0.0
 11
329.935888634
 21
335.5247159715
 31
0.0
  0
ARC
  5
10D
330
1F
100
AcDbEntity
  8
0
  6
Continuous
 62
     7
370
    15
100
AcDbCircle
 10
323.5384584527
 20
237.5473008899
 30
0.0
 40
7.802263616256786
100
AcDbArc
 50
104.5858898734
 51
125.9227381423
  0
LWPOLYLINE
  5
10E
330
1F
100
AcDbEntity
  8
0
  6
Continuous
 62
     7
370
    15
100
AcDbPolyline
 90
        5
 70
   128
 43
0.0
 10
343.9358890662
 20
271.9920301105
 10
342.6304281363
 20
268.5392708744
 10
341.1850806931
 20
265.1382503326
 10
338.3428462455
 20
258.3141443546
 10
334.3726972723
 20
248.2019928511
  0
LINE
  5
10F
330
1F
100
AcDbEntity
  8
0
  6
Continuous
 62
     7
370
    15
100
AcDbLine
 10
368.3935803035
 20
277.561028045
 30
0.0
 11
368.3964115241
 21
285.5610274936
 31
0.0
  0
LINE
  5
110
330
1F
100
AcDbEntity
  8
0
  6
Continuous
 62
     7
370
    15
100
AcDbLine
 10
368.2664547721
 20
276.5610278811
 30
0.0
 11
368.3935803035
 21
277.561028045
 31
0.0
  0
LINE
  5
111
330
1F
100
AcDbEntity
  8
0
  6
Continuous
 62
     7
370
    15
100
AcDbLine
 10
368.2540011266
 20
267.5610264059
 30
0.0
 11
368.2664547721
 21
276.5610278811
 31
0.0
  0
LINE
  5
112
330
1F
100
AcDbEntity
  8
0
  6
Continuous
 62
     7
370
    15
100
AcDbLine
 10
368.2791729131
 20
285.5610274936
 30
0.0
 11
368.4358884254
 21
287.5610268901
 31
0.0
  0
LINE
  5
113
330
1F
100
AcDbEntity
  8
0
  6
Continuous
 62
     7
370
    15
100
AcDbLine
 10
311.3418238842
 20
346.4279924746
 30
0.0
 11
311.4238631585
 21
346.4279924746
 31
0.0
  0
LINE
  5
114
330
1F
100
AcDbEntity
  8
0
  6
Continuous
 62
     7
370
    15
100
AcDbLine
 10
343.9358890662
 20
283.3963376697
 30
0.0
 11
343.9358890662
 21
271.9920301105
 31
0.0
  0
LINE
  5
115
330
1F
100
AcDbEntity
  8
0
  6
Continuous
 62
     7
370
    15
100
AcDbLine
 10
329.935888634
 20
337.11671133
 30
0.0
 11
329.935888634
 21
345.0483945425
 31
0.0
  0
LINE
  5
116
330
1F
100
AcDbEntity
  8
0
  6
Continuous
 62
     7
370
    15
100
AcDbLine
 10
311.9358894089
 20
244.9213345762
 30
0.0
 11
311.9358894089
 21
243.7178050394
 31
0.0
  0
LINE
  5
117
330
1F
100
AcDbEntity
  8
0
  6
Continuous
 62
     7
370
    15
100
AcDbLine
 10
309.9358890811
 20
244.6940620656
 30
0.0
 11
309.9358890811
 21
244.5610282238
 31
0.0
  0
LINE
  5
118
330
1F
100
AcDbEntity
  8
0
  6
Continuous
 62
     7
370
    15
100
AcDbLine
 10
309.9358890811
 20
346.5610263164
 30
0.0
 11
309.9358890811
 21
346.4279924746
 31
0.0
  0
LINE
  5
119
330
1F
100
AcDbEntity
  8
0
  6
Continuous
 62
     7
370
    15
100
AcDbLine
 10
369.435890452
 20
287.5610268901
 30
0.0
 11
368.4358884254
 21
287.5610268901
 31
0.0
  0
LINE
  5
11A
330
1F
100
AcDbEntity
  8
0
  6
Continuous
 62
     7
370
    15
100
AcDbLine
 10
369.435890452
 20
285.5610274936
 30
0.0
 11
368.2791729131
 21
285.5610274936
 31
0.0
  0
LINE
  5
11B
330
1F
100
AcDbEntity
  8
0
  6
Continuous
 62
     7
370
    15
100
AcDbLine
 10
369.435890452
 20
287.5610268901
 30
0.0
 11
369.435890452
 21
285.5610274936
 31
0.0
  0
LINE
  5
11C
330
1F
100
AcDbEntity
  8
0
  6
Continuous
 62
     7
370
    15
100
AcDbLine
 10
369.435890452
 20
276.5610278811
 30
0.0
 11
368.2664547721
 21
276.5610278811
 31
0.0
  0
LINE
  5
11D
330
1F
100
AcDbEntity
  8
0
  6
Continuous
 62
     7
370
    15
100
AcDbLine
 10
369.435890452
 20
267.5610264059
 30
0.0
 11
368.2540011266
 21
267.5610264059
 31
0.0
  0
LINE
  5
11E
330
1F
100
AcDbEntity
  8
0
  6
Continuous
 62
     7
370
    15
100
AcDbLine
 10
369.435890452
 20
276.5610278811
 30
0.0
 11
369.435890452
 21
267.5610264059
 31
0.0
  0
LINE
  5
11F
330
1F
100
AcDbEntity
  8
0
  6
Continuous
 62
     7
370
    15
100
AcDbLine
 10
369.435890452
 20
277.561028045
 30
0.0
 11
368.3935803035
 21
277.561028045
 31
0.0
  0
LINE
  5
120
330
1F
100
AcDbEntity
  8
0
  6
Continuous
 62
     7
370
    15
100
AcDbLine
 10
369.435890452
 20
277.561028045
 30
0.0
 11
369.435890452
 21
276.5610278811
 31
0.0
  0
LINE
  5
121
330
1F
100
AcDbEntity
  8
0
  6
Continuous
 62
     7
370
    15
100
AcDbLine
 10
369.435890452
 20
285.5610274936
 30
0.0
 11
369.435890452
 21
277.561028045
 31
0.0
  0
LINE
  5
122
330
1F
100
AcDbEntity
  8
0
  6
Continuous
 62
     7
370
    15
100
AcDbLine
 10
296.9358888128
 20
331.8603788729
 30
0.0
 11
301.9358896324
 21
331.8603788729
 31
0.0
  0
LINE
  5
123
330
1F
100
AcDbEntity
  8
0
  6
Continuous
 62
     7
370
    15
100
AcDbLine
 10
296.9358888128
 20
334.7471286769
 30
0.0
 11
301.9358896324
 21
334.7471286769
 31
0.0
  0
LINE
  5
124
330
1F
100
AcDbEntity
  8
0
  6
Continuous
 62
     7
370
    15
100
AcDbLine
 10
296.9358888128
 20
331.8603788729
 30
0.0
 11
296.9358888128
 21
334.7471286769
 31
0.0
  0
LINE
  5
125
330
1F
100
AcDbEntity
  8
0
  6
Continuous
 62
     7
370
    15
100
AcDbLine
 10
296.9358888128
 20
340.5206320103
 30
0.0
 11
301.9358896324
 21
340.5206320103
 31
0.0
  0
LINE
  5
126
330
1F
100
AcDbEntity
  8
0
  6
Continuous
 62
     7
370
    15
100
AcDbLine
 10
301.9358896324
 20
339.9894726689
 30
0.0
 11
301.9358896324
 21
340.5206320103
 31
0.0
  0
LINE
  5
127
330
1F
100
AcDbEntity
  8
0
  6
Continuous
 62
     7
370
    15
100
AcDbLine
 10
296.9358888128
 20
334.7471286769
 30
0.0
 11
296.9358888128
 21
340.5206320103
 31
0.0
  0
LINE
  5
128
330
1F
100
AcDbEntity
  8
0
  6
Continuous
 62
     7
370
    15
100
AcDbLine
 10
296.9358888128
 20
343.4073818143
 30
0.0
 11
301.9358896324
 21
343.4073818143
 31
0.0
  0
LINE
  5
129
330
1F
100
AcDbEntity
  8
0
  6
Continuous
 62
     7
370
    15
100
AcDbLine
 10
301.9358896324
 20
340.5206320103
 30
0.0
 11
301.9358896324
 21
340.8104037161
 31
0.0
  0
LINE
  5
12A
330
1F
100
AcDbEntity
  8
0
  6
Continuous
 62
     7
370
    15
100
AcDbLine
 10
301.9358896324
 20
343.2470229681
 30
0.0
 11
301.9358896324
 21
343.4073818143
 31
0.0
  0
LINE
  5
12B
330
1F
100
AcDbEntity
  8
0
  6
Continuous
 62
     7
370
    15
100
AcDbLine
 10
296.9358888128
 20
340.5206320103
 30
0.0
 11
296.9358888128
 21
343.4073818143
 31
0.0
  0
LINE
  5
12C
330
1F
100
AcDbEntity
  8
0
  6
Continuous
 62
     7
370
    15
100
AcDbLine
 10
296.9358888128
 20
256.7284782644
 30
0.0
 11
301.9358896324
 21
256.7284782644
 31
0.0
  0
LINE
  5
12D
330
1F
100
AcDbEntity
  8
0
  6
Continuous
 62
     7
370
    15
100
AcDbLine
 10
296.9358888128
 20
256.7284782644
 30
0.0
 11
296.9358888128
 21
259.6152280684
 31
0.0
  0
LINE
  5
12E
330
1F
100
AcDbEntity
  8
0
  6
Continuous
 62
     7
370
    15
100
AcDbLine
 10
296.9358888128
 20
259.6152280684
 30
0.0
 11
301.9358896324
 21
259.6152280684
 31
0.0
  0
LINE
  5
12F
330
1F
100
AcDbEntity
  8
0
  6
Continuous
 62
     7
370
    15
100
AcDbLine
 10
296.9358888128
 20
248.068225127
 30
0.0
 11
301.9358896324
 21
248.068225127
 31
0.0
  0
LINE
  5
130
330
1F
100
AcDbEntity
  8
0
  6
Continuous
 62
     7
370
    15
100
AcDbLine
 10
296.9358888128
 20
250.954974931
 30
0.0
 11
301.9358896324
 21
250.954974931
 31
0.0
  0
LINE
  5
131
330
1F
100
AcDbEntity
  8
0
  6
Continuous
 62
     7
370
    15
100
AcDbLine
 10
296.9358888128
 20
248.068225127
 30
0.0
 11
296.9358888128
 21
250.954974931
 31
0.0
  0
LINE
  5
132
330
1F
100
AcDbEntity
  8
0
  6
Continuous
 62
     7
370
    15
100
AcDbLine
 10
296.9358888128
 20
250.954974931
 30
0.0
 11
296.9358888128
 21
256.7284782644
 31
0.0
  0
LINE
  5
133
330
1F
100
AcDbEntity
  8
0
  6
Continuous
 62
     7
370
    15
100
AcDbLine
 10
203.9777700463
 20
320.0588212575
 30
0.0
 11
203.9777700463
 21
319.1927955712
 31
0.0
  0
ARC
  5
134
330
1F
100
AcDbEntity
  8
0
  6
Continuous
 62
     7
370
    15
100
AcDbCircle
 10
205.4315748727
 20
316.2147703898
 30
0.0
 40
3.313937605756961
100
AcDbArc
 50
88.827358882
 51
116.0205882887
  0
LINE
  5
135
330
1F
100
AcDbEntity
  8
0
  6
Continuous
 62
     7
370
    15
100
AcDbLine
 10
206.9358889618
 20
318.2839756127
 30
0.0
 11
206.9358889618
 21
316.6309935267
 31
0.0
  0
LINE
  5
136
330
1F
100
AcDbEntity
  8
0
  6
Continuous
 62
     7
370
    15
100
AcDbLine
 10
206.9358889618
 20
316.6309935267
 30
0.0
 11
207.9358909884
 21
316.6309935267
 31
0.0
  0
LINE
  5
137
330
1F
100
AcDbEntity
  8
0
  6
Continuous
 62
     7
370
    15
100
AcDbLine
 10
207.9358909884
 20
316.6309935267
 30
0.0
 11
207.9358909884
 21
318.2839756127
 31
0.0
  0
ARC
  5
138
330
1F
100
AcDbEntity
  8
0
  6
Continuous
 62
     7
370
    15
100
AcDbCircle
 10
209.4838741487
 20
316.4130270308
 30
0.0
 40
3.116981709010538
100
AcDbArc
 50
63.1021108386
 51
92.0499419907
  0
LINE
  5
139
330
1F
100
AcDbEntity
  8
0
  6
Continuous
 62
     7
370
    15
100
AcDbLine
 10
210.8940024534
 20
319.1927955712
 30
0.0
 11
210.8940024534
 21
320.0588212575
 31
0.0
  0
ARC
  5
13A
330
1F
100
AcDbEntity
  8
0
  6
Continuous
 62
     7
370
    15
100
AcDbCircle
 10
209.4402096402
 20
317.0808506068
 30
0.0
 40
3.313883332315048
100
AcDbArc
 50
63.9791847549
 51
91.1728680743
  0
LINE
  5
13B
330
1F
100
AcDbEntity
  8
0
  6
Continuous
 62
     7
370
    15
100
AcDbLine
 10
207.9358909884
 20
321.6380779858
 30
0.0
 11
207.9358909884
 21
322.6206251647
 31
0.0
  0
LINE
  5
13C
330
1F
100
AcDbEntity
  8
0
  6
Continuous
 62
     7
370
    15
100
AcDbLine
 10
207.9358909884
 20
322.6206251647
 30
0.0
 11
206.9358889618
 21
322.6206251647
 31
0.0
  0
LINE
  5
13D
330
1F
100
AcDbEntity
  8
0
  6
Continuous
 62
     7
370
    15
100
AcDbLine
 10
206.9358889618
 20
322.6206251647
 30
0.0
 11
206.9358889618
 21
321.6380779858
 31
0.0
  0
ARC
  5
13E
330
1F
100
AcDbEntity
  8
0
  6
Continuous
 62
     7
370
    15
100
AcDbCircle
 10
205.387898351
 20
317.2790527171
 30
0.0
 40
3.116981709010538
100
AcDbArc
 50
87.9500580093
 51
116.8978891614
  0
LINE
  5
13F
330
1F
100
AcDbEntity
  8
0
  6
Continuous
 62
     7
370
    15
100
AcDbLine
 10
205.499394671
 20
319.5280139561
 30
0.0
 11
206.9358889618
 21
319.5280139561
 31
0.0
  0
LINE
  5
140
330
1F
100
AcDbEntity
  8
0
  6
Continuous
 62
     7
370
    15
100
AcDbLine
 10
206.9358889618
 20
319.5280139561
 30
0.0
 11
206.9358889618
 21
318.2839756127
 31
0.0
  0
LINE
  5
141
330
1F
100
AcDbEntity
  8
0
  6
Continuous
 62
     7
370
    15
100
AcDbLine
 10
207.9358909884
 20
319.5280139561
 30
0.0
 11
209.3723778287
 21
319.5280139561
 31
0.0
  0
LINE
  5
142
330
1F
100
AcDbEntity
  8
0
  6
Continuous
 62
     7
370
    15
100
AcDbLine
 10
207.9358909884
 20
318.2839756127
 30
0.0
 11
207.9358909884
 21
319.5280139561
 31
0.0
  0
LWPOLYLINE
  5
143
330
1F
100
AcDbEntity
  8
0
  6
Continuous
 62
     7
370
    15
100
AcDbPolyline
 90
       13
 70
   128
 43
0.0
 10
211.4358906308
 20
318.4110266383
 10
211.3912094989
 20
317.8947293426
 10
211.0397656122
 20
316.9080098386
 10
210.3680957714
 20
316.0548401292
 10
209.4358865777
 20
315.4110280092
 10
208.3259735861
 20
315.0337771739
 10
207.136965231
 20
314.9566115107
 10
205.9745256463
 20
315.1863855536
 10
204.9419273296
 20
315.7026828493
 10
204.1309316316
 20
316.459630173
 10
203.6136005679
 20
317.3899655457
 10
203.4358893195
 20
318.4110266383
 10
203.4358893195
 20
318.4110266383
  0
LINE
  5
144
330
1F
100
AcDbEntity
  8
0
  6
Continuous
 62
     7
370
    15
100
AcDbLine
 10
206.9358889618
 20
320.3940396424
 30
0.0
 11
206.9358889618
 21
319.5280139561
 31
0.0
  0
LINE
  5
145
330
1F
100
AcDbEntity
  8
0
  6
Continuous
 62
     7
370
    15
100
AcDbLine
 10
206.9358889618
 20
320.3940396424
 30
0.0
 11
205.499394671
 21
320.3940396424
 31
0.0
  0
LINE
  5
146
330
1F
100
AcDbEntity
  8
0
  6
Continuous
 62
     7
370
    15
100
AcDbLine
 10
209.3723778287
 20
320.3940396424
 30
0.0
 11
207.9358909884
 21
320.3940396424
 31
0.0
  0
LINE
  5
147
330
1F
100
AcDbEntity
  8
0
  6
Continuous
 62
     7
370
    15
100
AcDbLine
 10
207.9358909884
 20
319.5280139561
 30
0.0
 11
207.9358909884
 21
320.3940396424
 31
0.0
  0
LINE
  5
148
330
1F
100
AcDbEntity
  8
0
  6
Continuous
 62
     7
370
    15
100
AcDbLine
 10
206.9358889618
 20
321.6380779858
 30
0.0
 11
206.9358889618
 21
320.3940396424
 31
0.0
  0
LINE
  5
149
330
1F
100
AcDbEntity
  8
0
  6
Continuous
 62
     7
370
    15
100
AcDbLine
 10
207.9358909884
 20
320.3940396424
 30
0.0
 11
207.9358909884
 21
321.6380779858
 31
0.0
  0
LINE
  5
14A
330
1F
100
AcDbEntity
  8
0
  6
Continuous
 62
     7
370
    15
100
AcDbLine
 10
207.9358909884
 20
321.705842879
 30
0.0
 11
206.9358889618
 21
321.705842879
 31
0.0
  0
LINE
  5
14B
330
1F
100
AcDbEntity
  8
0
  6
Continuous
 62
     7
370
    15
100
AcDbLine
 10
150.1358885923
 20
273.0610263761
 30
0.0
 11
150.1358885923
 21
264.0610267635
 31
0.0
  0
LWPOLYLINE
  5
14C
330
1F
100
AcDbEntity
  8
0
  6
Continuous
 62
     7
370
    15
100
AcDbPolyline
 90
        2
 70
   128
 43
0.0
 10
147.7063287654
 20
265.1029122289
 10
147.7063287654
 20
265.1029122289
  0
ARC
  5
14D
330
1F
100
AcDbEntity
  8
0
  6
Continuous
 62
     7
370
    15
100
AcDbCircle
 10
149.0780685753
 20
266.6158153628
 30
0.0
 40
2.042191469658901
100
AcDbArc
 50
179.7553611328
 51
227.8015999983
  0
LINE
  5
14E
330
1F
100
AcDbEntity
  8
0
  6
Continuous
 62
     7
370
    15
100
AcDbLine
 10
147.035895721
 20
266.6245349909
 30
0.0
 11
147.035895721
 21
268.0610274191
 31
0.0
  0
LINE
  5
14F
330
1F
100
AcDbEntity
  8
0
  6
Continuous
 62
     7
370
    15
100
AcDbLine
 10
147.035895721
 20
268.0610274191
 30
0.0
 11
147.7063287654
 21
268.0610274191
 31
0.0
  0
LINE
  5
150
330
1F
100
AcDbEntity
  8
0
  6
Continuous
 62
     7
370
    15
100
AcDbLine
 10
147.7063287654
 20
268.0610274191
 30
0.0
 11
147.7063287654
 21
269.061027583
 31
0.0
  0
LINE
  5
151
330
1F
100
AcDbEntity
  8
0
  6
Continuous
 62
     7
370
    15
100
AcDbLine
 10
147.7063287654
 20
269.061027583
 30
0.0
 11
147.035895721
 21
269.061027583
 31
0.0
  0
LINE
  5
152
330
1F
100
AcDbEntity
  8
0
  6
Continuous
 62
     7
370
    15
100
AcDbLine
 10
147.035895721
 20
269.061027583
 30
0.0
 11
147.035895721
 21
270.4975181486
 31
0.0
  0
ARC
  5
153
330
1F
100
AcDbEntity
  8
0
  6
Continuous
 62
     7
370
    15
100
AcDbCircle
 10
149.0702267779
 20
270.5096947516
 30
0.0
 40
2.034367498404406
100
AcDbArc
 50
132.1001476094
 51
180.3429430168
  0
LWPOLYLINE
  5
154
330
1F
100
AcDbEntity
  8
0
  6
Continuous
 62
     7
370
    15
100
AcDbPolyline
 90
        2
 70
   128
 43
0.0
 10
147.7063287654
 20
272.0191427733
 10
147.7063287654
 20
272.0191427733
  0
LWPOLYLINE
  5
155
330
1F
100
AcDbEntity
  8
0
  6
Continuous
 62
     7
370
    15
100
AcDbPolyline
 90
       23
 70
   128
 43
0.0
 10
184.8358948389
 20
333.11177839
 10
184.6576620498
 20
334.2766431387
 10
184.1374029079
 20
335.3471388336
 10
183.3172727981
 20
336.2365369912
 10
182.2637159982
 20
336.8727867718
 10
181.0620714584
 20
337.2043413337
 10
179.8097033659
 20
337.2043413337
 10
178.608058826
 20
336.8727867718
 10
177.5545020261
 20
336.2365369912
 10
176.7343719163
 20
335.3471388336
 10
176.2141127744
 20
334.2766431387
 10
176.0358948865
 20
333.11177839
 10
176.2141127744
 20
331.9469136413
 10
176.7343719163
 20
330.8764179464
 10
177.5545020261
 20
329.9870197888
 10
178.608058826
 20
329.3507700081
 10
179.8097033659
 20
329.0192154463
 10
181.0620714584
 20
329.0192154463
 10
182.2637159982
 20
329.3507700081
 10
183.3172727981
 20
329.9870197888
 10
184.1374029079
 20
330.8764179464
 10
184.6576620498
 20
331.9469136413
 10
184.8358948389
 20
333.11177839
  0
ARC
  5
156
330
1F
100
AcDbEntity
  8
0
  6
Continuous
 62
     7
370
    15
100
AcDbCircle
 10
180.4358948627
 20
334.6131737046
 30
0.0
 40
4.404947020669165
100
AcDbArc
 50
2.7156940951
 51
177.2843059049
  0
LWPOLYLINE
  5
157
330
1F
100
AcDbEntity
  8
0
  6
Continuous
 62
     7
370
    15
100
AcDbPolyline
 90
       19
 70
   128
 43
0.0
 10
174.185885922
 20
335.1638992544
 10
174.3675012746
 20
336.5694177564
 10
174.9017824092
 20
337.8932555433
 10
175.7576902071
 20
339.0584704693
 10
176.885484592
 20
339.9973479326
 10
178.219615356
 20
340.6553236063
 10
179.6825368562
 20
340.9941573854
 10
181.189237968
 20
340.9941573854
 10
182.6521743694
 20
340.6553236063
 10
183.9862902322
 20
339.9973479326
 10
185.1140846172
 20
339.0584704693
 10
185.969992415
 20
337.8932555433
 10
186.5042735496
 20
336.5694177564
 10
186.6858889022
 20
335.1638992544
 10
186.5042735496
 20
333.7583807524
 10
185.969992415
 20
332.4345429655
 10
185.1140846172
 20
331.2693280394
 10
183.9862902322
 20
330.3304505761
 10
183.2053203741
 20
329.8988719697
  0
ARC
  5
158
330
1F
100
AcDbEntity
  8
0
  6
Continuous
 62
     7
370
    15
100
AcDbCircle
 10
180.0423715879
 20
335.2524961174
 30
0.0
 40
5.857155773864486
100
AcDbArc
 50
180.8667039293
 51
246.0685418785
  0
ARC
  5
159
330
1F
100
AcDbEntity
  8
0
  6
Continuous
 62
     7
370
    15
100
AcDbCircle
 10
179.3332664832
 20
337.5520522414
 30
0.0
 40
8.897378999118036
100
AcDbArc
 50
158.8382035453
 51
179.9614473841
  0
LWPOLYLINE
  5
15A
330
1F
100
AcDbEntity
  8
0
  6
Continuous
 62
     7
370
    15
100
AcDbPolyline
 90
       34
 70
   128
 43
0.0
 10
190.435885326
 20
336.5319785889
 10
190.2551789442
 20
338.3103613968
 10
189.7195716062
 20
340.0244643207
 10
188.8484199205
 20
341.6123432334
 10
187.6732249418
 20
343.0166025873
 10
186.2364549795
 20
344.1864890273
 10
184.5900405803
 20
345.0797242339
 10
182.793482081
 20
345.6640211161
 10
180.9117038408
 20
345.9182610031
 10
179.0127445617
 20
345.833257329
 10
177.1652091899
 20
345.4120834585
 10
175.4358847299
 20
344.6699572022
 10
173.8872815528
 20
343.6337043758
 10
172.575353519
 20
342.3407753225
 10
171.5475310245
 20
340.8379000838
 10
170.8409626642
 20
339.1794008429
 10
170.4811741272
 20
337.4252137955
 10
170.4811741272
 20
335.6387433823
 10
170.8409626642
 20
333.8845600601
 10
171.5475310245
 20
332.2260570939
 10
172.575353519
 20
330.7231855805
 10
173.8872815528
 20
329.4302565272
 10
175.4358847299
 20
328.3940037008
 10
177.1652091899
 20
327.6518774445
 10
179.0127445617
 20
327.2306998487
 10
180.9117038408
 20
327.1456961747
 10
182.793482081
 20
327.399939787
 10
184.5900405803
 20
327.9842366691
 10
186.2364549795
 20
328.8774681504
 10
187.6732249418
 20
330.0473583157
 10
188.8484199205
 20
331.4516176696
 10
189.7195716062
 20
333.0394965823
 10
190.2551789442
 20
334.7535995062
 10
190.435885326
 20
336.5319785889
  0
LINE
  5
15B
330
1F
100
AcDbEntity
  8
0
  6
Continuous
 62
     7
370
    15
100
AcDbLine
 10
238.0358864227
 20
381.809358042
 30
0.0
 11
238.0358864227
 21
341.8093552108
 31
0.0
  0
LINE
  5
15C
330
1F
100
AcDbEntity
  8
0
  6
Continuous
 62
     7
370
    15
100
AcDbLine
 10
220.4358865181
 20
377.4555889185
 30
0.0
 11
220.4358865181
 21
363.8694328483
 31
0.0
  0
LINE
  5
15D
330
1F
100
AcDbEntity
  8
0
  6
Continuous
 62
     7
370
    15
100
AcDbLine
 10
160.4358841339
 20
334.5426772948
 30
0.0
 11
160.4358841339
 21
367.4948481138
 31
0.0
  0
LINE
  5
15E
330
1F
100
AcDbEntity
  8
0
  6
Continuous
 62
     7
370
    15
100
AcDbLine
 10
176.1858899751
 20
328.0259450193
 30
0.0
 11
176.1858899751
 21
324.059352767
 31
0.0
  0
LINE
  5
15F
330
1F
100
AcDbEntity
  8
0
  6
Continuous
 62
     7
370
    15
100
AcDbLine
 10
176.1858899751
 20
324.059352767
 30
0.0
 11
175.9358931938
 21
324.059352767
 31
0.0
  0
LINE
  5
160
330
1F
100
AcDbEntity
  8
0
  6
Continuous
 62
     7
370
    15
100
AcDbLine
 10
184.9358816305
 20
324.059352767
 30
0.0
 11
184.6858848491
 21
324.059352767
 31
0.0
  0
LINE
  5
161
330
1F
100
AcDbEntity
  8
0
  6
Continuous
 62
     7
370
    15
100
AcDbLine
 10
184.6858848491
 20
324.059352767
 30
0.0
 11
184.6858848491
 21
328.0259450193
 31
0.0
  0
LINE
  5
162
330
1F
100
AcDbEntity
  8
0
  6
Continuous
 62
     7
370
    15
100
AcDbLine
 10
220.4358865181
 20
325.7762217189
 30
0.0
 11
220.4358865181
 21
363.8694328483
 31
0.0
  0
LINE
  5
163
330
1F
100
AcDbEntity
  8
0
  6
Continuous
 62
     7
370
    15
100
AcDbLine
 10
172.4358935514
 20
313.6497945751
 30
0.0
 11
175.9358931938
 21
313.6497945751
 31
0.0
  0
LWPOLYLINE
  5
164
330
1F
100
AcDbEntity
  8
0
  6
Continuous
 62
     7
370
    15
100
AcDbPolyline
 90
       10
 70
   128
 43
0.0
 10
157.4358929554
 20
326.4226042892
 10
157.6293845335
 20
324.5254759903
 10
158.2118113199
 20
322.5919702317
 10
159.191622273
 20
320.6844725873
 10
160.543217198
 20
318.8807000633
 10
162.186755673
 20
317.2974740382
 10
164.1051460662
 20
315.9419154044
 10
166.2722666421
 20
314.8603481467
 10
168.6068762699
 20
314.1050846543
 10
172.4358935514
 20
313.6497945751
  0
LINE
  5
165
330
1F
100
AcDbEntity
  8
0
  6
Continuous
 62
     7
370
    15
100
AcDbLine
 10
158.6248119035
 20
341.2308064516
 30
0.0
 11
159.0632487693
 21
341.2516531761
 31
0.0
  0
LINE
  5
166
330
1F
100
AcDbEntity
  8
0
  6
Continuous
 62
     7
370
    15
100
AcDbLine
 10
175.9358931938
 20
313.6497945751
 30
0.0
 11
175.9358931938
 21
323.8539775129
 31
0.0
  0
LWPOLYLINE
  5
167
330
1F
100
AcDbEntity
  8
0
  6
Continuous
 62
     7
370
    15
100
AcDbPolyline
 90
       10
 70
   128
 43
0.0
 10
172.4358935514
 20
313.412305456
 10
169.9203391233
 20
313.6087754037
 10
167.4755652109
 20
314.1841576661
 10
165.1720543066
 20
315.1214034523
 10
163.0738814035
 20
316.3773720379
 10
161.25327243
 20
317.8982404287
 10
159.7478528181
 20
319.6235508885
 10
158.6223979154
 20
321.449440461
 10
157.8640927234
 20
323.3353891637
 10
157.4358929554
 20
326.1709832813
  0
LINE
  5
168
330
1F
100
AcDbEntity
  8
0
  6
Continuous
 62
     7
370
    15
100
AcDbLine
 10
172.4358935514
 20
313.412305456
 30
0.0
 11
175.9358931938
 21
313.412305456
 31
0.0
  0
LINE
  5
169
330
1F
100
AcDbEntity
  8
0
  6
Continuous
 62
     7
370
    15
100
AcDbLine
 10
209.8358858982
 20
313.6497945751
 30
0.0
 11
220.4358865181
 21
313.6497945751
 31
0.0
  0
LINE
  5
16A
330
1F
100
AcDbEntity
  8
0
  6
Continuous
 62
     7
370
    15
100
AcDbLine
 10
209.8358858982
 20
313.6497945751
 30
0.0
 11
209.8358858982
 21
315.6397459324
 31
0.0
  0
LINE
  5
16B
330
1F
100
AcDbEntity
  8
0
  6
Continuous
 62
     7
370
    15
100
AcDbLine
 10
205.0358866015
 20
315.6397459324
 30
0.0
 11
205.0358866015
 21
313.6497945751
 31
0.0
  0
LINE
  5
16C
330
1F
100
AcDbEntity
  8
0
  6
Continuous
 62
     7
370
    15
100
AcDbLine
 10
184.9358816305
 20
313.6497945751
 30
0.0
 11
205.0358866015
 21
313.6497945751
 31
0.0
  0
LINE
  5
16D
330
1F
100
AcDbEntity
  8
0
  6
Continuous
 62
     7
370
    15
100
AcDbLine
 10
184.9358816305
 20
323.8539775129
 30
0.0
 11
184.9358816305
 21
313.6497945751
 31
0.0
  0
LINE
  5
16E
330
1F
100
AcDbEntity
  8
0
  6
Continuous
 62
     7
370
    15
100
AcDbLine
 10
220.4358865181
 20
313.6497945751
 30
0.0
 11
220.4358865181
 21
323.8539775129
 31
0.0
  0
LINE
  5
16F
330
1F
100
AcDbEntity
  8
0
  6
Continuous
 62
     7
370
    15
100
AcDbLine
 10
220.4358865181
 20
377.4555889185
 30
0.0
 11
220.4358865181
 21
386.0060912784
 31
0.0
  0
LINE
  5
170
330
1F
100
AcDbEntity
  8
0
  6
Continuous
 62
     7
370
    15
100
AcDbLine
 10
160.4358841339
 20
367.4948481138
 30
0.0
 11
160.4358841339
 21
376.0453504737
 31
0.0
  0
LINE
  5
171
330
1F
100
AcDbEntity
  8
0
  6
Continuous
 62
     7
370
    15
100
AcDbLine
 10
175.9358931938
 20
313.412305456
 30
0.0
 11
175.9358931938
 21
313.6497945751
 31
0.0
  0
LINE
  5
172
330
1F
100
AcDbEntity
  8
0
  6
Continuous
 62
     7
370
    15
100
AcDbLine
 10
205.0358866015
 20
313.6497945751
 30
0.0
 11
205.0358866015
 21
313.412305456
 31
0.0
  0
LINE
  5
173
330
1F
100
AcDbEntity
  8
0
  6
Continuous
 62
     7
370
    15
100
AcDbLine
 10
184.9358816305
 20
313.412305456
 30
0.0
 11
205.0358866015
 21
313.412305456
 31
0.0
  0
LINE
  5
174
330
1F
100
AcDbEntity
  8
0
  6
Continuous
 62
     7
370
    15
100
AcDbLine
 10
184.9358816305
 20
313.6497945751
 30
0.0
 11
184.9358816305
 21
313.412305456
 31
0.0
  0
LINE
  5
175
330
1F
100
AcDbEntity
  8
0
  6
Continuous
 62
     7
370
    15
100
AcDbLine
 10
209.8358858982
 20
313.412305456
 30
0.0
 11
209.8358858982
 21
313.6497945751
 31
0.0
  0
LINE
  5
176
330
1F
100
AcDbEntity
  8
0
  6
Continuous
 62
     7
370
    15
100
AcDbLine
 10
209.8358858982
 20
313.412305456
 30
0.0
 11
220.4358865181
 21
313.412305456
 31
0.0
  0
LINE
  5
177
330
1F
100
AcDbEntity
  8
0
  6
Continuous
 62
     7
370
    15
100
AcDbLine
 10
220.4358865181
 20
313.412305456
 30
0.0
 11
220.4358865181
 21
313.6497945751
 31
0.0
  0
LINE
  5
178
330
1F
100
AcDbEntity
  8
0
  6
Continuous
 62
     7
370
    15
100
AcDbLine
 10
184.9358816305
 20
323.8539775129
 30
0.0
 11
184.9358816305
 21
325.7762217189
 31
0.0
  0
LINE
  5
179
330
1F
100
AcDbEntity
  8
0
  6
Continuous
 62
     7
370
    15
100
AcDbLine
 10
220.4358865181
 20
325.7762217189
 30
0.0
 11
220.4358865181
 21
323.8539775129
 31
0.0
  0
LINE
  5
17A
330
1F
100
AcDbEntity
  8
0
  6
Continuous
 62
     7
370
    15
100
AcDbLine
 10
175.9358931938
 20
325.7762217189
 30
0.0
 11
175.9358931938
 21
323.8539775129
 31
0.0
  0
LINE
  5
17B
330
1F
100
AcDbEntity
  8
0
  6
Continuous
 62
     7
370
    15
100
AcDbLine
 10
220.4358865181
 20
386.6453510936
 30
0.0
 11
220.4358865181
 21
386.0060912784
 31
0.0
  0
LINE
  5
17C
330
1F
100
AcDbEntity
  8
0
  6
Continuous
 62
     7
370
    15
100
AcDbLine
 10
295.732858465
 20
360.2199000533
 30
0.0
 11
292.1079554269
 21
359.2486125644
 31
0.0
  0
LINE
  5
17D
330
1F
100
AcDbEntity
  8
0
  6
Continuous
 62
     7
370
    15
100
AcDbLine
 10
297.2857736656
 20
354.4243467267
 30
0.0
 11
295.732858465
 21
360.2199000533
 31
0.0
  0
LINE
  5
17E
330
1F
100
AcDbEntity
  8
0
  6
Continuous
 62
     7
370
    15
100
AcDbLine
 10
293.6608687648
 20
353.4530555125
 30
0.0
 11
297.2857736656
 21
354.4243467267
 31
0.0
  0
LINE
  5
17F
330
1F
100
AcDbEntity
  8
0
  6
Continuous
 62
     7
370
    15
100
AcDbLine
 10
293.6608687648
 20
353.4530555125
 30
0.0
 11
292.1079554269
 21
359.2486125644
 31
0.0
  0
LINE
  5
180
330
1F
100
AcDbEntity
  8
0
  6
Continuous
 62
     7
370
    15
100
AcDbLine
 10
286.4110608259
 20
351.5104768093
 30
0.0
 11
293.6608687648
 21
353.4530555125
 31
0.0
  0
LINE
  5
181
330
1F
100
AcDbEntity
  8
0
  6
Continuous
 62
     7
370
    15
100
AcDbLine
 10
286.4110608259
 20
351.5104768093
 30
0.0
 11
284.8581474879
 21
357.3060301359
 31
0.0
  0
LINE
  5
182
330
1F
100
AcDbEntity
  8
0
  6
Continuous
 62
     7
370
    15
100
AcDbLine
 10
292.1079554269
 20
359.2486125644
 30
0.0
 11
284.8581474879
 21
357.3060301359
 31
0.0
  0
LINE
  5
183
330
1F
100
AcDbEntity
  8
0
  6
Continuous
 62
     7
370
    15
100
AcDbLine
 10
296.9358888128
 20
341.230515879
 30
0.0
 11
294.178507165
 21
351.5212056454
 31
0.0
  0
LINE
  5
184
330
1F
100
AcDbEntity
  8
0
  6
Continuous
 62
     7
370
    15
100
AcDbLine
 10
300.2377588907
 20
343.4073818143
 30
0.0
 11
297.8034120658
 21
352.4924931343
 31
0.0
  0
LINE
  5
185
330
1F
100
AcDbEntity
  8
0
  6
Continuous
 62
     7
370
    15
100
AcDbLine
 10
297.8034120658
 20
352.4924931343
 30
0.0
 11
294.178507165
 21
351.5212056454
 31
0.0
  0
LINE
  5
186
330
1F
100
AcDbEntity
  8
0
  6
Continuous
 62
     7
370
    15
100
AcDbLine
 10
296.9358888128
 20
340.8720051165
 30
0.0
 11
289.7757094958
 21
338.9534396346
 31
0.0
  0
LINE
  5
187
330
1F
100
AcDbEntity
  8
0
  6
Continuous
 62
     7
370
    15
100
AcDbLine
 10
289.7757094958
 20
338.9534396346
 30
0.0
 11
286.9287010887
 21
349.5786232169
 31
0.0
  0
LINE
  5
188
330
1F
100
AcDbEntity
  8
0
  6
Continuous
 62
     7
370
    15
100
AcDbLine
 10
294.178507165
 20
351.5212056454
 30
0.0
 11
286.9287010887
 21
349.5786232169
 31
0.0
  0
LINE
  5
189
330
1F
100
AcDbEntity
  8
0
  6
Continuous
 62
     7
370
    15
100
AcDbLine
 10
282.7861559251
 20
350.5391855951
 30
0.0
 11
281.2332425871
 21
356.334742647
 31
0.0
  0
LINE
  5
18A
330
1F
100
AcDbEntity
  8
0
  6
Continuous
 62
     7
370
    15
100
AcDbLine
 10
282.7861559251
 20
350.5391855951
 30
0.0
 11
286.4110608259
 21
351.5104768093
 31
0.0
  0
LINE
  5
18B
330
1F
100
AcDbEntity
  8
0
  6
Continuous
 62
     7
370
    15
100
AcDbLine
 10
284.8581474879
 20
357.3060301359
 30
0.0
 11
281.2332425871
 21
356.334742647
 31
0.0
  0
LINE
  5
18C
330
1F
100
AcDbEntity
  8
0
  6
Continuous
 62
     7
370
    15
100
AcDbLine
 10
289.7757094958
 20
338.9534396346
 30
0.0
 11
286.150804595
 21
337.9821521457
 31
0.0
  0
LINE
  5
18D
330
1F
100
AcDbEntity
  8
0
  6
Continuous
 62
     7
370
    15
100
AcDbLine
 10
286.150804595
 20
337.9821521457
 30
0.0
 11
283.3037961879
 21
348.607335728
 31
0.0
  0
LINE
  5
18E
330
1F
100
AcDbEntity
  8
0
  6
Continuous
 62
     7
370
    15
100
AcDbLine
 10
286.9287010887
 20
349.5786232169
 30
0.0
 11
283.3037961879
 21
348.607335728
 31
0.0
  0
LINE
  5
18F
330
1F
100
AcDbEntity
  8
0
  6
Continuous
 62
     7
370
    15
100
AcDbLine
 10
157.4358929554
 20
295.5610272701
 30
0.0
 11
157.4358929554
 21
341.5610273595
 31
0.0
  0
LINE
  5
190
330
1F
100
AcDbEntity
  8
0
  6
Continuous
 62
     7
370
    15
100
AcDbLine
 10
157.4358929554
 20
249.5610271807
 30
0.0
 11
157.4358929554
 21
295.5610272701
 31
0.0
  0
LINE
  5
191
330
1F
100
AcDbEntity
  8
0
  6
Continuous
 62
     7
370
    15
100
AcDbLine
 10
150.9358872333
 20
295.5610272701
 30
0.0
 11
150.9358872333
 21
341.5610273595
 31
0.0
  0
LINE
  5
192
330
1F
100
AcDbEntity
  8
0
  6
Continuous
 62
     7
370
    15
100
AcDbLine
 10
150.9358872333
 20
249.5610271807
 30
0.0
 11
150.9358872333
 21
295.5610272701
 31
0.0
  0
LINE
  5
193
330
1F
100
AcDbEntity
  8
0
  6
Continuous
 62
     7
370
    15
100
AcDbLine
 10
144.4358964124
 20
280.5610276054
 30
0.0
 11
144.4358964124
 21
310.5610269348
 31
0.0
  0
LINE
  5
194
330
1F
100
AcDbEntity
  8
0
  6
Continuous
 62
     7
370
    15
100
AcDbLine
 10
301.9358896324
 20
322.6080597605
 30
0.0
 11
309.9358890811
 21
322.6080597605
 31
0.0
  0
LINE
  5
195
330
1F
100
AcDbEntity
  8
0
  6
Continuous
 62
     7
370
    15
100
AcDbLine
 10
301.9358896324
 20
322.6080597605
 30
0.0
 11
301.9358896324
 21
337.4997456785
 31
0.0
  0
LINE
  5
196
330
1F
100
AcDbEntity
  8
0
  6
Continuous
 62
     7
370
    15
100
AcDbLine
 10
301.9358896324
 20
268.5139947797
 30
0.0
 11
309.9358890811
 21
268.5139947797
 31
0.0
  0
LINE
  5
197
330
1F
100
AcDbEntity
  8
0
  6
Continuous
 62
     7
370
    15
100
AcDbLine
 10
301.9358896324
 20
253.6223088618
 30
0.0
 11
301.9358896324
 21
268.5139947797
 31
0.0
  0
LINE
  5
198
330
1F
100
AcDbEntity
  8
0
  6
Continuous
 62
     7
370
    15
100
AcDbLine
 10
309.9358890811
 20
315.8903480734
 30
0.0
 11
305.9358893567
 21
315.8903480734
 31
0.0
  0
LINE
  5
199
330
1F
100
AcDbEntity
  8
0
  6
Continuous
 62
     7
370
    15
100
AcDbLine
 10
305.9358893567
 20
314.2033578123
 30
0.0
 11
303.4358889469
 21
314.2033578123
 31
0.0
  0
LWPOLYLINE
  5
19A
330
1F
100
AcDbEntity
  8
0
  6
Continuous
 62
     7
370
    15
100
AcDbPolyline
 90
        3
 70
   128
 43
0.0
 10
303.4358889469
 20
314.2033578123
 10
291.2662260839
 20
311.5731203224
 10
289.4358885148
 20
311.1746465083
  0
LINE
  5
19B
330
1F
100
AcDbEntity
  8
0
  6
Continuous
 62
     7
370
    15
100
AcDbLine
 10
289.4358885148
 20
311.1746465083
 30
0.0
 11
289.4358885148
 21
307.3151051293
 31
0.0
  0
LINE
  5
19C
330
1F
100
AcDbEntity
  8
0
  6
Continuous
 62
     7
370
    15
100
AcDbLine
 10
289.4358885148
 20
307.3151051293
 30
0.0
 11
282.4358892301
 21
307.3151051293
 31
0.0
  0
LINE
  5
19D
330
1F
100
AcDbEntity
  8
0
  6
Continuous
 62
     7
370
    15
100
AcDbLine
 10
282.4358892301
 20
315.7034092809
 30
0.0
 11
292.2356136748
 21
315.7034092809
 31
0.0
  0
LWPOLYLINE
  5
19E
330
1F
100
AcDbEntity
  8
0
  6
Continuous
 62
     7
370
    15
100
AcDbPolyline
 90
        3
 70
   128
 43
0.0
 10
292.2356136748
 20
315.7034092809
 10
295.5834463844
 20
316.4180168177
 10
301.9358896324
 20
317.7695130225
  0
LINE
  5
19F
330
1F
100
AcDbEntity
  8
0
  6
Continuous
 62
     7
370
    15
100
AcDbLine
 10
301.9358896324
 20
317.7695130225
 30
0.0
 11
301.9358896324
 21
322.6080597605
 31
0.0
  0
LWPOLYLINE
  5
1A0
330
1F
100
AcDbEntity
  8
0
  6
Continuous
 62
     7
370
    15
100
AcDbPolyline
 90
        3
 70
   128
 43
0.0
 10
301.9358896324
 20
273.3525415178
 10
298.3025618502
 20
274.1248538013
 10
292.2356136748
 20
275.4186452593
  0
LINE
  5
1A1
330
1F
100
AcDbEntity
  8
0
  6
Continuous
 62
     7
370
    15
100
AcDbLine
 10
292.2356136748
 20
275.4186452593
 30
0.0
 11
282.4358892301
 21
275.4186452593
 31
0.0
  0
LINE
  5
1A2
330
1F
100
AcDbEntity
  8
0
  6
Continuous
 62
     7
370
    15
100
AcDbLine
 10
282.4358892301
 20
283.8069494109
 30
0.0
 11
289.4358885148
 21
283.8069494109
 31
0.0
  0
LINE
  5
1A3
330
1F
100
AcDbEntity
  8
0
  6
Continuous
 62
     7
370
    15
100
AcDbLine
 10
289.4358885148
 20
283.8069494109
 30
0.0
 11
289.4358885148
 21
279.947408032
 31
0.0
  0
LWPOLYLINE
  5
1A4
330
1F
100
AcDbEntity
  8
0
  6
Continuous
 62
     7
370
    15
100
AcDbPolyline
 90
        3
 70
   128
 43
0.0
 10
289.4358885148
 20
279.947408032
 10
301.5977562079
 20
277.3140338476
 10
303.4358889469
 20
276.9186967279
  0
LINE
  5
1A5
330
1F
100
AcDbEntity
  8
0
  6
Continuous
 62
     7
370
    15
100
AcDbLine
 10
303.4358889469
 20
276.9186967279
 30
0.0
 11
305.9358893567
 21
276.9186967279
 31
0.0
  0
LINE
  5
1A6
330
1F
100
AcDbEntity
  8
0
  6
Continuous
 62
     7
370
    15
100
AcDbLine
 10
305.9358893567
 20
275.2317064668
 30
0.0
 11
309.9358890811
 21
275.2317064668
 31
0.0
  0
LINE
  5
1A7
330
1F
100
AcDbEntity
  8
0
  6
Continuous
 62
     7
370
    15
100
AcDbLine
 10
301.9358896324
 20
268.5139947797
 30
0.0
 11
301.9358896324
 21
273.3525415178
 31
0.0
  0
LINE
  5
1A8
330
1F
100
AcDbEntity
  8
0
  6
Continuous
 62
     7
370
    15
100
AcDbLine
 10
301.9358896324
 20
247.8457396145
 30
0.0
 11
301.9358896324
 21
253.6223088618
 31
0.0
  0
LINE
  5
1A9
330
1F
100
AcDbEntity
  8
0
  6
Continuous
 62
     7
370
    15
100
AcDbLine
 10
301.9358896324
 20
337.4997456785
 30
0.0
 11
301.9358896324
 21
339.9894726689
 31
0.0
  0
LINE
  5
1AA
330
1F
100
AcDbEntity
  8
0
  6
Continuous
 62
     7
370
    15
100
AcDbLine
 10
301.9358896324
 20
340.8104037161
 30
0.0
 11
301.9358896324
 21
343.2470229681
 31
0.0
  0
LINE
  5
1AB
330
1F
100
AcDbEntity
  8
0
  6
Continuous
 62
     7
370
    15
100
AcDbLine
 10
277.4358902732
 20
341.5610273595
 30
0.0
 11
277.4358902732
 21
249.5610271807
 31
0.0
  0
LINE
  5
1AC
330
1F
100
AcDbEntity
  8
0
  6
Continuous
 62
     7
370
    15
100
AcDbLine
 10
282.4358892301
 20
336.9166110869
 30
0.0
 11
282.4358892301
 21
341.5610273595
 31
0.0
  0
LINE
  5
1AD
330
1F
100
AcDbEntity
  8
0
  6
Continuous
 62
     7
370
    15
100
AcDbLine
 10
292.2356136748
 20
336.9166110869
 30
0.0
 11
282.4358892301
 21
336.9166110869
 31
0.0
  0
LINE
  5
1AE
330
1F
100
AcDbEntity
  8
0
  6
Continuous
 62
     7
370
    15
100
AcDbLine
 10
292.2356136748
 20
336.9166110869
 30
0.0
 11
292.2356136748
 21
315.7034092809
 31
0.0
  0
LINE
  5
1AF
330
1F
100
AcDbEntity
  8
0
  6
Continuous
 62
     7
370
    15
100
AcDbLine
 10
282.4358892301
 20
275.4186452593
 30
0.0
 11
282.4358892301
 21
315.7034092809
 31
0.0
  0
LINE
  5
1B0
330
1F
100
AcDbEntity
  8
0
  6
Continuous
 62
     7
370
    15
100
AcDbLine
 10
292.2356136748
 20
275.4186452593
 30
0.0
 11
292.2356136748
 21
254.2054434534
 31
0.0
  0
LINE
  5
1B1
330
1F
100
AcDbEntity
  8
0
  6
Continuous
 62
     7
370
    15
100
AcDbLine
 10
282.4358892301
 20
254.2054434534
 30
0.0
 11
292.2356136748
 21
254.2054434534
 31
0.0
  0
LINE
  5
1B2
330
1F
100
AcDbEntity
  8
0
  6
Continuous
 62
     7
370
    15
100
AcDbLine
 10
282.4358892301
 20
249.5610271807
 30
0.0
 11
282.4358892301
 21
254.2054434534
 31
0.0
  0
LWPOLYLINE
  5
1B3
330
1F
100
AcDbEntity
  8
0
  6
Continuous
 62
     7
370
    15
100
AcDbPolyline
 90
        3
 70
   128
 43
0.0
 10
296.9358888128
 20
337.918956321
 10
295.5834463844
 20
337.6312186237
 10
292.2356136748
 20
336.9166110869
  0
LINE
  5
1B4
330
1F
100
AcDbEntity
  8
0
  6
Continuous
 62
     7
370
    15
100
AcDbLine
 10
292.2356136748
 20
254.2054434534
 30
0.0
 11
296.9358888128
 21
253.2026288326
 31
0.0
  0
LINE
  5
1B5
330
1F
100
AcDbEntity
  8
0
  6
Continuous
 62
     7
370
    15
100
AcDbLine
 10
301.9358896324
 20
247.3007929738
 30
0.0
 11
309.9358890811
 21
247.3007929738
 31
0.0
  0
LINE
  5
1B6
330
1F
100
AcDbEntity
  8
0
  6
Continuous
 62
     7
370
    15
100
AcDbLine
 10
301.9358896324
 20
247.3007929738
 30
0.0
 11
301.9358896324
 21
247.8457396145
 31
0.0
  0
LINE
  5
1B7
330
1F
100
AcDbEntity
  8
0
  6
Continuous
 62
     7
370
    15
100
AcDbLine
 10
301.9358896324
 20
343.8212615664
 30
0.0
 11
309.9358890811
 21
343.8212615664
 31
0.0
  0
LINE
  5
1B8
330
1F
100
AcDbEntity
  8
0
  6
Continuous
 62
     7
370
    15
100
AcDbLine
 10
301.9358896324
 20
343.4073818143
 30
0.0
 11
301.9358896324
 21
343.8212615664
 31
0.0
  0
LINE
  5
1B9
330
1F
100
AcDbEntity
  8
0
  6
Continuous
 62
     7
370
    15
100
AcDbLine
 10
305.9358893567
 20
315.8903480734
 30
0.0
 11
305.9358893567
 21
275.2317064668
 31
0.0
  0
LINE
  5
1BA
330
1F
100
AcDbEntity
  8
0
  6
Continuous
 62
     7
370
    15
100
AcDbLine
 10
304.4358891109
 20
314.2033578123
 30
0.0
 11
304.4358891109
 21
276.9186967279
 31
0.0
  0
LINE
  5
1BB
330
1F
100
AcDbEntity
  8
0
  6
Continuous
 62
     7
370
    15
100
AcDbLine
 10
297.4358898261
 20
313.0031791742
 30
0.0
 11
297.4358898261
 21
278.130623069
 31
0.0
  0
LINE
  5
1BC
330
1F
100
AcDbEntity
  8
0
  6
Continuous
 62
     7
370
    15
100
AcDbLine
 10
293.4358891705
 20
307.6956882368
 30
0.0
 11
293.4358891705
 21
281.0610276874
 31
0.0
  0
LINE
  5
1BD
330
1F
100
AcDbEntity
  8
0
  6
Continuous
 62
     7
370
    15
100
AcDbLine
 10
294.4358893344
 20
307.654413883
 30
0.0
 11
293.4358891705
 21
307.6956882368
 31
0.0
  0
LINE
  5
1BE
330
1F
100
AcDbEntity
  8
0
  6
Continuous
 62
     7
370
    15
100
AcDbLine
 10
297.4358898261
 20
307.654413883
 30
0.0
 11
294.4358893344
 21
307.654413883
 31
0.0
  0
LINE
  5
1BF
330
1F
100
AcDbEntity
  8
0
  6
Continuous
 62
     7
370
    15
100
AcDbLine
 10
293.4358891705
 20
312.0420505519
 30
0.0
 11
293.4358891705
 21
307.6956882368
 31
0.0
  0
LINE
  5
1C0
330
1F
100
AcDbEntity
  8
SLD-0
  6
CENTERX2
370
     0
100
AcDbLine
 10
133.1904263554
 20
295.5610272701
 30
0.0
 11
376.5904430586
 21
295.5610272701
 31
0.0
  0
LINE
  5
1C1
330
1F
100
AcDbEntity
  8
SLD-0
  6
CENTERX2
370
     0
100
AcDbLine
 10
324.9358890215
 20
425.3623937844
 30
0.0
 11
324.9358890215
 21
167.8567134412
 31
0.0
  0
LINE
  5
1C2
330
1F
100
AcDbEntity
  8
0
  6
Continuous
 62
     7
370
    15
100
AcDbLine
 10
519.4826655101
 20
346.9549645896
 30
0.0
 11
516.6635856044
 21
345.9289041574
 31
0.0
  0
ARC
  5
1C3
330
1F
100
AcDbEntity
  8
0
  6
Continuous
 62
     7
370
    15
100
AcDbCircle
 10
514.1010230407
 20
344.1980760053
 30
0.0
 40
2.999999999999999
100
AcDbArc
 50
290.0
 51
20.0
  0
ARC
  5
1C4
330
1F
100
AcDbEntity
  8
0
  6
Continuous
 62
     7
370
    15
100
AcDbCircle
 10
514.5294109932
 20
340.0972853789
 30
0.0
 40
0.99999999999999
100
AcDbArc
 50
110.0
 51
200.0
  0
LINE
  5
1C5
330
1F
100
AcDbEntity
  8
0
  6
Continuous
 62
     7
370
    15
100
AcDbLine
 10
515.1270821702
 20
341.3789984997
 30
0.0
 11
514.1873925936
 21
341.0369795974
 31
0.0
  0
LINE
  5
1C6
330
1F
100
AcDbEntity
  8
0
  6
Continuous
 62
     7
370
    15
100
AcDbLine
 10
512.1917508554
 20
328.9771308418
 30
0.0
 11
514.1064271342
 21
329.6740171726
 31
0.0
  0
LINE
  5
1C7
330
1F
100
AcDbEntity
  8
0
  6
Continuous
 62
     7
370
    15
100
AcDbLine
 10
513.8804361236
 20
338.9565279003
 30
0.0
 11
509.1819733393
 21
337.2464259382
 31
0.0
  0
LINE
  5
1C8
330
1F
100
AcDbEntity
  8
0
  6
Continuous
 62
     7
370
    15
100
AcDbLine
 10
587.2710336011
 20
300.2917147468
 30
0.0
 11
584.271034972
 21
300.1979645568
 31
0.0
  0
LINE
  5
1C9
330
1F
100
AcDbEntity
  8
0
  6
Continuous
 62
     7
370
    15
100
AcDbLine
 10
584.271034972
 20
290.9240899834
 30
0.0
 11
587.2710336011
 21
290.8303397934
 31
0.0
  0
LINE
  5
1CA
330
1F
100
AcDbEntity
  8
0
  6
Continuous
 62
     7
370
    15
100
AcDbLine
 10
545.2704176318
 20
292.5038917682
 30
0.0
 11
545.2704176318
 21
219.5646432455
 31
0.0
  0
LINE
  5
1CB
330
1F
100
AcDbEntity
  8
0
  6
Continuous
 62
     7
370
    15
100
AcDbLine
 10
580.2716508519
 20
219.5675564225
 30
0.0
 11
580.2716508519
 21
285.561224934
 31
0.0
  0
LINE
  5
1CC
330
1F
100
AcDbEntity
  8
0
  6
Continuous
 62
     7
370
    15
100
AcDbLine
 10
588.271033765
 20
212.5610304292
 30
0.0
 11
588.271033765
 21
214.5610270317
 31
0.0
  0
LINE
  5
1CD
330
1F
100
AcDbEntity
  8
0
  6
Continuous
 62
     7
370
    15
100
AcDbLine
 10
537.2710347187
 20
214.5610270317
 30
0.0
 11
537.2710347187
 21
212.5610304292
 31
0.0
  0
LINE
  5
1CE
330
1F
100
AcDbEntity
  8
0
  6
Continuous
 62
     7
370
    15
100
AcDbLine
 10
537.2710347187
 20
378.5610241111
 30
0.0
 11
537.2710347187
 21
376.5610275085
 31
0.0
  0
LINE
  5
1CF
330
1F
100
AcDbEntity
  8
0
  6
Continuous
 62
     7
370
    15
100
AcDbLine
 10
588.271033765
 20
376.5610275085
 30
0.0
 11
588.271033765
 21
378.5610241111
 31
0.0
  0
ARC
  5
1D0
330
1F
100
AcDbEntity
  8
0
  6
Continuous
 62
     7
370
    15
100
AcDbCircle
 10
540.2704290918
 20
219.5610251701
 30
0.0
 40
4.999998218843958
100
AcDbArc
 50
270.0102753293
 51
0.0884177068
  0
ARC
  5
1D1
330
1F
100
AcDbEntity
  8
0
  6
Continuous
 62
     7
370
    15
100
AcDbCircle
 10
585.2716534491
 20
219.5610292008
 30
0.0
 40
5.000003231600921
100
AcDbArc
 50
179.9711365888
 51
269.962648399
  0
ARC
  5
1D2
330
1F
100
AcDbEntity
  8
0
  6
Continuous
 62
     7
370
    15
100
AcDbCircle
 10
585.4813224792
 20
371.5610659443
 30
0.0
 40
4.999961630205488
100
AcDbArc
 50
90.0093095709
 51
179.4365402782
  0
ARC
  5
1D3
330
1F
100
AcDbEntity
  8
0
  6
Continuous
 62
     7
370
    15
100
AcDbCircle
 10
540.0195056478
 20
371.5610610595
 30
0.0
 40
4.999966470708308
100
AcDbArc
 50
0.4037672921
 51
89.9946658913
  0
LWPOLYLINE
  5
1D4
330
1F
100
AcDbEntity
  8
0
  6
Continuous
 62
     7
370
    15
100
AcDbPolyline
 90
       10
 70
   128
 43
0.0
 10
545.0236208748
 20
371.8856391724
 10
545.0839091104
 20
366.4770391996
 10
545.1345358055
 20
361.6223526414
 10
545.5411139887
 20
357.3865522857
 10
546.4075401437
 20
353.8262997981
 10
547.5032402214
 20
350.9219144698
 10
548.6455744144
 20
348.6315352138
 10
549.6934538719
 20
346.9031756039
 10
550.5713893112
 20
345.6442398246
 10
551.2800298643
 20
344.7493580397
  0
LWPOLYLINE
  5
1D5
330
1F
100
AcDbEntity
  8
0
  6
Continuous
 62
     7
370
    15
100
AcDbPolyline
 90
       11
 70
   128
 43
0.0
 10
586.130994187
 20
346.2134716328
 10
584.3607120227
 20
347.368050855
 10
583.0263111752
 20
348.6428340192
 10
582.0576816809
 20
349.926632386
 10
581.3849221927
 20
351.1383203085
 10
580.6663528096
 20
353.1355415698
 10
580.3372494888
 20
355.3599720116
 10
580.3481850785
 20
358.7088180001
 10
580.3859017801
 20
363.115076464
 10
580.4437853407
 20
368.5776707943
 10
580.4818131041
 20
371.6224399622
  0
ARC
  5
1D6
330
1F
100
AcDbEntity
  8
0
  6
Continuous
 62
     7
370
    15
100
AcDbCircle
 10
547.3587392317
 20
341.6107291235
 30
0.0
 40
4.996451632006679
100
AcDbArc
 50
283.3129731543
 51
38.7097628695
  0
LWPOLYLINE
  5
1D7
330
1F
100
AcDbEntity
  8
0
  6
Continuous
 62
     7
370
    15
100
AcDbPolyline
 90
        3
 70
   128
 43
0.0
 10
548.5123841104
 20
336.7492375191
 10
548.5180577275
 20
336.7504966672
 10
548.6473932874
 20
336.7789988633
  0
CIRCLE
  5
1D8
330
1F
100
AcDbEntity
  8
0
  6
Continuous
 62
     7
370
    15
100
AcDbCircle
 10
604.4903343319
 20
253.8417271801
 30
0.0
 40
3.0
  0
CIRCLE
  5
1D9
330
1F
100
AcDbEntity
  8
0
  6
Continuous
 62
     7
370
    15
100
AcDbCircle
 10
520.6981807613
 20
337.6338807507
 30
0.0
 40
3.0
  0
CIRCLE
  5
1DA
330
1F
100
AcDbEntity
  8
0
  6
Continuous
 62
     7
370
    15
100
AcDbCircle
 10
604.4903343319
 20
337.2803273601
 30
0.0
 40
2.999999999999886
  0
CIRCLE
  5
1DB
330
1F
100
AcDbEntity
  8
0
  6
Continuous
 62
     7
370
    15
100
AcDbCircle
 10
521.0517341519
 20
253.8417271801
 30
0.0
 40
3.0
  0
LWPOLYLINE
  5
1DC
330
1F
100
AcDbEntity
  8
0
  6
Continuous
 62
     7
370
    15
100
AcDbPolyline
 90
        7
 70
   128
 43
0.0
 10
517.7755102527
 20
342.8739202435
 10
517.7235797059
 20
343.0166025873
 10
517.2977715742
 20
344.1864890273
 10
516.9726617646
 20
345.0797242339
 10
516.7599961173
 20
345.6640211161
 10
516.6674599063
 20
345.9182610031
 10
516.6635856044
 20
345.9289041574
  0
LINE
  5
1DD
330
1F
100
AcDbEntity
  8
0
  6
Continuous
 62
     7
370
    15
100
AcDbLine
 10
523.6356191349
 20
344.3162259872
 30
0.0
 11
522.0784552407
 21
343.7494640465
 31
0.0
  0
LINE
  5
1DE
330
1F
100
AcDbEntity
  8
0
  6
Continuous
 62
     7
370
    15
100
AcDbLine
 10
523.796644808
 20
343.8738105114
 30
0.0
 11
523.6356191349
 21
344.3162259872
 31
0.0
  0
LINE
  5
1DF
330
1F
100
AcDbEntity
  8
0
  6
Continuous
 62
     7
370
    15
100
AcDbLine
 10
525.351946057
 20
343.9863664325
 30
0.0
 11
525.0451572251
 21
344.8292543407
 31
0.0
  0
LINE
  5
1E0
330
1F
100
AcDbEntity
  8
0
  6
Continuous
 62
     7
370
    15
100
AcDbLine
 10
527.0168043685
 20
345.5468756373
 30
0.0
 11
525.0451572251
 21
344.8292543407
 31
0.0
  0
LINE
  5
1E1
330
1F
100
AcDbEntity
  8
0
  6
Continuous
 62
     7
370
    15
100
AcDbLine
 10
525.0451572251
 20
344.8292543407
 30
0.0
 11
523.6356191349
 21
344.3162259872
 31
0.0
  0
LWPOLYLINE
  5
1E2
330
1F
100
AcDbEntity
  8
0
  6
Continuous
 62
     7
370
    15
100
AcDbPolyline
 90
        6
 70
   128
 43
0.0
 10
514.6293051552
 20
336.8990202661
 10
514.4875206065
 20
337.2885738726
 10
514.1156397771
 20
338.3103092428
 10
513.8302825403
 20
339.0943152125
 10
513.6509023618
 20
339.5871636684
 10
513.589718194
 20
339.7552636679
  0
LWPOLYLINE
  5
1E3
330
1F
100
AcDbEntity
  8
0
  6
Continuous
 62
     7
370
    15
100
AcDbPolyline
 90
        7
 70
   128
 43
0.0
 10
510.6868602347
 20
333.11177839
 10
510.2628849458
 20
334.2766431387
 10
509.8732568335
 20
335.3471388336
 10
509.5495402825
 20
336.2365369912
 10
509.3179650616
 20
336.8727867718
 10
509.197291733
 20
337.2043413337
 10
509.1819733393
 20
337.2464259382
  0
LWPOLYLINE
  5
1E4
330
1F
100
AcDbEntity
  8
0
  6
Continuous
 62
     7
370
    15
100
AcDbPolyline
 90
        7
 70
   128
 43
0.0
 10
512.1917508554
 20
328.9771308418
 10
512.1764324617
 20
329.0192154463
 10
512.0557554078
 20
329.3507700081
 10
511.824180187
 20
329.9870197888
 10
511.5004636359
 20
330.8764179464
 10
511.1108355236
 20
331.9469136413
 10
510.6868602347
 20
333.11177839
  0
ARC
  5
1E5
330
1F
100
AcDbEntity
  8
0
  6
Continuous
 62
     7
370
    15
100
AcDbCircle
 10
538.6586141374
 20
361.8093570355
 30
0.0
 40
19.99999999999999
100
AcDbArc
 50
105.6273167735
 51
241.3639961644
  0
LINE
  5
1E6
330
1F
100
AcDbEntity
  8
0
  6
Continuous
 62
     7
370
    15
100
AcDbLine
 10
519.8668397975
 20
376.8917736824
 30
0.0
 11
533.2710340631
 21
381.7705032642
 31
0.0
  0
LINE
  5
1E7
330
1F
100
AcDbEntity
  8
0
  6
Continuous
 62
     7
370
    15
100
AcDbLine
 10
521.3081695151
 20
343.6937188025
 30
0.0
 11
513.8901181531
 21
364.0746441896
 31
0.0
  0
ARC
  5
1E8
330
1F
100
AcDbEntity
  8
0
  6
Continuous
 62
     7
370
    15
100
AcDbCircle
 10
523.2870428583
 20
367.4948470243
 30
0.0
 40
9.999999999999934
100
AcDbArc
 50
110.0
 51
200.0
  0
LINE
  5
1E9
330
1F
100
AcDbEntity
  8
0
  6
Continuous
 62
     7
370
    15
100
AcDbLine
 10
520.6860497605
 20
343.6486949439
 30
0.0
 11
513.326302917
 21
363.8694328483
 31
0.0
  0
ARC
  5
1EA
330
1F
100
AcDbEntity
  8
0
  6
Continuous
 62
     7
370
    15
100
AcDbCircle
 10
523.2870428583
 20
367.4948470243
 30
0.0
 40
10.60000000000001
100
AcDbArc
 50
110.0
 51
200.0
  0
LINE
  5
1EB
330
1F
100
AcDbEntity
  8
0
  6
Continuous
 62
     7
370
    15
100
AcDbLine
 10
519.6616284561
 20
377.4555889185
 30
0.0
 11
533.2710340631
 21
382.4090105708
 31
0.0
  0
LINE
  5
1EC
330
1F
100
AcDbEntity
  8
0
  6
Continuous
 62
     7
370
    15
100
AcDbLine
 10
587.2710336011
 20
299.0610273782
 30
0.0
 11
587.2710336011
 21
300.2917147468
 31
0.0
  0
LINE
  5
1ED
330
1F
100
AcDbEntity
  8
0
  6
Continuous
 62
     7
370
    15
100
AcDbLine
 10
587.2710336011
 20
292.3783548403
 30
0.0
 11
587.2710336011
 21
298.7436996999
 31
0.0
  0
LINE
  5
1EE
330
1F
100
AcDbEntity
  8
0
  6
Continuous
 62
     7
370
    15
100
AcDbLine
 10
587.2710336011
 20
290.8303397934
 30
0.0
 11
587.2710336011
 21
292.0610271621
 31
0.0
  0
LINE
  5
1EF
330
1F
100
AcDbEntity
  8
0
  6
Continuous
 62
     7
370
    15
100
AcDbLine
 10
587.2710336011
 20
292.3783548403
 30
0.0
 11
587.2710336011
 21
292.0610271621
 31
0.0
  0
LINE
  5
1F0
330
1F
100
AcDbEntity
  8
0
  6
Continuous
 62
     7
370
    15
100
AcDbLine
 10
587.2710336011
 20
299.0610273782
 30
0.0
 11
594.2710347485
 21
299.0610273782
 31
0.0
  0
LINE
  5
1F1
330
1F
100
AcDbEntity
  8
0
  6
Continuous
 62
     7
370
    15
100
AcDbLine
 10
587.2710336011
 20
299.0610273782
 30
0.0
 11
587.2710336011
 21
298.7436996999
 31
0.0
  0
LINE
  5
1F2
330
1F
100
AcDbEntity
  8
0
  6
Continuous
 62
     7
370
    15
100
AcDbLine
 10
594.2710347485
 20
299.0610273782
 30
0.0
 11
594.2710347485
 21
292.0610271621
 31
0.0
  0
LINE
  5
1F3
330
1F
100
AcDbEntity
  8
0
  6
Continuous
 62
     7
370
    15
100
AcDbLine
 10
587.2710336011
 20
292.0610271621
 30
0.0
 11
594.2710347485
 21
292.0610271621
 31
0.0
  0
LINE
  5
1F4
330
1F
100
AcDbEntity
  8
0
  6
Continuous
 62
     7
370
    15
100
AcDbLine
 10
554.2796559643
 20
415.5610245879
 30
0.0
 11
554.2796559643
 21
398.5610273893
 31
0.0
  0
LINE
  5
1F5
330
1F
100
AcDbEntity
  8
0
  6
Continuous
 62
     7
370
    15
100
AcDbLine
 10
571.2624125194
 20
415.5610245879
 30
0.0
 11
571.2624125194
 21
398.5610273893
 31
0.0
  0
LINE
  5
1F6
330
1F
100
AcDbEntity
  8
0
  6
Continuous
 62
     7
370
    15
100
AcDbLine
 10
571.2624125194
 20
415.5610245879
 30
0.0
 11
554.2796559643
 21
415.5610245879
 31
0.0
  0
LINE
  5
1F7
330
1F
100
AcDbEntity
  8
0
  6
Continuous
 62
     7
370
    15
100
AcDbLine
 10
583.2710348081
 20
415.5610245879
 30
0.0
 11
583.2710348081
 21
398.5610273893
 31
0.0
  0
LINE
  5
1F8
330
1F
100
AcDbEntity
  8
0
  6
Continuous
 62
     7
370
    15
100
AcDbLine
 10
583.2710348081
 20
415.5610245879
 30
0.0
 11
571.2624125194
 21
415.5610245879
 31
0.0
  0
LINE
  5
1F9
330
1F
100
AcDbEntity
  8
0
  6
Continuous
 62
     7
370
    15
100
AcDbLine
 10
542.2710336756
 20
415.5610245879
 30
0.0
 11
542.2710336756
 21
398.5610273893
 31
0.0
  0
LINE
  5
1FA
330
1F
100
AcDbEntity
  8
0
  6
Continuous
 62
     7
370
    15
100
AcDbLine
 10
554.2796559643
 20
415.5610245879
 30
0.0
 11
542.2710336756
 21
415.5610245879
 31
0.0
  0
LINE
  5
1FB
330
1F
100
AcDbEntity
  8
0
  6
Continuous
 62
     7
370
    15
100
AcDbLine
 10
571.2624125194
 20
175.5610299523
 30
0.0
 11
571.2624125194
 21
192.5610271509
 31
0.0
  0
LINE
  5
1FC
330
1F
100
AcDbEntity
  8
0
  6
Continuous
 62
     7
370
    15
100
AcDbLine
 10
554.2796559643
 20
175.5610299523
 30
0.0
 11
554.2796559643
 21
192.5610271509
 31
0.0
  0
LINE
  5
1FD
330
1F
100
AcDbEntity
  8
0
  6
Continuous
 62
     7
370
    15
100
AcDbLine
 10
554.2796559643
 20
175.5610299523
 30
0.0
 11
571.2624125194
 21
175.5610299523
 31
0.0
  0
LINE
  5
1FE
330
1F
100
AcDbEntity
  8
0
  6
Continuous
 62
     7
370
    15
100
AcDbLine
 10
583.2710348081
 20
175.5610299523
 30
0.0
 11
583.2710348081
 21
192.5610271509
 31
0.0
  0
LINE
  5
1FF
330
1F
100
AcDbEntity
  8
0
  6
Continuous
 62
     7
370
    15
100
AcDbLine
 10
571.2624125194
 20
175.5610299523
 30
0.0
 11
583.2710348081
 21
175.5610299523
 31
0.0
  0
LINE
  5
200
330
1F
100
AcDbEntity
  8
0
  6
Continuous
 62
     7
370
    15
100
AcDbLine
 10
542.2710336756
 20
175.5610299523
 30
0.0
 11
542.2710336756
 21
192.5610271509
 31
0.0
  0
LINE
  5
201
330
1F
100
AcDbEntity
  8
0
  6
Continuous
 62
     7
370
    15
100
AcDbLine
 10
542.2710336756
 20
175.5610299523
 30
0.0
 11
554.2796559643
 21
175.5610299523
 31
0.0
  0
LINE
  5
202
330
1F
100
AcDbEntity
  8
0
  6
Continuous
 62
     7
370
    15
100
AcDbLine
 10
574.9903347355
 20
192.5610271509
 30
0.0
 11
574.9903347355
 21
212.5610304292
 31
0.0
  0
LINE
  5
203
330
1F
100
AcDbEntity
  8
0
  6
Continuous
 62
     7
370
    15
100
AcDbLine
 10
550.5517337483
 20
192.5610271509
 30
0.0
 11
550.5517337483
 21
212.5610304292
 31
0.0
  0
LINE
  5
204
330
1F
100
AcDbEntity
  8
0
  6
Continuous
 62
     7
370
    15
100
AcDbLine
 10
574.9903347355
 20
212.5610304292
 30
0.0
 11
550.5517337483
 21
212.5610304292
 31
0.0
  0
LINE
  5
205
330
1F
100
AcDbEntity
  8
0
  6
Continuous
 62
     7
370
    15
100
AcDbLine
 10
550.5517337483
 20
192.5610271509
 30
0.0
 11
574.9903347355
 21
192.5610271509
 31
0.0
  0
LINE
  5
206
330
1F
100
AcDbEntity
  8
0
  6
Continuous
 62
     7
370
    15
100
AcDbLine
 10
592.2710344207
 20
192.5610271509
 30
0.0
 11
592.2710344207
 21
212.5610304292
 31
0.0
  0
LINE
  5
207
330
1F
100
AcDbEntity
  8
0
  6
Continuous
 62
     7
370
    15
100
AcDbLine
 10
592.2710344207
 20
212.5610304292
 30
0.0
 11
574.9903347355
 21
212.5610304292
 31
0.0
  0
LINE
  5
208
330
1F
100
AcDbEntity
  8
0
  6
Continuous
 62
     7
370
    15
100
AcDbLine
 10
574.9903347355
 20
192.5610271509
 30
0.0
 11
592.2710344207
 21
192.5610271509
 31
0.0
  0
LINE
  5
209
330
1F
100
AcDbEntity
  8
0
  6
Continuous
 62
     7
370
    15
100
AcDbLine
 10
533.2710340631
 20
192.5610271509
 30
0.0
 11
533.2710340631
 21
212.5610304292
 31
0.0
  0
LINE
  5
20A
330
1F
100
AcDbEntity
  8
0
  6
Continuous
 62
     7
370
    15
100
AcDbLine
 10
550.5517337483
 20
212.5610304292
 30
0.0
 11
533.2710340631
 21
212.5610304292
 31
0.0
  0
LINE
  5
20B
330
1F
100
AcDbEntity
  8
0
  6
Continuous
 62
     7
370
    15
100
AcDbLine
 10
533.2710340631
 20
192.5610271509
 30
0.0
 11
550.5517337483
 21
192.5610271509
 31
0.0
  0
LINE
  5
20C
330
1F
100
AcDbEntity
  8
0
  6
Continuous
 62
     7
370
    15
100
AcDbLine
 10
550.5517337483
 20
398.5610273893
 30
0.0
 11
550.5517337483
 21
378.5610241111
 31
0.0
  0
LINE
  5
20D
330
1F
100
AcDbEntity
  8
0
  6
Continuous
 62
     7
370
    15
100
AcDbLine
 10
574.9903347355
 20
398.5610273893
 30
0.0
 11
574.9903347355
 21
378.5610241111
 31
0.0
  0
LINE
  5
20E
330
1F
100
AcDbEntity
  8
0
  6
Continuous
 62
     7
370
    15
100
AcDbLine
 10
574.9903347355
 20
398.5610273893
 30
0.0
 11
550.5517337483
 21
398.5610273893
 31
0.0
  0
LINE
  5
20F
330
1F
100
AcDbEntity
  8
0
  6
Continuous
 62
     7
370
    15
100
AcDbLine
 10
550.5517337483
 20
378.5610241111
 30
0.0
 11
574.9903347355
 21
378.5610241111
 31
0.0
  0
LINE
  5
210
330
1F
100
AcDbEntity
  8
0
  6
Continuous
 62
     7
370
    15
100
AcDbLine
 10
592.2710344207
 20
398.5610273893
 30
0.0
 11
592.2710344207
 21
378.5610241111
 31
0.0
  0
LINE
  5
211
330
1F
100
AcDbEntity
  8
0
  6
Continuous
 62
     7
370
    15
100
AcDbLine
 10
592.2710344207
 20
398.5610273893
 30
0.0
 11
574.9903347355
 21
398.5610273893
 31
0.0
  0
LINE
  5
212
330
1F
100
AcDbEntity
  8
0
  6
Continuous
 62
     7
370
    15
100
AcDbLine
 10
574.9903347355
 20
378.5610241111
 30
0.0
 11
592.2710344207
 21
378.5610241111
 31
0.0
  0
LINE
  5
213
330
1F
100
AcDbEntity
  8
0
  6
Continuous
 62
     7
370
    15
100
AcDbLine
 10
533.2710340631
 20
398.5610273893
 30
0.0
 11
533.2710340631
 21
378.5610241111
 31
0.0
  0
LINE
  5
214
330
1F
100
AcDbEntity
  8
0
  6
Continuous
 62
     7
370
    15
100
AcDbLine
 10
550.5517337483
 20
398.5610273893
 30
0.0
 11
533.2710340631
 21
398.5610273893
 31
0.0
  0
LINE
  5
215
330
1F
100
AcDbEntity
  8
0
  6
Continuous
 62
     7
370
    15
100
AcDbLine
 10
533.2710340631
 20
378.5610241111
 30
0.0
 11
550.5517337483
 21
378.5610241111
 31
0.0
  0
LINE
  5
216
330
1F
100
AcDbEntity
  8
0
  6
Continuous
 62
     7
370
    15
100
AcDbLine
 10
563.7710342894
 20
285.5610274936
 30
0.0
 11
564.7710343369
 21
285.5610274936
 31
0.0
  0
LINE
  5
217
330
1F
100
AcDbEntity
  8
0
  6
Continuous
 62
     7
370
    15
100
AcDbLine
 10
563.7710342894
 20
277.561028045
 30
0.0
 11
563.7710342894
 21
285.5610274936
 31
0.0
  0
LINE
  5
218
330
1F
100
AcDbEntity
  8
0
  6
Continuous
 62
     7
370
    15
100
AcDbLine
 10
564.7710343369
 20
285.5610274936
 30
0.0
 11
562.7710342419
 21
287.5610268901
 31
0.0
  0
LINE
  5
219
330
1F
100
AcDbEntity
  8
0
  6
Continuous
 62
     7
370
    15
100
AcDbLine
 10
564.7710343369
 20
267.5610264059
 30
0.0
 11
564.7710343369
 21
276.5610278811
 31
0.0
  0
LINE
  5
21A
330
1F
100
AcDbEntity
  8
0
  6
Continuous
 62
     7
370
    15
100
AcDbLine
 10
560.7710341469
 20
276.5610278811
 30
0.0
 11
560.7710341469
 21
267.5610264059
 31
0.0
  0
LINE
  5
21B
330
1F
100
AcDbEntity
  8
0
  6
Continuous
 62
     7
370
    15
100
AcDbLine
 10
564.7710343369
 20
276.5610278811
 30
0.0
 11
563.7710342894
 21
277.561028045
 31
0.0
  0
LINE
  5
21C
330
1F
100
AcDbEntity
  8
0
  6
Continuous
 62
     7
370
    15
100
AcDbLine
 10
562.7710342419
 20
269.5610267337
 30
0.0
 11
564.7710343369
 21
267.5610264059
 31
0.0
  0
LINE
  5
21D
330
1F
100
AcDbEntity
  8
0
  6
Continuous
 62
     7
370
    15
100
AcDbLine
 10
560.7710341469
 20
267.5610264059
 30
0.0
 11
562.7710342419
 21
269.5610267337
 31
0.0
  0
LINE
  5
21E
330
1F
100
AcDbEntity
  8
0
  6
Continuous
 62
     7
370
    15
100
AcDbLine
 10
561.7710341944
 20
277.561028045
 30
0.0
 11
560.7710341469
 21
276.5610278811
 31
0.0
  0
LINE
  5
21F
330
1F
100
AcDbEntity
  8
0
  6
Continuous
 62
     7
370
    15
100
AcDbLine
 10
561.7710341944
 20
285.5610274936
 30
0.0
 11
561.7710341944
 21
277.561028045
 31
0.0
  0
LINE
  5
220
330
1F
100
AcDbEntity
  8
0
  6
Continuous
 62
     7
370
    15
100
AcDbLine
 10
560.7710341469
 20
285.5610274936
 30
0.0
 11
561.7710341944
 21
285.5610274936
 31
0.0
  0
LINE
  5
221
330
1F
100
AcDbEntity
  8
0
  6
Continuous
 62
     7
370
    15
100
AcDbLine
 10
562.7710342419
 20
287.5610268901
 30
0.0
 11
560.7710341469
 21
285.5610274936
 31
0.0
  0
LWPOLYLINE
  5
222
330
1F
100
AcDbEntity
  8
0
  6
Continuous
 62
     7
370
    15
100
AcDbPolyline
 90
       16
 70
   128
 43
0.0
 10
576.5799384576
 20
305.5610270466
 10
574.1093045112
 20
308.4574076574
 10
571.6724654671
 20
310.3818525787
 10
568.8252363366
 20
311.8724753375
 10
566.1288965971
 20
312.7019372995
 10
563.2392179
 20
313.0540405627
 10
560.5572932877
 20
312.9052748199
 10
557.861374506
 20
312.2871914174
 10
555.3997026768
 20
311.2699580605
 10
553.0737524864
 20
309.829627652
 10
550.9842995566
 20
308.0177591409
 10
549.1608463239
 20
305.8447311859
 10
547.6379690703
 20
303.3206025365
 10
546.4831057948
 20
300.5335889983
 10
545.5527946365
 20
296.5574951603
 10
545.2799934905
 20
292.5032475259
  0
LWPOLYLINE
  5
223
330
1F
100
AcDbEntity
  8
0
  6
Continuous
 62
     7
370
    15
100
AcDbPolyline
 90
       14
 70
   128
 43
0.0
 10
579.7867819678
 20
285.5610274936
 10
578.7130154681
 20
286.0876438435
 10
577.229823732
 20
287.4986683245
 10
575.4229201015
 20
290.0427701178
 10
574.5793029678
 20
291.7559270508
 10
573.8896846783
 20
293.6672279838
 10
573.4556157153
 20
295.4008584137
 10
573.1668815028
 20
297.1683141304
 10
573.0072062474
 20
300.1663014519
 10
573.2329523202
 20
302.6570505689
 10
573.7790845346
 20
304.4882747571
 10
574.1585724067
 20
305.092971329
 10
574.5701983583
 20
305.4414610605
 10
575.0291606423
 20
305.5610270466
  0
LINE
  5
224
330
1F
100
AcDbEntity
  8
0
  6
Continuous
 62
     7
370
    15
100
AcDbLine
 10
584.271034972
 20
305.5610270466
 30
0.0
 11
575.0291606423
 21
305.5610270466
 31
0.0
  0
LINE
  5
225
330
1F
100
AcDbEntity
  8
0
  6
Continuous
 62
     7
370
    15
100
AcDbLine
 10
584.271034972
 20
285.5610274936
 30
0.0
 11
579.7867819678
 21
285.5610274936
 31
0.0
  0
LINE
  5
226
330
1F
100
AcDbEntity
  8
0
  6
Continuous
 62
     7
370
    15
100
AcDbLine
 10
584.271034972
 20
305.5610270466
 30
0.0
 11
584.271034972
 21
285.5610274936
 31
0.0
  0
LINE
  5
227
330
1F
100
AcDbEntity
  8
0
  6
Continuous
 62
     7
370
    15
100
AcDbLine
 10
562.7710342419
 20
214.5610270317
 30
0.0
 11
588.271033765
 21
214.5610270317
 31
0.0
  0
LINE
  5
228
330
1F
100
AcDbEntity
  8
0
  6
Continuous
 62
     7
370
    15
100
AcDbLine
 10
537.2710347187
 20
214.5610270317
 30
0.0
 11
562.7710342419
 21
214.5610270317
 31
0.0
  0
LINE
  5
229
330
1F
100
AcDbEntity
  8
0
  6
Continuous
 62
     7
370
    15
100
AcDbLine
 10
562.7710342419
 20
376.5610275085
 30
0.0
 11
588.271033765
 21
376.5610275085
 31
0.0
  0
LINE
  5
22A
330
1F
100
AcDbEntity
  8
0
  6
Continuous
 62
     7
370
    15
100
AcDbLine
 10
537.2710347187
 20
376.5610275085
 30
0.0
 11
562.7710342419
 21
376.5610275085
 31
0.0
  0
ARC
  5
22B
330
1F
100
AcDbEntity
  8
0
  6
Continuous
 62
     7
370
    15
100
AcDbCircle
 10
562.7710342419
 20
295.5610272701
 30
0.0
 40
20.49999999999991
100
AcDbArc
 50
328.764577256
 51
330.8035955904
  0
ARC
  5
22C
330
1F
100
AcDbEntity
  8
0
  6
Continuous
 62
     7
370
    15
100
AcDbCircle
 10
562.7710342419
 20
295.5610272701
 30
0.0
 40
20.50000000000004
100
AcDbArc
 50
29.1964044096
 51
211.2215169124
  0
LWPOLYLINE
  5
22D
330
1F
100
AcDbEntity
  8
0
  6
Continuous
 62
     7
370
    15
100
AcDbPolyline
 90
        2
 70
   128
 43
0.0
 10
586.130994187
 20
346.2134716328
 10
586.130994187
 20
346.2134716328
  0
LWPOLYLINE
  5
22E
330
1F
100
AcDbEntity
  8
0
  6
Continuous
 62
     7
370
    15
100
AcDbPolyline
 90
        2
 70
   128
 43
0.0
 10
586.130994187
 20
346.2134716328
 10
586.130994187
 20
346.2134716328
  0
LINE
  5
22F
330
1F
100
AcDbEntity
  8
0
  6
Continuous
 62
     7
370
    15
100
AcDbLine
 10
551.2735897687
 20
344.7442543919
 30
0.0
 11
551.2780191388
 21
344.7482888813
 31
0.0
  0
ARC
  5
230
330
1F
100
AcDbEntity
  8
0
  6
Continuous
 62
     7
370
    15
100
AcDbCircle
 10
562.7710342419
 20
295.5610272701
 30
0.0
 40
41.57854738086703
100
AcDbArc
 50
294.9539891056
 51
245.0634693757
  0
LINE
  5
231
330
1F
100
AcDbEntity
  8
0
  6
Continuous
 62
     7
370
    15
100
AcDbLine
 10
591.1365922552
 20
305.3280716057
 30
0.0
 11
589.673529194
 21
302.7898445952
 31
0.0
  0
LINE
  5
232
330
1F
100
AcDbEntity
  8
0
  6
Continuous
 62
     7
370
    15
100
AcDbLine
 10
593.6748188001
 20
303.8650085445
 30
0.0
 11
591.1365922552
 21
305.3280716057
 31
0.0
  0
LINE
  5
233
330
1F
100
AcDbEntity
  8
0
  6
Continuous
 62
     7
370
    15
100
AcDbLine
 10
592.7090745431
 20
303.6055094789
 30
0.0
 11
593.6748188001
 21
303.8650085445
 31
0.0
  0
ARC
  5
234
330
1F
100
AcDbEntity
  8
0
  6
Continuous
 62
     7
370
    15
100
AcDbCircle
 10
562.7710342419
 20
295.5610272701
 30
0.0
 40
30.9999999999999
100
AcDbArc
 50
6.4827010511
 51
15.0403619203
  0
LINE
  5
235
330
1F
100
AcDbEntity
  8
0
  6
Continuous
 62
     7
370
    15
100
AcDbLine
 10
594.7710357618
 20
295.5612255163
 30
0.0
 11
594.2710347485
 21
296.0448020248
 31
0.0
  0
ARC
  5
236
330
1F
100
AcDbEntity
  8
0
  6
Continuous
 62
     7
370
    15
100
AcDbCircle
 10
562.7710342419
 20
295.5610272701
 30
0.0
 40
31.99999999999995
100
AcDbArc
 50
341.0
 51
0.0003549584
  0
LINE
  5
237
330
1F
100
AcDbEntity
  8
0
  6
Continuous
 62
     7
370
    15
100
AcDbLine
 10
591.7243313056
 20
287.7056733932
 30
0.0
 11
593.0276278418
 21
285.1428459625
 31
0.0
  0
LINE
  5
238
330
1F
100
AcDbEntity
  8
0
  6
Continuous
 62
     7
370
    15
100
AcDbLine
 10
589.245554806
 20
286.4451189752
 30
0.0
 11
591.7243313056
 21
287.7056733932
 31
0.0
  0
ARC
  5
239
330
1F
100
AcDbEntity
  8
0
  6
Continuous
 62
     7
370
    15
100
AcDbCircle
 10
562.7710342419
 20
295.5610272701
 30
0.0
 40
27.99999999999993
100
AcDbArc
 50
341.0
 51
352.8192442185
  0
ARC
  5
23A
330
1F
100
AcDbEntity
  8
0
  6
Continuous
 62
     7
370
    15
100
AcDbCircle
 10
562.7710342419
 20
295.5610272701
 30
0.0
 40
28.99999999999996
100
AcDbArc
 50
6.9319061976
 51
15.0403619203
  0
LINE
  5
23B
330
1F
100
AcDbEntity
  8
0
  6
Continuous
 62
     7
370
    15
100
AcDbLine
 10
589.673529194
 20
302.7898445952
 30
0.0
 11
590.7775897544
 21
303.0865104164
 31
0.0
  0
ARC
  5
23C
330
1F
100
AcDbEntity
  8
0
  6
Continuous
 62
     7
370
    15
100
AcDbCircle
 10
557.4239481705
 20
291.8784924047
 30
0.0
 40
42.51238219741162
100
AcDbArc
 50
165.5153389833
 51
216.7969601617
  0
LWPOLYLINE
  5
23D
330
1F
100
AcDbEntity
  8
0
  6
Continuous
 62
     7
370
    15
100
AcDbPolyline
 90
        3
 70
   128
 43
0.0
 10
516.2628375005
 20
302.5117237347
 10
518.03001091
 20
308.034372073
 10
520.4335495841
 20
313.4158351685
  0
ARC
  5
23E
330
1F
100
AcDbEntity
  8
0
  6
Continuous
 62
     7
370
    15
100
AcDbCircle
 10
569.571229923
 20
300.9750124404
 30
0.0
 40
57.68812217470265
100
AcDbArc
 50
216.8050702077
 51
245.0481316483
  0
ARC
  5
23F
330
1F
100
AcDbEntity
  8
0
  6
Continuous
 62
     7
370
    15
100
AcDbCircle
 10
554.6396807723
 20
286.630275015
 30
0.0
 40
67.39332218201115
100
AcDbArc
 50
38.4917816194
 51
62.1423501026
  0
ARC
  5
240
330
1F
100
AcDbEntity
  8
0
  6
Continuous
 62
     7
370
    15
100
AcDbCircle
 10
566.2577915914
 20
288.4663230343
 30
0.0
 40
44.74851651480871
100
AcDbArc
 50
288.2576031903
 51
308.3149279435
  0
ARC
  5
241
330
1F
100
AcDbEntity
  8
0
  6
Continuous
 62
     7
370
    15
100
AcDbCircle
 10
570.3303852451
 20
299.1638755287
 30
0.0
 40
47.31132576188476
100
AcDbArc
 50
345.8223102934
 51
38.4383926405
  0
ARC
  5
242
330
1F
100
AcDbEntity
  8
0
  6
Continuous
 62
     7
370
    15
100
AcDbCircle
 10
554.433012748
 20
303.3357272281
 30
0.0
 40
63.74646700631823
100
AcDbArc
 50
308.3680585425
 51
345.6865552977
  0
ARC
  5
243
330
1F
100
AcDbEntity
  8
0
  6
Continuous
 62
     7
370
    15
100
AcDbCircle
 10
550.2879873308
 20
312.448115677
 30
0.0
 40
23.99999999999999
100
AcDbArc
 50
105.9451766523
 51
126.5293414146
  0
ARC
  5
244
330
1F
100
AcDbEntity
  8
0
  6
Continuous
 62
     7
370
    15
100
AcDbCircle
 10
566.7710342419
 20
254.7566157439
 30
0.0
 40
84.0
100
AcDbArc
 50
101.3400795662
 51
105.9451766523
  0
ARC
  5
245
330
1F
100
AcDbEntity
  8
0
  6
Continuous
 62
     7
370
    15
100
AcDbCircle
 10
567.5502212646
 20
289.1445131822
 30
0.0
 40
53.00073463931363
100
AcDbArc
 50
126.5293414146
 51
152.7455384326
  0
CIRCLE
  5
246
330
1F
100
AcDbEntity
  8
0
  6
Continuous
 62
     7
370
    15
100
AcDbCircle
 10
521.0517341519
 20
253.8417271801
 30
0.0
 40
3.0
  0
ARC
  5
247
330
1F
100
AcDbEntity
  8
0
  6
Continuous
 62
     7
370
    15
100
AcDbCircle
 10
520.6981807613
 20
253.4881737895
 30
0.0
 40
6.000000000000066
100
AcDbArc
 50
184.1393116946
 51
265.8606883054
  0
LINE
  5
248
330
1F
100
AcDbEntity
  8
0
  6
Continuous
 62
     7
370
    15
100
AcDbLine
 10
511.9040690374
 20
291.8797559331
 30
0.0
 11
514.7138319921
 21
253.0550812598
 31
0.0
  0
ARC
  5
249
330
1F
100
AcDbEntity
  8
0
  6
Continuous
 62
     7
370
    15
100
AcDbCircle
 10
562.7710342419
 20
295.5610272701
 30
0.0
 40
51.00000000000011
100
AcDbArc
 50
175.8606883054
 51
184.1393116946
  0
LINE
  5
24A
330
1F
100
AcDbEntity
  8
0
  6
Continuous
 62
     7
370
    15
100
AcDbLine
 10
514.7138319921
 20
338.0669732805
 30
0.0
 11
511.9040690374
 21
299.2422986071
 31
0.0
  0
ARC
  5
24B
330
1F
100
AcDbEntity
  8
0
  6
Continuous
 62
     7
370
    15
100
AcDbCircle
 10
520.6981807613
 20
337.6338807507
 30
0.0
 40
6.000000000000072
100
AcDbArc
 50
94.1393116946
 51
175.8606883054
  0
CIRCLE
  5
24C
330
1F
100
AcDbEntity
  8
0
  6
Continuous
 62
     7
370
    15
100
AcDbCircle
 10
521.0517341519
 20
337.2803273601
 30
0.0
 40
3.0
  0
LINE
  5
24D
330
1F
100
AcDbEntity
  8
0
  6
Continuous
 62
     7
370
    15
100
AcDbLine
 10
520.2650882315
 20
247.5038250204
 30
0.0
 11
545.2704176318
 21
245.6941758509
 31
0.0
  0
LINE
  5
24E
330
1F
100
AcDbEntity
  8
0
  6
Continuous
 62
     7
370
    15
100
AcDbLine
 10
550.460343064
 20
345.8034773584
 30
0.0
 11
520.2650882315
 21
343.6182295199
 31
0.0
  0
CIRCLE
  5
24F
330
1F
100
AcDbEntity
  8
0
  6
Continuous
 62
     7
370
    15
100
AcDbCircle
 10
604.4903343319
 20
337.2803273601
 30
0.0
 40
3.0
  0
LINE
  5
250
330
1F
100
AcDbEntity
  8
0
  6
Continuous
 62
     7
370
    15
100
AcDbLine
 10
605.2769802522
 20
343.6182295199
 30
0.0
 11
588.6321336043
 21
344.8228282149
 31
0.0
  0
ARC
  5
251
330
1F
100
AcDbEntity
  8
0
  6
Continuous
 62
     7
370
    15
100
AcDbCircle
 10
604.8438877225
 20
337.6338807507
 30
0.0
 40
5.999999999999958
100
AcDbArc
 50
4.1393116946
 51
85.8606883054
  0
LINE
  5
252
330
1F
100
AcDbEntity
  8
0
  6
Continuous
 62
     7
370
    15
100
AcDbLine
 10
612.0256342005
 20
321.5215974714
 30
0.0
 11
610.8282364916
 21
338.0669732805
 31
0.0
  0
CIRCLE
  5
253
330
1F
100
AcDbEntity
  8
0
  6
Continuous
 62
     7
370
    15
100
AcDbCircle
 10
604.4903343319
 20
253.8417271801
 30
0.0
 40
3.0
  0
LINE
  5
254
330
1F
100
AcDbEntity
  8
0
  6
Continuous
 62
     7
370
    15
100
AcDbLine
 10
580.2716508519
 20
245.6941758509
 30
0.0
 11
605.2769802522
 21
247.5038250204
 31
0.0
  0
ARC
  5
255
330
1F
100
AcDbEntity
  8
0
  6
Continuous
 62
     7
370
    15
100
AcDbCircle
 10
604.8438877225
 20
253.4881737895
 30
0.0
 40
5.999999999999979
100
AcDbArc
 50
274.1393116946
 51
355.8606883054
  0
LINE
  5
256
330
1F
100
AcDbEntity
  8
0
  6
Continuous
 62
     7
370
    15
100
AcDbLine
 10
610.8282364916
 20
253.0550812598
 30
0.0
 11
612.5756621372
 21
277.2006099339
 31
0.0
  0
LINE
  5
257
330
1F
100
AcDbEntity
  8
SLD-0
  6
CENTERX2
370
     0
100
AcDbLine
 10
562.7710342419
 20
428.1713540781
 30
0.0
 11
562.7710342419
 21
164.1682968708
 31
0.0
  0
LINE
  5
258
330
1F
100
AcDbEntity
  8
SLD-0
  6
CENTERX2
370
     0
100
AcDbLine
 10
502.5384467352
 20
295.5610272701
 30
0.0
 11
625.5790360603
 21
295.5610272701
 31
0.0
  0
ENDSEC
  0
SECTION
  2
OBJECTS
  0
DICTIONARY
  5
C
330
0
100
AcDbDictionary
281
     1
  3
ACAD_GROUP
350
D
  3
ACAD_LAYOUT
350
1A
  3
ACAD_MLEADERSTYLE
350
25A
  3
ACAD_MLINESTYLE
350
17
  3
ACAD_PLOTSETTINGS
350
19
  3
ACAD_PLOTSTYLENAME
350
E
  3
ACAD_TABLESTYLE
350
259
  3
ACAD_VISUALSTYLE
350
2A
  3
AcDbVariableDictionary
350
25B
  0
DICTIONARY
  5
D
102
{ACAD_REACTORS
330
C
102
}
330
C
100
AcDbDictionary
281
     1
  0
DICTIONARY
  5
1A
102
{ACAD_REACTORS
330
C
102
}
330
C
100
AcDbDictionary
281
     1
  3
Layout1
350
1E
  3
Layout2
350
26
  3
Model
350
22
  0
DICTIONARY
  5
25A
102
{ACAD_REACTORS
330
C
102
}
330
C
100
AcDbDictionary
281
     1
  0
DICTIONARY
  5
17
102
{ACAD_REACTORS
330
C
102
}
330
C
100
AcDbDictionary
281
     1
  3
Standard
350
18
  0
DICTIONARY
  5
19
102
{ACAD_REACTORS
330
C
102
}
330
C
100
AcDbDictionary
281
     1
  0
ACDBDICTIONARYWDFLT
  5
E
102
{ACAD_REACTORS
330
C
102
}
330
C
100
AcDbDictionary
281
     1
  3
Normal
350
F
100
AcDbDictionaryWithDefault
340
F
  0
DICTIONARY
  5
259
102
{ACAD_REACTORS
330
C
102
}
330
C
100
AcDbDictionary
281
     1
  0
DICTIONARY
  5
2A
102
{ACAD_REACTORS
330
C
102
}
330
C
100
AcDbDictionary
281
     1
  3
2dWireframe
350
2F
  3
3D Hidden
350
31
  3
3dWireframe
350
30
  3
Basic
350
32
  3
Brighten
350
36
  3
ColorChange
350
3A
  3
Conceptual
350
34
  3
Dim
350
35
  3
Facepattern
350
39
  3
Flat
350
2B
  3
FlatWithEdges
350
2C
  3
Gouraud
350
2D
  3
GouraudWithEdges
350
2E
  3
Linepattern
350
38
  3
Realistic
350
33
  3
Thicken
350
37
  0
DICTIONARY
  5
25B
102
{ACAD_REACTORS
330
C
102
}
330
C
100
AcDbDictionary
281
     1
  3
PSOLHEIGHT
350
25D
  3
PSOLWIDTH
350
25C
  0
LAYOUT
  5
1E
102
{ACAD_REACTORS
330
1A
102
}
330
1A
100
AcDbPlotSettings
  1

  2
none_device
  4

  6

 40
0.0
 41
0.0
 42
0.0
 43
0.0
 44
0.0
 45
0.0
 46
0.0
 47
0.0
 48
0.0
 49
0.0
140
0.0
141
0.0
142
1.0
143
1.0
 70
   688
 72
     0
 73
     0
 74
     5
  7

 75
    16
147
1.0
148
0.0
149
0.0
100
AcDbLayout
  1
Layout1
 70
     1
 71
     1
 10
0.0
 20
0.0
 11
420.0
 21
297.0
 12
0.0
 22
0.0
 32
0.0
 14
1.0000000000E+20
 24
1.0000000000E+20
 34
1.0000000000E+20
 15
-1.0000000000E+20
 25
-1.0000000000E+20
 35
-1.0000000000E+20
146
0.0
 13
0.0
 23
0.0
 33
0.0
 16
1.0
 26
0.0
 36
0.0
 17
0.0
 27
1.0
 37
0.0
 76
     0
330
1B
  0
LAYOUT
  5
26
102
{ACAD_REACTORS
330
1A
102
}
330
1A
100
AcDbPlotSettings
  1

  2
none_device
  4

  6

 40
0.0
 41
0.0
 42
0.0
 43
0.0
 44
0.0
 45
0.0
 46
0.0
 47
0.0
 48
0.0
 49
0.0
140
0.0
141
0.0
142
1.0
143
1.0
 70
   688
 72
     0
 73
     0
 74
     5
  7

 75
    16
147
1.0
148
0.0
149
0.0
100
AcDbLayout
  1
Layout2
 70
     1
 71
     2
 10
0.0
 20
0.0
 11
0.0
 21
0.0
 12
0.0
 22
0.0
 32
0.0
 14
0.0
 24
0.0
 34
0.0
 15
0.0
 25
0.0
 35
0.0
146
0.0
 13
0.0
 23
0.0
 33
0.0
 16
1.0
 26
0.0
 36
0.0
 17
0.0
 27
1.0
 37
0.0
 76
     0
330
23
  0
LAYOUT
  5
22
102
{ACAD_REACTORS
330
1A
102
}
330
1A
100
AcDbPlotSettings
  1

  2
none_device
  4

  6

 40
0.0
 41
0.0
 42
0.0
 43
0.0
 44
0.0
 45
0.0
 46
0.0
 47
0.0
 48
0.0
 49
0.0
140
0.0
141
0.0
142
1.0
143
1.0
 70
  1712
 72
     0
 73
     0
 74
     0
  7

 75
     0
147
1.0
148
0.0
149
0.0
100
AcDbLayout
  1
Model
 70
     1
 71
     0
 10
0.0
 20
0.0
 11
841.0
 21
594.0
 12
0.0
 22
0.0
 32
0.0
 14
0.0
 24
0.0
 34
0.0
 15
841.0
 25
594.0
 35
0.0
146
0.0
 13
0.0
 23
0.0
 33
0.0
 16
1.0
 26
0.0
 36
0.0
 17
0.0
 27
1.0
 37
0.0
 76
     0
330
1F
331
29
  0
MLINESTYLE
  5
18
102
{ACAD_REACTORS
330
17
102
}
330
17
100
AcDbMlineStyle
  2
Standard
 70
     0
  3

 62
   256
 51
90.0
 52
90.0
 71
     2
 49
0.5
 62
   256
  6
BYLAYER
 49
-0.5
 62
   256
  6
BYLAYER
  0
ACDBPLACEHOLDER
  5
F
102
{ACAD_REACTORS
330
E
102
}
330
E
  0
VISUALSTYLE
  5
2F
102
{ACAD_REACTORS
330
2A
102
}
330
2A
100
AcDbVisualStyle
  2
2dWireframe
 70
     4
 71
     0
 72
     2
 73
     0
 90
        0
 40
-0.6
 41
-30.0
 62
     5
 63
     7
 74
     1
 91
        4
 64
     7
 65
   257
 75
     1
175
     1
 42
1.0
 92
        0
 66
   257
 43
1.0
 76
     1
 77
     6
 78
     2
 67
     7
 79
     5
170
     0
171
     0
290
     0
174
     0
 93
        1
 44
0.0
173
     0
291
     0
 45
0.0
1001
ACAD
1000
AcDbSavedByObjectVersion
1070
     0
  0
VISUALSTYLE
  5
31
102
{ACAD_REACTORS
330
2A
102
}
330
2A
100
AcDbVisualStyle
  2
3D Hidden
 70
     6
 71
     1
 72
     2
 73
     2
 90
        0
 40
-0.6
 41
-30.0
 62
     5
 63
     7
 74
     2
 91
        2
 64
     7
 65
   257
 75
     2
175
     1
 42
40.0
 92
        0
 66
   257
 43
1.0
 76
     1
 77
     6
 78
     2
 67
     7
 79
     3
170
     0
171
     0
290
     0
174
     0
 93
        1
 44
0.0
173
     0
291
     0
 45
0.0
1001
ACAD
1000
AcDbSavedByObjectVersion
1070
     0
  0
VISUALSTYLE
  5
30
102
{ACAD_REACTORS
330
2A
102
}
330
2A
100
AcDbVisualStyle
  2
3dWireframe
 70
     5
 71
     0
 72
     2
 73
     0
 90
        0
 40
-0.6
 41
-30.0
 62
     5
 63
     7
 74
     1
 91
        4
 64
     7
 65
   257
 75
     1
175
     1
 42
1.0
 92
        0
 66
   257
 43
1.0
 76
     1
 77
     6
 78
     2
 67
     7
 79
     5
170
     0
171
     0
290
     0
174
     0
 93
        1
 44
0.0
173
     0
291
     0
 45
0.0
1001
ACAD
1000
AcDbSavedByObjectVersion
1070
     0
  0
VISUALSTYLE
  5
32
102
{ACAD_REACTORS
330
2A
102
}
330
2A
100
AcDbVisualStyle
  2
Basic
 70
     7
 71
     1
 72
     0
 73
     1
 90
        0
 40
-0.6
 41
-30.0
 62
     5
 63
     7
 74
     0
 91
        4
 64
     7
 65
   257
 75
     1
175
     1
 42
1.0
 92
        8
 66
     7
 43
1.0
 76
     1
 77
     6
 78
     2
 67
     7
 79
     5
170
     0
171
     0
290
     0
174
     0
 93
        1
 44
0.0
173
     0
291
     1
 45
0.0
1001
ACAD
1000
AcDbSavedByObjectVersion
1070
     0
  0
VISUALSTYLE
  5
36
102
{ACAD_REACTORS
330
2A
102
}
330
2A
100
AcDbVisualStyle
  2
Brighten
 70
    12
 71
     2
 72
     2
 73
     0
 90
        0
 40
-0.6
 41
-30.0
 62
     5
 63
     7
 74
     1
 91
        4
 64
     7
 65
   257
 75
     1
175
     1
 42
1.0
 92
        8
 66
     7
 43
1.0
 76
     1
 77
     6
 78
     2
 67
     7
 79
     5
170
     0
171
     0
290
     0
174
     0
 93
        1
 44
50.0
173
     0
291
     1
 45
0.0
1001
ACAD
1000
AcDbSavedByObjectVersion
1070
     0
  0
VISUALSTYLE
  5
3A
102
{ACAD_REACTORS
330
2A
102
}
330
2A
100
AcDbVisualStyle
  2
ColorChange
 70
    16
 71
     2
 72
     2
 73
     3
 90
        0
 40
-0.6
 41
-30.0
 62
     5
 63
     8
 74
     1
 91
        4
 64
     7
 65
   257
 75
     1
175
     1
 42
1.0
 92
        8
 66
     8
 43
1.0
 76
     1
 77
     6
 78
     2
 67
     7
 79
     5
170
     0
171
     0
290
     0
174
     0
 93
        1
 44
0.0
173
     0
291
     1
 45
0.0
1001
ACAD
1000
AcDbSavedByObjectVersion
1070
     0
  0
VISUALSTYLE
  5
34
102
{ACAD_REACTORS
330
2A
102
}
330
2A
100
AcDbVisualStyle
  2
Conceptual
 70
     9
 71
     3
 72
     2
 73
     0
 90
        0
 40
-0.6
 41
-30.0
 62
     5
 63
     7
 74
     2
 91
        2
 64
     7
 65
   257
 75
     1
175
     1
 42
40.0
 92
        8
 66
     7
 43
1.0
 76
     1
 77
     6
 78
     2
 67
     7
 79
     3
170
     0
171
     0
290
     0
174
     0
 93
        1
 44
0.0
173
     0
291
     0
 45
0.0
1001
ACAD
1000
AcDbSavedByObjectVersion
1070
     0
  0
VISUALSTYLE
  5
35
102
{ACAD_REACTORS
330
2A
102
}
330
2A
100
AcDbVisualStyle
  2
Dim
 70
    11
 71
     2
 72
     2
 73
     0
 90
        0
 40
-0.6
 41
-30.0
 62
     5
 63
     7
 74
     1
 91
        4
 64
     7
 65
   257
 75
     1
175
     1
 42
1.0
 92
        8
 66
     7
 43
1.0
 76
     1
 77
     6
 78
     2
 67
     7
 79
     5
170
     0
171
     0
290
     0
174
     0
 93
        1
 44
-50.0
173
     0
291
     1
 45
0.0
1001
ACAD
1000
AcDbSavedByObjectVersion
1070
     0
  0
VISUALSTYLE
  5
39
102
{ACAD_REACTORS
330
2A
102
}
330
2A
100
AcDbVisualStyle
  2
Facepattern
 70
    15
 71
     2
 72
     2
 73
     0
 90
        0
 40
-0.6
 41
-30.0
 62
     5
 63
     7
 74
     1
 91
        4
 64
     7
 65
   257
 75
     1
175
     1
 42
1.0
 92
        8
 66
     7
 43
1.0
 76
     1
 77
     6
 78
     2
 67
     7
 79
     5
170
     0
171
     0
290
     0
174
     0
 93
        1
 44
0.0
173
     0
291
     1
 45
0.0
1001
ACAD
1000
AcDbSavedByObjectVersion
1070
     0
  0
VISUALSTYLE
  5
2B
102
{ACAD_REACTORS
330
2A
102
}
330
2A
100
AcDbVisualStyle
  2
Flat
 70
     0
 71
     2
 72
     1
 73
     1
 90
        2
 40
-0.6
 41
30.0
 62
     5
 63
     7
 74
     0
 91
        4
 64
     7
 65
   257
 75
     1
175
     1
 42
1.0
 92
        8
 66
     7
 43
1.0
 76
     1
 77
     6
 78
     2
 67
     7
 79
     5
170
     0
171
     0
290
     0
174
     0
 93
       13
 44
0.0
173
     0
291
     1
 45
0.0
1001
ACAD
1000
AcDbSavedByObjectVersion
1070
     0
  0
VISUALSTYLE
  5
2C
102
{ACAD_REACTORS
330
2A
102
}
330
2A
100
AcDbVisualStyle
  2
FlatWithEdges
 70
     1
 71
     2
 72
     1
 73
     1
 90
        2
 40
-0.6
 41
30.0
 62
     5
 63
     7
 74
     1
 91
        4
 64
     7
 65
   257
 75
     1
175
     1
 42
1.0
 92
        0
 66
   257
 43
1.0
 76
     1
 77
     6
 78
     2
 67
     7
 79
     5
170
     0
171
     0
290
     0
174
     0
 93
       13
 44
0.0
173
     0
291
     1
 45
0.0
1001
ACAD
1000
AcDbSavedByObjectVersion
1070
     0
  0
VISUALSTYLE
  5
2D
102
{ACAD_REACTORS
330
2A
102
}
330
2A
100
AcDbVisualStyle
  2
Gouraud
 70
     2
 71
     2
 72
     2
 73
     1
 90
        2
 40
-0.6
 41
30.0
 62
     5
 63
     7
 74
     0
 91
        4
 64
     7
 65
   257
 75
     1
175
     1
 42
1.0
 92
        0
 66
     7
 43
1.0
 76
     1
 77
     6
 78
     2
 67
     7
 79
     5
170
     0
171
     0
290
     0
174
     0
 93
       13
 44
0.0
173
     0
291
     1
 45
0.0
1001
ACAD
1000
AcDbSavedByObjectVersion
1070
     0
  0
VISUALSTYLE
  5
2E
102
{ACAD_REACTORS
330
2A
102
}
330
2A
100
AcDbVisualStyle
  2
GouraudWithEdges
 70
     3
 71
     2
 72
     2
 73
     1
 90
        2
 40
-0.6
 41
30.0
 62
     5
 63
     7
 74
     1
 91
        4
 64
     7
 65
   257
 75
     1
175
     1
 42
1.0
 92
        0
 66
   257
 43
1.0
 76
     1
 77
     6
 78
     2
 67
     7
 79
     5
170
     0
171
     0
290
     0
174
     0
 93
       13
 44
0.0
173
     0
291
     1
 45
0.0
1001
ACAD
1000
AcDbSavedByObjectVersion
1070
     0
  0
VISUALSTYLE
  5
38
102
{ACAD_REACTORS
330
2A
102
}
330
2A
100
AcDbVisualStyle
  2
Linepattern
 70
    14
 71
     2
 72
     2
 73
     0
 90
        0
 40
-0.6
 41
-30.0
 62
     5
 63
     7
 74
     1
 91
        4
 64
     7
 65
   257
 75
     7
175
     7
 42
1.0
 92
        8
 66
     7
 43
1.0
 76
     1
 77
     6
 78
     2
 67
     7
 79
     5
170
     0
171
     0
290
     0
174
     0
 93
        1
 44
0.0
173
     0
291
     1
 45
0.0
1001
ACAD
1000
AcDbSavedByObjectVersion
1070
     0
  0
VISUALSTYLE
  5
33
102
{ACAD_REACTORS
330
2A
102
}
330
2A
100
AcDbVisualStyle
  2
Realistic
 70
     8
 71
     2
 72
     2
 73
     0
 90
        0
 40
-0.6
 41
-30.0
 62
     5
 63
     7
 74
     1
 91
        0
 64
     7
 65
   257
 75
     1
175
     1
 42
1.0
 92
        8
 66
     8
 43
1.0
 76
     1
 77
     6
 78
     2
 67
     7
 79
     5
170
     0
171
     0
290
     0
174
     0
 93
       13
 44
0.0
173
     0
291
     0
 45
0.0
1001
ACAD
1000
AcDbSavedByObjectVersion
1070
     0
  0
VISUALSTYLE
  5
37
102
{ACAD_REACTORS
330
2A
102
}
330
2A
100
AcDbVisualStyle
  2
Thicken
 70
    13
 71
     2
 72
     2
 73
     0
 90
        0
 40
-0.6
 41
-30.0
 62
     5
 63
     7
 74
     1
 91
        4
 64
     7
 65
   257
 75
     1
175
     1
 42
1.0
 92
       12
 66
     7
 43
1.0
 76
     1
 77
     6
 78
     2
 67
     7
 79
     5
170
     0
171
     0
290
     0
174
     0
 93
        1
 44
0.0
173
     0
291
     1
 45
0.0
1001
ACAD
1000
AcDbSavedByObjectVersion
1070
     0
  0
DICTIONARYVAR
  5
25D
102
{ACAD_REACTORS
330
25B
102
}
330
25B
100
DictionaryVariables
280
     0
  1
80.000000
  0
DICTIONARYVAR
  5
25C
102
{ACAD_REACTORS
330
25B
102
}
330
25B
100
DictionaryVariables
280
     0
  1
5.000000
  0
ENDSEC
  0
EOF
