  0
SECTION
  2
HEADER
  9
$ACADVER
  1
AC1015
  9
$ACADMAINTVER
 70
     6
  9
$DWGCODEPAGE
  3
DOS932
  9
$INSBASE
 10
0.0
 20
0.0
 30
0.0
  9
$EXTMIN
 10
0.0
 20
0.0
 30
0.0
  9
$EXTMAX
 10
841.0
 20
594.0
 30
0.0
  9
$LIMMIN
 10
0.0
 20
0.0
  9
$LIMMAX
 10
841.0
 20
594.0
  9
$ORTHOMODE
 70
     0
  9
$REGENMODE
 70
     1
  9
$FILLMODE
 70
     1
  9
$QTEXTMODE
 70
     0
  9
$MIRRTEXT
 70
     1
  9
$LTSCALE
 40
1.0
  9
$ATTMODE
 70
     1
  9
$TEXTSIZE
 40
3.5
  9
$TRACEWID
 40
1.0
  9
$TEXTSTYLE
  7
Standard
  9
$CLAYER
  8
0
  9
$CELTYPE
  6
ByLayer
  9
$CECOLOR
 62
   256
  9
$CELTSCALE
 40
1.0
  9
$DISPSILH
 70
     0
  9
$DIMSCALE
 40
1.0
  9
$DIMASZ
 40
3.8637032976
  9
$DIMEXO
 40
1.0
  9
$DIMDLI
 40
3.75
  9
$DIMRND
 40
0.0
  9
$DIMDLE
 40
0.0
  9
$DIMEXE
 40
1.0
  9
$DIMTP
 40
0.0
  9
$DIMTM
 40
0.0
  9
$DIMTXT
 40
2.7999999523
  9
$DIMCEN
 40
2.5
  9
$DIMTSZ
 40
0.0
  9
$DIMTOL
 70
     0
  9
$DIMLIM
 70
     0
  9
$DIMTIH
 70
     1
  9
$DIMTOH
 70
     1
  9
$DIMSE1
 70
     0
  9
$DIMSE2
 70
     0
  9
$DIMTAD
 70
     1
  9
$DIMZIN
 70
     1
  9
$DIMBLK
  1

  9
$DIMASO
 70
     1
  9
$DIMSHO
 70
     1
  9
$DIMPOST
  1

  9
$DIMAPOST
  1

  9
$DIMALT
 70
     0
  9
$DIMALTD
 70
     3
  9
$DIMALTF
 40
0.0393700787
  9
$DIMLFAC
 40
1.0
  9
$DIMTOFL
 70
     1
  9
$DIMTVP
 40
0.0
  9
$DIMTIX
 70
     0
  9
$DIMSOXD
 70
     0
  9
$DIMSAH
 70
     0
  9
$DIMBLK1
  1

  9
$DIMBLK2
  1

  9
$DIMSTYLE
  2
ISO-25
  9
$DIMCLRD
 70
     0
  9
$DIMCLRE
 70
     0
  9
$DIMCLRT
 70
     0
  9
$DIMTFAC
 40
1.0
  9
$DIMGAP
 40
1.524
  9
$DIMJUST
 70
     0
  9
$DIMSD1
 70
     0
  9
$DIMSD2
 70
     0
  9
$DIMTOLJ
 70
     0
  9
$DIMTZIN
 70
     1
  9
$DIMALTZ
 70
     0
  9
$DIMALTTZ
 70
     0
  9
$DIMUPT
 70
     0
  9
$DIMDEC
 70
     2
  9
$DIMTDEC
 70
     2
  9
$DIMALTU
 70
     2
  9
$DIMALTTD
 70
     3
  9
$DIMTXSTY
  7
Standard
  9
$DIMAUNIT
 70
     0
  9
$DIMADEC
 70
     0
  9
$DIMALTRND
 40
0.0
  9
$DIMAZIN
 70
     0
  9
$DIMDSEP
 70
    44
  9
$DIMATFIT
 70
     3
  9
$DIMFRAC
 70
     0
  9
$DIMLDRBLK
  1

  9
$DIMLUNIT
 70
     2
  9
$DIMLWD
 70
    -2
  9
$DIMLWE
 70
    -2
  9
$DIMTMOVE
 70
     0
  9
$LUNITS
 70
     2
  9
$LUPREC
 70
     3
  9
$SKETCHINC
 40
1.0
  9
$FILLETRAD
 40
10.0
  9
$AUNITS
 70
     0
  9
$AUPREC
 70
     0
  9
$MENU
  1
.
  9
$ELEVATION
 40
0.0
  9
$PELEVATION
 40
0.0
  9
$THICKNESS
 40
0.0
  9
$LIMCHECK
 70
     0
  9
$CHAMFERA
 40
10.0
  9
$CHAMFERB
 40
10.0
  9
$CHAMFERC
 40
20.0
  9
$CHAMFERD
 40
0.0
  9
$SKPOLY
 70
     0
  9
$TDCREATE
 40
2456366.749942129
  9
$TDUCREATE
 40
2456366.374942129
  9
$TDUPDATE
 40
2456366.749942141
  9
$TDUUPDATE
 40
2456366.374942141
  9
$TDINDWG
 40
0.0000000116
  9
$TDUSRTIMER
 40
0.0000000116
  9
$USRTIMER
 70
     1
  9
$ANGBASE
 50
0.0
  9
$ANGDIR
 70
     0
  9
$PDMODE
 70
     0
  9
$PDSIZE
 40
-1.0
  9
$PLINEWID
 40
0.0
  9
$SPLFRAME
 70
     0
  9
$SPLINETYPE
 70
     6
  9
$SPLINESEGS
 70
     8
  9
$HANDSEED
  5
25D
  9
$SURFTAB1
 70
     6
  9
$SURFTAB2
 70
     6
  9
$SURFTYPE
 70
     6
  9
$SURFU
 70
     6
  9
$SURFV
 70
     6
  9
$UCSBASE
  2

  9
$UCSNAME
  2

  9
$UCSORG
 10
0.0
 20
0.0
 30
0.0
  9
$UCSXDIR
 10
1.0
 20
0.0
 30
0.0
  9
$UCSYDIR
 10
0.0
 20
1.0
 30
0.0
  9
$UCSORTHOREF
  2

  9
$UCSORTHOVIEW
 70
     0
  9
$UCSORGTOP
 10
0.0
 20
0.0
 30
0.0
  9
$UCSORGBOTTOM
 10
0.0
 20
0.0
 30
0.0
  9
$UCSORGLEFT
 10
0.0
 20
0.0
 30
0.0
  9
$UCSORGRIGHT
 10
0.0
 20
0.0
 30
0.0
  9
$UCSORGFRONT
 10
0.0
 20
0.0
 30
0.0
  9
$UCSORGBACK
 10
0.0
 20
0.0
 30
0.0
  9
$PUCSBASE
  2

  9
$PUCSNAME
  2

  9
$PUCSORG
 10
0.0
 20
0.0
 30
0.0
  9
$PUCSXDIR
 10
1.0
 20
0.0
 30
0.0
  9
$PUCSYDIR
 10
0.0
 20
1.0
 30
0.0
  9
$PUCSORTHOREF
  2

  9
$PUCSORTHOVIEW
 70
     0
  9
$PUCSORGTOP
 10
0.0
 20
0.0
 30
0.0
  9
$PUCSORGBOTTOM
 10
0.0
 20
0.0
 30
0.0
  9
$PUCSORGLEFT
 10
0.0
 20
0.0
 30
0.0
  9
$PUCSORGRIGHT
 10
0.0
 20
0.0
 30
0.0
  9
$PUCSORGFRONT
 10
0.0
 20
0.0
 30
0.0
  9
$PUCSORGBACK
 10
0.0
 20
0.0
 30
0.0
  9
$USERI1
 70
     0
  9
$USERI2
 70
     0
  9
$USERI3
 70
     0
  9
$USERI4
 70
     0
  9
$USERI5
 70
     0
  9
$USERR1
 40
0.0
  9
$USERR2
 40
0.0
  9
$USERR3
 40
0.0
  9
$USERR4
 40
0.0
  9
$USERR5
 40
0.0
  9
$WORLDVIEW
 70
     1
  9
$SHADEDGE
 70
     3
  9
$SHADEDIF
 70
    70
  9
$TILEMODE
 70
     1
  9
$MAXACTVP
 70
    64
  9
$PINSBASE
 10
0.0
 20
0.0
 30
0.0
  9
$PLIMCHECK
 70
     0
  9
$PEXTMIN
 10
1.0000000000E+20
 20
1.0000000000E+20
 30
1.0000000000E+20
  9
$PEXTMAX
 10
-1.0000000000E+20
 20
-1.0000000000E+20
 30
-1.0000000000E+20
  9
$PLIMMIN
 10
0.0
 20
0.0
  9
$PLIMMAX
 10
420.0
 20
297.0
  9
$UNITMODE
 70
     0
  9
$VISRETAIN
 70
     1
  9
$PLINEGEN
 70
     0
  9
$PSLTSCALE
 70
     1
  9
$TREEDEPTH
 70
  3020
  9
$CMLSTYLE
  2
Standard
  9
$CMLJUST
 70
     0
  9
$CMLSCALE
 40
20.0
  9
$PROXYGRAPHICS
 70
     1
  9
$MEASUREMENT
 70
     1
  9
$CELWEIGHT
370
    -1
  9
$ENDCAPS
280
     0
  9
$JOINSTYLE
280
     0
  9
$LWDISPLAY
290
     1
  9
$INSUNITS
 70
     4
  9
$HYPERLINKBASE
  1

  9
$STYLESHEET
  1

  9
$XEDIT
290
     1
  9
$CEPSNTYPE
380
     0
  9
$PSTYLEMODE
290
     1
  9
$FINGERPRINTGUID
  2
{06D6F4B9-7DD1-4FFE-94AA-DD296ED5A90B}
  9
$VERSIONGUID
  2
{FAEB1C32-E019-11D5-929B-00C0DF256EC4}
  9
$EXTNAMES
290
     1
  9
$PSVPSCALE
 40
0.0
  9
$OLESTARTUP
290
     0
  0
ENDSEC
  0
SECTION
  2
CLASSES
  0
CLASS
  1
ACDBDICTIONARYWDFLT
  2
AcDbDictionaryWithDefault
  3
ObjectDBX Classes
 90
        0
280
     0
281
     0
  0
CLASS
  1
VISUALSTYLE
  2
AcDbVisualStyle
  3
ObjectDBX Classes
 90
     4095
280
     0
281
     0
  0
CLASS
  1
DICTIONARYVAR
  2
AcDbDictionaryVar
  3
ObjectDBX Classes
 90
        0
280
     0
281
     0
  0
CLASS
  1
ACDBPLACEHOLDER
  2
AcDbPlaceHolder
  3
ObjectDBX Classes
 90
        0
280
     0
281
     0
  0
CLASS
  1
LAYOUT
  2
AcDbLayout
  3
ObjectDBX Classes
 90
        0
280
     0
281
     0
  0
ENDSEC
  0
SECTION
  2
TABLES
  0
TABLE
  2
VPORT
  5
8
330
0
100
AcDbSymbolTable
 70
     1
  0
VPORT
  5
29
330
8
100
AcDbSymbolTableRecord
100
AcDbViewportTableRecord
  2
*Active
 70
     0
 10
0.0
 20
0.0
 11
1.0
 21
1.0
 12
420.5
 22
297.0
 13
0.0
 23
0.0
 14
10.0
 24
10.0
 15
10.0
 25
10.0
 16
0.0
 26
0.0
 36
1.0
 17
0.0
 27
0.0
 37
0.0
 40
594.0
 41
1.4158249158
 42
50.0
 43
0.0
 44
0.0
 50
0.0
 51
0.0
 71
     0
 72
  2000
 73
     1
 74
     3
 75
     0
 76
     0
 77
     0
 78
     0
281
     0
 65
     1
110
0.0
120
0.0
130
0.0
111
1.0
121
0.0
131
0.0
112
0.0
122
1.0
132
0.0
 79
     0
146
0.0
  0
ENDTAB
  0
TABLE
  2
LTYPE
  5
5
330
0
100
AcDbSymbolTable
 70
     6
  0
LTYPE
  5
14
330
5
100
AcDbSymbolTableRecord
100
AcDbLinetypeTableRecord
  2
ByBlock
 70
     0
  3

 72
    65
 73
     0
 40
0.0
  0
LTYPE
  5
15
330
5
100
AcDbSymbolTableRecord
100
AcDbLinetypeTableRecord
  2
ByLayer
 70
     0
  3

 72
    65
 73
     0
 40
0.0
  0
LTYPE
  5
16
330
5
100
AcDbSymbolTableRecord
100
AcDbLinetypeTableRecord
  2
Continuous
 70
     0
  3
Solid line
 72
    65
 73
     0
 40
0.0
  0
LTYPE
  5
3B
330
5
100
AcDbSymbolTableRecord
100
AcDbLinetypeTableRecord
  2
HIDDEN
 70
     0
  3
Hidden __ __ __ __ __ __ __ __ __ __ __ __ __ __
 72
    65
 73
     2
 40
1.905
 49
1.27
 74
     0
 49
-0.635
 74
     0
  0
LTYPE
  5
3C
330
5
100
AcDbSymbolTableRecord
100
AcDbLinetypeTableRecord
  2
PHANTOM
 70
     0
  3
Phantom ______  __  __  ______  __  __  ______
 72
    65
 73
     6
 40
12.7
 49
6.35
 74
     0
 49
-1.27
 74
     0
 49
1.27
 74
     0
 49
-1.27
 74
     0
 49
1.27
 74
     0
 49
-1.27
 74
     0
  0
LTYPE
  5
3D
330
5
100
AcDbSymbolTableRecord
100
AcDbLinetypeTableRecord
  2
CENTER
 70
     0
  3
Center ____ _ ____ _ ____ _ ____ _ ____ _ ____
 72
    65
 73
     4
 40
10.16
 49
6.35
 74
     0
 49
-1.27
 74
     0
 49
1.27
 74
     0
 49
-1.27
 74
     0
  0
LTYPE
  5
3E
330
5
100
AcDbSymbolTableRecord
100
AcDbLinetypeTableRecord
  2
CENTERX2
 70
     0
  3
Center (2x) ________  __  ________  __  _____
 72
    65
 73
     4
 40
20.32
 49
12.7
 74
     0
 49
-2.54
 74
     0
 49
2.54
 74
     0
 49
-2.54
 74
     0
  0
LTYPE
  5
3F
330
5
100
AcDbSymbolTableRecord
100
AcDbLinetypeTableRecord
  2
DOT2
 70
     0
  3
Dot (.5x) ........................................
 72
    65
 73
     2
 40
0.635
 49
0.0
 74
     0
 49
-0.635
 74
     0
  0
ENDTAB
  0
TABLE
  2
LAYER
  5
2
330
0
100
AcDbSymbolTable
 70
     4
  0
LAYER
  5
10
330
2
100
AcDbSymbolTableRecord
100
AcDbLayerTableRecord
  2
0
 70
     0
 62
     7
  6
Continuous
370
    -3
390
F
  0
LAYER
  5
40
330
2
100
AcDbSymbolTableRecord
100
AcDbLayerTableRecord
  2
SLD-0
 70
     0
 62
     3
  6
Continuous
370
    -3
390
F
  0
LAYER
  5
41
330
2
100
AcDbSymbolTableRecord
100
AcDbLayerTableRecord
  2
SLD-DEFPOINTS
 70
     0
 62
   179
  6
Continuous
370
    -3
390
F
  0
LAYER
  5
42
330
2
100
AcDbSymbolTableRecord
100
AcDbLayerTableRecord
  2
AM_REFDIM
 70
     0
 62
     4
  6
Continuous
370
    15
390
F
  0
ENDTAB
  0
TABLE
  2
STYLE
  5
3
330
0
100
AcDbSymbolTable
 70
     1
  0
STYLE
  5
11
330
3
100
AcDbSymbolTableRecord
100
AcDbTextStyleTableRecord
  2
Standard
 70
     0
 40
0.0
 41
1.0
 50
0.0
 71
     0
 42
2.5
  3
txt
  4
bigfont
  0
ENDTAB
  0
TABLE
  2
VIEW
  5
6
330
0
100
AcDbSymbolTable
 70
     0
  0
ENDTAB
  0
TABLE
  2
UCS
  5
7
330
0
100
AcDbSymbolTable
 70
     0
  0
ENDTAB
  0
TABLE
  2
APPID
  5
9
330
0
100
AcDbSymbolTable
 70
     1
  0
APPID
  5
12
330
9
100
AcDbSymbolTableRecord
100
AcDbRegAppTableRecord
  2
ACAD
 70
     0
  0
ENDTAB
  0
TABLE
  2
DIMSTYLE
  5
A
330
0
100
AcDbSymbolTable
 70
     1
100
AcDbDimStyleTable
  0
DIMSTYLE
105
27
330
A
100
AcDbSymbolTableRecord
100
AcDbDimStyleTableRecord
  2
ISO-25
 70
     0
 41
2.5
 42
0.625
 43
3.75
 44
1.25
 73
     0
 74
     0
 77
     1
 78
     8
140
2.5
141
2.5
143
0.0393700787
147
0.625
171
     3
172
     1
271
     2
272
     2
274
     3
278
    44
283
     0
284
     8
340
11
  0
ENDTAB
  0
TABLE
  2
BLOCK_RECORD
  5
1
330
0
100
AcDbSymbolTable
 70
     1
  0
BLOCK_RECORD
  5
1F
330
1
100
AcDbSymbolTableRecord
100
AcDbBlockTableRecord
  2
*Model_Space
340
22
  0
BLOCK_RECORD
  5
1B
330
1
100
AcDbSymbolTableRecord
100
AcDbBlockTableRecord
  2
*Paper_Space
340
1E
  0
BLOCK_RECORD
  5
23
330
1
100
AcDbSymbolTableRecord
100
AcDbBlockTableRecord
  2
*Paper_Space0
340
26
  0
ENDTAB
  0
ENDSEC
  0
SECTION
  2
BLOCKS
  0
BLOCK
  5
20
330
1F
100
AcDbEntity
  8
0
100
AcDbBlockBegin
  2
*Model_Space
 70
     0
 10
0.0
 20
0.0
 30
0.0
  3
*Model_Space
  1

  0
ENDBLK
  5
21
330
1F
100
AcDbEntity
  8
0
100
AcDbBlockEnd
  0
BLOCK
  5
1C
330
1B
100
AcDbEntity
 67
     1
  8
0
100
AcDbBlockBegin
  2
*Paper_Space
 70
     0
 10
0.0
 20
0.0
 30
0.0
  3
*Paper_Space
  1

  0
ENDBLK
  5
1D
330
1B
100
AcDbEntity
 67
     1
  8
0
100
AcDbBlockEnd
  0
BLOCK
  5
24
330
23
100
AcDbEntity
  8
0
100
AcDbBlockBegin
  2
*Paper_Space0
 70
     0
 10
0.0
 20
0.0
 30
0.0
  3
*Paper_Space0
  1

  0
ENDBLK
  5
25
330
23
100
AcDbEntity
  8
0
100
AcDbBlockEnd
  0
ENDSEC
  0
SECTION
  2
ENTITIES
  0
ARC
  5
43
330
1F
100
AcDbEntity
  8
0
  6
Continuous
 62
     7
370
    15
100
AcDbCircle
 10
202.2262153814
 20
318.6629180706
 30
0.0
 40
3.988230465407499
100
AcDbArc
 50
2.6083524824
 51
177.2781997424
  0
LINE
  5
44
330
1F
100
AcDbEntity
  8
0
  6
Continuous
 62
     7
370
    15
100
AcDbLine
 10
206.2424854327
 20
318.3023052241
 30
0.0
 11
206.2424854327
 21
318.8523052211
 31
0.0
  0
LINE
  5
45
330
1F
100
AcDbEntity
  8
0
  6
Continuous
 62
     7
370
    15
100
AcDbLine
 10
198.2424841214
 20
318.8523052211
 30
0.0
 11
198.2424841214
 21
318.3023052241
 31
0.0
  0
LINE
  5
46
330
1F
100
AcDbEntity
  8
0
  6
Continuous
 62
     7
370
    15
100
AcDbLine
 10
144.9424908448
 20
263.9523053493
 30
0.0
 11
145.7424894858
 21
263.9523053493
 31
0.0
  0
LINE
  5
47
330
1F
100
AcDbEntity
  8
0
  6
Continuous
 62
     7
370
    15
100
AcDbLine
 10
145.7424894858
 20
272.9523049619
 30
0.0
 11
144.9424908448
 21
272.9523049619
 31
0.0
  0
LINE
  5
48
330
1F
100
AcDbEntity
  8
0
  6
Continuous
 62
     7
370
    15
100
AcDbLine
 10
144.9424908448
 20
272.4523058112
 30
0.0
 11
143.8424871254
 21
272.4523058112
 31
0.0
  0
LINE
  5
49
330
1F
100
AcDbEntity
  8
0
  6
Continuous
 62
     7
370
    15
100
AcDbLine
 10
143.8424871254
 20
264.4523063626
 30
0.0
 11
144.9424908448
 21
264.4523063626
 31
0.0
  0
ARC
  5
4A
330
1F
100
AcDbEntity
  8
0
  6
Continuous
 62
     7
370
    15
100
AcDbCircle
 10
143.8424884129
 20
270.4523058559
 30
0.0
 40
2.000000000000114
100
AcDbArc
 50
90.0
 51
132.3072493592
  0
ARC
  5
4B
330
1F
100
AcDbEntity
  8
0
  6
Continuous
 62
     7
370
    15
100
AcDbCircle
 10
143.8424884129
 20
266.4523058559
 30
0.0
 40
2.000000000000057
100
AcDbArc
 50
227.7525973771
 51
270.0
  0
LINE
  5
4C
330
1F
100
AcDbEntity
  8
0
  6
Continuous
 62
     7
370
    15
100
AcDbLine
 10
179.6424821902
 20
333.0030569758
 30
0.0
 11
179.6424821902
 21
334.7131589379
 31
0.0
  0
LINE
  5
4D
330
1F
100
AcDbEntity
  8
0
  6
Continuous
 62
     7
370
    15
100
AcDbLine
 10
170.8424822379
 20
334.7131589379
 30
0.0
 11
170.8424822379
 21
333.0030569758
 31
0.0
  0
LINE
  5
4E
330
1F
100
AcDbEntity
  8
0
  6
Continuous
 62
     7
370
    15
100
AcDbLine
 10
181.4924911547
 20
335.0551778402
 30
0.0
 11
181.4924911547
 21
335.3971967425
 31
0.0
  0
LINE
  5
4F
330
1F
100
AcDbEntity
  8
0
  6
Continuous
 62
     7
370
    15
100
AcDbLine
 10
168.9924881745
 20
335.3971967425
 30
0.0
 11
168.9924881745
 21
335.0551778402
 31
0.0
  0
LINE
  5
50
330
1F
100
AcDbEntity
  8
0
  6
Continuous
 62
     7
370
    15
100
AcDbLine
 10
185.2424875784
 20
336.4232571747
 30
0.0
 11
185.2424875784
 21
337.4493176069
 31
0.0
  0
LINE
  5
51
330
1F
100
AcDbEntity
  8
0
  6
Continuous
 62
     7
370
    15
100
AcDbLine
 10
165.2424917508
 20
337.4493176069
 30
0.0
 11
165.2424917508
 21
336.4232571747
 31
0.0
  0
LINE
  5
52
330
1F
100
AcDbEntity
  8
0
  6
Continuous
 62
     7
370
    15
100
AcDbLine
 10
232.8424886752
 20
381.7006366279
 30
0.0
 11
215.2424887705
 21
381.7006366279
 31
0.0
  0
LINE
  5
53
330
1F
100
AcDbEntity
  8
0
  6
Continuous
 62
     7
370
    15
100
AcDbLine
 10
215.2424887705
 20
341.7006337966
 30
0.0
 11
232.8424886752
 21
341.7006337966
 31
0.0
  0
LINE
  5
54
330
1F
100
AcDbEntity
  8
0
  6
Continuous
 62
     7
370
    15
100
AcDbLine
 10
153.8698510218
 20
341.1523045923
 30
0.0
 11
152.2424952078
 21
341.1523045923
 31
0.0
  0
ARC
  5
55
330
1F
100
AcDbEntity
  8
0
  6
Continuous
 62
     7
370
    15
100
AcDbCircle
 10
165.8424884129
 20
375.9366291932
 30
0.0
 40
10.60000000000008
100
AcDbArc
 50
90.0
 51
180.0
  0
LINE
  5
56
330
1F
100
AcDbEntity
  8
0
  6
Continuous
 62
     7
370
    15
100
AcDbLine
 10
215.2424887705
 20
386.5366296794
 30
0.0
 11
165.8424870062
 21
386.5366296794
 31
0.0
  0
ARC
  5
57
330
1F
100
AcDbEntity
  8
0
  6
Continuous
 62
     7
370
    15
100
AcDbCircle
 10
153.5275325609
 20
342.8378478772
 30
0.0
 40
1.702882203950973
100
AcDbArc
 50
280.1794334436
 51
3.9748407399
  0
LINE
  5
58
330
1F
100
AcDbEntity
  8
0
  6
Continuous
 62
     7
370
    15
100
AcDbLine
 10
306.2424869228
 20
291.4523056659
 30
0.0
 11
316.2424885619
 21
291.4523056659
 31
0.0
  0
LINE
  5
59
330
1F
100
AcDbEntity
  8
0
  6
Continuous
 62
     7
370
    15
100
AcDbLine
 10
316.2424885619
 20
299.4523060459
 30
0.0
 11
306.2424869228
 21
299.4523060459
 31
0.0
  0
LINE
  5
5A
330
1F
100
AcDbEntity
  8
0
  6
Continuous
 62
     7
370
    15
100
AcDbLine
 10
309.2895508695
 20
352.148959222
 30
0.0
 11
310.3248276699
 21
348.2852557625
 31
0.0
  0
LINE
  5
5B
330
1F
100
AcDbEntity
  8
0
  6
Continuous
 62
     7
370
    15
100
AcDbLine
 10
319.1601508248
 20
350.6526740219
 30
0.0
 11
318.1248740244
 21
354.5163774814
 31
0.0
  0
LINE
  5
5C
330
1F
100
AcDbEntity
  8
0
  6
Continuous
 62
     7
370
    15
100
AcDbLine
 10
306.4788603175
 20
364.8544268634
 30
0.0
 11
306.9965005803
 21
362.9225807216
 31
0.0
  0
LINE
  5
5D
330
1F
100
AcDbEntity
  8
0
  6
Continuous
 62
     7
370
    15
100
AcDbLine
 10
314.7239056367
 20
364.9931268718
 30
0.0
 11
314.2062672365
 21
366.9249804642
 31
0.0
  0
LINE
  5
5E
330
1F
100
AcDbEntity
  8
0
  6
Continuous
 62
     7
370
    15
100
AcDbLine
 10
145.7424894858
 20
249.4523057665
 30
0.0
 11
152.2424952078
 21
249.4523057665
 31
0.0
  0
LINE
  5
5F
330
1F
100
AcDbEntity
  8
0
  6
Continuous
 62
     7
370
    15
100
AcDbLine
 10
152.2424952078
 20
341.4523059453
 30
0.0
 11
145.7424894858
 21
341.4523059453
 31
0.0
  0
ARC
  5
60
330
1F
100
AcDbEntity
  8
0
  6
Continuous
 62
     7
370
    15
100
AcDbCircle
 10
143.7424884129
 20
317.4344258778
 30
0.0
 40
2.0
100
AcDbArc
 50
274.0960437582
 51
0.0
  0
ARC
  5
61
330
1F
100
AcDbEntity
  8
0
  6
Continuous
 62
     7
370
    15
100
AcDbCircle
 10
143.7424884129
 20
273.470185834
 30
0.0
 40
2.000000000000048
100
AcDbArc
 50
0.0
 51
85.9039562418
  0
ARC
  5
62
330
1F
100
AcDbEntity
  8
0
  6
Continuous
 62
     7
370
    15
100
AcDbCircle
 10
144.2424884129
 20
310.4523058559
 30
0.0
 40
5.0
100
AcDbArc
 50
94.0960437582
 51
180.0
  0
ARC
  5
63
330
1F
100
AcDbEntity
  8
0
  6
Continuous
 62
     7
370
    15
100
AcDbCircle
 10
144.2424884129
 20
280.4523058559
 30
0.0
 40
5.0
100
AcDbArc
 50
180.0
 51
265.9039562418
  0
LINE
  5
64
330
1F
100
AcDbEntity
  8
0
  6
Continuous
 62
     7
370
    15
100
AcDbLine
 10
294.2424886811
 20
340.5523056116
 30
0.0
 11
215.2424887705
 21
340.5523056116
 31
0.0
  0
LINE
  5
65
330
1F
100
AcDbEntity
  8
0
  6
Continuous
 62
     7
370
    15
100
AcDbLine
 10
152.2424952078
 20
250.3523061003
 30
0.0
 11
294.2424886811
 21
250.3523061003
 31
0.0
  0
LINE
  5
66
330
1F
100
AcDbEntity
  8
0
  6
Continuous
 62
     7
370
    15
100
AcDbLine
 10
300.2424896646
 20
341.4523059453
 30
0.0
 11
294.2424886811
 21
341.4523059453
 31
0.0
  0
LINE
  5
67
330
1F
100
AcDbEntity
  8
0
  6
Continuous
 62
     7
370
    15
100
AcDbLine
 10
294.2424886811
 20
249.4523057665
 30
0.0
 11
300.2424896646
 21
249.4523057665
 31
0.0
  0
LINE
  5
68
330
1F
100
AcDbEntity
  8
0
  6
Continuous
 62
     7
370
    15
100
AcDbLine
 10
316.2424885619
 20
280.9523062732
 30
0.0
 11
320.2424892176
 21
280.9523062732
 31
0.0
  0
LINE
  5
69
330
1F
100
AcDbEntity
  8
0
  6
Continuous
 62
     7
370
    15
100
AcDbLine
 10
327.7424876529
 20
237.9523048129
 30
0.0
 11
332.7424884725
 21
237.9523048129
 31
0.0
  0
LINE
  5
6A
330
1F
100
AcDbEntity
  8
0
  6
Continuous
 62
     7
370
    15
100
AcDbLine
 10
332.7424884725
 20
352.952306899
 30
0.0
 11
327.7424876529
 21
352.952306899
 31
0.0
  0
LINE
  5
6B
330
1F
100
AcDbEntity
  8
0
  6
Continuous
 62
     7
370
    15
100
AcDbLine
 10
359.0210596982
 20
315.9523064222
 30
0.0
 11
352.7424880255
 21
347.2041467156
 31
0.0
  0
LINE
  5
6C
330
1F
100
AcDbEntity
  8
0
  6
Continuous
 62
     7
370
    15
100
AcDbLine
 10
325.2424881745
 20
378.4523026969
 30
0.0
 11
325.2424881745
 21
376.4523060944
 31
0.0
  0
LINE
  5
6D
330
1F
100
AcDbEntity
  8
0
  6
Continuous
 62
     7
370
    15
100
AcDbLine
 10
376.2424872208
 20
376.4523060944
 30
0.0
 11
376.2424872208
 21
378.4523026969
 31
0.0
  0
LINE
  5
6E
330
1F
100
AcDbEntity
  8
0
  6
Continuous
 62
     7
370
    15
100
AcDbLine
 10
376.2424872208
 20
212.452309015
 30
0.0
 11
376.2424872208
 21
214.4523056175
 31
0.0
  0
LINE
  5
6F
330
1F
100
AcDbEntity
  8
0
  6
Continuous
 62
     7
370
    15
100
AcDbLine
 10
325.2424881745
 20
214.4523056175
 30
0.0
 11
325.2424881745
 21
212.452309015
 31
0.0
  0
ARC
  5
70
330
1F
100
AcDbEntity
  8
0
  6
Continuous
 62
     7
370
    15
100
AcDbCircle
 10
368.1178257628
 20
371.4523105168
 30
0.0
 40
4.999997724511053
100
AcDbArc
 50
90.0530960729
 51
158.4487555293
  0
ARC
  5
71
330
1F
100
AcDbEntity
  8
0
  6
Continuous
 62
     7
370
    15
100
AcDbCircle
 10
327.9828111229
 20
371.4525479737
 30
0.0
 40
4.999754764715952
100
AcDbArc
 50
3.5652875625
 51
89.9266717515
  0
ARC
  5
72
330
1F
100
AcDbEntity
  8
0
  6
Continuous
 62
     7
370
    15
100
AcDbCircle
 10
329.2146636037
 20
219.4523095269
 30
0.0
 40
5.000004286150999
100
AcDbArc
 50
270.0222419519
 51
349.7555379308
  0
ARC
  5
73
330
1F
100
AcDbEntity
  8
0
  6
Continuous
 62
     7
370
    15
100
AcDbCircle
 10
373.452395551
 20
219.4523090449
 30
0.0
 40
5.000003434112489
100
AcDbArc
 50
168.8004052469
 51
269.9970344048
  0
LINE
  5
74
330
1F
100
AcDbEntity
  8
0
  6
Continuous
 62
     7
370
    15
100
AcDbLine
 10
366.7424884576
 20
315.9523064222
 30
0.0
 11
359.0210596982
 21
315.9523064222
 31
0.0
  0
LINE
  5
75
330
1F
100
AcDbEntity
  8
0
  6
Continuous
 62
     7
370
    15
100
AcDbLine
 10
334.4795997206
 20
353.100625607
 30
0.0
 11
334.5193476367
 21
352.7141192879
 31
0.0
  0
LWPOLYLINE
  5
76
330
1F
100
AcDbEntity
  8
0
  6
Continuous
 62
     7
370
    15
100
AcDbPolyline
 90
        7
 70
   128
 43
0.0
 10
332.9721628639
 20
371.770242038
 10
333.1682369995
 20
368.9717369105
 10
333.5102363441
 20
364.3558414604
 10
333.8453820858
 20
360.0781427648
 10
334.0862528372
 20
357.2051132049
 10
334.3166741494
 20
354.6848984386
 10
334.4795997206
 20
353.100625607
  0
ARC
  5
77
330
1F
100
AcDbEntity
  8
0
  6
Continuous
 62
     7
370
    15
100
AcDbCircle
 10
153.2324194227
 20
454.5485423806
 30
0.0
 40
225.3913236455736
100
AcDbArc
 50
332.2726841123
 51
338.8713752575
  0
LWPOLYLINE
  5
78
330
1F
100
AcDbEntity
  8
0
  6
Continuous
 62
     7
370
    15
100
AcDbPolyline
 90
       16
 70
   128
 43
0.0
 10
391.2424878168
 20
285.4523060795
 10
391.2424878168
 20
286.2500285681
 10
391.2424878168
 20
291.7700200758
 10
391.1521756041
 20
297.2394247025
 10
390.4788293827
 20
300.5772422019
 10
389.4351222504
 20
303.201346467
 10
388.2865370202
 20
305.1826653953
 10
387.216190337
 20
306.6151512738
 10
386.4760571111
 20
307.4518123593
 10
385.3329406071
 20
308.5595544379
 10
383.7054581333
 20
309.8376195829
 10
381.5046683836
 20
311.1384248312
 10
378.6471211303
 20
312.2545218046
 10
375.0708983231
 20
312.9025397773
 10
370.8044257897
 20
312.9523059304
 10
366.7424884576
 20
312.9523059304
  0
LWPOLYLINE
  5
79
330
1F
100
AcDbEntity
  8
0
  6
Continuous
 62
     7
370
    15
100
AcDbPolyline
 90
       16
 70
   128
 43
0.0
 10
368.5981952536
 20
220.4119281794
 10
369.1757549483
 20
222.6979674723
 10
370.3204099971
 20
225.1986803438
 10
372.5189478088
 20
228.2019646789
 10
374.5702435214
 20
230.3897010114
 10
376.2160115826
 20
232.1447150733
 10
377.9315859962
 20
233.9741716113
 10
379.7669582951
 20
235.9313758041
 10
382.3515833307
 20
238.6875728096
 10
385.0505561519
 20
241.5717260863
 10
387.223748951
 20
244.3664500441
 10
388.7280956793
 20
246.9669857945
 10
389.7692807901
 20
249.3823001112
 10
391.0291367162
 20
254.4678056564
 10
391.2424878168
 20
260.138561758
 10
391.2424878168
 20
265.4523065265
  0
ARC
  5
7A
330
1F
100
AcDbEntity
  8
0
  6
Continuous
 62
     7
370
    15
100
AcDbCircle
 10
381.5626475676
 20
210.879109275
 30
0.0
 40
48.02390664021997
100
AcDbArc
 50
148.1090443958
 51
170.802291049
  0
LINE
  5
7B
330
1F
100
AcDbEntity
  8
0
  6
Continuous
 62
     7
370
    15
100
AcDbLine
 10
334.7424888003
 20
236.2386936273
 30
0.0
 11
340.8905782222
 21
236.2386936273
 31
0.0
  0
LINE
  5
7C
330
1F
100
AcDbEntity
  8
0
  6
Continuous
 62
     7
370
    15
100
AcDbLine
 10
332.7424884725
 20
237.9523048129
 30
0.0
 11
334.7424888003
 21
237.9523048129
 31
0.0
  0
LINE
  5
7D
330
1F
100
AcDbEntity
  8
0
  6
Continuous
 62
     7
370
    15
100
AcDbLine
 10
334.5713787663
 20
352.952306899
 30
0.0
 11
332.7424884725
 21
352.952306899
 31
0.0
  0
LINE
  5
7E
330
1F
100
AcDbEntity
  8
0
  6
Continuous
 62
     7
370
    15
100
AcDbLine
 10
319.7424882043
 20
245.1894001986
 30
0.0
 11
324.7424890238
 21
245.1894001986
 31
0.0
  0
LINE
  5
7F
330
1F
100
AcDbEntity
  8
0
  6
Continuous
 62
     7
370
    15
100
AcDbLine
 10
319.7424882043
 20
245.1894001986
 30
0.0
 11
319.7424882043
 21
250.962903532
 31
0.0
  0
LINE
  5
80
330
1F
100
AcDbEntity
  8
0
  6
Continuous
 62
     7
370
    15
100
AcDbLine
 10
319.7424882043
 20
250.962903532
 30
0.0
 11
324.7424890238
 21
250.962903532
 31
0.0
  0
LINE
  5
81
330
1F
100
AcDbEntity
  8
0
  6
Continuous
 62
     7
370
    15
100
AcDbLine
 10
319.7424882043
 20
250.962903532
 30
0.0
 11
319.7424882043
 21
253.849653336
 31
0.0
  0
LINE
  5
82
330
1F
100
AcDbEntity
  8
0
  6
Continuous
 62
     7
370
    15
100
AcDbLine
 10
319.7424882043
 20
253.849653336
 30
0.0
 11
324.7424890238
 21
253.849653336
 31
0.0
  0
LINE
  5
83
330
1F
100
AcDbEntity
  8
0
  6
Continuous
 62
     7
370
    15
100
AcDbLine
 10
319.7424882043
 20
242.3026503946
 30
0.0
 11
324.7424890238
 21
242.3026503946
 31
0.0
  0
LINE
  5
84
330
1F
100
AcDbEntity
  8
0
  6
Continuous
 62
     7
370
    15
100
AcDbLine
 10
319.7424882043
 20
242.3026503946
 30
0.0
 11
319.7424882043
 21
245.1894001986
 31
0.0
  0
LINE
  5
85
330
1F
100
AcDbEntity
  8
0
  6
Continuous
 62
     7
370
    15
100
AcDbLine
 10
319.7424882043
 20
339.9417081799
 30
0.0
 11
324.7424890238
 21
339.9417081799
 31
0.0
  0
LINE
  5
86
330
1F
100
AcDbEntity
  8
0
  6
Continuous
 62
     7
370
    15
100
AcDbLine
 10
319.7424882043
 20
345.7152115132
 30
0.0
 11
324.7424890238
 21
345.7152115132
 31
0.0
  0
LINE
  5
87
330
1F
100
AcDbEntity
  8
0
  6
Continuous
 62
     7
370
    15
100
AcDbLine
 10
319.7424882043
 20
339.9417081799
 30
0.0
 11
319.7424882043
 21
345.7152115132
 31
0.0
  0
LINE
  5
88
330
1F
100
AcDbEntity
  8
0
  6
Continuous
 62
     7
370
    15
100
AcDbLine
 10
319.7424882043
 20
337.0549583759
 30
0.0
 11
324.7424890238
 21
337.0549583759
 31
0.0
  0
LINE
  5
89
330
1F
100
AcDbEntity
  8
0
  6
Continuous
 62
     7
370
    15
100
AcDbLine
 10
319.7424882043
 20
337.0549583759
 30
0.0
 11
319.7424882043
 21
339.9417081799
 31
0.0
  0
LINE
  5
8A
330
1F
100
AcDbEntity
  8
0
  6
Continuous
 62
     7
370
    15
100
AcDbLine
 10
319.7424882043
 20
348.6019613172
 30
0.0
 11
324.7424890238
 21
348.6019613172
 31
0.0
  0
LINE
  5
8B
330
1F
100
AcDbEntity
  8
0
  6
Continuous
 62
     7
370
    15
100
AcDbLine
 10
319.7424882043
 20
345.7152115132
 30
0.0
 11
319.7424882043
 21
348.6019613172
 31
0.0
  0
LINE
  5
8C
330
1F
100
AcDbEntity
  8
0
  6
Continuous
 62
     7
370
    15
100
AcDbLine
 10
198.7843797493
 20
319.9500998433
 30
0.0
 11
198.7843797493
 21
319.0840741571
 31
0.0
  0
ARC
  5
8D
330
1F
100
AcDbEntity
  8
0
  6
Continuous
 62
     7
370
    15
100
AcDbCircle
 10
200.2381637912
 20
316.1061418132
 30
0.0
 40
3.313845060469487
100
AcDbArc
 50
88.8270955387
 51
116.0209695216
  0
LINE
  5
8E
330
1F
100
AcDbEntity
  8
0
  6
Continuous
 62
     7
370
    15
100
AcDbLine
 10
201.7424837637
 20
318.1752541985
 30
0.0
 11
201.7424837637
 21
316.5222721126
 31
0.0
  0
LINE
  5
8F
330
1F
100
AcDbEntity
  8
0
  6
Continuous
 62
     7
370
    15
100
AcDbLine
 10
201.7424837637
 20
316.5222721126
 30
0.0
 11
202.7424857903
 21
316.5222721126
 31
0.0
  0
LINE
  5
90
330
1F
100
AcDbEntity
  8
0
  6
Continuous
 62
     7
370
    15
100
AcDbLine
 10
202.7424857903
 20
316.5222721126
 30
0.0
 11
202.7424857903
 21
318.1752541985
 31
0.0
  0
ARC
  5
91
330
1F
100
AcDbEntity
  8
0
  6
Continuous
 62
     7
370
    15
100
AcDbCircle
 10
204.2904664335
 20
316.3042578935
 30
0.0
 40
3.11702877853383
100
AcDbArc
 50
63.102344297
 51
92.0495906427
  0
LINE
  5
92
330
1F
100
AcDbEntity
  8
0
  6
Continuous
 62
     7
370
    15
100
AcDbLine
 10
205.7006047058
 20
319.0840741571
 30
0.0
 11
205.7006047058
 21
319.9500998433
 31
0.0
  0
ARC
  5
93
330
1F
100
AcDbEntity
  8
0
  6
Continuous
 62
     7
370
    15
100
AcDbCircle
 10
204.2468050428
 20
316.9720965924
 30
0.0
 40
3.313915633049344
100
AcDbArc
 50
63.9793255972
 51
91.1726093425
  0
LINE
  5
94
330
1F
100
AcDbEntity
  8
0
  6
Continuous
 62
     7
370
    15
100
AcDbLine
 10
202.7424857903
 20
321.5293565716
 30
0.0
 11
202.7424857903
 21
322.5119037505
 31
0.0
  0
LINE
  5
95
330
1F
100
AcDbEntity
  8
0
  6
Continuous
 62
     7
370
    15
100
AcDbLine
 10
202.7424857903
 20
322.5119037505
 30
0.0
 11
201.7424837637
 21
322.5119037505
 31
0.0
  0
LINE
  5
96
330
1F
100
AcDbEntity
  8
0
  6
Continuous
 62
     7
370
    15
100
AcDbLine
 10
201.7424837637
 20
322.5119037505
 30
0.0
 11
201.7424837637
 21
321.5293565716
 31
0.0
  0
ARC
  5
97
330
1F
100
AcDbEntity
  8
0
  6
Continuous
 62
     7
370
    15
100
AcDbCircle
 10
200.1944847368
 20
317.1704346663
 30
0.0
 40
3.116878979346518
100
AcDbArc
 50
87.9496985605
 51
116.8983664997
  0
LINE
  5
98
330
1F
100
AcDbEntity
  8
0
  6
Continuous
 62
     7
370
    15
100
AcDbLine
 10
200.3059969235
 20
319.4192925419
 30
0.0
 11
201.7424837637
 21
319.4192925419
 31
0.0
  0
LINE
  5
99
330
1F
100
AcDbEntity
  8
0
  6
Continuous
 62
     7
370
    15
100
AcDbLine
 10
201.7424837637
 20
319.4192925419
 30
0.0
 11
201.7424837637
 21
318.1752541985
 31
0.0
  0
LINE
  5
9A
330
1F
100
AcDbEntity
  8
0
  6
Continuous
 62
     7
370
    15
100
AcDbLine
 10
202.7424857903
 20
319.4192925419
 30
0.0
 11
204.1789875317
 21
319.4192925419
 31
0.0
  0
LINE
  5
9B
330
1F
100
AcDbEntity
  8
0
  6
Continuous
 62
     7
370
    15
100
AcDbLine
 10
202.7424857903
 20
318.1752541985
 30
0.0
 11
202.7424857903
 21
319.4192925419
 31
0.0
  0
LWPOLYLINE
  5
9C
330
1F
100
AcDbEntity
  8
0
  6
Continuous
 62
     7
370
    15
100
AcDbPolyline
 90
       12
 70
   128
 43
0.0
 10
206.2424854327
 20
318.3023052241
 10
206.1978117514
 20
317.7860079284
 10
205.8463678646
 20
316.7992884244
 10
205.1746980238
 20
315.946118715
 10
204.2424813795
 20
315.302306595
 10
203.132568388
 20
314.9250557597
 10
201.943574934
 20
314.8478900965
 10
200.7811204481
 20
315.0776641395
 10
199.7485295821
 20
315.5939614351
 10
198.9375338841
 20
316.3509087588
 10
198.4201953698
 20
317.2812441315
 10
198.2424841214
 20
318.3023052241
  0
LINE
  5
9D
330
1F
100
AcDbEntity
  8
0
  6
Continuous
 62
     7
370
    15
100
AcDbLine
 10
201.7424837637
 20
320.2853182282
 30
0.0
 11
201.7424837637
 21
319.4192925419
 31
0.0
  0
LINE
  5
9E
330
1F
100
AcDbEntity
  8
0
  6
Continuous
 62
     7
370
    15
100
AcDbLine
 10
201.7424837637
 20
320.2853182282
 30
0.0
 11
200.3059969235
 21
320.2853182282
 31
0.0
  0
LINE
  5
9F
330
1F
100
AcDbEntity
  8
0
  6
Continuous
 62
     7
370
    15
100
AcDbLine
 10
204.1789875317
 20
320.2853182282
 30
0.0
 11
202.7424857903
 21
320.2853182282
 31
0.0
  0
LINE
  5
A0
330
1F
100
AcDbEntity
  8
0
  6
Continuous
 62
     7
370
    15
100
AcDbLine
 10
202.7424857903
 20
319.4192925419
 30
0.0
 11
202.7424857903
 21
320.2853182282
 31
0.0
  0
LINE
  5
A1
330
1F
100
AcDbEntity
  8
0
  6
Continuous
 62
     7
370
    15
100
AcDbLine
 10
201.7424837637
 20
321.5293565716
 30
0.0
 11
201.7424837637
 21
320.2853182282
 31
0.0
  0
LINE
  5
A2
330
1F
100
AcDbEntity
  8
0
  6
Continuous
 62
     7
370
    15
100
AcDbLine
 10
202.7424857903
 20
320.2853182282
 30
0.0
 11
202.7424857903
 21
321.5293565716
 31
0.0
  0
LINE
  5
A3
330
1F
100
AcDbEntity
  8
0
  6
Continuous
 62
     7
370
    15
100
AcDbLine
 10
202.7424857903
 20
321.5971214648
 30
0.0
 11
201.7424837637
 21
321.5971214648
 31
0.0
  0
LINE
  5
A4
330
1F
100
AcDbEntity
  8
0
  6
Continuous
 62
     7
370
    15
100
AcDbLine
 10
144.9424908448
 20
272.9523049619
 30
0.0
 11
144.9424908448
 21
263.9523053493
 31
0.0
  0
LWPOLYLINE
  5
A5
330
1F
100
AcDbEntity
  8
0
  6
Continuous
 62
     7
370
    15
100
AcDbPolyline
 90
        2
 70
   128
 43
0.0
 10
142.5129310179
 20
264.9941908147
 10
142.5129310179
 20
264.9941908147
  0
ARC
  5
A6
330
1F
100
AcDbEntity
  8
0
  6
Continuous
 62
     7
370
    15
100
AcDbCircle
 10
143.8847218914
 20
266.5071364469
 30
0.0
 40
2.042257252833852
100
AcDbArc
 50
179.7565613184
 51
227.8013395617
  0
LINE
  5
A7
330
1F
100
AcDbEntity
  8
0
  6
Continuous
 62
     7
370
    15
100
AcDbLine
 10
141.8424830723
 20
266.5158135768
 30
0.0
 11
141.8424830723
 21
267.9523060049
 31
0.0
  0
LINE
  5
A8
330
1F
100
AcDbEntity
  8
0
  6
Continuous
 62
     7
370
    15
100
AcDbLine
 10
141.8424830723
 20
267.9523060049
 30
0.0
 11
142.5129310179
 21
267.9523060049
 31
0.0
  0
LINE
  5
A9
330
1F
100
AcDbEntity
  8
0
  6
Continuous
 62
     7
370
    15
100
AcDbLine
 10
142.5129310179
 20
267.9523060049
 30
0.0
 11
142.5129310179
 21
268.9523061689
 31
0.0
  0
LINE
  5
AA
330
1F
100
AcDbEntity
  8
0
  6
Continuous
 62
     7
370
    15
100
AcDbLine
 10
142.5129310179
 20
268.9523061689
 30
0.0
 11
141.8424830723
 21
268.9523061689
 31
0.0
  0
LINE
  5
AB
330
1F
100
AcDbEntity
  8
0
  6
Continuous
 62
     7
370
    15
100
AcDbLine
 10
141.8424830723
 20
268.9523061689
 30
0.0
 11
141.8424830723
 21
270.3887967344
 31
0.0
  0
ARC
  5
AC
330
1F
100
AcDbEntity
  8
0
  6
Continuous
 62
     7
370
    15
100
AcDbCircle
 10
143.8768925346
 20
270.4009254345
 30
0.0
 40
2.034445616231057
100
AcDbArc
 50
132.1005701364
 51
180.3415807416
  0
LWPOLYLINE
  5
AD
330
1F
100
AcDbEntity
  8
0
  6
Continuous
 62
     7
370
    15
100
AcDbPolyline
 90
        2
 70
   128
 43
0.0
 10
142.5129310179
 20
271.9104213591
 10
142.5129310179
 20
271.9104213591
  0
ARC
  5
AE
330
1F
100
AcDbEntity
  8
0
  6
Continuous
 62
     7
370
    15
100
AcDbCircle
 10
175.242482214
 20
334.5044478857
 30
0.0
 40
4.404947229366567
100
AcDbArc
 50
2.7157513234
 51
177.2842486766
  0
LWPOLYLINE
  5
AF
330
1F
100
AcDbEntity
  8
0
  6
Continuous
 62
     7
370
    15
100
AcDbPolyline
 90
       23
 70
   128
 43
0.0
 10
179.6424821902
 20
333.0030569758
 10
179.4642643023
 20
334.1679217245
 10
178.9440051604
 20
335.2384174194
 10
178.1238750506
 20
336.127815577
 10
177.0703182507
 20
336.7640653576
 10
175.8686737109
 20
337.0956199195
 10
174.6163056183
 20
337.0956199195
 10
173.4146610785
 20
336.7640653576
 10
172.3611042786
 20
336.127815577
 10
171.5409741688
 20
335.2384174194
 10
171.0207150269
 20
334.1679217245
 10
170.8424822379
 20
333.0030569758
 10
171.0207150269
 20
331.8381922271
 10
171.5409741688
 20
330.7676965322
 10
172.3611042786
 20
329.8782983746
 10
173.4146610785
 20
329.2420485939
 10
174.6163056183
 20
328.9104940321
 10
175.8686737109
 20
328.9104940321
 10
177.0703182507
 20
329.2420485939
 10
178.1238750506
 20
329.8782983746
 10
178.9440051604
 20
330.7676965322
 10
179.4642643023
 20
331.8381922271
 10
179.6424821902
 20
333.0030569758
  0
LWPOLYLINE
  5
B0
330
1F
100
AcDbEntity
  8
0
  6
Continuous
 62
     7
370
    15
100
AcDbPolyline
 90
       19
 70
   128
 43
0.0
 10
168.9924881745
 20
335.0551778402
 10
169.1741035271
 20
336.4606963422
 10
169.7083846617
 20
337.7845341291
 10
170.5642924595
 20
338.9497490551
 10
171.6920868445
 20
339.8886265184
 10
173.0262027073
 20
340.5466021921
 10
174.4891391087
 20
340.8854359712
 10
175.9958402205
 20
340.8854359712
 10
177.4587617207
 20
340.5466021921
 10
178.7928924847
 20
339.8886265184
 10
179.9206868697
 20
338.9497490551
 10
180.7765946675
 20
337.7845341291
 10
181.3108758021
 20
336.4606963422
 10
181.4924911547
 20
335.0551778402
 10
181.3108758021
 20
333.6496593382
 10
180.7765946675
 20
332.3258215513
 10
179.9206868697
 20
331.1606066253
 10
178.7928924847
 20
330.2217291619
 10
178.0119226265
 20
329.7901505556
  0
ARC
  5
B1
330
1F
100
AcDbEntity
  8
0
  6
Continuous
 62
     7
370
    15
100
AcDbCircle
 10
174.8489738404
 20
335.1437747032
 30
0.0
 40
5.857155773864451
100
AcDbArc
 50
180.8667039293
 51
246.0685418785
  0
LWPOLYLINE
  5
B2
330
1F
100
AcDbEntity
  8
0
  6
Continuous
 62
     7
370
    15
100
AcDbPolyline
 90
       34
 70
   128
 43
0.0
 10
185.2424875784
 20
336.4232571747
 10
185.0617811966
 20
338.2016399826
 10
184.5261738587
 20
339.9157429065
 10
183.655022173
 20
341.5036218192
 10
182.4798271942
 20
342.9078811731
 10
181.0430572319
 20
344.0777676131
 10
179.3966428328
 20
344.9710028197
 10
177.6000843335
 20
345.5552997019
 10
175.7183060933
 20
345.8095395889
 10
173.8193468142
 20
345.7245359148
 10
171.9718114424
 20
345.3033620443
 10
170.2424869824
 20
344.5612357881
 10
168.6938838053
 20
343.5249829616
 10
167.3819557715
 20
342.2320539083
 10
166.354133277
 20
340.7291786696
 10
165.6475649166
 20
339.0706794288
 10
165.2877763796
 20
337.3164923813
 10
165.2877763796
 20
335.5300219681
 10
165.6475649166
 20
333.7758386459
 10
166.354133277
 20
332.1173356797
 10
167.3819557715
 20
330.6144641663
 10
168.6938838053
 20
329.321535113
 10
170.2424869824
 20
328.2852822866
 10
171.9718114424
 20
327.5431560304
 10
173.8193468142
 20
327.1219784345
 10
175.7183060933
 20
327.0369747605
 10
177.6000843335
 20
327.2912183728
 10
179.3966428328
 20
327.8755152549
 10
181.0430572319
 20
328.7687467362
 10
182.4798271942
 20
329.9386369016
 10
183.655022173
 20
331.3428962554
 10
184.5261738587
 20
332.9307751681
 10
185.0617811966
 20
334.644878092
 10
185.2424875784
 20
336.4232571747
  0
ARC
  5
B3
330
1F
100
AcDbEntity
  8
0
  6
Continuous
 62
     7
370
    15
100
AcDbCircle
 10
174.1365860546
 20
337.4436928977
 30
0.0
 40
8.894096082366394
100
AcDbArc
 50
159.5423968195
 51
179.9637656133
  0
LINE
  5
B4
330
1F
100
AcDbEntity
  8
0
  6
Continuous
 62
     7
370
    15
100
AcDbLine
 10
232.8424886752
 20
354.8602329518
 30
0.0
 11
232.8424886752
 21
341.7006337966
 31
0.0
  0
LINE
  5
B5
330
1F
100
AcDbEntity
  8
0
  6
Continuous
 62
     7
370
    15
100
AcDbLine
 10
232.8424886752
 20
381.7006366279
 30
0.0
 11
232.8424886752
 21
354.8602329518
 31
0.0
  0
LINE
  5
B6
330
1F
100
AcDbEntity
  8
0
  6
Continuous
 62
     7
370
    15
100
AcDbLine
 10
215.2424887705
 20
377.3468675043
 30
0.0
 11
215.2424887705
 21
363.7607114341
 31
0.0
  0
LINE
  5
B7
330
1F
100
AcDbEntity
  8
0
  6
Continuous
 62
     7
370
    15
100
AcDbLine
 10
155.2424863863
 20
334.4339558806
 30
0.0
 11
155.2424863863
 21
367.3861266996
 31
0.0
  0
LINE
  5
B8
330
1F
100
AcDbEntity
  8
0
  6
Continuous
 62
     7
370
    15
100
AcDbLine
 10
170.9924922276
 20
327.9172236051
 30
0.0
 11
170.9924922276
 21
323.9506313528
 31
0.0
  0
LINE
  5
B9
330
1F
100
AcDbEntity
  8
0
  6
Continuous
 62
     7
370
    15
100
AcDbLine
 10
170.9924922276
 20
323.9506313528
 30
0.0
 11
170.7424954462
 21
323.9506313528
 31
0.0
  0
LINE
  5
BA
330
1F
100
AcDbEntity
  8
0
  6
Continuous
 62
     7
370
    15
100
AcDbLine
 10
179.7424838829
 20
323.9506313528
 30
0.0
 11
179.4924871016
 21
323.9506313528
 31
0.0
  0
LINE
  5
BB
330
1F
100
AcDbEntity
  8
0
  6
Continuous
 62
     7
370
    15
100
AcDbLine
 10
179.4924871016
 20
323.9506313528
 30
0.0
 11
179.4924871016
 21
327.9172236051
 31
0.0
  0
LINE
  5
BC
330
1F
100
AcDbEntity
  8
0
  6
Continuous
 62
     7
370
    15
100
AcDbLine
 10
215.2424887705
 20
325.6675003048
 30
0.0
 11
215.2424887705
 21
363.7607114341
 31
0.0
  0
LINE
  5
BD
330
1F
100
AcDbEntity
  8
0
  6
Continuous
 62
     7
370
    15
100
AcDbLine
 10
167.2424958039
 20
313.5410731609
 30
0.0
 11
170.7424954462
 21
313.5410731609
 31
0.0
  0
LWPOLYLINE
  5
BE
330
1F
100
AcDbEntity
  8
0
  6
Continuous
 62
     7
370
    15
100
AcDbPolyline
 90
       10
 70
   128
 43
0.0
 10
152.2424952078
 20
326.313882875
 10
152.4359867859
 20
324.4167545761
 10
153.0184135723
 20
322.4832488175
 10
153.9982245255
 20
320.5757511731
 10
155.3498194504
 20
318.7719786491
 10
156.9933579255
 20
317.188752624
 10
158.9117483187
 20
315.8331939902
 10
161.0788688946
 20
314.7516267325
 10
163.4134785223
 20
313.9963632401
 10
167.2424958039
 20
313.5410731609
  0
LINE
  5
BF
330
1F
100
AcDbEntity
  8
0
  6
Continuous
 62
     7
370
    15
100
AcDbLine
 10
153.4313992548
 20
341.1220850374
 30
0.0
 11
153.8698510218
 21
341.1429317619
 31
0.0
  0
LINE
  5
C0
330
1F
100
AcDbEntity
  8
0
  6
Continuous
 62
     7
370
    15
100
AcDbLine
 10
170.7424954462
 20
313.5410731609
 30
0.0
 11
170.7424954462
 21
323.7452560987
 31
0.0
  0
LWPOLYLINE
  5
C1
330
1F
100
AcDbEntity
  8
0
  6
Continuous
 62
     7
370
    15
100
AcDbPolyline
 90
       10
 70
   128
 43
0.0
 10
167.2424958039
 20
313.3035840418
 10
164.7269264746
 20
313.5000539895
 10
162.2821674633
 20
314.0754362519
 10
159.978656559
 20
315.0126820381
 10
157.8804687548
 20
316.2686506237
 10
156.0598746825
 20
317.7895190145
 10
154.5544550705
 20
319.5148294743
 10
153.4290001679
 20
321.3407190468
 10
152.6706949759
 20
323.2266677495
 10
152.2424952078
 20
326.0622618671
  0
LINE
  5
C2
330
1F
100
AcDbEntity
  8
0
  6
Continuous
 62
     7
370
    15
100
AcDbLine
 10
167.2424958039
 20
313.3035840418
 30
0.0
 11
170.7424954462
 21
313.3035840418
 31
0.0
  0
LINE
  5
C3
330
1F
100
AcDbEntity
  8
0
  6
Continuous
 62
     7
370
    15
100
AcDbLine
 10
204.6424881506
 20
313.5410731609
 30
0.0
 11
215.2424887705
 21
313.5410731609
 31
0.0
  0
LINE
  5
C4
330
1F
100
AcDbEntity
  8
0
  6
Continuous
 62
     7
370
    15
100
AcDbLine
 10
204.6424881506
 20
313.5410731609
 30
0.0
 11
204.6424881506
 21
315.5310245182
 31
0.0
  0
LINE
  5
C5
330
1F
100
AcDbEntity
  8
0
  6
Continuous
 62
     7
370
    15
100
AcDbLine
 10
199.8424814034
 20
315.5310245182
 30
0.0
 11
199.8424814034
 21
313.5410731609
 31
0.0
  0
LINE
  5
C6
330
1F
100
AcDbEntity
  8
0
  6
Continuous
 62
     7
370
    15
100
AcDbLine
 10
179.7424838829
 20
313.5410731609
 30
0.0
 11
199.8424814034
 21
313.5410731609
 31
0.0
  0
LINE
  5
C7
330
1F
100
AcDbEntity
  8
0
  6
Continuous
 62
     7
370
    15
100
AcDbLine
 10
179.7424838829
 20
323.7452560987
 30
0.0
 11
179.7424838829
 21
313.5410731609
 31
0.0
  0
LINE
  5
C8
330
1F
100
AcDbEntity
  8
0
  6
Continuous
 62
     7
370
    15
100
AcDbLine
 10
215.2424887705
 20
313.5410731609
 30
0.0
 11
215.2424887705
 21
323.7452560987
 31
0.0
  0
LINE
  5
C9
330
1F
100
AcDbEntity
  8
0
  6
Continuous
 62
     7
370
    15
100
AcDbLine
 10
215.2424887705
 20
377.3468675043
 30
0.0
 11
215.2424887705
 21
385.8973698642
 31
0.0
  0
LINE
  5
CA
330
1F
100
AcDbEntity
  8
0
  6
Continuous
 62
     7
370
    15
100
AcDbLine
 10
155.2424863863
 20
367.3861266996
 30
0.0
 11
155.2424863863
 21
375.9366290595
 31
0.0
  0
LINE
  5
CB
330
1F
100
AcDbEntity
  8
0
  6
Continuous
 62
     7
370
    15
100
AcDbLine
 10
204.6424881506
 20
313.3035840418
 30
0.0
 11
204.6424881506
 21
313.5410731609
 31
0.0
  0
LINE
  5
CC
330
1F
100
AcDbEntity
  8
0
  6
Continuous
 62
     7
370
    15
100
AcDbLine
 10
204.6424881506
 20
313.3035840418
 30
0.0
 11
215.2424887705
 21
313.3035840418
 31
0.0
  0
LINE
  5
CD
330
1F
100
AcDbEntity
  8
0
  6
Continuous
 62
     7
370
    15
100
AcDbLine
 10
215.2424887705
 20
313.3035840418
 30
0.0
 11
215.2424887705
 21
313.5410731609
 31
0.0
  0
LINE
  5
CE
330
1F
100
AcDbEntity
  8
0
  6
Continuous
 62
     7
370
    15
100
AcDbLine
 10
199.8424814034
 20
313.5410731609
 30
0.0
 11
199.8424814034
 21
313.3035840418
 31
0.0
  0
LINE
  5
CF
330
1F
100
AcDbEntity
  8
0
  6
Continuous
 62
     7
370
    15
100
AcDbLine
 10
179.7424838829
 20
313.3035840418
 30
0.0
 11
199.8424814034
 21
313.3035840418
 31
0.0
  0
LINE
  5
D0
330
1F
100
AcDbEntity
  8
0
  6
Continuous
 62
     7
370
    15
100
AcDbLine
 10
179.7424838829
 20
313.5410731609
 30
0.0
 11
179.7424838829
 21
313.3035840418
 31
0.0
  0
LINE
  5
D1
330
1F
100
AcDbEntity
  8
0
  6
Continuous
 62
     7
370
    15
100
AcDbLine
 10
170.7424954462
 20
313.3035840418
 30
0.0
 11
170.7424954462
 21
313.5410731609
 31
0.0
  0
LINE
  5
D2
330
1F
100
AcDbEntity
  8
0
  6
Continuous
 62
     7
370
    15
100
AcDbLine
 10
179.7424838829
 20
323.7452560987
 30
0.0
 11
179.7424838829
 21
325.6675003048
 31
0.0
  0
LINE
  5
D3
330
1F
100
AcDbEntity
  8
0
  6
Continuous
 62
     7
370
    15
100
AcDbLine
 10
215.2424887705
 20
325.6675003048
 30
0.0
 11
215.2424887705
 21
323.7452560987
 31
0.0
  0
LINE
  5
D4
330
1F
100
AcDbEntity
  8
0
  6
Continuous
 62
     7
370
    15
100
AcDbLine
 10
170.7424954462
 20
325.6675003048
 30
0.0
 11
170.7424954462
 21
323.7452560987
 31
0.0
  0
LINE
  5
D5
330
1F
100
AcDbEntity
  8
0
  6
Continuous
 62
     7
370
    15
100
AcDbLine
 10
215.2424887705
 20
386.5366296794
 30
0.0
 11
215.2424887705
 21
385.8973698642
 31
0.0
  0
LINE
  5
D6
330
1F
100
AcDbEntity
  8
0
  6
Continuous
 62
     7
370
    15
100
AcDbLine
 10
317.5923717159
 20
367.8322823669
 30
0.0
 11
316.039458378
 21
373.6278431441
 31
0.0
  0
LINE
  5
D7
330
1F
100
AcDbEntity
  8
0
  6
Continuous
 62
     7
370
    15
100
AcDbLine
 10
313.9674686778
 20
366.860994878
 30
0.0
 11
317.5923717159
 21
367.8322823669
 31
0.0
  0
LINE
  5
D8
330
1F
100
AcDbEntity
  8
0
  6
Continuous
 62
     7
370
    15
100
AcDbLine
 10
313.9674686778
 20
366.860994878
 30
0.0
 11
312.4145553398
 21
372.6565482046
 31
0.0
  0
LINE
  5
D9
330
1F
100
AcDbEntity
  8
0
  6
Continuous
 62
     7
370
    15
100
AcDbLine
 10
316.039458378
 20
373.6278431441
 30
0.0
 11
312.4145553398
 21
372.6565482046
 31
0.0
  0
LINE
  5
DA
330
1F
100
AcDbEntity
  8
0
  6
Continuous
 62
     7
370
    15
100
AcDbLine
 10
306.7176588762
 20
364.9184124495
 30
0.0
 11
313.9674686778
 21
366.860994878
 31
0.0
  0
LINE
  5
DB
330
1F
100
AcDbEntity
  8
0
  6
Continuous
 62
     7
370
    15
100
AcDbLine
 10
306.7176588762
 20
364.9184124495
 30
0.0
 11
305.1647455383
 21
370.7139732267
 31
0.0
  0
LINE
  5
DC
330
1F
100
AcDbEntity
  8
0
  6
Continuous
 62
     7
370
    15
100
AcDbLine
 10
312.4145553398
 20
372.6565482046
 30
0.0
 11
305.1647455383
 21
370.7139732267
 31
0.0
  0
LINE
  5
DD
330
1F
100
AcDbEntity
  8
0
  6
Continuous
 62
     7
370
    15
100
AcDbLine
 10
317.3321154851
 20
354.3039614286
 30
0.0
 11
310.0823075462
 21
352.3613790001
 31
0.0
  0
LINE
  5
DE
330
1F
100
AcDbEntity
  8
0
  6
Continuous
 62
     7
370
    15
100
AcDbLine
 10
310.0823075462
 20
352.3613790001
 30
0.0
 11
307.2352991391
 21
362.9865663077
 31
0.0
  0
LINE
  5
DF
330
1F
100
AcDbEntity
  8
0
  6
Continuous
 62
     7
370
    15
100
AcDbLine
 10
314.485107078
 20
364.9291412856
 30
0.0
 11
307.2352991391
 21
362.9865663077
 31
0.0
  0
LINE
  5
E0
330
1F
100
AcDbEntity
  8
0
  6
Continuous
 62
     7
370
    15
100
AcDbLine
 10
317.3321154851
 20
354.3039614286
 30
0.0
 11
314.485107078
 21
364.9291412856
 31
0.0
  0
LINE
  5
E1
330
1F
100
AcDbEntity
  8
0
  6
Continuous
 62
     7
370
    15
100
AcDbLine
 10
303.0927577007
 20
363.9471249606
 30
0.0
 11
301.5398406375
 21
369.7426782872
 31
0.0
  0
LINE
  5
E2
330
1F
100
AcDbEntity
  8
0
  6
Continuous
 62
     7
370
    15
100
AcDbLine
 10
303.0927577007
 20
363.9471249606
 30
0.0
 11
306.7176588762
 21
364.9184124495
 31
0.0
  0
LINE
  5
E3
330
1F
100
AcDbEntity
  8
0
  6
Continuous
 62
     7
370
    15
100
AcDbLine
 10
305.1647455383
 20
370.7139732267
 30
0.0
 11
301.5398406375
 21
369.7426782872
 31
0.0
  0
LINE
  5
E4
330
1F
100
AcDbEntity
  8
0
  6
Continuous
 62
     7
370
    15
100
AcDbLine
 10
320.9570203859
 20
355.2752489175
 30
0.0
 11
317.3321154851
 21
354.3039614286
 31
0.0
  0
LINE
  5
E5
330
1F
100
AcDbEntity
  8
0
  6
Continuous
 62
     7
370
    15
100
AcDbLine
 10
318.1100101161
 20
365.9004362251
 30
0.0
 11
314.485107078
 21
364.9291412856
 31
0.0
  0
LINE
  5
E6
330
1F
100
AcDbEntity
  8
0
  6
Continuous
 62
     7
370
    15
100
AcDbLine
 10
320.9570203859
 20
355.2752489175
 30
0.0
 11
318.1100101161
 21
365.9004362251
 31
0.0
  0
LINE
  5
E7
330
1F
100
AcDbEntity
  8
0
  6
Continuous
 62
     7
370
    15
100
AcDbLine
 10
306.4574026454
 20
351.3900877859
 30
0.0
 11
303.6103942383
 21
362.0152713682
 31
0.0
  0
LINE
  5
E8
330
1F
100
AcDbEntity
  8
0
  6
Continuous
 62
     7
370
    15
100
AcDbLine
 10
310.0823075462
 20
352.3613790001
 30
0.0
 11
306.4574026454
 21
351.3900877859
 31
0.0
  0
LINE
  5
E9
330
1F
100
AcDbEntity
  8
0
  6
Continuous
 62
     7
370
    15
100
AcDbLine
 10
307.2352991391
 20
362.9865663077
 30
0.0
 11
303.6103942383
 21
362.0152713682
 31
0.0
  0
LINE
  5
EA
330
1F
100
AcDbEntity
  8
0
  6
Continuous
 62
     7
370
    15
100
AcDbLine
 10
342.2511103514
 20
415.4523031737
 30
0.0
 11
342.2511103514
 21
398.4523059751
 31
0.0
  0
LINE
  5
EB
330
1F
100
AcDbEntity
  8
0
  6
Continuous
 62
     7
370
    15
100
AcDbLine
 10
359.2338669065
 20
415.4523031737
 30
0.0
 11
359.2338669065
 21
398.4523059751
 31
0.0
  0
LINE
  5
EC
330
1F
100
AcDbEntity
  8
0
  6
Continuous
 62
     7
370
    15
100
AcDbLine
 10
359.2338669065
 20
415.4523031737
 30
0.0
 11
342.2511103514
 21
415.4523031737
 31
0.0
  0
LINE
  5
ED
330
1F
100
AcDbEntity
  8
0
  6
Continuous
 62
     7
370
    15
100
AcDbLine
 10
371.2424882639
 20
415.4523031737
 30
0.0
 11
371.2424882639
 21
398.4523059751
 31
0.0
  0
LINE
  5
EE
330
1F
100
AcDbEntity
  8
0
  6
Continuous
 62
     7
370
    15
100
AcDbLine
 10
371.2424882639
 20
415.4523031737
 30
0.0
 11
359.2338669065
 21
415.4523031737
 31
0.0
  0
LINE
  5
EF
330
1F
100
AcDbEntity
  8
0
  6
Continuous
 62
     7
370
    15
100
AcDbLine
 10
330.2424880627
 20
415.4523031737
 30
0.0
 11
330.2424880627
 21
398.4523059751
 31
0.0
  0
LINE
  5
F0
330
1F
100
AcDbEntity
  8
0
  6
Continuous
 62
     7
370
    15
100
AcDbLine
 10
342.2511103514
 20
415.4523031737
 30
0.0
 11
330.2424880627
 21
415.4523031737
 31
0.0
  0
LINE
  5
F1
330
1F
100
AcDbEntity
  8
0
  6
Continuous
 62
     7
370
    15
100
AcDbLine
 10
359.2338669065
 20
175.4523085381
 30
0.0
 11
359.2338669065
 21
192.4523057367
 31
0.0
  0
LINE
  5
F2
330
1F
100
AcDbEntity
  8
0
  6
Continuous
 62
     7
370
    15
100
AcDbLine
 10
342.2511103514
 20
175.4523085381
 30
0.0
 11
342.2511103514
 21
192.4523057367
 31
0.0
  0
LINE
  5
F3
330
1F
100
AcDbEntity
  8
0
  6
Continuous
 62
     7
370
    15
100
AcDbLine
 10
342.2511103514
 20
175.4523085381
 30
0.0
 11
359.2338669065
 21
175.4523085381
 31
0.0
  0
LINE
  5
F4
330
1F
100
AcDbEntity
  8
0
  6
Continuous
 62
     7
370
    15
100
AcDbLine
 10
371.2424882639
 20
175.4523085381
 30
0.0
 11
371.2424882639
 21
192.4523057367
 31
0.0
  0
LINE
  5
F5
330
1F
100
AcDbEntity
  8
0
  6
Continuous
 62
     7
370
    15
100
AcDbLine
 10
359.2338669065
 20
175.4523085381
 30
0.0
 11
371.2424882639
 21
175.4523085381
 31
0.0
  0
LINE
  5
F6
330
1F
100
AcDbEntity
  8
0
  6
Continuous
 62
     7
370
    15
100
AcDbLine
 10
330.2424880627
 20
175.4523085381
 30
0.0
 11
330.2424880627
 21
192.4523057367
 31
0.0
  0
LINE
  5
F7
330
1F
100
AcDbEntity
  8
0
  6
Continuous
 62
     7
370
    15
100
AcDbLine
 10
330.2424880627
 20
175.4523085381
 30
0.0
 11
342.2511103514
 21
175.4523085381
 31
0.0
  0
LINE
  5
F8
330
1F
100
AcDbEntity
  8
0
  6
Continuous
 62
     7
370
    15
100
AcDbLine
 10
362.9617881912
 20
192.4523057367
 30
0.0
 11
362.9617881912
 21
212.452309015
 31
0.0
  0
LINE
  5
F9
330
1F
100
AcDbEntity
  8
0
  6
Continuous
 62
     7
370
    15
100
AcDbLine
 10
338.5231881354
 20
192.4523057367
 30
0.0
 11
338.5231881354
 21
212.452309015
 31
0.0
  0
LINE
  5
FA
330
1F
100
AcDbEntity
  8
0
  6
Continuous
 62
     7
370
    15
100
AcDbLine
 10
338.5231881354
 20
192.4523057367
 30
0.0
 11
362.9617881912
 21
192.4523057367
 31
0.0
  0
LINE
  5
FB
330
1F
100
AcDbEntity
  8
0
  6
Continuous
 62
     7
370
    15
100
AcDbLine
 10
362.9617881912
 20
212.452309015
 30
0.0
 11
338.5231881354
 21
212.452309015
 31
0.0
  0
LINE
  5
FC
330
1F
100
AcDbEntity
  8
0
  6
Continuous
 62
     7
370
    15
100
AcDbLine
 10
380.2424878765
 20
192.4523057367
 30
0.0
 11
380.2424878765
 21
212.452309015
 31
0.0
  0
LINE
  5
FD
330
1F
100
AcDbEntity
  8
0
  6
Continuous
 62
     7
370
    15
100
AcDbLine
 10
362.9617881912
 20
192.4523057367
 30
0.0
 11
380.2424878765
 21
192.4523057367
 31
0.0
  0
LINE
  5
FE
330
1F
100
AcDbEntity
  8
0
  6
Continuous
 62
     7
370
    15
100
AcDbLine
 10
380.2424878765
 20
212.452309015
 30
0.0
 11
362.9617881912
 21
212.452309015
 31
0.0
  0
LINE
  5
FF
330
1F
100
AcDbEntity
  8
0
  6
Continuous
 62
     7
370
    15
100
AcDbLine
 10
321.2424875188
 20
192.4523057367
 30
0.0
 11
321.2424875188
 21
212.452309015
 31
0.0
  0
LINE
  5
100
330
1F
100
AcDbEntity
  8
0
  6
Continuous
 62
     7
370
    15
100
AcDbLine
 10
321.2424875188
 20
192.4523057367
 30
0.0
 11
338.5231881354
 21
192.4523057367
 31
0.0
  0
LINE
  5
101
330
1F
100
AcDbEntity
  8
0
  6
Continuous
 62
     7
370
    15
100
AcDbLine
 10
338.5231881354
 20
212.452309015
 30
0.0
 11
321.2424875188
 21
212.452309015
 31
0.0
  0
LINE
  5
102
330
1F
100
AcDbEntity
  8
0
  6
Continuous
 62
     7
370
    15
100
AcDbLine
 10
338.5231881354
 20
398.4523059751
 30
0.0
 11
338.5231881354
 21
378.4523026969
 31
0.0
  0
LINE
  5
103
330
1F
100
AcDbEntity
  8
0
  6
Continuous
 62
     7
370
    15
100
AcDbLine
 10
362.9617881912
 20
398.4523059751
 30
0.0
 11
362.9617881912
 21
378.4523026969
 31
0.0
  0
LINE
  5
104
330
1F
100
AcDbEntity
  8
0
  6
Continuous
 62
     7
370
    15
100
AcDbLine
 10
338.5231881354
 20
378.4523026969
 30
0.0
 11
362.9617881912
 21
378.4523026969
 31
0.0
  0
LINE
  5
105
330
1F
100
AcDbEntity
  8
0
  6
Continuous
 62
     7
370
    15
100
AcDbLine
 10
362.9617881912
 20
398.4523059751
 30
0.0
 11
338.5231881354
 21
398.4523059751
 31
0.0
  0
LINE
  5
106
330
1F
100
AcDbEntity
  8
0
  6
Continuous
 62
     7
370
    15
100
AcDbLine
 10
380.2424878765
 20
398.4523059751
 30
0.0
 11
380.2424878765
 21
378.4523026969
 31
0.0
  0
LINE
  5
107
330
1F
100
AcDbEntity
  8
0
  6
Continuous
 62
     7
370
    15
100
AcDbLine
 10
362.9617881912
 20
378.4523026969
 30
0.0
 11
380.2424878765
 21
378.4523026969
 31
0.0
  0
LINE
  5
108
330
1F
100
AcDbEntity
  8
0
  6
Continuous
 62
     7
370
    15
100
AcDbLine
 10
380.2424878765
 20
398.4523059751
 30
0.0
 11
362.9617881912
 21
398.4523059751
 31
0.0
  0
LINE
  5
109
330
1F
100
AcDbEntity
  8
0
  6
Continuous
 62
     7
370
    15
100
AcDbLine
 10
321.2424875188
 20
398.4523059751
 30
0.0
 11
321.2424875188
 21
378.4523026969
 31
0.0
  0
LINE
  5
10A
330
1F
100
AcDbEntity
  8
0
  6
Continuous
 62
     7
370
    15
100
AcDbLine
 10
321.2424875188
 20
378.4523026969
 30
0.0
 11
338.5231881354
 21
378.4523026969
 31
0.0
  0
LINE
  5
10B
330
1F
100
AcDbEntity
  8
0
  6
Continuous
 62
     7
370
    15
100
AcDbLine
 10
338.5231881354
 20
398.4523059751
 30
0.0
 11
321.2424875188
 21
398.4523059751
 31
0.0
  0
LINE
  5
10C
330
1F
100
AcDbEntity
  8
0
  6
Continuous
 62
     7
370
    15
100
AcDbLine
 10
152.2424952078
 20
295.4523058559
 30
0.0
 11
152.2424952078
 21
341.4523059453
 31
0.0
  0
LINE
  5
10D
330
1F
100
AcDbEntity
  8
0
  6
Continuous
 62
     7
370
    15
100
AcDbLine
 10
152.2424952078
 20
249.4523057665
 30
0.0
 11
152.2424952078
 21
295.4523058559
 31
0.0
  0
LINE
  5
10E
330
1F
100
AcDbEntity
  8
0
  6
Continuous
 62
     7
370
    15
100
AcDbLine
 10
145.7424894858
 20
295.4523058559
 30
0.0
 11
145.7424894858
 21
341.4523059453
 31
0.0
  0
LINE
  5
10F
330
1F
100
AcDbEntity
  8
0
  6
Continuous
 62
     7
370
    15
100
AcDbLine
 10
145.7424894858
 20
249.4523057665
 30
0.0
 11
145.7424894858
 21
295.4523058559
 31
0.0
  0
LINE
  5
110
330
1F
100
AcDbEntity
  8
0
  6
Continuous
 62
     7
370
    15
100
AcDbLine
 10
139.2424837637
 20
280.4523061912
 30
0.0
 11
139.2424837637
 21
310.4523055207
 31
0.0
  0
LWPOLYLINE
  5
111
330
1F
100
AcDbEntity
  8
0
  6
Continuous
 62
     7
370
    15
100
AcDbPolyline
 90
        6
 70
   128
 43
0.0
 10
160.242481618
 20
255.7272406246
 10
160.3550598908
 20
256.0449259307
 10
160.6803224373
 20
256.3339674796
 10
161.1814186859
 20
256.5580921199
 10
161.802171259
 20
256.6881122019
 10
162.2424856711
 20
256.7132132079
  0
LINE
  5
112
330
1F
100
AcDbEntity
  8
0
  6
Continuous
 62
     7
370
    15
100
AcDbLine
 10
160.242481618
 20
255.4269375231
 30
0.0
 11
160.242481618
 21
255.7272406246
 31
0.0
  0
LWPOLYLINE
  5
113
330
1F
100
AcDbEntity
  8
0
  6
Continuous
 62
     7
370
    15
100
AcDbPolyline
 90
        6
 70
   128
 43
0.0
 10
162.2424856711
 20
254.5446211423
 10
161.5804866839
 20
254.5922154512
 10
160.9931276131
 20
254.7310681965
 10
160.5466590214
 20
254.9491615917
 10
160.2914170313
 20
255.2260586943
 10
160.242481618
 20
255.4269375231
  0
LINE
  5
114
330
1F
100
AcDbEntity
  8
0
  6
Continuous
 62
     7
370
    15
100
AcDbLine
 10
171.2424890089
 20
254.5446211423
 30
0.0
 11
162.2424856711
 21
254.5446211423
 31
0.0
  0
LWPOLYLINE
  5
115
330
1F
100
AcDbEntity
  8
0
  6
Continuous
 62
     7
370
    15
100
AcDbPolyline
 90
        6
 70
   128
 43
0.0
 10
173.2424930621
 20
255.4269375231
 10
173.1299147892
 20
255.1261836614
 10
172.8046522427
 20
254.8665532793
 10
172.3035559941
 20
254.6738328363
 10
171.6828034211
 20
254.5653076794
 10
171.2424890089
 20
254.5446211423
  0
LINE
  5
116
330
1F
100
AcDbEntity
  8
0
  6
Continuous
 62
     7
370
    15
100
AcDbLine
 10
173.2424930621
 20
255.4269375231
 30
0.0
 11
173.2424930621
 21
255.7272406246
 31
0.0
  0
LWPOLYLINE
  5
117
330
1F
100
AcDbEntity
  8
0
  6
Continuous
 62
     7
370
    15
100
AcDbPolyline
 90
        6
 70
   128
 43
0.0
 10
171.2424890089
 20
256.7132132079
 10
171.9044879961
 20
256.655609044
 10
172.4918470669
 20
256.490645739
 10
172.9383156586
 20
256.2404440667
 10
173.1935576487
 20
255.9374587562
 10
173.2424930621
 20
255.7272406246
  0
LINE
  5
118
330
1F
100
AcDbEntity
  8
0
  6
Continuous
 62
     7
370
    15
100
AcDbLine
 10
171.2424890089
 20
256.7132132079
 30
0.0
 11
162.2424856711
 21
256.7132132079
 31
0.0
  0
LWPOLYLINE
  5
119
330
1F
100
AcDbEntity
  8
0
  6
Continuous
 62
     7
370
    15
100
AcDbPolyline
 90
        6
 70
   128
 43
0.0
 10
160.242481618
 20
262.1789479579
 10
160.3550598908
 20
262.629398885
 10
160.6803224373
 20
263.0350718226
 10
161.1814186859
 20
263.3470797862
 10
161.802171259
 20
263.5271081652
 10
162.2424856711
 20
263.5617906179
  0
LINE
  5
11A
330
1F
100
AcDbEntity
  8
0
  6
Continuous
 62
     7
370
    15
100
AcDbLine
 10
160.242481618
 20
261.7483975317
 30
0.0
 11
160.242481618
 21
262.1789479579
 31
0.0
  0
LWPOLYLINE
  5
11B
330
1F
100
AcDbEntity
  8
0
  6
Continuous
 62
     7
370
    15
100
AcDbPolyline
 90
        6
 70
   128
 43
0.0
 10
162.2424856711
 20
260.4526111807
 10
161.5804866839
 20
260.5238238301
 10
160.9931276131
 20
260.7306556727
 10
160.5466590214
 20
261.0528783824
 10
160.2914170313
 20
261.4576162722
 10
160.242481618
 20
261.7483975317
  0
LINE
  5
11C
330
1F
100
AcDbEntity
  8
0
  6
Continuous
 62
     7
370
    15
100
AcDbLine
 10
171.2424890089
 20
260.4526111807
 30
0.0
 11
162.2424856711
 21
260.4526111807
 31
0.0
  0
LWPOLYLINE
  5
11D
330
1F
100
AcDbEntity
  8
0
  6
Continuous
 62
     7
370
    15
100
AcDbPolyline
 90
        6
 70
   128
 43
0.0
 10
173.2424930621
 20
261.7483975317
 10
173.1299147892
 20
261.312169763
 10
172.8046522427
 20
260.9311992254
 10
172.3035559941
 20
260.6455625917
 10
171.6828034211
 20
260.4835832443
 10
171.2424890089
 20
260.4526111807
  0
LINE
  5
11E
330
1F
100
AcDbEntity
  8
0
  6
Continuous
 62
     7
370
    15
100
AcDbLine
 10
173.2424930621
 20
261.7483975317
 30
0.0
 11
173.2424930621
 21
262.1789479579
 31
0.0
  0
LWPOLYLINE
  5
11F
330
1F
100
AcDbEntity
  8
0
  6
Continuous
 62
     7
370
    15
100
AcDbPolyline
 90
        6
 70
   128
 43
0.0
 10
171.2424890089
 20
263.5617906179
 10
171.9044879961
 20
263.4821699883
 10
172.4918470669
 20
263.253411087
 10
172.9383156586
 20
262.9042247261
 10
173.1935576487
 20
262.4775746788
 10
173.2424930621
 20
262.1789479579
  0
LINE
  5
120
330
1F
100
AcDbEntity
  8
0
  6
Continuous
 62
     7
370
    15
100
AcDbLine
 10
171.2424890089
 20
263.5617906179
 30
0.0
 11
162.2424856711
 21
263.5617906179
 31
0.0
  0
ARC
  5
121
330
1F
100
AcDbEntity
  8
0
  6
Continuous
 62
     7
370
    15
100
AcDbCircle
 10
162.1282469251
 20
270.4665466393
 30
0.0
 40
1.896071498745844
100
AcDbArc
 50
86.5458240607
 51
174.0233710058
  0
LINE
  5
122
330
1F
100
AcDbEntity
  8
0
  6
Continuous
 62
     7
370
    15
100
AcDbLine
 10
160.242481618
 20
270.1294774141
 30
0.0
 11
160.242481618
 21
270.6639708902
 31
0.0
  0
ARC
  5
123
330
1F
100
AcDbEntity
  8
0
  6
Continuous
 62
     7
370
    15
100
AcDbCircle
 10
162.0427758231
 20
270.29636028
 30
0.0
 40
1.808012476685736
100
AcDbArc
 50
185.2960437653
 51
276.3417308678
  0
LINE
  5
124
330
1F
100
AcDbEntity
  8
0
  6
Continuous
 62
     7
370
    15
100
AcDbLine
 10
171.2424890089
 20
268.4994114514
 30
0.0
 11
162.2424856711
 21
268.4994114514
 31
0.0
  0
ARC
  5
125
330
1F
100
AcDbEntity
  8
0
  6
Continuous
 62
     7
370
    15
100
AcDbCircle
 10
171.3903561176
 20
270.3599685579
 30
0.0
 40
1.866423700159722
100
AcDbArc
 50
265.4559894033
 51
352.9062359636
  0
LINE
  5
126
330
1F
100
AcDbEntity
  8
0
  6
Continuous
 62
     7
370
    15
100
AcDbLine
 10
173.2424930621
 20
270.1294774141
 30
0.0
 11
173.2424930621
 21
270.6639708902
 31
0.0
  0
ARC
  5
127
330
1F
100
AcDbEntity
  8
0
  6
Continuous
 62
     7
370
    15
100
AcDbCircle
 10
171.3995936609
 20
270.517119935
 30
0.0
 40
1.848741032675842
100
AcDbArc
 50
4.5559724742
 51
94.8748324593
  0
LINE
  5
128
330
1F
100
AcDbEntity
  8
0
  6
Continuous
 62
     7
370
    15
100
AcDbLine
 10
171.2424890089
 20
272.3591735538
 30
0.0
 11
162.2424856711
 21
272.3591735538
 31
0.0
  0
ARC
  5
129
330
1F
100
AcDbEntity
  8
0
  6
Continuous
 62
     7
370
    15
100
AcDbCircle
 10
161.8637591466
 20
249.6001309642
 30
0.0
 40
2.647823400780466
100
AcDbArc
 50
81.7766001332
 51
127.7564120478
  0
LINE
  5
12A
330
1F
100
AcDbEntity
  8
0
  6
Continuous
 62
     7
370
    15
100
AcDbLine
 10
160.242481618
 20
251.5423985149
 30
0.0
 11
160.242481618
 21
251.6935558941
 31
0.0
  0
LWPOLYLINE
  5
12B
330
1F
100
AcDbEntity
  8
0
  6
Continuous
 62
     7
370
    15
100
AcDbPolyline
 90
        6
 70
   128
 43
0.0
 10
162.2424856711
 20
251.1291781392
 10
161.5804866839
 20
251.1501515235
 10
160.9931276131
 20
251.2122632887
 10
160.5466590214
 20
251.3124735977
 10
160.2914170313
 20
251.4440732028
 10
160.242481618
 20
251.5423985149
  0
LINE
  5
12C
330
1F
100
AcDbEntity
  8
0
  6
Continuous
 62
     7
370
    15
100
AcDbLine
 10
171.2424890089
 20
251.1291781392
 30
0.0
 11
162.2424856711
 21
251.1291781392
 31
0.0
  0
ARC
  5
12D
330
1F
100
AcDbEntity
  8
0
  6
Continuous
 62
     7
370
    15
100
AcDbCircle
 10
171.6655111188
 20
254.1283954674
 30
0.0
 40
3.028902819055105
100
AcDbArc
 50
261.9717217278
 51
301.3755009605
  0
LINE
  5
12E
330
1F
100
AcDbEntity
  8
0
  6
Continuous
 62
     7
370
    15
100
AcDbLine
 10
173.2424930621
 20
251.5423985149
 30
0.0
 11
173.2424930621
 21
251.6935558941
 31
0.0
  0
LWPOLYLINE
  5
12F
330
1F
100
AcDbEntity
  8
0
  6
Continuous
 62
     7
370
    15
100
AcDbPolyline
 90
        6
 70
   128
 43
0.0
 10
171.2424890089
 20
252.2207291748
 10
171.9044879961
 20
252.1887512829
 10
172.4918470669
 20
252.097936156
 10
172.9383156586
 20
251.9624324467
 10
173.1935576487
 20
251.8021518316
 10
173.2424930621
 20
251.6935558941
  0
LINE
  5
130
330
1F
100
AcDbEntity
  8
0
  6
Continuous
 62
     7
370
    15
100
AcDbLine
 10
171.2424890089
 20
252.2207291748
 30
0.0
 11
162.2424856711
 21
252.2207291748
 31
0.0
  0
LWPOLYLINE
  5
131
330
1F
100
AcDbEntity
  8
0
  6
Continuous
 62
     7
370
    15
100
AcDbPolyline
 90
        6
 70
   128
 43
0.0
 10
286.2424873698
 20
255.4269375231
 10
286.1299128223
 20
255.1261836614
 10
285.804654001
 20
254.8665532793
 10
285.3035614777
 20
254.6738328363
 10
284.6828089047
 20
254.5653076794
 10
284.242487042
 20
254.5446211423
  0
LINE
  5
132
330
1F
100
AcDbEntity
  8
0
  6
Continuous
 62
     7
370
    15
100
AcDbLine
 10
286.2424873698
 20
255.4269375231
 30
0.0
 11
286.2424873698
 21
255.7272406246
 31
0.0
  0
LWPOLYLINE
  5
133
330
1F
100
AcDbEntity
  8
0
  6
Continuous
 62
     7
370
    15
100
AcDbPolyline
 90
        6
 70
   128
 43
0.0
 10
284.242487042
 20
256.7132132079
 10
284.9044897545
 20
256.655609044
 10
285.4918525505
 20
256.490645739
 10
285.9383136917
 20
256.2404440667
 10
286.193559407
 20
255.9374587562
 10
286.2424873698
 20
255.7272406246
  0
LINE
  5
134
330
1F
100
AcDbEntity
  8
0
  6
Continuous
 62
     7
370
    15
100
AcDbLine
 10
275.2424911547
 20
256.7132132079
 30
0.0
 11
284.242487042
 21
256.7132132079
 31
0.0
  0
LWPOLYLINE
  5
135
330
1F
100
AcDbEntity
  8
0
  6
Continuous
 62
     7
370
    15
100
AcDbPolyline
 90
        6
 70
   128
 43
0.0
 10
273.2424871016
 20
255.7272406246
 10
273.3550653744
 20
256.0449259307
 10
273.6803204704
 20
256.3339674796
 10
274.181416719
 20
256.5580921199
 10
274.802169292
 20
256.6881122019
 10
275.2424911547
 20
256.7132132079
  0
LINE
  5
136
330
1F
100
AcDbEntity
  8
0
  6
Continuous
 62
     7
370
    15
100
AcDbLine
 10
273.2424871016
 20
255.4269375231
 30
0.0
 11
273.2424871016
 21
255.7272406246
 31
0.0
  0
LWPOLYLINE
  5
137
330
1F
100
AcDbEntity
  8
0
  6
Continuous
 62
     7
370
    15
100
AcDbPolyline
 90
        6
 70
   128
 43
0.0
 10
275.2424911547
 20
254.5446211423
 10
274.5804921675
 20
254.5922154512
 10
273.9931256462
 20
254.7310681965
 10
273.546664505
 20
254.9491615917
 10
273.2914150644
 20
255.2260586943
 10
273.2424871016
 20
255.4269375231
  0
LINE
  5
138
330
1F
100
AcDbEntity
  8
0
  6
Continuous
 62
     7
370
    15
100
AcDbLine
 10
275.2424911547
 20
254.5446211423
 30
0.0
 11
284.242487042
 21
254.5446211423
 31
0.0
  0
LWPOLYLINE
  5
139
330
1F
100
AcDbEntity
  8
0
  6
Continuous
 62
     7
370
    15
100
AcDbPolyline
 90
        6
 70
   128
 43
0.0
 10
286.2424873698
 20
261.7483975317
 10
286.1299128223
 20
261.312169763
 10
285.804654001
 20
260.9311992254
 10
285.3035614777
 20
260.6455625917
 10
284.6828089047
 20
260.4835832443
 10
284.242487042
 20
260.4526111807
  0
LINE
  5
13A
330
1F
100
AcDbEntity
  8
0
  6
Continuous
 62
     7
370
    15
100
AcDbLine
 10
286.2424873698
 20
261.7483975317
 30
0.0
 11
286.2424873698
 21
262.1789479579
 31
0.0
  0
LWPOLYLINE
  5
13B
330
1F
100
AcDbEntity
  8
0
  6
Continuous
 62
     7
370
    15
100
AcDbPolyline
 90
        6
 70
   128
 43
0.0
 10
284.242487042
 20
263.5617906179
 10
284.9044897545
 20
263.4821699883
 10
285.4918525505
 20
263.253411087
 10
285.9383136917
 20
262.9042247261
 10
286.193559407
 20
262.4775746788
 10
286.2424873698
 20
262.1789479579
  0
LINE
  5
13C
330
1F
100
AcDbEntity
  8
0
  6
Continuous
 62
     7
370
    15
100
AcDbLine
 10
275.2424911547
 20
263.5617906179
 30
0.0
 11
284.242487042
 21
263.5617906179
 31
0.0
  0
LWPOLYLINE
  5
13D
330
1F
100
AcDbEntity
  8
0
  6
Continuous
 62
     7
370
    15
100
AcDbPolyline
 90
        6
 70
   128
 43
0.0
 10
273.2424871016
 20
262.1789479579
 10
273.3550653744
 20
262.629398885
 10
273.6803204704
 20
263.0350718226
 10
274.181416719
 20
263.3470797862
 10
274.802169292
 20
263.5271081652
 10
275.2424911547
 20
263.5617906179
  0
LINE
  5
13E
330
1F
100
AcDbEntity
  8
0
  6
Continuous
 62
     7
370
    15
100
AcDbLine
 10
273.2424871016
 20
261.7483975317
 30
0.0
 11
273.2424871016
 21
262.1789479579
 31
0.0
  0
LWPOLYLINE
  5
13F
330
1F
100
AcDbEntity
  8
0
  6
Continuous
 62
     7
370
    15
100
AcDbPolyline
 90
        6
 70
   128
 43
0.0
 10
275.2424911547
 20
260.4526111807
 10
274.5804921675
 20
260.5238238301
 10
273.9931256462
 20
260.7306556727
 10
273.546664505
 20
261.0528783824
 10
273.2914150644
 20
261.4576162722
 10
273.2424871016
 20
261.7483975317
  0
LINE
  5
140
330
1F
100
AcDbEntity
  8
0
  6
Continuous
 62
     7
370
    15
100
AcDbLine
 10
275.2424911547
 20
260.4526111807
 30
0.0
 11
284.242487042
 21
260.4526111807
 31
0.0
  0
ARC
  5
141
330
1F
100
AcDbEntity
  8
0
  6
Continuous
 62
     7
370
    15
100
AcDbCircle
 10
284.3903628964
 20
270.3599535946
 30
0.0
 40
1.866409476721998
100
AcDbArc
 50
265.4556853738
 51
352.9066445207
  0
LINE
  5
142
330
1F
100
AcDbEntity
  8
0
  6
Continuous
 62
     7
370
    15
100
AcDbLine
 10
286.2424873698
 20
270.1294774141
 30
0.0
 11
286.2424873698
 21
270.6639708902
 31
0.0
  0
ARC
  5
143
330
1F
100
AcDbEntity
  8
0
  6
Continuous
 62
     7
370
    15
100
AcDbCircle
 10
284.3996046745
 20
270.5171392994
 30
0.0
 40
1.848722841496911
100
AcDbArc
 50
4.5554153549
 51
94.8752842994
  0
LINE
  5
144
330
1F
100
AcDbEntity
  8
0
  6
Continuous
 62
     7
370
    15
100
AcDbLine
 10
275.2424911547
 20
272.3591735538
 30
0.0
 11
284.242487042
 21
272.3591735538
 31
0.0
  0
ARC
  5
145
330
1F
100
AcDbEntity
  8
0
  6
Continuous
 62
     7
370
    15
100
AcDbCircle
 10
275.1282466068
 20
270.4665534845
 30
0.0
 40
1.896065015625163
100
AcDbArc
 50
86.5456365923
 51
174.0235584742
  0
LINE
  5
146
330
1F
100
AcDbEntity
  8
0
  6
Continuous
 62
     7
370
    15
100
AcDbLine
 10
273.2424871016
 20
270.1294774141
 30
0.0
 11
273.2424871016
 21
270.6639708902
 31
0.0
  0
ARC
  5
147
330
1F
100
AcDbEntity
  8
0
  6
Continuous
 62
     7
370
    15
100
AcDbCircle
 10
275.0427709572
 20
270.2963475817
 30
0.0
 40
1.808000999358406
100
AcDbArc
 50
185.2956733467
 51
276.3421012864
  0
LINE
  5
148
330
1F
100
AcDbEntity
  8
0
  6
Continuous
 62
     7
370
    15
100
AcDbLine
 10
275.2424911547
 20
268.4994114514
 30
0.0
 11
284.242487042
 21
268.4994114514
 31
0.0
  0
ARC
  5
149
330
1F
100
AcDbEntity
  8
0
  6
Continuous
 62
     7
370
    15
100
AcDbCircle
 10
284.665515475
 20
254.1283506463
 30
0.0
 40
3.028859320356543
100
AcDbArc
 50
261.9714848734
 51
301.375780109
  0
LINE
  5
14A
330
1F
100
AcDbEntity
  8
0
  6
Continuous
 62
     7
370
    15
100
AcDbLine
 10
286.2424873698
 20
251.5423985149
 30
0.0
 11
286.2424873698
 21
251.6935558941
 31
0.0
  0
LWPOLYLINE
  5
14B
330
1F
100
AcDbEntity
  8
0
  6
Continuous
 62
     7
370
    15
100
AcDbPolyline
 90
        6
 70
   128
 43
0.0
 10
284.242487042
 20
252.2207291748
 10
284.9044897545
 20
252.1887512829
 10
285.4918525505
 20
252.097936156
 10
285.9383136917
 20
251.9624324467
 10
286.193559407
 20
251.8021518316
 10
286.2424873698
 20
251.6935558941
  0
LINE
  5
14C
330
1F
100
AcDbEntity
  8
0
  6
Continuous
 62
     7
370
    15
100
AcDbLine
 10
275.2424911547
 20
252.2207291748
 30
0.0
 11
284.242487042
 21
252.2207291748
 31
0.0
  0
ARC
  5
14D
330
1F
100
AcDbEntity
  8
0
  6
Continuous
 62
     7
370
    15
100
AcDbCircle
 10
274.8637598968
 20
249.600148922
 30
0.0
 40
2.647806304663059
100
AcDbArc
 50
81.7764431789
 51
127.7565690021
  0
LINE
  5
14E
330
1F
100
AcDbEntity
  8
0
  6
Continuous
 62
     7
370
    15
100
AcDbLine
 10
273.2424871016
 20
251.5423985149
 30
0.0
 11
273.2424871016
 21
251.6935558941
 31
0.0
  0
LWPOLYLINE
  5
14F
330
1F
100
AcDbEntity
  8
0
  6
Continuous
 62
     7
370
    15
100
AcDbPolyline
 90
        6
 70
   128
 43
0.0
 10
275.2424911547
 20
251.1291781392
 10
274.5804921675
 20
251.1501515235
 10
273.9931256462
 20
251.2122632887
 10
273.546664505
 20
251.3124735977
 10
273.2914150644
 20
251.4440732028
 10
273.2424871016
 20
251.5423985149
  0
LINE
  5
150
330
1F
100
AcDbEntity
  8
0
  6
Continuous
 62
     7
370
    15
100
AcDbLine
 10
275.2424911547
 20
251.1291781392
 30
0.0
 11
284.242487042
 21
251.1291781392
 31
0.0
  0
ARC
  5
151
330
1F
100
AcDbEntity
  8
0
  6
Continuous
 62
     7
370
    15
100
AcDbCircle
 10
162.1491616766
 20
259.4898639533
 30
0.0
 40
3.495220137868384
100
AcDbArc
 50
245.2015213364
 51
271.5300056469
  0
ARC
  5
152
330
1F
100
AcDbEntity
  8
0
  6
Continuous
 62
     7
370
    15
100
AcDbCircle
 10
171.4115880706
 20
258.9811348
 30
0.0
 40
2.990030334232316
100
AcDbArc
 50
266.7579477125
 51
297.7357689822
  0
LINE
  5
153
330
1F
100
AcDbEntity
  8
0
  6
Continuous
 62
     7
370
    15
100
AcDbLine
 10
171.2424890089
 20
255.9958899345
 30
0.0
 11
162.2424856711
 21
255.9958899345
 31
0.0
  0
ARC
  5
154
330
1F
100
AcDbEntity
  8
0
  6
Continuous
 62
     7
370
    15
100
AcDbCircle
 10
161.9733365033
 20
263.5900032399
 30
0.0
 40
1.914726800405085
100
AcDbArc
 50
212.010393813
 51
278.0807107763
  0
ARC
  5
155
330
1F
100
AcDbEntity
  8
0
  6
Continuous
 62
     7
370
    15
100
AcDbCircle
 10
171.4698490867
 20
263.64119611
 30
0.0
 40
1.960139025779239
100
AcDbArc
 50
263.3391654482
 51
328.1776408657
  0
LINE
  5
156
330
1F
100
AcDbEntity
  8
0
  6
Continuous
 62
     7
370
    15
100
AcDbLine
 10
171.2424890089
 20
261.6942876901
 30
0.0
 11
162.2424856711
 21
261.6942876901
 31
0.0
  0
ARC
  5
157
330
1F
100
AcDbEntity
  8
0
  6
Continuous
 62
     7
370
    15
100
AcDbCircle
 10
162.0590131934
 20
271.2690952881
 30
0.0
 40
1.822741217695958
100
AcDbArc
 50
196.6174558159
 51
275.7770304509
  0
ARC
  5
158
330
1F
100
AcDbEntity
  8
0
  6
Continuous
 62
     7
370
    15
100
AcDbCircle
 10
171.4419596103
 20
271.252753949
 30
0.0
 40
1.808178489550047
100
AcDbArc
 50
263.6664813918
 51
354.7294014727
  0
LINE
  5
159
330
1F
100
AcDbEntity
  8
0
  6
Continuous
 62
     7
370
    15
100
AcDbLine
 10
171.2424890089
 20
269.4556115146
 30
0.0
 11
162.2424856711
 21
269.4556115146
 31
0.0
  0
ARC
  5
15A
330
1F
100
AcDbEntity
  8
0
  6
Continuous
 62
     7
370
    15
100
AcDbCircle
 10
284.4115870399
 20
258.9811610921
 30
0.0
 40
2.990056637241491
100
AcDbArc
 50
266.7579582938
 51
297.7356449966
  0
LINE
  5
15B
330
1F
100
AcDbEntity
  8
0
  6
Continuous
 62
     7
370
    15
100
AcDbLine
 10
275.2424911547
 20
255.9958899345
 30
0.0
 11
284.242487042
 21
255.9958899345
 31
0.0
  0
ARC
  5
15C
330
1F
100
AcDbEntity
  8
0
  6
Continuous
 62
     7
370
    15
100
AcDbCircle
 10
275.1491731394
 20
259.4899270144
 30
0.0
 40
3.495283016863907
100
AcDbArc
 50
245.201755062
 51
271.529880069
  0
ARC
  5
15D
330
1F
100
AcDbEntity
  8
0
  6
Continuous
 62
     7
370
    15
100
AcDbCircle
 10
284.4698472722
 20
263.6411957941
 30
0.0
 40
1.960138729683031
100
AcDbArc
 50
263.3391599514
 51
328.1776463624
  0
LINE
  5
15E
330
1F
100
AcDbEntity
  8
0
  6
Continuous
 62
     7
370
    15
100
AcDbLine
 10
275.2424911547
 20
261.6942876901
 30
0.0
 11
284.242487042
 21
261.6942876901
 31
0.0
  0
ARC
  5
15F
330
1F
100
AcDbEntity
  8
0
  6
Continuous
 62
     7
370
    15
100
AcDbCircle
 10
274.9734248335
 20
263.5901950093
 30
0.0
 40
1.914905023316489
100
AcDbArc
 50
212.0138271581
 51
278.0774499723
  0
ARC
  5
160
330
1F
100
AcDbEntity
  8
0
  6
Continuous
 62
     7
370
    15
100
AcDbCircle
 10
284.4419713288
 20
271.2527330554
 30
0.0
 40
1.808159233261925
100
AcDbArc
 50
263.6659773474
 51
354.7300100574
  0
LINE
  5
161
330
1F
100
AcDbEntity
  8
0
  6
Continuous
 62
     7
370
    15
100
AcDbLine
 10
275.2424911547
 20
269.4556115146
 30
0.0
 11
284.242487042
 21
269.4556115146
 31
0.0
  0
ARC
  5
162
330
1F
100
AcDbEntity
  8
0
  6
Continuous
 62
     7
370
    15
100
AcDbCircle
 10
275.0590323353
 20
271.2691257591
 30
0.0
 40
1.822770159239117
100
AcDbArc
 50
196.6181838659
 51
275.7765068948
  0
LINE
  5
163
330
1F
100
AcDbEntity
  8
0
  6
Continuous
 62
     7
370
    15
100
AcDbLine
 10
327.7424876529
 20
300.6970754776
 30
0.0
 11
327.7424876529
 21
290.2075362343
 31
0.0
  0
LINE
  5
164
330
1F
100
AcDbEntity
  8
0
  6
Continuous
 62
     7
370
    15
100
AcDbLine
 10
332.7424884725
 20
300.0333074431
 30
0.0
 11
332.7424884725
 21
290.8713042687
 31
0.0
  0
LINE
  5
165
330
1F
100
AcDbEntity
  8
0
  6
Continuous
 62
     7
370
    15
100
AcDbLine
 10
324.7424890238
 20
339.2791802015
 30
0.0
 11
327.7424876529
 21
339.2791802015
 31
0.0
  0
LINE
  5
166
330
1F
100
AcDbEntity
  8
0
  6
Continuous
 62
     7
370
    15
100
AcDbLine
 10
324.7424890238
 20
339.2791802015
 30
0.0
 11
324.7424890238
 21
343.3757403817
 31
0.0
  0
LINE
  5
167
330
1F
100
AcDbEntity
  8
0
  6
Continuous
 62
     7
370
    15
100
AcDbLine
 10
327.7424876529
 20
300.6970754776
 30
0.0
 11
327.7424876529
 21
339.2791802015
 31
0.0
  0
LINE
  5
168
330
1F
100
AcDbEntity
  8
0
  6
Continuous
 62
     7
370
    15
100
AcDbLine
 10
324.7424890238
 20
247.5288713302
 30
0.0
 11
324.7424890238
 21
251.6254315104
 31
0.0
  0
LINE
  5
169
330
1F
100
AcDbEntity
  8
0
  6
Continuous
 62
     7
370
    15
100
AcDbLine
 10
324.7424890238
 20
251.6254315104
 30
0.0
 11
327.7424876529
 21
251.6254315104
 31
0.0
  0
LINE
  5
16A
330
1F
100
AcDbEntity
  8
0
  6
Continuous
 62
     7
370
    15
100
AcDbLine
 10
327.7424876529
 20
251.6254315104
 30
0.0
 11
327.7424876529
 21
290.2075362343
 31
0.0
  0
LINE
  5
16B
330
1F
100
AcDbEntity
  8
0
  6
Continuous
 62
     7
370
    15
100
AcDbLine
 10
324.7424890238
 20
251.6254315104
 30
0.0
 11
324.7424890238
 21
263.7553902294
 31
0.0
  0
LWPOLYLINE
  5
16C
330
1F
100
AcDbEntity
  8
0
  6
Continuous
 62
     7
370
    15
100
AcDbPolyline
 90
        3
 70
   128
 43
0.0
 10
327.7424876529
 20
263.1819004144
 10
326.0736339677
 20
263.5009044732
 10
324.7424890238
 20
263.7553902294
  0
LWPOLYLINE
  5
16D
330
1F
100
AcDbEntity
  8
0
  6
Continuous
 62
     7
370
    15
100
AcDbPolyline
 90
        3
 70
   128
 43
0.0
 10
324.7424890238
 20
327.1492214825
 10
325.3304627675
 20
327.2616321172
 10
327.7424876529
 20
327.7227112975
  0
LINE
  5
16E
330
1F
100
AcDbEntity
  8
0
  6
Continuous
 62
     7
370
    15
100
AcDbLine
 10
324.7424890238
 20
327.1492214825
 30
0.0
 11
324.7424890238
 21
339.2791802015
 31
0.0
  0
LINE
  5
16F
330
1F
100
AcDbEntity
  8
0
  6
Continuous
 62
     7
370
    15
100
AcDbLine
 10
324.7424890238
 20
242.1011643435
 30
0.0
 11
324.7424890238
 21
247.5288713302
 31
0.0
  0
LINE
  5
170
330
1F
100
AcDbEntity
  8
0
  6
Continuous
 62
     7
370
    15
100
AcDbLine
 10
324.7424890238
 20
343.3757403817
 30
0.0
 11
324.7424890238
 21
348.8034473683
 31
0.0
  0
LINE
  5
171
330
1F
100
AcDbEntity
  8
0
  6
Continuous
 62
     7
370
    15
100
AcDbLine
 10
324.7424890238
 20
241.7259382035
 30
0.0
 11
327.7424876529
 21
241.7259382035
 31
0.0
  0
LINE
  5
172
330
1F
100
AcDbEntity
  8
0
  6
Continuous
 62
     7
370
    15
100
AcDbLine
 10
327.7424876529
 20
238.1920011665
 30
0.0
 11
327.7424876529
 21
241.7259382035
 31
0.0
  0
LINE
  5
173
330
1F
100
AcDbEntity
  8
0
  6
Continuous
 62
     7
370
    15
100
AcDbLine
 10
324.7424890238
 20
241.7259382035
 30
0.0
 11
324.7424890238
 21
242.1011643435
 31
0.0
  0
LINE
  5
174
330
1F
100
AcDbEntity
  8
0
  6
Continuous
 62
     7
370
    15
100
AcDbLine
 10
324.7424890238
 20
349.1786735083
 30
0.0
 11
327.7424876529
 21
349.1786735083
 31
0.0
  0
LINE
  5
175
330
1F
100
AcDbEntity
  8
0
  6
Continuous
 62
     7
370
    15
100
AcDbLine
 10
327.7424876529
 20
349.1786735083
 30
0.0
 11
327.7424876529
 21
352.2770533289
 31
0.0
  0
LINE
  5
176
330
1F
100
AcDbEntity
  8
0
  6
Continuous
 62
     7
370
    15
100
AcDbLine
 10
324.7424890238
 20
348.8034473683
 30
0.0
 11
324.7424890238
 21
349.1786735083
 31
0.0
  0
LWPOLYLINE
  5
177
330
1F
100
AcDbEntity
  8
0
  6
Continuous
 62
     7
370
    15
100
AcDbPolyline
 90
        4
 70
   128
 43
0.0
 10
319.7424882043
 20
250.4141347434
 10
307.7749633181
 20
252.7902999844
 10
303.9436438072
 20
253.5558434154
 10
301.2424879659
 20
254.0967220392
  0
LINE
  5
178
330
1F
100
AcDbEntity
  8
0
  6
Continuous
 62
     7
370
    15
100
AcDbLine
 10
301.2424879659
 20
275.3099238451
 30
0.0
 11
301.2424879659
 21
254.0967220392
 31
0.0
  0
LWPOLYLINE
  5
179
330
1F
100
AcDbEntity
  8
0
  6
Continuous
 62
     7
370
    15
100
AcDbPolyline
 90
        4
 70
   128
 43
0.0
 10
327.7424876529
 20
270.0403051402
 10
322.316073342
 20
271.113404813
 10
303.7586682427
 20
274.8060541179
 10
301.2424879659
 20
275.3099238451
  0
LINE
  5
17A
330
1F
100
AcDbEntity
  8
0
  6
Continuous
 62
     7
370
    15
100
AcDbLine
 10
301.2424879659
 20
275.3099238451
 30
0.0
 11
300.2424896646
 21
275.3099238451
 31
0.0
  0
LWPOLYLINE
  5
17B
330
1F
100
AcDbEntity
  8
0
  6
Continuous
 62
     7
370
    15
100
AcDbPolyline
 90
        3
 70
   128
 43
0.0
 10
300.2424896646
 20
279.4153129633
 10
319.1260718692
 20
275.5976634051
 10
320.2424892176
 20
275.3737697329
  0
LINE
  5
17C
330
1F
100
AcDbEntity
  8
0
  6
Continuous
 62
     7
370
    15
100
AcDbLine
 10
320.2424892176
 20
275.3099238451
 30
0.0
 11
327.7424876529
 21
275.3099238451
 31
0.0
  0
LINE
  5
17D
330
1F
100
AcDbEntity
  8
0
  6
Continuous
 62
     7
370
    15
100
AcDbLine
 10
320.2424892176
 20
315.5946878668
 30
0.0
 11
327.7424876529
 21
315.5946878668
 31
0.0
  0
LWPOLYLINE
  5
17E
330
1F
100
AcDbEntity
  8
0
  6
Continuous
 62
     7
370
    15
100
AcDbPolyline
 90
        3
 70
   128
 43
0.0
 10
300.2424896646
 20
311.4892987486
 10
302.0514012266
 20
311.8578473057
 10
320.2424892176
 20
315.530841979
  0
LINE
  5
17F
330
1F
100
AcDbEntity
  8
0
  6
Continuous
 62
     7
370
    15
100
AcDbLine
 10
301.2424879659
 20
315.5946878668
 30
0.0
 11
300.2424896646
 21
315.5946878668
 31
0.0
  0
LWPOLYLINE
  5
180
330
1F
100
AcDbEntity
  8
0
  6
Continuous
 62
     7
370
    15
100
AcDbPolyline
 90
        5
 70
   128
 43
0.0
 10
327.7424876529
 20
320.8643065717
 10
321.6994223136
 20
319.6690900202
 10
303.1424903262
 20
315.9752467598
 10
303.1014152754
 20
315.9670250441
 10
301.2424879659
 20
315.5946878668
  0
LINE
  5
181
330
1F
100
AcDbEntity
  8
0
  6
Continuous
 62
     7
370
    15
100
AcDbLine
 10
301.2424879659
 20
336.8078896727
 30
0.0
 11
301.2424879659
 21
315.5946878668
 31
0.0
  0
LWPOLYLINE
  5
182
330
1F
100
AcDbEntity
  8
0
  6
Continuous
 62
     7
370
    15
100
AcDbPolyline
 90
        4
 70
   128
 43
0.0
 10
319.7424882043
 20
340.4927568461
 10
303.1424903262
 20
337.1884504284
 10
302.1738962222
 20
336.9945080902
 10
301.2424879659
 20
336.8078896727
  0
LINE
  5
183
330
1F
100
AcDbEntity
  8
0
  6
Continuous
 62
     7
370
    15
100
AcDbLine
 10
320.2424892176
 20
315.5946878668
 30
0.0
 11
320.2424892176
 21
275.3099238451
 31
0.0
  0
LINE
  5
184
330
1F
100
AcDbEntity
  8
0
  6
Continuous
 62
     7
370
    15
100
AcDbLine
 10
301.2424879659
 20
254.0967220392
 30
0.0
 11
300.2424896646
 21
254.0967220392
 31
0.0
  0
LINE
  5
185
330
1F
100
AcDbEntity
  8
0
  6
Continuous
 62
     7
370
    15
100
AcDbLine
 10
301.2424879659
 20
336.8078896727
 30
0.0
 11
300.2424896646
 21
336.8078896727
 31
0.0
  0
LINE
  5
186
330
1F
100
AcDbEntity
  8
0
  6
Continuous
 62
     7
370
    15
100
AcDbLine
 10
294.2424886811
 20
341.4523059453
 30
0.0
 11
294.2424886811
 21
249.4523057665
 31
0.0
  0
LINE
  5
187
330
1F
100
AcDbEntity
  8
0
  6
Continuous
 62
     7
370
    15
100
AcDbLine
 10
300.2424896646
 20
336.8078896727
 30
0.0
 11
300.2424896646
 21
341.4523059453
 31
0.0
  0
LINE
  5
188
330
1F
100
AcDbEntity
  8
0
  6
Continuous
 62
     7
370
    15
100
AcDbLine
 10
300.2424896646
 20
249.4523057665
 30
0.0
 11
300.2424896646
 21
254.0967220392
 31
0.0
  0
LINE
  5
189
330
1F
100
AcDbEntity
  8
0
  6
Continuous
 62
     7
370
    15
100
AcDbLine
 10
300.2424896646
 20
275.3099238451
 30
0.0
 11
300.2424896646
 21
315.5946878668
 31
0.0
  0
LINE
  5
18A
330
1F
100
AcDbEntity
  8
0
  6
Continuous
 62
     7
370
    15
100
AcDbLine
 10
306.2424869228
 20
312.838975149
 30
0.0
 11
306.2424869228
 21
278.1030757304
 31
0.0
  0
LINE
  5
18B
330
1F
100
AcDbEntity
  8
0
  6
Continuous
 62
     7
370
    15
100
AcDbLine
 10
316.2424885619
 20
307.9523060422
 30
0.0
 11
316.2424885619
 21
280.9523062732
 31
0.0
  0
LINE
  5
18C
330
1F
100
AcDbEntity
  8
0
  6
Continuous
 62
     7
370
    15
100
AcDbLine
 10
327.7424876529
 20
352.2770533289
 30
0.0
 11
327.7424876529
 21
352.952306899
 31
0.0
  0
LINE
  5
18D
330
1F
100
AcDbEntity
  8
0
  6
Continuous
 62
     7
370
    15
100
AcDbLine
 10
327.7424876529
 20
352.952306899
 30
0.0
 11
306.262841909
 21
347.1968525972
 31
0.0
  0
LINE
  5
18E
330
1F
100
AcDbEntity
  8
0
  6
Continuous
 62
     7
370
    15
100
AcDbLine
 10
316.2424885619
 20
307.9523060422
 30
0.0
 11
320.2424892176
 21
307.9523060422
 31
0.0
  0
LINE
  5
18F
330
1F
100
AcDbEntity
  8
0
  6
Continuous
 62
     7
370
    15
100
AcDbLine
 10
306.262841909
 20
347.1968525972
 30
0.0
 11
308.6507902432
 21
338.2849039461
 31
0.0
  0
LINE
  5
190
330
1F
100
AcDbEntity
  8
0
  6
Continuous
 62
     7
370
    15
100
AcDbLine
 10
315.0297445196
 20
314.4783282604
 30
0.0
 11
316.2424885619
 21
309.9523054387
 31
0.0
  0
LINE
  5
191
330
1F
100
AcDbEntity
  8
0
  6
Continuous
 62
     7
370
    15
100
AcDbLine
 10
316.2424885619
 20
309.9523054387
 30
0.0
 11
316.2424885619
 21
307.9523060422
 31
0.0
  0
LINE
  5
192
330
1F
100
AcDbEntity
  8
0
  6
Continuous
 62
     7
370
    15
100
AcDbLine
 10
327.7424876529
 20
238.1920011665
 30
0.0
 11
327.7424876529
 21
237.9523048129
 31
0.0
  0
LINE
  5
193
330
1F
100
AcDbEntity
  8
0
  6
Continuous
 62
     7
370
    15
100
AcDbLine
 10
332.7424884725
 20
238.1350787308
 30
0.0
 11
332.7424884725
 21
237.9523048129
 31
0.0
  0
LINE
  5
194
330
1F
100
AcDbEntity
  8
0
  6
Continuous
 62
     7
370
    15
100
AcDbLine
 10
332.7424884725
 20
352.952306899
 30
0.0
 11
332.7424884725
 21
352.7695329811
 31
0.0
  0
LINE
  5
195
330
1F
100
AcDbEntity
  8
0
  6
Continuous
 62
     7
370
    15
100
AcDbLine
 10
340.7424883868
 20
300.0333074431
 30
0.0
 11
340.7424883868
 21
290.8713042687
 31
0.0
  0
LINE
  5
196
330
1F
100
AcDbEntity
  8
0
  6
Continuous
 62
     7
370
    15
100
AcDbLine
 10
332.7424884725
 20
300.0333074431
 30
0.0
 11
332.7424884725
 21
290.8713042687
 31
0.0
  0
LINE
  5
197
330
1F
100
AcDbEntity
  8
0
  6
Continuous
 62
     7
370
    15
100
AcDbLine
 10
340.7424883868
 20
290.8713042687
 30
0.0
 11
340.7424883868
 21
247.5582973983
 31
0.0
  0
LINE
  5
198
330
1F
100
AcDbEntity
  8
0
  6
Continuous
 62
     7
370
    15
100
AcDbLine
 10
332.7424884725
 20
290.8713042687
 30
0.0
 11
332.7424884725
 21
247.5582973983
 31
0.0
  0
LINE
  5
199
330
1F
100
AcDbEntity
  8
0
  6
Continuous
 62
     7
370
    15
100
AcDbLine
 10
340.7424883868
 20
343.3463143136
 30
0.0
 11
340.7424883868
 21
300.0333074431
 31
0.0
  0
LINE
  5
19A
330
1F
100
AcDbEntity
  8
0
  6
Continuous
 62
     7
370
    15
100
AcDbLine
 10
332.7424884725
 20
343.3463143136
 30
0.0
 11
332.7424884725
 21
300.0333074431
 31
0.0
  0
LINE
  5
19B
330
1F
100
AcDbEntity
  8
0
  6
Continuous
 62
     7
370
    15
100
AcDbLine
 10
352.7424880255
 20
337.0290527071
 30
0.0
 11
352.7424880255
 21
333.5626998867
 31
0.0
  0
LINE
  5
19C
330
1F
100
AcDbEntity
  8
0
  6
Continuous
 62
     7
370
    15
100
AcDbLine
 10
352.7424880255
 20
333.5626998867
 30
0.0
 11
352.7424880255
 21
293.4099587563
 31
0.0
  0
LWPOLYLINE
  5
19D
330
1F
100
AcDbEntity
  8
0
  6
Continuous
 62
     7
370
    15
100
AcDbPolyline
 90
       12
 70
   128
 43
0.0
 10
352.7424880255
 20
293.4099587563
 10
352.7406123418
 20
285.308648641
 10
352.7369960162
 20
277.2602288004
 10
352.7353242922
 20
273.3118886079
 10
352.7340753886
 20
269.5153316434
 10
352.7333955232
 20
265.7957969185
 10
352.7333917979
 20
262.2909786131
 10
352.734503797
 20
257.849594387
 10
352.736697993
 20
253.8769448127
 10
352.7397648383
 20
250.0876130487
 10
352.7421676505
 20
247.0851855304
 10
352.7424479786
 20
246.401561233
  0
ARC
  5
19E
330
1F
100
AcDbEntity
  8
0
  6
Continuous
 62
     7
370
    15
100
AcDbCircle
 10
345.4496238427
 20
246.2716794098
 30
0.0
 40
7.293980678114504
100
AcDbArc
 50
287.2031270478
 51
1.0203327143
  0
LINE
  5
19F
330
1F
100
AcDbEntity
  8
0
  6
Continuous
 62
     7
370
    15
100
AcDbLine
 10
352.7424880255
 20
246.4014904525
 30
0.0
 11
352.7424880255
 21
293.4099587563
 31
0.0
  0
LINE
  5
1A0
330
1F
100
AcDbEntity
  8
0
  6
Continuous
 62
     7
370
    15
100
AcDbLine
 10
340.7424883868
 20
247.5582973983
 30
0.0
 11
340.7424883868
 21
241.5968121912
 31
0.0
  0
LINE
  5
1A1
330
1F
100
AcDbEntity
  8
0
  6
Continuous
 62
     7
370
    15
100
AcDbLine
 10
332.7424884725
 20
247.5582973983
 30
0.0
 11
332.7424884725
 21
241.5968121912
 31
0.0
  0
LINE
  5
1A2
330
1F
100
AcDbEntity
  8
0
  6
Continuous
 62
     7
370
    15
100
AcDbLine
 10
340.7424883868
 20
349.3077995207
 30
0.0
 11
340.7424883868
 21
343.3463143136
 31
0.0
  0
LINE
  5
1A3
330
1F
100
AcDbEntity
  8
0
  6
Continuous
 62
     7
370
    15
100
AcDbLine
 10
332.7424884725
 20
349.3077995207
 30
0.0
 11
332.7424884725
 21
343.3463143136
 31
0.0
  0
LINE
  5
1A4
330
1F
100
AcDbEntity
  8
0
  6
Continuous
 62
     7
370
    15
100
AcDbLine
 10
359.0210596982
 20
283.2876162555
 30
0.0
 11
359.0210596982
 21
315.9523064222
 31
0.0
  0
LWPOLYLINE
  5
1A5
330
1F
100
AcDbEntity
  8
0
  6
Continuous
 62
     7
370
    15
100
AcDbPolyline
 90
        4
 70
   128
 43
0.0
 10
352.7424880255
 20
246.4014867272
 10
356.1448813367
 20
264.7944519247
 10
357.7135684851
 20
274.021712872
 10
359.0210596982
 20
283.2876162555
  0
LINE
  5
1A6
330
1F
100
AcDbEntity
  8
0
  6
Continuous
 62
     7
370
    15
100
AcDbLine
 10
334.7424888003
 20
239.0208074774
 30
0.0
 11
340.7424883868
 21
239.0208074774
 31
0.0
  0
LINE
  5
1A7
330
1F
100
AcDbEntity
  8
0
  6
Continuous
 62
     7
370
    15
100
AcDbLine
 10
340.7424883868
 20
241.5968121912
 30
0.0
 11
340.7424883868
 21
239.0208074774
 31
0.0
  0
LINE
  5
1A8
330
1F
100
AcDbEntity
  8
0
  6
Continuous
 62
     7
370
    15
100
AcDbLine
 10
332.7424884725
 20
241.5968121912
 30
0.0
 11
332.7424884725
 21
238.1350787308
 31
0.0
  0
ARC
  5
1A9
330
1F
100
AcDbEntity
  8
0
  6
Continuous
 62
     7
370
    15
100
AcDbCircle
 10
339.7609962574
 20
374.3692161105
 30
0.0
 40
22.17661556831404
100
AcDbArc
 50
256.9021948448
 51
272.5366238299
  0
LINE
  5
1AA
330
1F
100
AcDbEntity
  8
0
  6
Continuous
 62
     7
370
    15
100
AcDbLine
 10
340.7424883868
 20
352.2143306162
 30
0.0
 11
340.7424883868
 21
349.3077995207
 31
0.0
  0
LINE
  5
1AB
330
1F
100
AcDbEntity
  8
0
  6
Continuous
 62
     7
370
    15
100
AcDbLine
 10
332.7424884725
 20
352.7695329811
 30
0.0
 11
332.7424884725
 21
349.3077995207
 31
0.0
  0
LINE
  5
1AC
330
1F
100
AcDbEntity
  8
0
  6
Continuous
 62
     7
370
    15
100
AcDbLine
 10
342.7361249875
 20
236.8209117975
 30
0.0
 11
334.7424888003
 21
236.8209117975
 31
0.0
  0
LINE
  5
1AD
330
1F
100
AcDbEntity
  8
0
  6
Continuous
 62
     7
370
    15
100
AcDbLine
 10
334.7424888003
 20
239.0208074774
 30
0.0
 11
334.7424888003
 21
236.8209117975
 31
0.0
  0
LINE
  5
1AE
330
1F
100
AcDbEntity
  8
0
  6
Continuous
 62
     7
370
    15
100
AcDbLine
 10
356.5221656996
 20
239.3040152218
 30
0.0
 11
347.6068929255
 21
239.3040152218
 31
0.0
  0
ARC
  5
1AF
330
1F
100
AcDbEntity
  8
0
  6
Continuous
 62
     7
370
    15
100
AcDbCircle
 10
364.886110488
 20
153.3567116004
 30
0.0
 40
86.35331245649667
100
AcDbArc
 50
95.5582257175
 51
104.8627331068
  0
LINE
  5
1B0
330
1F
100
AcDbEntity
  8
0
  6
Continuous
 62
     7
370
    15
100
AcDbLine
 10
352.7424880255
 20
345.8808043923
 30
0.0
 11
352.7424880255
 21
337.0290527071
 31
0.0
  0
LINE
  5
1B1
330
1F
100
AcDbEntity
  8
0
  6
Continuous
 62
     7
370
    15
100
AcDbLine
 10
325.2424881745
 20
376.4523060944
 30
0.0
 11
376.2424872208
 21
376.4523060944
 31
0.0
  0
LINE
  5
1B2
330
1F
100
AcDbEntity
  8
0
  6
Continuous
 62
     7
370
    15
100
AcDbLine
 10
325.2424881745
 20
214.4523056175
 30
0.0
 11
376.2424872208
 21
214.4523056175
 31
0.0
  0
LINE
  5
1B3
330
1F
100
AcDbEntity
  8
0
  6
Continuous
 62
     7
370
    15
100
AcDbLine
 10
333.0521793056
 20
371.7801289584
 30
0.0
 11
333.0740784246
 21
371.7775138046
 31
0.0
  0
LINE
  5
1B4
330
1F
100
AcDbEntity
  8
0
  6
Continuous
 62
     7
370
    15
100
AcDbLine
 10
366.7424884576
 20
315.9523064222
 30
0.0
 11
366.7424884576
 21
283.2876162555
 31
0.0
  0
LINE
  5
1B5
330
1F
100
AcDbEntity
  8
0
  6
Continuous
 62
     7
370
    15
100
AcDbLine
 10
366.7424884576
 20
283.2876162555
 30
0.0
 11
359.0210596982
 21
283.2876162555
 31
0.0
  0
LWPOLYLINE
  5
1B6
330
1F
100
AcDbEntity
  8
0
  6
Continuous
 62
     7
370
    15
100
AcDbPolyline
 90
        3
 70
   128
 43
0.0
 10
334.5713787663
 20
352.8248162891
 10
334.6185493234
 20
352.8633655931
 10
334.6760221708
 20
352.8072329189
  0
ARC
  5
1B7
330
1F
100
AcDbEntity
  8
0
  6
Continuous
 62
     7
370
    15
100
AcDbCircle
 10
345.6302151412
 20
222.8160035748
 30
0.0
 40
14.3008115903345
100
AcDbArc
 50
101.6757273361
 51
109.8920327713
  0
LWPOLYLINE
  5
1B8
330
1F
100
AcDbEntity
  8
0
  6
Continuous
 62
     7
370
    15
100
AcDbPolyline
 90
        5
 70
   128
 43
0.0
 10
366.7424884576
 20
264.799626353
 10
363.2377409327
 20
256.7330094005
 10
359.7519644487
 20
248.0741197194
 10
358.2225707311
 20
243.6546886291
 10
356.5221656996
 20
239.3040152218
  0
LINE
  5
1B9
330
1F
100
AcDbEntity
  8
0
  6
Continuous
 62
     7
370
    15
100
AcDbLine
 10
391.2030779708
 20
275.452306303
 30
0.0
 11
391.2059985984
 21
283.4523057516
 31
0.0
  0
LINE
  5
1BA
330
1F
100
AcDbEntity
  8
0
  6
Continuous
 62
     7
370
    15
100
AcDbLine
 10
391.08449453
 20
274.4523061391
 30
0.0
 11
391.2030779708
 21
275.452306303
 31
0.0
  0
LINE
  5
1BB
330
1F
100
AcDbEntity
  8
0
  6
Continuous
 62
     7
370
    15
100
AcDbLine
 10
391.0720557857
 20
265.4523065265
 30
0.0
 11
391.08449453
 21
274.4523061391
 31
0.0
  0
LINE
  5
1BC
330
1F
100
AcDbEntity
  8
0
  6
Continuous
 62
     7
370
    15
100
AcDbLine
 10
391.0976001013
 20
283.4523057516
 30
0.0
 11
391.2424878168
 21
285.4523060795
 31
0.0
  0
LINE
  5
1BD
330
1F
100
AcDbEntity
  8
0
  6
Continuous
 62
     7
370
    15
100
AcDbLine
 10
366.7424884576
 20
283.2876162555
 30
0.0
 11
366.7424884576
 21
264.799626353
 31
0.0
  0
LINE
  5
1BE
330
1F
100
AcDbEntity
  8
0
  6
Continuous
 62
     7
370
    15
100
AcDbLine
 10
334.7354647655
 20
352.7695329811
 30
0.0
 11
334.6760221708
 21
352.8072329189
 31
0.0
  0
LINE
  5
1BF
330
1F
100
AcDbEntity
  8
0
  6
Continuous
 62
     7
370
    15
100
AcDbLine
 10
352.7424880255
 20
345.8808043923
 30
0.0
 11
352.7424880255
 21
353.9890365626
 31
0.0
  0
LINE
  5
1C0
330
1F
100
AcDbEntity
  8
0
  6
Continuous
 62
     7
370
    15
100
AcDbLine
 10
334.7424888003
 20
236.8209117975
 30
0.0
 11
334.7424888003
 21
236.2386936273
 31
0.0
  0
LINE
  5
1C1
330
1F
100
AcDbEntity
  8
0
  6
Continuous
 62
     7
370
    15
100
AcDbLine
 10
332.7424884725
 20
238.1350787308
 30
0.0
 11
332.7424884725
 21
237.9523048129
 31
0.0
  0
LINE
  5
1C2
330
1F
100
AcDbEntity
  8
0
  6
Continuous
 62
     7
370
    15
100
AcDbLine
 10
332.7424884725
 20
352.952306899
 30
0.0
 11
332.7424884725
 21
352.7695329811
 31
0.0
  0
LINE
  5
1C3
330
1F
100
AcDbEntity
  8
0
  6
Continuous
 62
     7
370
    15
100
AcDbLine
 10
392.2424898434
 20
285.4523060795
 30
0.0
 11
391.2424878168
 21
285.4523060795
 31
0.0
  0
LINE
  5
1C4
330
1F
100
AcDbEntity
  8
0
  6
Continuous
 62
     7
370
    15
100
AcDbLine
 10
392.2424898434
 20
283.4523057516
 30
0.0
 11
391.0976001013
 21
283.4523057516
 31
0.0
  0
LINE
  5
1C5
330
1F
100
AcDbEntity
  8
0
  6
Continuous
 62
     7
370
    15
100
AcDbLine
 10
392.2424898434
 20
285.4523060795
 30
0.0
 11
392.2424898434
 21
283.4523057516
 31
0.0
  0
LINE
  5
1C6
330
1F
100
AcDbEntity
  8
0
  6
Continuous
 62
     7
370
    15
100
AcDbLine
 10
392.2424898434
 20
274.4523061391
 30
0.0
 11
391.08449453
 21
274.4523061391
 31
0.0
  0
LINE
  5
1C7
330
1F
100
AcDbEntity
  8
0
  6
Continuous
 62
     7
370
    15
100
AcDbLine
 10
392.2424898434
 20
265.4523065265
 30
0.0
 11
391.0720557857
 21
265.4523065265
 31
0.0
  0
LINE
  5
1C8
330
1F
100
AcDbEntity
  8
0
  6
Continuous
 62
     7
370
    15
100
AcDbLine
 10
392.2424898434
 20
274.4523061391
 30
0.0
 11
392.2424898434
 21
265.4523065265
 31
0.0
  0
LINE
  5
1C9
330
1F
100
AcDbEntity
  8
0
  6
Continuous
 62
     7
370
    15
100
AcDbLine
 10
392.2424898434
 20
275.452306303
 30
0.0
 11
391.2030779708
 21
275.452306303
 31
0.0
  0
LINE
  5
1CA
330
1F
100
AcDbEntity
  8
0
  6
Continuous
 62
     7
370
    15
100
AcDbLine
 10
392.2424898434
 20
275.452306303
 30
0.0
 11
392.2424898434
 21
274.4523061391
 31
0.0
  0
LINE
  5
1CB
330
1F
100
AcDbEntity
  8
0
  6
Continuous
 62
     7
370
    15
100
AcDbLine
 10
392.2424898434
 20
283.4523057516
 30
0.0
 11
392.2424898434
 21
275.452306303
 31
0.0
  0
LINE
  5
1CC
330
1F
100
AcDbEntity
  8
SLD-0
  6
CENTERX2
370
     0
100
AcDbLine
 10
129.1385195721
 20
295.4523058559
 30
0.0
 11
399.3230260182
 21
295.4523058559
 31
0.0
  0
LINE
  5
1CD
330
1F
100
AcDbEntity
  8
SLD-0
  6
CENTERX2
370
     0
100
AcDbLine
 10
350.7424884129
 20
431.9060130426
 30
0.0
 11
350.7424884129
 21
160.5024752179
 31
0.0
  0
LINE
  5
1CE
330
1F
100
AcDbEntity
  8
0
  6
Continuous
 62
     7
370
    15
100
AcDbLine
 10
599.8445462177
 20
300.1829933326
 30
0.0
 11
596.8445475887
 21
300.0892431426
 31
0.0
  0
LINE
  5
1CF
330
1F
100
AcDbEntity
  8
0
  6
Continuous
 62
     7
370
    15
100
AcDbLine
 10
596.8445475887
 20
290.8153685692
 30
0.0
 11
599.8445462177
 21
290.7216183792
 31
0.0
  0
LINE
  5
1D0
330
1F
100
AcDbEntity
  8
0
  6
Continuous
 62
     7
370
    15
100
AcDbLine
 10
557.8439302484
 20
292.4211826592
 30
0.0
 11
557.8439302484
 21
219.462269726
 31
0.0
  0
LINE
  5
1D1
330
1F
100
AcDbEntity
  8
0
  6
Continuous
 62
     7
370
    15
100
AcDbLine
 10
592.8451634685
 20
219.4551618721
 30
0.0
 11
592.8451634685
 21
285.4517947834
 31
0.0
  0
LINE
  5
1D2
330
1F
100
AcDbEntity
  8
0
  6
Continuous
 62
     7
370
    15
100
AcDbLine
 10
600.8445463817
 20
212.452309015
 30
0.0
 11
600.8445463817
 21
214.4523056175
 31
0.0
  0
LINE
  5
1D3
330
1F
100
AcDbEntity
  8
0
  6
Continuous
 62
     7
370
    15
100
AcDbLine
 10
549.8445473353
 20
214.4523056175
 30
0.0
 11
549.8445473353
 21
212.452309015
 31
0.0
  0
LINE
  5
1D4
330
1F
100
AcDbEntity
  8
0
  6
Continuous
 62
     7
370
    15
100
AcDbLine
 10
549.8445473353
 20
378.4523026969
 30
0.0
 11
549.8445473353
 21
376.4523060944
 31
0.0
  0
LINE
  5
1D5
330
1F
100
AcDbEntity
  8
0
  6
Continuous
 62
     7
370
    15
100
AcDbLine
 10
600.8445463817
 20
376.4523060944
 30
0.0
 11
600.8445463817
 21
378.4523026969
 31
0.0
  0
ARC
  5
1D6
330
1F
100
AcDbEntity
  8
0
  6
Continuous
 62
     7
370
    15
100
AcDbCircle
 10
552.84394302
 20
219.452303091
 30
0.0
 40
4.999997581760008
100
AcDbArc
 50
270.0119251606
 51
0.0932918564
  0
ARC
  5
1D7
330
1F
100
AcDbEntity
  8
0
  6
Continuous
 62
     7
370
    15
100
AcDbCircle
 10
597.8451628889
 20
219.4523058559
 30
0.0
 40
5.000000000000009
100
AcDbArc
 50
179.9732864883
 51
269.9633478088
  0
ARC
  5
1D8
330
1F
100
AcDbEntity
  8
0
  6
Continuous
 62
     7
370
    15
100
AcDbCircle
 10
552.2074746334
 20
371.4526737392
 30
0.0
 40
4.999640022398631
100
AcDbArc
 50
1.9982337022
 51
88.9959651706
  0
ARC
  5
1D9
330
1F
100
AcDbEntity
  8
0
  6
Continuous
 62
     7
370
    15
100
AcDbCircle
 10
598.3423143528
 20
371.452382422
 30
0.0
 40
4.99992515693818
100
AcDbArc
 50
90.3158899558
 51
177.6717329631
  0
ARC
  5
1DA
330
1F
100
AcDbEntity
  8
0
  6
Continuous
 62
     7
370
    15
100
AcDbCircle
 10
585.4183919298
 20
370.3027709213
 30
0.0
 40
28.23668187160303
100
AcDbArc
 50
177.3502223728
 51
216.9019338718
  0
LWPOLYLINE
  5
1DB
330
1F
100
AcDbEntity
  8
0
  6
Continuous
 62
     7
370
    15
100
AcDbPolyline
 90
        9
 70
   128
 43
0.0
 10
599.4144316505
 20
355.2381673779
 10
597.6854685436
 20
356.194006088
 10
596.309867848
 20
357.3075624134
 10
594.4626044224
 20
359.672942939
 10
593.5291938226
 20
361.8443028953
 10
593.147576947
 20
363.6964948799
 10
593.1375466029
 20
366.8144883539
 10
593.2925596575
 20
370.7606436636
 10
593.3301366608
 20
371.6160746242
  0
ARC
  5
1DC
330
1F
100
AcDbEntity
  8
0
  6
Continuous
 62
     7
370
    15
100
AcDbCircle
 10
558.8105641702
 20
350.3292540642
 30
0.0
 40
4.974352464843178
100
AcDbArc
 50
285.6829483426
 51
37.6146283368
  0
CIRCLE
  5
1DD
330
1F
100
AcDbEntity
  8
0
  6
Continuous
 62
     7
370
    15
100
AcDbCircle
 10
527.968392519
 20
248.0761515164
 30
0.0
 40
3.0
  0
CIRCLE
  5
1DE
330
1F
100
AcDbEntity
  8
0
  6
Continuous
 62
     7
370
    15
100
AcDbCircle
 10
527.968392519
 20
342.8284601954
 30
0.0
 40
3.0
  0
CIRCLE
  5
1DF
330
1F
100
AcDbEntity
  8
0
  6
Continuous
 62
     7
370
    15
100
AcDbCircle
 10
622.720701198
 20
248.0761515164
 30
0.0
 40
3.0
  0
CIRCLE
  5
1E0
330
1F
100
AcDbEntity
  8
0
  6
Continuous
 62
     7
370
    15
100
AcDbCircle
 10
622.720701198
 20
342.8284601954
 30
0.0
 40
3.000000000000114
  0
ARC
  5
1E1
330
1F
100
AcDbEntity
  8
0
  6
Continuous
 62
     7
370
    15
100
AcDbCircle
 10
551.232126754
 20
361.7006356213
 30
0.0
 40
20.00000000000007
100
AcDbArc
 50
200.0
 51
216.0991574035
  0
ARC
  5
1E2
330
1F
100
AcDbEntity
  8
0
  6
Continuous
 62
     7
370
    15
100
AcDbCircle
 10
551.232126754
 20
361.7006356213
 30
0.0
 40
20.00000000000007
100
AcDbArc
 50
105.6273167735
 51
200.0
  0
LINE
  5
1E3
330
1F
100
AcDbEntity
  8
0
  6
Continuous
 62
     7
370
    15
100
AcDbLine
 10
531.0553788881
 20
349.5959097471
 30
0.0
 11
525.8998155336
 21
363.7607114341
 31
0.0
  0
ARC
  5
1E4
330
1F
100
AcDbEntity
  8
0
  6
Continuous
 62
     7
370
    15
100
AcDbCircle
 10
535.860555475
 20
367.3861256101
 30
0.0
 40
10.59999999999996
100
AcDbArc
 50
110.0
 51
200.0
  0
LINE
  5
1E5
330
1F
100
AcDbEntity
  8
0
  6
Continuous
 62
     7
370
    15
100
AcDbLine
 10
532.2351410727
 20
377.3468675043
 30
0.0
 11
545.8445466797
 21
382.3002891566
 31
0.0
  0
LINE
  5
1E6
330
1F
100
AcDbEntity
  8
0
  6
Continuous
 62
     7
370
    15
100
AcDbLine
 10
532.4403524141
 20
376.7830522682
 30
0.0
 11
545.8445466797
 21
381.66178185
 31
0.0
  0
ARC
  5
1E7
330
1F
100
AcDbEntity
  8
0
  6
Continuous
 62
     7
370
    15
100
AcDbCircle
 10
535.860555475
 20
367.3861256101
 30
0.0
 40
9.99999999999994
100
AcDbArc
 50
110.0
 51
200.0
  0
LINE
  5
1E8
330
1F
100
AcDbEntity
  8
0
  6
Continuous
 62
     7
370
    15
100
AcDbLine
 10
531.6758371632
 20
349.6455008115
 30
0.0
 11
526.4636307697
 21
363.9659227755
 31
0.0
  0
LINE
  5
1E9
330
1F
100
AcDbEntity
  8
0
  6
Continuous
 62
     7
370
    15
100
AcDbLine
 10
599.8445462177
 20
298.952305964
 30
0.0
 11
599.8445462177
 21
300.1829933326
 31
0.0
  0
LINE
  5
1EA
330
1F
100
AcDbEntity
  8
0
  6
Continuous
 62
     7
370
    15
100
AcDbLine
 10
599.8445462177
 20
290.7216183792
 30
0.0
 11
599.8445462177
 21
291.9523057479
 31
0.0
  0
LINE
  5
1EB
330
1F
100
AcDbEntity
  8
0
  6
Continuous
 62
     7
370
    15
100
AcDbLine
 10
599.8445462177
 20
292.2696334261
 30
0.0
 11
599.8445462177
 21
298.6349782858
 31
0.0
  0
LINE
  5
1EC
330
1F
100
AcDbEntity
  8
0
  6
Continuous
 62
     7
370
    15
100
AcDbLine
 10
599.8445462177
 20
291.9523057479
 30
0.0
 11
606.8445473651
 21
291.9523057479
 31
0.0
  0
LINE
  5
1ED
330
1F
100
AcDbEntity
  8
0
  6
Continuous
 62
     7
370
    15
100
AcDbLine
 10
599.8445462177
 20
292.2696334261
 30
0.0
 11
599.8445462177
 21
291.9523057479
 31
0.0
  0
LINE
  5
1EE
330
1F
100
AcDbEntity
  8
0
  6
Continuous
 62
     7
370
    15
100
AcDbLine
 10
599.8445462177
 20
298.952305964
 30
0.0
 11
599.8445462177
 21
298.6349782858
 31
0.0
  0
LINE
  5
1EF
330
1F
100
AcDbEntity
  8
0
  6
Continuous
 62
     7
370
    15
100
AcDbLine
 10
599.8445462177
 20
298.952305964
 30
0.0
 11
606.8445473651
 21
298.952305964
 31
0.0
  0
LINE
  5
1F0
330
1F
100
AcDbEntity
  8
0
  6
Continuous
 62
     7
370
    15
100
AcDbLine
 10
606.8445473651
 20
298.952305964
 30
0.0
 11
606.8445473651
 21
291.9523057479
 31
0.0
  0
LINE
  5
1F1
330
1F
100
AcDbEntity
  8
0
  6
Continuous
 62
     7
370
    15
100
AcDbLine
 10
566.853168581
 20
415.4523031737
 30
0.0
 11
566.853168581
 21
398.4523059751
 31
0.0
  0
LINE
  5
1F2
330
1F
100
AcDbEntity
  8
0
  6
Continuous
 62
     7
370
    15
100
AcDbLine
 10
583.835925136
 20
415.4523031737
 30
0.0
 11
583.835925136
 21
398.4523059751
 31
0.0
  0
LINE
  5
1F3
330
1F
100
AcDbEntity
  8
0
  6
Continuous
 62
     7
370
    15
100
AcDbLine
 10
583.835925136
 20
415.4523031737
 30
0.0
 11
566.853168581
 21
415.4523031737
 31
0.0
  0
LINE
  5
1F4
330
1F
100
AcDbEntity
  8
0
  6
Continuous
 62
     7
370
    15
100
AcDbLine
 10
595.8445474247
 20
415.4523031737
 30
0.0
 11
595.8445474247
 21
398.4523059751
 31
0.0
  0
LINE
  5
1F5
330
1F
100
AcDbEntity
  8
0
  6
Continuous
 62
     7
370
    15
100
AcDbLine
 10
595.8445474247
 20
415.4523031737
 30
0.0
 11
583.835925136
 21
415.4523031737
 31
0.0
  0
LINE
  5
1F6
330
1F
100
AcDbEntity
  8
0
  6
Continuous
 62
     7
370
    15
100
AcDbLine
 10
554.8445462923
 20
415.4523031737
 30
0.0
 11
554.8445462923
 21
398.4523059751
 31
0.0
  0
LINE
  5
1F7
330
1F
100
AcDbEntity
  8
0
  6
Continuous
 62
     7
370
    15
100
AcDbLine
 10
566.853168581
 20
415.4523031737
 30
0.0
 11
554.8445462923
 21
415.4523031737
 31
0.0
  0
LINE
  5
1F8
330
1F
100
AcDbEntity
  8
0
  6
Continuous
 62
     7
370
    15
100
AcDbLine
 10
583.835925136
 20
175.4523085381
 30
0.0
 11
583.835925136
 21
192.4523057367
 31
0.0
  0
LINE
  5
1F9
330
1F
100
AcDbEntity
  8
0
  6
Continuous
 62
     7
370
    15
100
AcDbLine
 10
566.853168581
 20
175.4523085381
 30
0.0
 11
566.853168581
 21
192.4523057367
 31
0.0
  0
LINE
  5
1FA
330
1F
100
AcDbEntity
  8
0
  6
Continuous
 62
     7
370
    15
100
AcDbLine
 10
566.853168581
 20
175.4523085381
 30
0.0
 11
583.835925136
 21
175.4523085381
 31
0.0
  0
LINE
  5
1FB
330
1F
100
AcDbEntity
  8
0
  6
Continuous
 62
     7
370
    15
100
AcDbLine
 10
595.8445474247
 20
175.4523085381
 30
0.0
 11
595.8445474247
 21
192.4523057367
 31
0.0
  0
LINE
  5
1FC
330
1F
100
AcDbEntity
  8
0
  6
Continuous
 62
     7
370
    15
100
AcDbLine
 10
583.835925136
 20
175.4523085381
 30
0.0
 11
595.8445474247
 21
175.4523085381
 31
0.0
  0
LINE
  5
1FD
330
1F
100
AcDbEntity
  8
0
  6
Continuous
 62
     7
370
    15
100
AcDbLine
 10
554.8445462923
 20
175.4523085381
 30
0.0
 11
554.8445462923
 21
192.4523057367
 31
0.0
  0
LINE
  5
1FE
330
1F
100
AcDbEntity
  8
0
  6
Continuous
 62
     7
370
    15
100
AcDbLine
 10
554.8445462923
 20
175.4523085381
 30
0.0
 11
566.853168581
 21
175.4523085381
 31
0.0
  0
LINE
  5
1FF
330
1F
100
AcDbEntity
  8
0
  6
Continuous
 62
     7
370
    15
100
AcDbLine
 10
587.5638473521
 20
192.4523057367
 30
0.0
 11
587.5638473521
 21
212.452309015
 31
0.0
  0
LINE
  5
200
330
1F
100
AcDbEntity
  8
0
  6
Continuous
 62
     7
370
    15
100
AcDbLine
 10
563.1252463649
 20
192.4523057367
 30
0.0
 11
563.1252463649
 21
212.452309015
 31
0.0
  0
LINE
  5
201
330
1F
100
AcDbEntity
  8
0
  6
Continuous
 62
     7
370
    15
100
AcDbLine
 10
563.1252463649
 20
192.4523057367
 30
0.0
 11
587.5638473521
 21
192.4523057367
 31
0.0
  0
LINE
  5
202
330
1F
100
AcDbEntity
  8
0
  6
Continuous
 62
     7
370
    15
100
AcDbLine
 10
587.5638473521
 20
212.452309015
 30
0.0
 11
563.1252463649
 21
212.452309015
 31
0.0
  0
LINE
  5
203
330
1F
100
AcDbEntity
  8
0
  6
Continuous
 62
     7
370
    15
100
AcDbLine
 10
604.8445470373
 20
192.4523057367
 30
0.0
 11
604.8445470373
 21
212.452309015
 31
0.0
  0
LINE
  5
204
330
1F
100
AcDbEntity
  8
0
  6
Continuous
 62
     7
370
    15
100
AcDbLine
 10
587.5638473521
 20
192.4523057367
 30
0.0
 11
604.8445470373
 21
192.4523057367
 31
0.0
  0
LINE
  5
205
330
1F
100
AcDbEntity
  8
0
  6
Continuous
 62
     7
370
    15
100
AcDbLine
 10
604.8445470373
 20
212.452309015
 30
0.0
 11
587.5638473521
 21
212.452309015
 31
0.0
  0
LINE
  5
206
330
1F
100
AcDbEntity
  8
0
  6
Continuous
 62
     7
370
    15
100
AcDbLine
 10
545.8445466797
 20
192.4523057367
 30
0.0
 11
545.8445466797
 21
212.452309015
 31
0.0
  0
LINE
  5
207
330
1F
100
AcDbEntity
  8
0
  6
Continuous
 62
     7
370
    15
100
AcDbLine
 10
545.8445466797
 20
192.4523057367
 30
0.0
 11
563.1252463649
 21
192.4523057367
 31
0.0
  0
LINE
  5
208
330
1F
100
AcDbEntity
  8
0
  6
Continuous
 62
     7
370
    15
100
AcDbLine
 10
563.1252463649
 20
212.452309015
 30
0.0
 11
545.8445466797
 21
212.452309015
 31
0.0
  0
LINE
  5
209
330
1F
100
AcDbEntity
  8
0
  6
Continuous
 62
     7
370
    15
100
AcDbLine
 10
563.1252463649
 20
398.4523059751
 30
0.0
 11
563.1252463649
 21
378.4523026969
 31
0.0
  0
LINE
  5
20A
330
1F
100
AcDbEntity
  8
0
  6
Continuous
 62
     7
370
    15
100
AcDbLine
 10
587.5638473521
 20
398.4523059751
 30
0.0
 11
587.5638473521
 21
378.4523026969
 31
0.0
  0
LINE
  5
20B
330
1F
100
AcDbEntity
  8
0
  6
Continuous
 62
     7
370
    15
100
AcDbLine
 10
587.5638473521
 20
398.4523059751
 30
0.0
 11
563.1252463649
 21
398.4523059751
 31
0.0
  0
LINE
  5
20C
330
1F
100
AcDbEntity
  8
0
  6
Continuous
 62
     7
370
    15
100
AcDbLine
 10
563.1252463649
 20
378.4523026969
 30
0.0
 11
587.5638473521
 21
378.4523026969
 31
0.0
  0
LINE
  5
20D
330
1F
100
AcDbEntity
  8
0
  6
Continuous
 62
     7
370
    15
100
AcDbLine
 10
604.8445470373
 20
398.4523059751
 30
0.0
 11
604.8445470373
 21
378.4523026969
 31
0.0
  0
LINE
  5
20E
330
1F
100
AcDbEntity
  8
0
  6
Continuous
 62
     7
370
    15
100
AcDbLine
 10
604.8445470373
 20
398.4523059751
 30
0.0
 11
587.5638473521
 21
398.4523059751
 31
0.0
  0
LINE
  5
20F
330
1F
100
AcDbEntity
  8
0
  6
Continuous
 62
     7
370
    15
100
AcDbLine
 10
587.5638473521
 20
378.4523026969
 30
0.0
 11
604.8445470373
 21
378.4523026969
 31
0.0
  0
LINE
  5
210
330
1F
100
AcDbEntity
  8
0
  6
Continuous
 62
     7
370
    15
100
AcDbLine
 10
545.8445466797
 20
398.4523059751
 30
0.0
 11
545.8445466797
 21
378.4523026969
 31
0.0
  0
LINE
  5
211
330
1F
100
AcDbEntity
  8
0
  6
Continuous
 62
     7
370
    15
100
AcDbLine
 10
563.1252463649
 20
398.4523059751
 30
0.0
 11
545.8445466797
 21
398.4523059751
 31
0.0
  0
LINE
  5
212
330
1F
100
AcDbEntity
  8
0
  6
Continuous
 62
     7
370
    15
100
AcDbLine
 10
545.8445466797
 20
378.4523026969
 30
0.0
 11
563.1252463649
 21
378.4523026969
 31
0.0
  0
LINE
  5
213
330
1F
100
AcDbEntity
  8
0
  6
Continuous
 62
     7
370
    15
100
AcDbLine
 10
577.3445469535
 20
274.4523061391
 30
0.0
 11
576.344546906
 21
275.452306303
 31
0.0
  0
LINE
  5
214
330
1F
100
AcDbEntity
  8
0
  6
Continuous
 62
     7
370
    15
100
AcDbLine
 10
575.3445468585
 20
267.4523049917
 30
0.0
 11
577.3445469535
 21
265.4523065265
 31
0.0
  0
LINE
  5
215
330
1F
100
AcDbEntity
  8
0
  6
Continuous
 62
     7
370
    15
100
AcDbLine
 10
573.3445467635
 20
265.4523065265
 30
0.0
 11
575.3445468585
 21
267.4523049917
 31
0.0
  0
LINE
  5
216
330
1F
100
AcDbEntity
  8
0
  6
Continuous
 62
     7
370
    15
100
AcDbLine
 10
576.344546906
 20
283.4523057516
 30
0.0
 11
577.3445469535
 21
283.4523057516
 31
0.0
  0
LINE
  5
217
330
1F
100
AcDbEntity
  8
0
  6
Continuous
 62
     7
370
    15
100
AcDbLine
 10
576.344546906
 20
275.452306303
 30
0.0
 11
576.344546906
 21
283.4523057516
 31
0.0
  0
LINE
  5
218
330
1F
100
AcDbEntity
  8
0
  6
Continuous
 62
     7
370
    15
100
AcDbLine
 10
577.3445469535
 20
283.4523057516
 30
0.0
 11
575.3445468585
 21
285.4523060795
 31
0.0
  0
LINE
  5
219
330
1F
100
AcDbEntity
  8
0
  6
Continuous
 62
     7
370
    15
100
AcDbLine
 10
575.3445468585
 20
285.4523060795
 30
0.0
 11
573.3445467635
 21
283.4523057516
 31
0.0
  0
LINE
  5
21A
330
1F
100
AcDbEntity
  8
0
  6
Continuous
 62
     7
370
    15
100
AcDbLine
 10
574.344546811
 20
275.452306303
 30
0.0
 11
573.3445467635
 21
274.4523061391
 31
0.0
  0
LINE
  5
21B
330
1F
100
AcDbEntity
  8
0
  6
Continuous
 62
     7
370
    15
100
AcDbLine
 10
573.3445467635
 20
274.4523061391
 30
0.0
 11
573.3445467635
 21
265.4523065265
 31
0.0
  0
LINE
  5
21C
330
1F
100
AcDbEntity
  8
0
  6
Continuous
 62
     7
370
    15
100
AcDbLine
 10
573.3445467635
 20
283.4523057516
 30
0.0
 11
574.344546811
 21
283.4523057516
 31
0.0
  0
LINE
  5
21D
330
1F
100
AcDbEntity
  8
0
  6
Continuous
 62
     7
370
    15
100
AcDbLine
 10
577.3445469535
 20
265.4523065265
 30
0.0
 11
577.3445469535
 21
274.4523061391
 31
0.0
  0
LINE
  5
21E
330
1F
100
AcDbEntity
  8
0
  6
Continuous
 62
     7
370
    15
100
AcDbLine
 10
574.344546811
 20
283.4523057516
 30
0.0
 11
574.344546811
 21
275.452306303
 31
0.0
  0
LWPOLYLINE
  5
21F
330
1F
100
AcDbEntity
  8
0
  6
Continuous
 62
     7
370
    15
100
AcDbPolyline
 90
       17
 70
   128
 43
0.0
 10
589.1564024354
 20
305.4523056324
 10
589.0905774872
 20
305.5475193958
 10
586.8710076178
 20
308.1706015344
 10
584.0690621848
 20
310.3884009596
 10
581.4592905085
 20
311.7397183504
 10
578.5534418396
 20
312.6246852751
 10
575.8358533935
 20
312.9446169313
 10
573.0189764149
 20
312.7804955419
 10
570.4407623711
 20
312.1807498809
 10
567.927923214
 20
311.1389109816
 10
565.6260179098
 20
309.706953163
 10
563.5273076336
 20
307.8807478722
 10
561.6970427076
 20
305.6877244215
 10
560.1909637193
 20
303.1769574571
 10
559.0169775973
 20
300.3122618373
 10
558.2527678202
 20
297.2419342676
 10
557.8473388891
 20
292.4208960447
  0
LWPOLYLINE
  5
220
330
1F
100
AcDbEntity
  8
0
  6
Continuous
 62
     7
370
    15
100
AcDbPolyline
 90
       12
 70
   128
 43
0.0
 10
592.6595229397
 20
285.4523060795
 10
591.9099386523
 20
285.8934586819
 10
590.7049506645
 20
287.0824204709
 10
589.0529781322
 20
289.2236749593
 10
588.115183797
 20
290.8231274176
 10
587.2918620448
 20
292.6378436803
 10
586.370185178
 20
295.7372077343
 10
585.9311178069
 20
298.9137375678
 10
585.8959482725
 20
301.6236529637
 10
586.2065639089
 20
303.7917314048
 10
586.8410218249
 20
305.085364538
 10
587.6078979785
 20
305.4523056324
  0
LINE
  5
221
330
1F
100
AcDbEntity
  8
0
  6
Continuous
 62
     7
370
    15
100
AcDbLine
 10
596.8445475887
 20
305.4523056324
 30
0.0
 11
587.6078979785
 21
305.4523056324
 31
0.0
  0
LINE
  5
222
330
1F
100
AcDbEntity
  8
0
  6
Continuous
 62
     7
370
    15
100
AcDbLine
 10
596.8445475887
 20
305.4523056324
 30
0.0
 11
596.8445475887
 21
285.4523060795
 31
0.0
  0
LINE
  5
223
330
1F
100
AcDbEntity
  8
0
  6
Continuous
 62
     7
370
    15
100
AcDbLine
 10
596.8445475887
 20
285.4523060795
 30
0.0
 11
592.6595229397
 21
285.4523060795
 31
0.0
  0
LINE
  5
224
330
1F
100
AcDbEntity
  8
0
  6
Continuous
 62
     7
370
    15
100
AcDbLine
 10
575.3445468585
 20
214.4523056175
 30
0.0
 11
600.8445463817
 21
214.4523056175
 31
0.0
  0
LINE
  5
225
330
1F
100
AcDbEntity
  8
0
  6
Continuous
 62
     7
370
    15
100
AcDbLine
 10
549.8445473353
 20
214.4523056175
 30
0.0
 11
575.3445468585
 21
214.4523056175
 31
0.0
  0
LINE
  5
226
330
1F
100
AcDbEntity
  8
0
  6
Continuous
 62
     7
370
    15
100
AcDbLine
 10
575.3445468585
 20
376.4523060944
 30
0.0
 11
600.8445463817
 21
376.4523060944
 31
0.0
  0
LINE
  5
227
330
1F
100
AcDbEntity
  8
0
  6
Continuous
 62
     7
370
    15
100
AcDbLine
 10
549.8445473353
 20
376.4523060944
 30
0.0
 11
575.3445468585
 21
376.4523060944
 31
0.0
  0
LINE
  5
228
330
1F
100
AcDbEntity
  8
0
  6
Continuous
 62
     7
370
    15
100
AcDbLine
 10
593.1880708526
 20
371.6217594172
 30
0.0
 11
593.2026553641
 21
371.6633932616
 31
0.0
  0
LINE
  5
229
330
1F
100
AcDbEntity
  8
0
  6
Continuous
 62
     7
370
    15
100
AcDbLine
 10
557.255125765
 20
371.6183694031
 30
0.0
 11
557.2575229893
 21
371.6099800493
 31
0.0
  0
ARC
  5
22A
330
1F
100
AcDbEntity
  8
0
  6
Continuous
 62
     7
370
    15
100
AcDbCircle
 10
575.3445468585
 20
295.4523058559
 30
0.0
 40
20.4999999999999
100
AcDbArc
 50
328.764577256
 51
330.8035955904
  0
ARC
  5
22B
330
1F
100
AcDbEntity
  8
0
  6
Continuous
 62
     7
370
    15
100
AcDbCircle
 10
575.3445468585
 20
295.4523058559
 30
0.0
 40
20.50000000000004
100
AcDbArc
 50
29.1964044096
 51
211.2215169124
  0
LWPOLYLINE
  5
22C
330
1F
100
AcDbEntity
  8
0
  6
Continuous
 62
     7
370
    15
100
AcDbPolyline
 90
        2
 70
   128
 43
0.0
 10
599.4144316505
 20
355.2381673779
 10
599.4144316505
 20
355.2381673779
  0
LWPOLYLINE
  5
22D
330
1F
100
AcDbEntity
  8
0
  6
Continuous
 62
     7
370
    15
100
AcDbPolyline
 90
        2
 70
   128
 43
0.0
 10
599.4144316505
 20
355.2381673779
 10
599.4144316505
 20
355.2381673779
  0
ARC
  5
22E
330
1F
100
AcDbEntity
  8
0
  6
Continuous
 62
     7
370
    15
100
AcDbCircle
 10
575.3445468585
 20
295.4523058559
 30
0.0
 40
51.75184174139304
100
AcDbArc
 50
289.7956873884
 51
182.2617216816
  0
ARC
  5
22F
330
1F
100
AcDbEntity
  8
0
  6
Continuous
 62
     7
370
    15
100
AcDbCircle
 10
575.3445468585
 20
295.4523058559
 30
0.0
 40
51.75184174139224
100
AcDbArc
 50
182.2617216816
 51
250.2002955918
  0
LINE
  5
230
330
1F
100
AcDbEntity
  8
0
  6
Continuous
 62
     7
370
    15
100
AcDbLine
 10
608.9887052516
 20
305.0996137734
 30
0.0
 11
607.4282072226
 21
302.6383223895
 31
0.0
  0
LINE
  5
231
330
1F
100
AcDbEntity
  8
0
  6
Continuous
 62
     7
370
    15
100
AcDbLine
 10
611.4499971013
 20
303.5391129504
 30
0.0
 11
608.9887052516
 21
305.0996137734
 31
0.0
  0
LINE
  5
232
330
1F
100
AcDbEntity
  8
0
  6
Continuous
 62
     7
370
    15
100
AcDbLine
 10
610.474175934
 20
303.3205501686
 30
0.0
 11
611.4499971013
 21
303.5391129504
 31
0.0
  0
ARC
  5
233
330
1F
100
AcDbEntity
  8
0
  6
Continuous
 62
     7
370
    15
100
AcDbCircle
 10
575.3445468585
 20
295.4523058559
 30
0.0
 40
35.9999999999999
100
AcDbArc
 50
1.5678961831
 51
12.6246070069
  0
LINE
  5
234
330
1F
100
AcDbEntity
  8
0
  6
Continuous
 62
     7
370
    15
100
AcDbLine
 10
612.3445473353
 20
295.4524294657
 30
0.0
 11
611.3310672085
 21
296.437321156
 31
0.0
  0
ARC
  5
235
330
1F
100
AcDbEntity
  8
0
  6
Continuous
 62
     7
370
    15
100
AcDbCircle
 10
575.3445468585
 20
295.4523058559
 30
0.0
 40
36.99999999999994
100
AcDbArc
 50
344.0
 51
0.0001914139
  0
LINE
  5
236
330
1F
100
AcDbEntity
  8
0
  6
Continuous
 62
     7
370
    15
100
AcDbLine
 10
609.4848282377
 20
287.7424874294
 30
0.0
 11
610.9112307171
 21
285.2537238922
 31
0.0
  0
LINE
  5
237
330
1F
100
AcDbEntity
  8
0
  6
Continuous
 62
     7
370
    15
100
AcDbLine
 10
607.0661835114
 20
286.3562729161
 30
0.0
 11
609.4848282377
 21
287.7424874294
 31
0.0
  0
ARC
  5
238
330
1F
100
AcDbEntity
  8
0
  6
Continuous
 62
     7
370
    15
100
AcDbCircle
 10
575.3445468585
 20
295.4523058559
 30
0.0
 40
33.0
100
AcDbArc
 50
344.0
 51
0.0
  0
LINE
  5
239
330
1F
100
AcDbEntity
  8
0
  6
Continuous
 62
     7
370
    15
100
AcDbLine
 10
609.3294389288
 20
296.4657841201
 30
0.0
 11
608.3445466797
 21
295.4523058559
 31
0.0
  0
ARC
  5
23A
330
1F
100
AcDbEntity
  8
0
  6
Continuous
 62
     7
370
    15
100
AcDbCircle
 10
575.3445468585
 20
295.4523058559
 30
0.0
 40
33.99999999999991
100
AcDbArc
 50
1.7081362105
 51
12.6246070069
  0
LINE
  5
23B
330
1F
100
AcDbEntity
  8
0
  6
Continuous
 62
     7
370
    15
100
AcDbLine
 10
607.4282072226
 20
302.6383223895
 30
0.0
 11
608.5225298743
 21
302.883426002
 31
0.0
  0
ARC
  5
23C
330
1F
100
AcDbEntity
  8
0
  6
Continuous
 62
     7
370
    15
100
AcDbCircle
 10
577.0575299505
 20
293.1758389542
 30
0.0
 40
57.00299604180787
100
AcDbArc
 50
171.4210044304
 51
215.6362414498
  0
ARC
  5
23D
330
1F
100
AcDbEntity
  8
0
  6
Continuous
 62
     7
370
    15
100
AcDbCircle
 10
574.9429938569
 20
292.6310407347
 30
0.0
 40
55.00002094035064
100
AcDbArc
 50
131.908565351
 51
170.5311822753
  0
ARC
  5
23E
330
1F
100
AcDbEntity
  8
0
  6
Continuous
 62
     7
370
    15
100
AcDbCircle
 10
578.0680331131
 20
294.9542063574
 30
0.0
 40
58.86664009621976
100
AcDbArc
 50
216.4699930569
 51
249.9062067976
  0
ARC
  5
23F
330
1F
100
AcDbEntity
  8
0
  6
Continuous
 62
     7
370
    15
100
AcDbCircle
 10
573.231158828
 20
295.730581612
 30
0.0
 40
65.0132027059248
100
AcDbArc
 50
37.1485013021
 51
66.2505581231
  0
ARC
  5
240
330
1F
100
AcDbEntity
  8
0
  6
Continuous
 62
     7
370
    15
100
AcDbCircle
 10
577.0381390148
 20
296.7480316237
 30
0.0
 40
60.50933934407175
100
AcDbArc
 50
285.1528832814
 51
306.4807835145
  0
ARC
  5
241
330
1F
100
AcDbEntity
  8
0
  6
Continuous
 62
     7
370
    15
100
AcDbCircle
 10
574.0475251195
 20
297.1442375013
 30
0.0
 40
63.51197896093248
100
AcDbArc
 50
352.1157984904
 51
36.5767270654
  0
ARC
  5
242
330
1F
100
AcDbEntity
  8
0
  6
Continuous
 62
     7
370
    15
100
AcDbCircle
 10
575.6248084085
 20
297.5659412781
 30
0.0
 40
62.01069280742288
100
AcDbArc
 50
307.0814710294
 51
351.5299237771
  0
ARC
  5
243
330
1F
100
AcDbEntity
  8
0
  6
Continuous
 62
     7
370
    15
100
AcDbCircle
 10
574.3527472343
 20
293.4382890198
 30
0.0
 40
54.0
100
AcDbArc
 50
103.7943697569
 51
126.1732143844
  0
ARC
  5
244
330
1F
100
AcDbEntity
  8
0
  6
Continuous
 62
     7
370
    15
100
AcDbCircle
 10
574.9429755857
 20
292.6310526894
 30
0.0
 40
54.99999999999999
100
AcDbArc
 50
126.1732143844
 51
131.908558069
  0
CIRCLE
  5
245
330
1F
100
AcDbEntity
  8
0
  6
Continuous
 62
     7
370
    15
100
AcDbCircle
 10
622.720701198
 20
342.8284601954
 30
0.0
 40
3.0
  0
LINE
  5
246
330
1F
100
AcDbEntity
  8
0
  6
Continuous
 62
     7
370
    15
100
AcDbLine
 10
623.2385553162
 20
349.3077995207
 30
0.0
 11
608.2512952129
 21
350.5056368138
 31
0.0
  0
ARC
  5
247
330
1F
100
AcDbEntity
  8
0
  6
Continuous
 62
     7
370
    15
100
AcDbCircle
 10
622.720701198
 20
342.8284601954
 30
0.0
 40
6.50000000000003
100
AcDbArc
 50
4.5695742914
 51
85.4304257086
  0
LINE
  5
248
330
1F
100
AcDbEntity
  8
0
  6
Continuous
 62
     7
370
    15
100
AcDbLine
 10
630.579094563
 20
326.0916562702
 30
0.0
 11
629.2000405232
 21
343.3463143136
 31
0.0
  0
CIRCLE
  5
249
330
1F
100
AcDbEntity
  8
0
  6
Continuous
 62
     7
370
    15
100
AcDbCircle
 10
622.720701198
 20
248.0761515164
 30
0.0
 40
3.0
  0
LINE
  5
24A
330
1F
100
AcDbEntity
  8
0
  6
Continuous
 62
     7
370
    15
100
AcDbLine
 10
596.5225316326
 20
239.4615726497
 30
0.0
 11
623.2385553162
 21
241.5968121912
 31
0.0
  0
LINE
  5
24B
330
1F
100
AcDbEntity
  8
0
  6
Continuous
 62
     7
370
    15
100
AcDbLine
 10
629.2000405232
 20
247.5582973983
 30
0.0
 11
630.9598937373
 21
269.5774694856
 31
0.0
  0
ARC
  5
24C
330
1F
100
AcDbEntity
  8
0
  6
Continuous
 62
     7
370
    15
100
AcDbCircle
 10
622.720701198
 20
248.0761515164
 30
0.0
 40
6.499999999999993
100
AcDbArc
 50
274.5695742914
 51
355.4304257086
  0
CIRCLE
  5
24D
330
1F
100
AcDbEntity
  8
0
  6
Continuous
 62
     7
370
    15
100
AcDbCircle
 10
527.968392519
 20
342.8284601954
 30
0.0
 40
3.0
  0
ARC
  5
24E
330
1F
100
AcDbEntity
  8
0
  6
Continuous
 62
     7
370
    15
100
AcDbCircle
 10
575.3445468585
 20
295.4523058559
 30
0.0
 40
57.50000000000009
100
AcDbArc
 50
175.4304257086
 51
184.5695742914
  0
CIRCLE
  5
24F
330
1F
100
AcDbEntity
  8
0
  6
Continuous
 62
     7
370
    15
100
AcDbCircle
 10
527.968392519
 20
248.0761515164
 30
0.0
 40
3.0
  0
ARC
  5
250
330
1F
100
AcDbEntity
  8
0
  6
Continuous
 62
     7
370
    15
100
AcDbCircle
 10
527.968392519
 20
248.0761515164
 30
0.0
 40
6.50000000000008
100
AcDbArc
 50
184.5695742914
 51
265.4304257086
  0
LINE
  5
251
330
1F
100
AcDbEntity
  8
0
  6
Continuous
 62
     7
370
    15
100
AcDbLine
 10
518.0273197333
 20
290.8713042687
 30
0.0
 11
521.4890531938
 21
247.5582973983
 31
0.0
  0
LINE
  5
252
330
1F
100
AcDbEntity
  8
0
  6
Continuous
 62
     7
370
    15
100
AcDbLine
 10
527.4505384008
 20
241.5968121912
 30
0.0
 11
557.8439302484
 21
239.1676621463
 31
0.0
  0
LINE
  5
253
330
1F
100
AcDbEntity
  8
0
  6
Continuous
 62
     7
370
    15
100
AcDbLine
 10
521.4890531938
 20
343.3463143136
 30
0.0
 11
518.0273197333
 21
300.0333074431
 31
0.0
  0
ARC
  5
254
330
1F
100
AcDbEntity
  8
0
  6
Continuous
 62
     7
370
    15
100
AcDbCircle
 10
527.968392519
 20
342.8284601954
 30
0.0
 40
6.500000000000021
100
AcDbArc
 50
94.5695742914
 51
175.4304257086
  0
LINE
  5
255
330
1F
100
AcDbEntity
  8
0
  6
Continuous
 62
     7
370
    15
100
AcDbLine
 10
563.4326517324
 20
352.183619323
 30
0.0
 11
527.4505384008
 21
349.3077995207
 31
0.0
  0
LINE
  5
256
330
1F
100
AcDbEntity
  8
SLD-0
  6
CENTERX2
370
     0
100
AcDbLine
 10
575.3445468585
 20
429.272613394
 30
0.0
 11
575.3445468585
 21
159.8689420946
 31
0.0
  0
LINE
  5
257
330
1F
100
AcDbEntity
  8
SLD-0
  6
CENTERX2
370
     0
100
AcDbLine
 10
502.5890452161
 20
295.4523058559
 30
0.0
 11
647.0736957454
 21
295.4523058559
 31
0.0
  0
ENDSEC
  0
SECTION
  2
OBJECTS
  0
DICTIONARY
  5
C
330
0
100
AcDbDictionary
281
     1
  3
ACAD_GROUP
350
D
  3
ACAD_LAYOUT
350
1A
  3
ACAD_MLEADERSTYLE
350
259
  3
ACAD_MLINESTYLE
350
17
  3
ACAD_PLOTSETTINGS
350
19
  3
ACAD_PLOTSTYLENAME
350
E
  3
ACAD_TABLESTYLE
350
258
  3
ACAD_VISUALSTYLE
350
2A
  3
AcDbVariableDictionary
350
25A
  0
DICTIONARY
  5
D
102
{ACAD_REACTORS
330
C
102
}
330
C
100
AcDbDictionary
281
     1
  0
DICTIONARY
  5
1A
102
{ACAD_REACTORS
330
C
102
}
330
C
100
AcDbDictionary
281
     1
  3
Layout1
350
1E
  3
Layout2
350
26
  3
Model
350
22
  0
DICTIONARY
  5
259
102
{ACAD_REACTORS
330
C
102
}
330
C
100
AcDbDictionary
281
     1
  0
DICTIONARY
  5
17
102
{ACAD_REACTORS
330
C
102
}
330
C
100
AcDbDictionary
281
     1
  3
Standard
350
18
  0
DICTIONARY
  5
19
102
{ACAD_REACTORS
330
C
102
}
330
C
100
AcDbDictionary
281
     1
  0
ACDBDICTIONARYWDFLT
  5
E
102
{ACAD_REACTORS
330
C
102
}
330
C
100
AcDbDictionary
281
     1
  3
Normal
350
F
100
AcDbDictionaryWithDefault
340
F
  0
DICTIONARY
  5
258
102
{ACAD_REACTORS
330
C
102
}
330
C
100
AcDbDictionary
281
     1
  0
DICTIONARY
  5
2A
102
{ACAD_REACTORS
330
C
102
}
330
C
100
AcDbDictionary
281
     1
  3
2dWireframe
350
2F
  3
3D Hidden
350
31
  3
3dWireframe
350
30
  3
Basic
350
32
  3
Brighten
350
36
  3
ColorChange
350
3A
  3
Conceptual
350
34
  3
Dim
350
35
  3
Facepattern
350
39
  3
Flat
350
2B
  3
FlatWithEdges
350
2C
  3
Gouraud
350
2D
  3
GouraudWithEdges
350
2E
  3
Linepattern
350
38
  3
Realistic
350
33
  3
Thicken
350
37
  0
DICTIONARY
  5
25A
102
{ACAD_REACTORS
330
C
102
}
330
C
100
AcDbDictionary
281
     1
  3
PSOLHEIGHT
350
25C
  3
PSOLWIDTH
350
25B
  0
LAYOUT
  5
1E
102
{ACAD_REACTORS
330
1A
102
}
330
1A
100
AcDbPlotSettings
  1

  2
none_device
  4

  6

 40
0.0
 41
0.0
 42
0.0
 43
0.0
 44
0.0
 45
0.0
 46
0.0
 47
0.0
 48
0.0
 49
0.0
140
0.0
141
0.0
142
1.0
143
1.0
 70
   688
 72
     0
 73
     0
 74
     5
  7

 75
    16
147
1.0
148
0.0
149
0.0
100
AcDbLayout
  1
Layout1
 70
     1
 71
     1
 10
0.0
 20
0.0
 11
420.0
 21
297.0
 12
0.0
 22
0.0
 32
0.0
 14
1.0000000000E+20
 24
1.0000000000E+20
 34
1.0000000000E+20
 15
-1.0000000000E+20
 25
-1.0000000000E+20
 35
-1.0000000000E+20
146
0.0
 13
0.0
 23
0.0
 33
0.0
 16
1.0
 26
0.0
 36
0.0
 17
0.0
 27
1.0
 37
0.0
 76
     0
330
1B
  0
LAYOUT
  5
26
102
{ACAD_REACTORS
330
1A
102
}
330
1A
100
AcDbPlotSettings
  1

  2
none_device
  4

  6

 40
0.0
 41
0.0
 42
0.0
 43
0.0
 44
0.0
 45
0.0
 46
0.0
 47
0.0
 48
0.0
 49
0.0
140
0.0
141
0.0
142
1.0
143
1.0
 70
   688
 72
     0
 73
     0
 74
     5
  7

 75
    16
147
1.0
148
0.0
149
0.0
100
AcDbLayout
  1
Layout2
 70
     1
 71
     2
 10
0.0
 20
0.0
 11
0.0
 21
0.0
 12
0.0
 22
0.0
 32
0.0
 14
0.0
 24
0.0
 34
0.0
 15
0.0
 25
0.0
 35
0.0
146
0.0
 13
0.0
 23
0.0
 33
0.0
 16
1.0
 26
0.0
 36
0.0
 17
0.0
 27
1.0
 37
0.0
 76
     0
330
23
  0
LAYOUT
  5
22
102
{ACAD_REACTORS
330
1A
102
}
330
1A
100
AcDbPlotSettings
  1

  2
none_device
  4

  6

 40
0.0
 41
0.0
 42
0.0
 43
0.0
 44
0.0
 45
0.0
 46
0.0
 47
0.0
 48
0.0
 49
0.0
140
0.0
141
0.0
142
1.0
143
1.0
 70
  1712
 72
     0
 73
     0
 74
     0
  7

 75
     0
147
1.0
148
0.0
149
0.0
100
AcDbLayout
  1
Model
 70
     1
 71
     0
 10
0.0
 20
0.0
 11
841.0
 21
594.0
 12
0.0
 22
0.0
 32
0.0
 14
0.0
 24
0.0
 34
0.0
 15
841.0
 25
594.0
 35
0.0
146
0.0
 13
0.0
 23
0.0
 33
0.0
 16
1.0
 26
0.0
 36
0.0
 17
0.0
 27
1.0
 37
0.0
 76
     0
330
1F
331
29
  0
MLINESTYLE
  5
18
102
{ACAD_REACTORS
330
17
102
}
330
17
100
AcDbMlineStyle
  2
Standard
 70
     0
  3

 62
   256
 51
90.0
 52
90.0
 71
     2
 49
0.5
 62
   256
  6
BYLAYER
 49
-0.5
 62
   256
  6
BYLAYER
  0
ACDBPLACEHOLDER
  5
F
102
{ACAD_REACTORS
330
E
102
}
330
E
  0
VISUALSTYLE
  5
2F
102
{ACAD_REACTORS
330
2A
102
}
330
2A
100
AcDbVisualStyle
  2
2dWireframe
 70
     4
 71
     0
 72
     2
 73
     0
 90
        0
 40
-0.6
 41
-30.0
 62
     5
 63
     7
 74
     1
 91
        4
 64
     7
 65
   257
 75
     1
175
     1
 42
1.0
 92
        0
 66
   257
 43
1.0
 76
     1
 77
     6
 78
     2
 67
     7
 79
     5
170
     0
171
     0
290
     0
174
     0
 93
        1
 44
0.0
173
     0
291
     0
 45
0.0
1001
ACAD
1000
AcDbSavedByObjectVersion
1070
     0
  0
VISUALSTYLE
  5
31
102
{ACAD_REACTORS
330
2A
102
}
330
2A
100
AcDbVisualStyle
  2
3D Hidden
 70
     6
 71
     1
 72
     2
 73
     2
 90
        0
 40
-0.6
 41
-30.0
 62
     5
 63
     7
 74
     2
 91
        2
 64
     7
 65
   257
 75
     2
175
     1
 42
40.0
 92
        0
 66
   257
 43
1.0
 76
     1
 77
     6
 78
     2
 67
     7
 79
     3
170
     0
171
     0
290
     0
174
     0
 93
        1
 44
0.0
173
     0
291
     0
 45
0.0
1001
ACAD
1000
AcDbSavedByObjectVersion
1070
     0
  0
VISUALSTYLE
  5
30
102
{ACAD_REACTORS
330
2A
102
}
330
2A
100
AcDbVisualStyle
  2
3dWireframe
 70
     5
 71
     0
 72
     2
 73
     0
 90
        0
 40
-0.6
 41
-30.0
 62
     5
 63
     7
 74
     1
 91
        4
 64
     7
 65
   257
 75
     1
175
     1
 42
1.0
 92
        0
 66
   257
 43
1.0
 76
     1
 77
     6
 78
     2
 67
     7
 79
     5
170
     0
171
     0
290
     0
174
     0
 93
        1
 44
0.0
173
     0
291
     0
 45
0.0
1001
ACAD
1000
AcDbSavedByObjectVersion
1070
     0
  0
VISUALSTYLE
  5
32
102
{ACAD_REACTORS
330
2A
102
}
330
2A
100
AcDbVisualStyle
  2
Basic
 70
     7
 71
     1
 72
     0
 73
     1
 90
        0
 40
-0.6
 41
-30.0
 62
     5
 63
     7
 74
     0
 91
        4
 64
     7
 65
   257
 75
     1
175
     1
 42
1.0
 92
        8
 66
     7
 43
1.0
 76
     1
 77
     6
 78
     2
 67
     7
 79
     5
170
     0
171
     0
290
     0
174
     0
 93
        1
 44
0.0
173
     0
291
     1
 45
0.0
1001
ACAD
1000
AcDbSavedByObjectVersion
1070
     0
  0
VISUALSTYLE
  5
36
102
{ACAD_REACTORS
330
2A
102
}
330
2A
100
AcDbVisualStyle
  2
Brighten
 70
    12
 71
     2
 72
     2
 73
     0
 90
        0
 40
-0.6
 41
-30.0
 62
     5
 63
     7
 74
     1
 91
        4
 64
     7
 65
   257
 75
     1
175
     1
 42
1.0
 92
        8
 66
     7
 43
1.0
 76
     1
 77
     6
 78
     2
 67
     7
 79
     5
170
     0
171
     0
290
     0
174
     0
 93
        1
 44
50.0
173
     0
291
     1
 45
0.0
1001
ACAD
1000
AcDbSavedByObjectVersion
1070
     0
  0
VISUALSTYLE
  5
3A
102
{ACAD_REACTORS
330
2A
102
}
330
2A
100
AcDbVisualStyle
  2
ColorChange
 70
    16
 71
     2
 72
     2
 73
     3
 90
        0
 40
-0.6
 41
-30.0
 62
     5
 63
     8
 74
     1
 91
        4
 64
     7
 65
   257
 75
     1
175
     1
 42
1.0
 92
        8
 66
     8
 43
1.0
 76
     1
 77
     6
 78
     2
 67
     7
 79
     5
170
     0
171
     0
290
     0
174
     0
 93
        1
 44
0.0
173
     0
291
     1
 45
0.0
1001
ACAD
1000
AcDbSavedByObjectVersion
1070
     0
  0
VISUALSTYLE
  5
34
102
{ACAD_REACTORS
330
2A
102
}
330
2A
100
AcDbVisualStyle
  2
Conceptual
 70
     9
 71
     3
 72
     2
 73
     0
 90
        0
 40
-0.6
 41
-30.0
 62
     5
 63
     7
 74
     2
 91
        2
 64
     7
 65
   257
 75
     1
175
     1
 42
40.0
 92
        8
 66
     7
 43
1.0
 76
     1
 77
     6
 78
     2
 67
     7
 79
     3
170
     0
171
     0
290
     0
174
     0
 93
        1
 44
0.0
173
     0
291
     0
 45
0.0
1001
ACAD
1000
AcDbSavedByObjectVersion
1070
     0
  0
VISUALSTYLE
  5
35
102
{ACAD_REACTORS
330
2A
102
}
330
2A
100
AcDbVisualStyle
  2
Dim
 70
    11
 71
     2
 72
     2
 73
     0
 90
        0
 40
-0.6
 41
-30.0
 62
     5
 63
     7
 74
     1
 91
        4
 64
     7
 65
   257
 75
     1
175
     1
 42
1.0
 92
        8
 66
     7
 43
1.0
 76
     1
 77
     6
 78
     2
 67
     7
 79
     5
170
     0
171
     0
290
     0
174
     0
 93
        1
 44
-50.0
173
     0
291
     1
 45
0.0
1001
ACAD
1000
AcDbSavedByObjectVersion
1070
     0
  0
VISUALSTYLE
  5
39
102
{ACAD_REACTORS
330
2A
102
}
330
2A
100
AcDbVisualStyle
  2
Facepattern
 70
    15
 71
     2
 72
     2
 73
     0
 90
        0
 40
-0.6
 41
-30.0
 62
     5
 63
     7
 74
     1
 91
        4
 64
     7
 65
   257
 75
     1
175
     1
 42
1.0
 92
        8
 66
     7
 43
1.0
 76
     1
 77
     6
 78
     2
 67
     7
 79
     5
170
     0
171
     0
290
     0
174
     0
 93
        1
 44
0.0
173
     0
291
     1
 45
0.0
1001
ACAD
1000
AcDbSavedByObjectVersion
1070
     0
  0
VISUALSTYLE
  5
2B
102
{ACAD_REACTORS
330
2A
102
}
330
2A
100
AcDbVisualStyle
  2
Flat
 70
     0
 71
     2
 72
     1
 73
     1
 90
        2
 40
-0.6
 41
30.0
 62
     5
 63
     7
 74
     0
 91
        4
 64
     7
 65
   257
 75
     1
175
     1
 42
1.0
 92
        8
 66
     7
 43
1.0
 76
     1
 77
     6
 78
     2
 67
     7
 79
     5
170
     0
171
     0
290
     0
174
     0
 93
       13
 44
0.0
173
     0
291
     1
 45
0.0
1001
ACAD
1000
AcDbSavedByObjectVersion
1070
     0
  0
VISUALSTYLE
  5
2C
102
{ACAD_REACTORS
330
2A
102
}
330
2A
100
AcDbVisualStyle
  2
FlatWithEdges
 70
     1
 71
     2
 72
     1
 73
     1
 90
        2
 40
-0.6
 41
30.0
 62
     5
 63
     7
 74
     1
 91
        4
 64
     7
 65
   257
 75
     1
175
     1
 42
1.0
 92
        0
 66
   257
 43
1.0
 76
     1
 77
     6
 78
     2
 67
     7
 79
     5
170
     0
171
     0
290
     0
174
     0
 93
       13
 44
0.0
173
     0
291
     1
 45
0.0
1001
ACAD
1000
AcDbSavedByObjectVersion
1070
     0
  0
VISUALSTYLE
  5
2D
102
{ACAD_REACTORS
330
2A
102
}
330
2A
100
AcDbVisualStyle
  2
Gouraud
 70
     2
 71
     2
 72
     2
 73
     1
 90
        2
 40
-0.6
 41
30.0
 62
     5
 63
     7
 74
     0
 91
        4
 64
     7
 65
   257
 75
     1
175
     1
 42
1.0
 92
        0
 66
     7
 43
1.0
 76
     1
 77
     6
 78
     2
 67
     7
 79
     5
170
     0
171
     0
290
     0
174
     0
 93
       13
 44
0.0
173
     0
291
     1
 45
0.0
1001
ACAD
1000
AcDbSavedByObjectVersion
1070
     0
  0
VISUALSTYLE
  5
2E
102
{ACAD_REACTORS
330
2A
102
}
330
2A
100
AcDbVisualStyle
  2
GouraudWithEdges
 70
     3
 71
     2
 72
     2
 73
     1
 90
        2
 40
-0.6
 41
30.0
 62
     5
 63
     7
 74
     1
 91
        4
 64
     7
 65
   257
 75
     1
175
     1
 42
1.0
 92
        0
 66
   257
 43
1.0
 76
     1
 77
     6
 78
     2
 67
     7
 79
     5
170
     0
171
     0
290
     0
174
     0
 93
       13
 44
0.0
173
     0
291
     1
 45
0.0
1001
ACAD
1000
AcDbSavedByObjectVersion
1070
     0
  0
VISUALSTYLE
  5
38
102
{ACAD_REACTORS
330
2A
102
}
330
2A
100
AcDbVisualStyle
  2
Linepattern
 70
    14
 71
     2
 72
     2
 73
     0
 90
        0
 40
-0.6
 41
-30.0
 62
     5
 63
     7
 74
     1
 91
        4
 64
     7
 65
   257
 75
     7
175
     7
 42
1.0
 92
        8
 66
     7
 43
1.0
 76
     1
 77
     6
 78
     2
 67
     7
 79
     5
170
     0
171
     0
290
     0
174
     0
 93
        1
 44
0.0
173
     0
291
     1
 45
0.0
1001
ACAD
1000
AcDbSavedByObjectVersion
1070
     0
  0
VISUALSTYLE
  5
33
102
{ACAD_REACTORS
330
2A
102
}
330
2A
100
AcDbVisualStyle
  2
Realistic
 70
     8
 71
     2
 72
     2
 73
     0
 90
        0
 40
-0.6
 41
-30.0
 62
     5
 63
     7
 74
     1
 91
        0
 64
     7
 65
   257
 75
     1
175
     1
 42
1.0
 92
        8
 66
     8
 43
1.0
 76
     1
 77
     6
 78
     2
 67
     7
 79
     5
170
     0
171
     0
290
     0
174
     0
 93
       13
 44
0.0
173
     0
291
     0
 45
0.0
1001
ACAD
1000
AcDbSavedByObjectVersion
1070
     0
  0
VISUALSTYLE
  5
37
102
{ACAD_REACTORS
330
2A
102
}
330
2A
100
AcDbVisualStyle
  2
Thicken
 70
    13
 71
     2
 72
     2
 73
     0
 90
        0
 40
-0.6
 41
-30.0
 62
     5
 63
     7
 74
     1
 91
        4
 64
     7
 65
   257
 75
     1
175
     1
 42
1.0
 92
       12
 66
     7
 43
1.0
 76
     1
 77
     6
 78
     2
 67
     7
 79
     5
170
     0
171
     0
290
     0
174
     0
 93
        1
 44
0.0
173
     0
291
     1
 45
0.0
1001
ACAD
1000
AcDbSavedByObjectVersion
1070
     0
  0
DICTIONARYVAR
  5
25C
102
{ACAD_REACTORS
330
25A
102
}
330
25A
100
DictionaryVariables
280
     0
  1
80.000000
  0
DICTIONARYVAR
  5
25B
102
{ACAD_REACTORS
330
25A
102
}
330
25A
100
DictionaryVariables
280
     0
  1
5.000000
  0
ENDSEC
  0
EOF
