  0
SECTION
  2
HEADER
  9
$ACADVER
  1
AC1015
  9
$ACADMAINTVER
 70
     6
  9
$DWGCODEPAGE
  3
DOS932
  9
$INSBASE
 10
0.0
 20
0.0
 30
0.0
  9
$EXTMIN
 10
0.0
 20
0.0
 30
0.0
  9
$EXTMAX
 10
841.0
 20
594.0
 30
0.0
  9
$LIMMIN
 10
0.0
 20
0.0
  9
$LIMMAX
 10
841.0
 20
594.0
  9
$ORTHOMODE
 70
     0
  9
$REGENMODE
 70
     1
  9
$FILLMODE
 70
     1
  9
$QTEXTMODE
 70
     0
  9
$MIRRTEXT
 70
     1
  9
$LTSCALE
 40
1.0
  9
$ATTMODE
 70
     1
  9
$TEXTSIZE
 40
3.5
  9
$TRACEWID
 40
1.0
  9
$TEXTSTYLE
  7
Standard
  9
$CLAYER
  8
0
  9
$CELTYPE
  6
ByLayer
  9
$CECOLOR
 62
   256
  9
$CELTSCALE
 40
1.0
  9
$DISPSILH
 70
     0
  9
$DIMSCALE
 40
1.0
  9
$DIMASZ
 40
3.8637032976
  9
$DIMEXO
 40
1.0
  9
$DIMDLI
 40
3.75
  9
$DIMRND
 40
0.0
  9
$DIMDLE
 40
0.0
  9
$DIMEXE
 40
1.0
  9
$DIMTP
 40
0.0
  9
$DIMTM
 40
0.0
  9
$DIMTXT
 40
2.7999999523
  9
$DIMCEN
 40
2.5
  9
$DIMTSZ
 40
0.0
  9
$DIMTOL
 70
     0
  9
$DIMLIM
 70
     0
  9
$DIMTIH
 70
     1
  9
$DIMTOH
 70
     1
  9
$DIMSE1
 70
     0
  9
$DIMSE2
 70
     0
  9
$DIMTAD
 70
     1
  9
$DIMZIN
 70
     1
  9
$DIMBLK
  1

  9
$DIMASO
 70
     1
  9
$DIMSHO
 70
     1
  9
$DIMPOST
  1

  9
$DIMAPOST
  1

  9
$DIMALT
 70
     0
  9
$DIMALTD
 70
     3
  9
$DIMALTF
 40
0.0393700787
  9
$DIMLFAC
 40
1.0
  9
$DIMTOFL
 70
     1
  9
$DIMTVP
 40
0.0
  9
$DIMTIX
 70
     0
  9
$DIMSOXD
 70
     0
  9
$DIMSAH
 70
     0
  9
$DIMBLK1
  1

  9
$DIMBLK2
  1

  9
$DIMSTYLE
  2
ISO-25
  9
$DIMCLRD
 70
     0
  9
$DIMCLRE
 70
     0
  9
$DIMCLRT
 70
     0
  9
$DIMTFAC
 40
1.0
  9
$DIMGAP
 40
1.524
  9
$DIMJUST
 70
     0
  9
$DIMSD1
 70
     0
  9
$DIMSD2
 70
     0
  9
$DIMTOLJ
 70
     0
  9
$DIMTZIN
 70
     1
  9
$DIMALTZ
 70
     0
  9
$DIMALTTZ
 70
     0
  9
$DIMUPT
 70
     0
  9
$DIMDEC
 70
     2
  9
$DIMTDEC
 70
     2
  9
$DIMALTU
 70
     2
  9
$DIMALTTD
 70
     3
  9
$DIMTXSTY
  7
Standard
  9
$DIMAUNIT
 70
     0
  9
$DIMADEC
 70
     0
  9
$DIMALTRND
 40
0.0
  9
$DIMAZIN
 70
     0
  9
$DIMDSEP
 70
    44
  9
$DIMATFIT
 70
     3
  9
$DIMFRAC
 70
     0
  9
$DIMLDRBLK
  1

  9
$DIMLUNIT
 70
     2
  9
$DIMLWD
 70
    -2
  9
$DIMLWE
 70
    -2
  9
$DIMTMOVE
 70
     0
  9
$LUNITS
 70
     2
  9
$LUPREC
 70
     3
  9
$SKETCHINC
 40
1.0
  9
$FILLETRAD
 40
10.0
  9
$AUNITS
 70
     0
  9
$AUPREC
 70
     0
  9
$MENU
  1
.
  9
$ELEVATION
 40
0.0
  9
$PELEVATION
 40
0.0
  9
$THICKNESS
 40
0.0
  9
$LIMCHECK
 70
     0
  9
$CHAMFERA
 40
10.0
  9
$CHAMFERB
 40
10.0
  9
$CHAMFERC
 40
20.0
  9
$CHAMFERD
 40
0.0
  9
$SKPOLY
 70
     0
  9
$TDCREATE
 40
2456366.750313947
  9
$TDUCREATE
 40
2456366.375313947
  9
$TDUPDATE
 40
2456366.750313958
  9
$TDUUPDATE
 40
2456366.375313958
  9
$TDINDWG
 40
0.0000000116
  9
$TDUSRTIMER
 40
0.0000000116
  9
$USRTIMER
 70
     1
  9
$ANGBASE
 50
0.0
  9
$ANGDIR
 70
     0
  9
$PDMODE
 70
     0
  9
$PDSIZE
 40
-1.0
  9
$PLINEWID
 40
0.0
  9
$SPLFRAME
 70
     0
  9
$SPLINETYPE
 70
     6
  9
$SPLINESEGS
 70
     8
  9
$HANDSEED
  5
254
  9
$SURFTAB1
 70
     6
  9
$SURFTAB2
 70
     6
  9
$SURFTYPE
 70
     6
  9
$SURFU
 70
     6
  9
$SURFV
 70
     6
  9
$UCSBASE
  2

  9
$UCSNAME
  2

  9
$UCSORG
 10
0.0
 20
0.0
 30
0.0
  9
$UCSXDIR
 10
1.0
 20
0.0
 30
0.0
  9
$UCSYDIR
 10
0.0
 20
1.0
 30
0.0
  9
$UCSORTHOREF
  2

  9
$UCSORTHOVIEW
 70
     0
  9
$UCSORGTOP
 10
0.0
 20
0.0
 30
0.0
  9
$UCSORGBOTTOM
 10
0.0
 20
0.0
 30
0.0
  9
$UCSORGLEFT
 10
0.0
 20
0.0
 30
0.0
  9
$UCSORGRIGHT
 10
0.0
 20
0.0
 30
0.0
  9
$UCSORGFRONT
 10
0.0
 20
0.0
 30
0.0
  9
$UCSORGBACK
 10
0.0
 20
0.0
 30
0.0
  9
$PUCSBASE
  2

  9
$PUCSNAME
  2

  9
$PUCSORG
 10
0.0
 20
0.0
 30
0.0
  9
$PUCSXDIR
 10
1.0
 20
0.0
 30
0.0
  9
$PUCSYDIR
 10
0.0
 20
1.0
 30
0.0
  9
$PUCSORTHOREF
  2

  9
$PUCSORTHOVIEW
 70
     0
  9
$PUCSORGTOP
 10
0.0
 20
0.0
 30
0.0
  9
$PUCSORGBOTTOM
 10
0.0
 20
0.0
 30
0.0
  9
$PUCSORGLEFT
 10
0.0
 20
0.0
 30
0.0
  9
$PUCSORGRIGHT
 10
0.0
 20
0.0
 30
0.0
  9
$PUCSORGFRONT
 10
0.0
 20
0.0
 30
0.0
  9
$PUCSORGBACK
 10
0.0
 20
0.0
 30
0.0
  9
$USERI1
 70
     0
  9
$USERI2
 70
     0
  9
$USERI3
 70
     0
  9
$USERI4
 70
     0
  9
$USERI5
 70
     0
  9
$USERR1
 40
0.0
  9
$USERR2
 40
0.0
  9
$USERR3
 40
0.0
  9
$USERR4
 40
0.0
  9
$USERR5
 40
0.0
  9
$WORLDVIEW
 70
     1
  9
$SHADEDGE
 70
     3
  9
$SHADEDIF
 70
    70
  9
$TILEMODE
 70
     1
  9
$MAXACTVP
 70
    64
  9
$PINSBASE
 10
0.0
 20
0.0
 30
0.0
  9
$PLIMCHECK
 70
     0
  9
$PEXTMIN
 10
1.0000000000E+20
 20
1.0000000000E+20
 30
1.0000000000E+20
  9
$PEXTMAX
 10
-1.0000000000E+20
 20
-1.0000000000E+20
 30
-1.0000000000E+20
  9
$PLIMMIN
 10
0.0
 20
0.0
  9
$PLIMMAX
 10
420.0
 20
297.0
  9
$UNITMODE
 70
     0
  9
$VISRETAIN
 70
     1
  9
$PLINEGEN
 70
     0
  9
$PSLTSCALE
 70
     1
  9
$TREEDEPTH
 70
  3020
  9
$CMLSTYLE
  2
Standard
  9
$CMLJUST
 70
     0
  9
$CMLSCALE
 40
20.0
  9
$PROXYGRAPHICS
 70
     1
  9
$MEASUREMENT
 70
     1
  9
$CELWEIGHT
370
    -1
  9
$ENDCAPS
280
     0
  9
$JOINSTYLE
280
     0
  9
$LWDISPLAY
290
     1
  9
$INSUNITS
 70
     4
  9
$HYPERLINKBASE
  1

  9
$STYLESHEET
  1

  9
$XEDIT
290
     1
  9
$CEPSNTYPE
380
     0
  9
$PSTYLEMODE
290
     1
  9
$FINGERPRINTGUID
  2
{CFC2FB43-7AD9-4A30-8474-BF73F1D836D5}
  9
$VERSIONGUID
  2
{FAEB1C32-E019-11D5-929B-00C0DF256EC4}
  9
$EXTNAMES
290
     1
  9
$PSVPSCALE
 40
0.0
  9
$OLESTARTUP
290
     0
  0
ENDSEC
  0
SECTION
  2
CLASSES
  0
CLASS
  1
ACDBDICTIONARYWDFLT
  2
AcDbDictionaryWithDefault
  3
ObjectDBX Classes
 90
        0
280
     0
281
     0
  0
CLASS
  1
VISUALSTYLE
  2
AcDbVisualStyle
  3
ObjectDBX Classes
 90
     4095
280
     0
281
     0
  0
CLASS
  1
DICTIONARYVAR
  2
AcDbDictionaryVar
  3
ObjectDBX Classes
 90
        0
280
     0
281
     0
  0
CLASS
  1
ACDBPLACEHOLDER
  2
AcDbPlaceHolder
  3
ObjectDBX Classes
 90
        0
280
     0
281
     0
  0
CLASS
  1
LAYOUT
  2
AcDbLayout
  3
ObjectDBX Classes
 90
        0
280
     0
281
     0
  0
ENDSEC
  0
SECTION
  2
TABLES
  0
TABLE
  2
VPORT
  5
8
330
0
100
AcDbSymbolTable
 70
     1
  0
VPORT
  5
29
330
8
100
AcDbSymbolTableRecord
100
AcDbViewportTableRecord
  2
*Active
 70
     0
 10
0.0
 20
0.0
 11
1.0
 21
1.0
 12
420.5
 22
297.0
 13
0.0
 23
0.0
 14
10.0
 24
10.0
 15
10.0
 25
10.0
 16
0.0
 26
0.0
 36
1.0
 17
0.0
 27
0.0
 37
0.0
 40
594.0
 41
1.4158249158
 42
50.0
 43
0.0
 44
0.0
 50
0.0
 51
0.0
 71
     0
 72
  2000
 73
     1
 74
     3
 75
     0
 76
     0
 77
     0
 78
     0
281
     0
 65
     1
110
0.0
120
0.0
130
0.0
111
1.0
121
0.0
131
0.0
112
0.0
122
1.0
132
0.0
 79
     0
146
0.0
  0
ENDTAB
  0
TABLE
  2
LTYPE
  5
5
330
0
100
AcDbSymbolTable
 70
     6
  0
LTYPE
  5
14
330
5
100
AcDbSymbolTableRecord
100
AcDbLinetypeTableRecord
  2
ByBlock
 70
     0
  3

 72
    65
 73
     0
 40
0.0
  0
LTYPE
  5
15
330
5
100
AcDbSymbolTableRecord
100
AcDbLinetypeTableRecord
  2
ByLayer
 70
     0
  3

 72
    65
 73
     0
 40
0.0
  0
LTYPE
  5
16
330
5
100
AcDbSymbolTableRecord
100
AcDbLinetypeTableRecord
  2
Continuous
 70
     0
  3
Solid line
 72
    65
 73
     0
 40
0.0
  0
LTYPE
  5
3B
330
5
100
AcDbSymbolTableRecord
100
AcDbLinetypeTableRecord
  2
HIDDEN
 70
     0
  3
Hidden __ __ __ __ __ __ __ __ __ __ __ __ __ __
 72
    65
 73
     2
 40
1.905
 49
1.27
 74
     0
 49
-0.635
 74
     0
  0
LTYPE
  5
3C
330
5
100
AcDbSymbolTableRecord
100
AcDbLinetypeTableRecord
  2
PHANTOM
 70
     0
  3
Phantom ______  __  __  ______  __  __  ______
 72
    65
 73
     6
 40
12.7
 49
6.35
 74
     0
 49
-1.27
 74
     0
 49
1.27
 74
     0
 49
-1.27
 74
     0
 49
1.27
 74
     0
 49
-1.27
 74
     0
  0
LTYPE
  5
3D
330
5
100
AcDbSymbolTableRecord
100
AcDbLinetypeTableRecord
  2
CENTER
 70
     0
  3
Center ____ _ ____ _ ____ _ ____ _ ____ _ ____
 72
    65
 73
     4
 40
10.16
 49
6.35
 74
     0
 49
-1.27
 74
     0
 49
1.27
 74
     0
 49
-1.27
 74
     0
  0
LTYPE
  5
3E
330
5
100
AcDbSymbolTableRecord
100
AcDbLinetypeTableRecord
  2
CENTERX2
 70
     0
  3
Center (2x) ________  __  ________  __  _____
 72
    65
 73
     4
 40
20.32
 49
12.7
 74
     0
 49
-2.54
 74
     0
 49
2.54
 74
     0
 49
-2.54
 74
     0
  0
LTYPE
  5
3F
330
5
100
AcDbSymbolTableRecord
100
AcDbLinetypeTableRecord
  2
DOT2
 70
     0
  3
Dot (.5x) ........................................
 72
    65
 73
     2
 40
0.635
 49
0.0
 74
     0
 49
-0.635
 74
     0
  0
ENDTAB
  0
TABLE
  2
LAYER
  5
2
330
0
100
AcDbSymbolTable
 70
     4
  0
LAYER
  5
10
330
2
100
AcDbSymbolTableRecord
100
AcDbLayerTableRecord
  2
0
 70
     0
 62
     7
  6
Continuous
370
    -3
390
F
  0
LAYER
  5
40
330
2
100
AcDbSymbolTableRecord
100
AcDbLayerTableRecord
  2
SLD-0
 70
     0
 62
     3
  6
Continuous
370
    -3
390
F
  0
LAYER
  5
41
330
2
100
AcDbSymbolTableRecord
100
AcDbLayerTableRecord
  2
SLD-DEFPOINTS
 70
     0
 62
   179
  6
Continuous
370
    -3
390
F
  0
LAYER
  5
42
330
2
100
AcDbSymbolTableRecord
100
AcDbLayerTableRecord
  2
AM_REFDIM
 70
     0
 62
     4
  6
Continuous
370
    15
390
F
  0
ENDTAB
  0
TABLE
  2
STYLE
  5
3
330
0
100
AcDbSymbolTable
 70
     1
  0
STYLE
  5
11
330
3
100
AcDbSymbolTableRecord
100
AcDbTextStyleTableRecord
  2
Standard
 70
     0
 40
0.0
 41
1.0
 50
0.0
 71
     0
 42
2.5
  3
txt
  4
bigfont
  0
ENDTAB
  0
TABLE
  2
VIEW
  5
6
330
0
100
AcDbSymbolTable
 70
     0
  0
ENDTAB
  0
TABLE
  2
UCS
  5
7
330
0
100
AcDbSymbolTable
 70
     0
  0
ENDTAB
  0
TABLE
  2
APPID
  5
9
330
0
100
AcDbSymbolTable
 70
     1
  0
APPID
  5
12
330
9
100
AcDbSymbolTableRecord
100
AcDbRegAppTableRecord
  2
ACAD
 70
     0
  0
ENDTAB
  0
TABLE
  2
DIMSTYLE
  5
A
330
0
100
AcDbSymbolTable
 70
     1
100
AcDbDimStyleTable
  0
DIMSTYLE
105
27
330
A
100
AcDbSymbolTableRecord
100
AcDbDimStyleTableRecord
  2
ISO-25
 70
     0
 41
2.5
 42
0.625
 43
3.75
 44
1.25
 73
     0
 74
     0
 77
     1
 78
     8
140
2.5
141
2.5
143
0.0393700787
147
0.625
171
     3
172
     1
271
     2
272
     2
274
     3
278
    44
283
     0
284
     8
340
11
  0
ENDTAB
  0
TABLE
  2
BLOCK_RECORD
  5
1
330
0
100
AcDbSymbolTable
 70
     1
  0
BLOCK_RECORD
  5
1F
330
1
100
AcDbSymbolTableRecord
100
AcDbBlockTableRecord
  2
*Model_Space
340
22
  0
BLOCK_RECORD
  5
1B
330
1
100
AcDbSymbolTableRecord
100
AcDbBlockTableRecord
  2
*Paper_Space
340
1E
  0
BLOCK_RECORD
  5
23
330
1
100
AcDbSymbolTableRecord
100
AcDbBlockTableRecord
  2
*Paper_Space0
340
26
  0
ENDTAB
  0
ENDSEC
  0
SECTION
  2
BLOCKS
  0
BLOCK
  5
20
330
1F
100
AcDbEntity
  8
0
100
AcDbBlockBegin
  2
*Model_Space
 70
     0
 10
0.0
 20
0.0
 30
0.0
  3
*Model_Space
  1

  0
ENDBLK
  5
21
330
1F
100
AcDbEntity
  8
0
100
AcDbBlockEnd
  0
BLOCK
  5
1C
330
1B
100
AcDbEntity
 67
     1
  8
0
100
AcDbBlockBegin
  2
*Paper_Space
 70
     0
 10
0.0
 20
0.0
 30
0.0
  3
*Paper_Space
  1

  0
ENDBLK
  5
1D
330
1B
100
AcDbEntity
 67
     1
  8
0
100
AcDbBlockEnd
  0
BLOCK
  5
24
330
23
100
AcDbEntity
  8
0
100
AcDbBlockBegin
  2
*Paper_Space0
 70
     0
 10
0.0
 20
0.0
 30
0.0
  3
*Paper_Space0
  1

  0
ENDBLK
  5
25
330
23
100
AcDbEntity
  8
0
100
AcDbBlockEnd
  0
ENDSEC
  0
SECTION
  2
ENTITIES
  0
LINE
  5
43
330
1F
100
AcDbEntity
  8
0
  6
Continuous
 62
     7
370
    15
100
AcDbLine
 10
197.7952076646
 20
340.2041679548
 30
0.0
 11
196.1678518506
 21
340.2041679548
 31
0.0
  0
LINE
  5
44
330
1F
100
AcDbEntity
  8
0
  6
Continuous
 62
     7
370
    15
100
AcDbLine
 10
274.1678460094
 20
340.2041679548
 30
0.0
 11
272.5655613991
 21
340.2041679548
 31
0.0
  0
ARC
  5
45
330
1F
100
AcDbEntity
  8
0
  6
Continuous
 62
     7
370
    15
100
AcDbCircle
 10
209.7678473207
 20
374.9884925557
 30
0.0
 40
10.60000000000002
100
AcDbArc
 50
90.0
 51
180.0
  0
LINE
  5
46
330
1F
100
AcDbEntity
  8
0
  6
Continuous
 62
     7
370
    15
100
AcDbLine
 10
260.5678467604
 20
385.5884930419
 30
0.0
 11
209.767843649
 21
385.5884930419
 31
0.0
  0
ARC
  5
47
330
1F
100
AcDbEntity
  8
0
  6
Continuous
 62
     7
370
    15
100
AcDbCircle
 10
260.5678473207
 20
374.9884925557
 30
0.0
 40
10.60000000000002
100
AcDbArc
 50
0.0
 51
90.0
  0
ARC
  5
48
330
1F
100
AcDbEntity
  8
0
  6
Continuous
 62
     7
370
    15
100
AcDbCircle
 10
197.4527858862
 20
341.8898033463
 30
0.0
 40
1.702993756585761
100
AcDbArc
 50
280.1828005418
 51
3.9714736418
  0
LWPOLYLINE
  5
49
330
1F
100
AcDbEntity
  8
0
  6
Continuous
 62
     7
370
    15
100
AcDbPolyline
 90
        7
 70
   128
 43
0.0
 10
272.6201667043
 20
340.2044510769
 10
272.6244135353
 20
340.2049763428
 10
272.4494515511
 20
340.2448481248
 10
272.10282819
 20
340.3965344952
 10
271.6606883856
 20
340.7549111472
 10
271.2919964048
 20
341.3584640549
 10
271.1828081461
 20
342.0864230322
  0
LINE
  5
4A
330
1F
100
AcDbEntity
  8
0
  6
Continuous
 62
     7
370
    15
100
AcDbLine
 10
301.1678485724
 20
339.604168974
 30
0.0
 11
274.1678460094
 21
339.604168974
 31
0.0
  0
LINE
  5
4B
330
1F
100
AcDbEntity
  8
0
  6
Continuous
 62
     7
370
    15
100
AcDbLine
 10
196.1678518506
 20
249.4041694628
 30
0.0
 11
301.1678485724
 21
249.4041694628
 31
0.0
  0
LINE
  5
4C
330
1F
100
AcDbEntity
  8
0
  6
Continuous
 62
     7
370
    15
100
AcDbLine
 10
306.1678475293
 20
340.5041693078
 30
0.0
 11
301.1678485724
 21
340.5041693078
 31
0.0
  0
LINE
  5
4D
330
1F
100
AcDbEntity
  8
0
  6
Continuous
 62
     7
370
    15
100
AcDbLine
 10
301.1678485724
 20
248.504169129
 30
0.0
 11
306.1678475293
 21
248.504169129
 31
0.0
  0
LINE
  5
4E
330
1F
100
AcDbEntity
  8
0
  6
Continuous
 62
     7
370
    15
100
AcDbLine
 10
317.1678474697
 20
280.0041696356
 30
0.0
 11
321.1678481254
 21
280.0041696356
 31
0.0
  0
ARC
  5
4F
330
1F
100
AcDbEntity
  8
0
  6
Continuous
 62
     7
370
    15
100
AcDbCircle
 10
317.1678473207
 20
312.0041692184
 30
0.0
 40
6.999999999999965
100
AcDbArc
 50
235.150095421
 51
270.0
  0
LINE
  5
50
330
1F
100
AcDbEntity
  8
0
  6
Continuous
 62
     7
370
    15
100
AcDbLine
 10
359.8956000584
 20
315.0041697847
 30
0.0
 11
353.6678469333
 21
336.0827153848
 31
0.0
  0
LINE
  5
51
330
1F
100
AcDbEntity
  8
0
  6
Continuous
 62
     7
370
    15
100
AcDbLine
 10
323.1678465905
 20
377.5041660594
 30
0.0
 11
323.1678465905
 21
375.5041694568
 31
0.0
  0
LINE
  5
52
330
1F
100
AcDbEntity
  8
0
  6
Continuous
 62
     7
370
    15
100
AcDbLine
 10
374.1678474995
 20
375.5041694568
 30
0.0
 11
374.1678474995
 21
377.5041660594
 31
0.0
  0
LINE
  5
53
330
1F
100
AcDbEntity
  8
0
  6
Continuous
 62
     7
370
    15
100
AcDbLine
 10
374.1678474995
 20
211.5041723775
 30
0.0
 11
374.1678474995
 21
213.50416898
 31
0.0
  0
LINE
  5
54
330
1F
100
AcDbEntity
  8
0
  6
Continuous
 62
     7
370
    15
100
AcDbLine
 10
323.1678465905
 20
213.50416898
 30
0.0
 11
323.1678465905
 21
211.5041723775
 31
0.0
  0
ARC
  5
55
330
1F
100
AcDbEntity
  8
0
  6
Continuous
 62
     7
370
    15
100
AcDbCircle
 10
367.4365376545
 20
370.5041683958
 30
0.0
 40
5.000001577880578
100
AcDbArc
 50
90.0260517119
 51
165.8358646679
  0
ARC
  5
56
330
1F
100
AcDbEntity
  8
0
  6
Continuous
 62
     7
370
    15
100
AcDbCircle
 10
327.337777817
 20
370.5041692184
 30
0.0
 40
5.000000000000052
100
AcDbArc
 50
5.5522566646
 51
89.9999781179
  0
ARC
  5
57
330
1F
100
AcDbEntity
  8
0
  6
Continuous
 62
     7
370
    15
100
AcDbCircle
 10
326.8582454526
 20
218.5041743877
 30
0.0
 40
5.000005756866035
100
AcDbArc
 50
270.0214125603
 51
351.4488025533
  0
ARC
  5
58
330
1F
100
AcDbEntity
  8
0
  6
Continuous
 62
     7
370
    15
100
AcDbCircle
 10
371.279767157
 20
218.5041688098
 30
0.0
 40
4.999999849583056
100
AcDbArc
 50
173.0256110266
 51
269.9949056909
  0
LINE
  5
59
330
1F
100
AcDbEntity
  8
0
  6
Continuous
 62
     7
370
    15
100
AcDbLine
 10
367.6678473654
 20
315.0041697847
 30
0.0
 11
359.8956000584
 21
315.0041697847
 31
0.0
  0
LWPOLYLINE
  5
5A
330
1F
100
AcDbEntity
  8
0
  6
Continuous
 62
     7
370
    15
100
AcDbPolyline
 90
       15
 70
   128
 43
0.0
 10
392.1678467246
 20
286.5041688384
 10
392.1678467246
 20
290.5115437062
 10
392.1031645092
 20
296.0178457035
 10
391.4755834791
 20
299.3898497263
 10
390.461857483
 20
302.0450247751
 10
389.332111046
 20
304.0528687017
 10
388.2721839997
 20
305.5076662751
 10
387.5329597446
 20
306.3626120167
 10
386.3897314819
 20
307.4939118998
 10
384.758963302
 20
308.7996708529
 10
382.5494526478
 20
310.1304544436
 10
379.6756966564
 20
311.2759178804
 10
376.0743430408
 20
311.9483569937
 10
371.7721226218
 20
312.0041692929
 10
367.6678473654
 20
312.0041692929
  0
LWPOLYLINE
  5
5B
330
1F
100
AcDbEntity
  8
0
  6
Continuous
 62
     7
370
    15
100
AcDbPolyline
 90
       17
 70
   128
 43
0.0
 10
366.3590373995
 20
219.1069757866
 10
366.7472182366
 20
221.4539086746
 10
367.5900465402
 20
224.0818849133
 10
369.2654399725
 20
227.36648082
 10
371.0063035193
 20
229.718211882
 10
372.5384781661
 20
231.4542046116
 10
374.1055271181
 20
233.2269287037
 10
375.7554451528
 20
235.0933885502
 10
379.2376062426
 20
239.0325701164
 10
382.8578806075
 20
243.127994083
 10
385.8558787557
 20
246.5194685684
 10
388.4637570533
 20
249.9376384841
 10
390.3482361289
 20
253.5802571403
 10
391.5867498669
 20
257.4976196812
 10
392.1419000777
 20
261.6309335755
 10
392.1678467246
 20
265.8822870182
 10
392.1678467246
 20
266.5041683541
  0
ARC
  5
5C
330
1F
100
AcDbEntity
  8
0
  6
Continuous
 62
     7
370
    15
100
AcDbCircle
 10
384.6120208102
 20
209.8130556226
 30
0.0
 40
53.37064387769247
100
AcDbArc
 50
141.7920728658
 51
171.4508120722
  0
LWPOLYLINE
  5
5D
330
1F
100
AcDbEntity
  8
0
  6
Continuous
 62
     7
370
    15
100
AcDbPolyline
 90
        7
 70
   128
 43
0.0
 10
332.3145285773
 20
370.9905630277
 10
332.8132555413
 20
365.9099301623
 10
333.4338507208
 20
359.656911187
 10
334.0332974273
 20
353.8140019702
 10
334.4668271544
 20
349.776357256
 10
334.8843884247
 20
346.1857175754
 10
335.0047097134
 20
345.2824613379
  0
LWPOLYLINE
  5
5E
330
1F
100
AcDbEntity
  8
0
  6
Continuous
 62
     7
370
    15
100
AcDbPolyline
 90
        9
 70
   128
 43
0.0
 10
353.6678469333
 20
340.06885051
 10
354.3668930012
 20
341.9107793199
 10
355.2002534794
 20
344.374079101
 10
356.1659567582
 20
347.531545751
 10
357.2602430883
 20
351.4010979162
 10
358.4765261563
 20
355.8951577471
 10
359.8060599121
 20
360.9466290401
 10
361.2385830435
 20
366.4854800628
 10
362.5858659449
 20
371.7197364496
  0
LINE
  5
5F
330
1F
100
AcDbEntity
  8
0
  6
Continuous
 62
     7
370
    15
100
AcDbLine
 10
335.6678477081
 20
242.6609469877
 30
0.0
 11
342.550668685
 21
242.6609469877
 31
0.0
  0
LINE
  5
60
330
1F
100
AcDbEntity
  8
0
  6
Continuous
 62
     7
370
    15
100
AcDbLine
 10
333.6678473803
 20
243.5041701721
 30
0.0
 11
335.6678477081
 21
243.5041701721
 31
0.0
  0
LINE
  5
61
330
1F
100
AcDbEntity
  8
0
  6
Continuous
 62
     7
370
    15
100
AcDbLine
 10
335.0737821835
 20
345.5041682647
 30
0.0
 11
333.6678473803
 21
345.5041682647
 31
0.0
  0
ARC
  5
62
330
1F
100
AcDbEntity
  8
0
  6
Continuous
 62
     7
370
    15
100
AcDbCircle
 10
246.1515757517
 20
317.7147837685
 30
0.0
 40
3.988226635556668
100
AcDbArc
 50
2.6083214027
 51
177.278230716
  0
LINE
  5
63
330
1F
100
AcDbEntity
  8
0
  6
Continuous
 62
     7
370
    15
100
AcDbLine
 10
250.1678495261
 20
317.3541685866
 30
0.0
 11
250.1678495261
 21
317.9041685836
 31
0.0
  0
LINE
  5
64
330
1F
100
AcDbEntity
  8
0
  6
Continuous
 62
     7
370
    15
100
AcDbLine
 10
242.1678482148
 20
317.9041685836
 30
0.0
 11
242.1678482148
 21
317.3541685866
 31
0.0
  0
LINE
  5
65
330
1F
100
AcDbEntity
  8
0
  6
Continuous
 62
     7
370
    15
100
AcDbLine
 10
188.8678474876
 20
263.0041687118
 30
0.0
 11
189.6678461286
 21
263.0041687118
 31
0.0
  0
LINE
  5
66
330
1F
100
AcDbEntity
  8
0
  6
Continuous
 62
     7
370
    15
100
AcDbLine
 10
189.6678461286
 20
272.0041683243
 30
0.0
 11
188.8678474876
 21
272.0041683243
 31
0.0
  0
LINE
  5
67
330
1F
100
AcDbEntity
  8
0
  6
Continuous
 62
     7
370
    15
100
AcDbLine
 10
188.8678474876
 20
271.5041691737
 30
0.0
 11
187.7678437683
 21
271.5041691737
 31
0.0
  0
LINE
  5
68
330
1F
100
AcDbEntity
  8
0
  6
Continuous
 62
     7
370
    15
100
AcDbLine
 10
187.7678437683
 20
263.504169725
 30
0.0
 11
188.8678474876
 21
263.504169725
 31
0.0
  0
ARC
  5
69
330
1F
100
AcDbEntity
  8
0
  6
Continuous
 62
     7
370
    15
100
AcDbCircle
 10
187.7678473207
 20
269.5041692184
 30
0.0
 40
2.000000000000057
100
AcDbArc
 50
90.0
 51
132.3072493592
  0
ARC
  5
6A
330
1F
100
AcDbEntity
  8
0
  6
Continuous
 62
     7
370
    15
100
AcDbCircle
 10
187.7678473207
 20
265.5041692184
 30
0.0
 40
2.000000000000057
100
AcDbArc
 50
227.7525973771
 51
270.0
  0
LINE
  5
6B
330
1F
100
AcDbEntity
  8
0
  6
Continuous
 62
     7
370
    15
100
AcDbLine
 10
223.5678462836
 20
332.0549203383
 30
0.0
 11
223.5678462836
 21
333.7650223004
 31
0.0
  0
LINE
  5
6C
330
1F
100
AcDbEntity
  8
0
  6
Continuous
 62
     7
370
    15
100
AcDbLine
 10
214.7678537818
 20
333.7650223004
 30
0.0
 11
214.7678537818
 21
332.0549203383
 31
0.0
  0
LINE
  5
6D
330
1F
100
AcDbEntity
  8
0
  6
Continuous
 62
     7
370
    15
100
AcDbLine
 10
225.4178477975
 20
334.1070412027
 30
0.0
 11
225.4178477975
 21
334.449060105
 31
0.0
  0
LINE
  5
6E
330
1F
100
AcDbEntity
  8
0
  6
Continuous
 62
     7
370
    15
100
AcDbLine
 10
212.9178448173
 20
334.449060105
 30
0.0
 11
212.9178448173
 21
334.1070412027
 31
0.0
  0
LINE
  5
6F
330
1F
100
AcDbEntity
  8
0
  6
Continuous
 62
     7
370
    15
100
AcDbLine
 10
229.1678442213
 20
335.4751205371
 30
0.0
 11
229.1678442213
 21
336.5011809693
 31
0.0
  0
LINE
  5
70
330
1F
100
AcDbEntity
  8
0
  6
Continuous
 62
     7
370
    15
100
AcDbLine
 10
209.1678483936
 20
336.5011809693
 30
0.0
 11
209.1678483936
 21
335.4751205371
 31
0.0
  0
LINE
  5
71
330
1F
100
AcDbEntity
  8
0
  6
Continuous
 62
     7
370
    15
100
AcDbLine
 10
306.1678475293
 20
290.5041690284
 30
0.0
 11
317.1678474697
 21
290.5041690284
 31
0.0
  0
LINE
  5
72
330
1F
100
AcDbEntity
  8
0
  6
Continuous
 62
     7
370
    15
100
AcDbLine
 10
317.1678474697
 20
298.5041694084
 30
0.0
 11
306.1678475293
 21
298.5041694084
 31
0.0
  0
LINE
  5
73
330
1F
100
AcDbEntity
  8
0
  6
Continuous
 62
     7
370
    15
100
AcDbLine
 10
312.7149111184
 20
337.6841618048
 30
0.0
 11
313.2037586125
 21
335.8597530352
 31
0.0
  0
LINE
  5
74
330
1F
100
AcDbEntity
  8
0
  6
Continuous
 62
     7
370
    15
100
AcDbLine
 10
309.9042205664
 20
350.3896331714
 30
0.0
 11
310.421857104
 21
348.457779579
 31
0.0
  0
LINE
  5
75
330
1F
100
AcDbEntity
  8
0
  6
Continuous
 62
     7
370
    15
100
AcDbLine
 10
318.149264023
 20
350.5283331798
 30
0.0
 11
317.6316274854
 21
352.4601830469
 31
0.0
  0
LINE
  5
76
330
1F
100
AcDbEntity
  8
0
  6
Continuous
 62
     7
370
    15
100
AcDbLine
 10
189.6678461286
 20
248.504169129
 30
0.0
 11
196.1678518506
 21
248.504169129
 31
0.0
  0
LINE
  5
77
330
1F
100
AcDbEntity
  8
0
  6
Continuous
 62
     7
370
    15
100
AcDbLine
 10
196.1678518506
 20
340.5041693078
 30
0.0
 11
189.6678461286
 21
340.5041693078
 31
0.0
  0
ARC
  5
78
330
1F
100
AcDbEntity
  8
0
  6
Continuous
 62
     7
370
    15
100
AcDbCircle
 10
187.6678473207
 20
316.4862892403
 30
0.0
 40
2.0
100
AcDbArc
 50
274.0960437582
 51
0.0
  0
ARC
  5
79
330
1F
100
AcDbEntity
  8
0
  6
Continuous
 62
     7
370
    15
100
AcDbCircle
 10
187.6678473207
 20
272.5220491965
 30
0.0
 40
2.0
100
AcDbArc
 50
0.0
 51
85.9039562418
  0
ARC
  5
7A
330
1F
100
AcDbEntity
  8
0
  6
Continuous
 62
     7
370
    15
100
AcDbCircle
 10
188.1678473207
 20
309.5041692184
 30
0.0
 40
5.000000000000036
100
AcDbArc
 50
94.0960437582
 51
180.0
  0
ARC
  5
7B
330
1F
100
AcDbEntity
  8
0
  6
Continuous
 62
     7
370
    15
100
AcDbCircle
 10
188.1678473207
 20
279.5041692184
 30
0.0
 40
5.000000000000036
100
AcDbArc
 50
180.0
 51
265.9039562418
  0
LINE
  5
7C
330
1F
100
AcDbEntity
  8
0
  6
Continuous
 62
     7
370
    15
100
AcDbLine
 10
199.1678430292
 20
333.4858192431
 30
0.0
 11
199.1678430292
 21
366.4379900621
 31
0.0
  0
LINE
  5
7D
330
1F
100
AcDbEntity
  8
0
  6
Continuous
 62
     7
370
    15
100
AcDbLine
 10
271.1678473803
 20
366.4379900621
 30
0.0
 11
271.1678473803
 21
333.4858192431
 31
0.0
  0
LINE
  5
7E
330
1F
100
AcDbEntity
  8
0
  6
Continuous
 62
     7
370
    15
100
AcDbLine
 10
214.9178488704
 20
326.9690869676
 30
0.0
 11
214.9178488704
 21
323.0024947153
 31
0.0
  0
LINE
  5
7F
330
1F
100
AcDbEntity
  8
0
  6
Continuous
 62
     7
370
    15
100
AcDbLine
 10
214.9178488704
 20
323.0024947153
 30
0.0
 11
214.6678520891
 21
323.0024947153
 31
0.0
  0
LINE
  5
80
330
1F
100
AcDbEntity
  8
0
  6
Continuous
 62
     7
370
    15
100
AcDbLine
 10
223.6678479763
 20
323.0024947153
 30
0.0
 11
223.4178437444
 21
323.0024947153
 31
0.0
  0
LINE
  5
81
330
1F
100
AcDbEntity
  8
0
  6
Continuous
 62
     7
370
    15
100
AcDbLine
 10
223.4178437444
 20
323.0024947153
 30
0.0
 11
223.4178437444
 21
326.9690869676
 31
0.0
  0
LINE
  5
82
330
1F
100
AcDbEntity
  8
0
  6
Continuous
 62
     7
370
    15
100
AcDbLine
 10
197.3567707988
 20
340.1739483999
 30
0.0
 11
197.7952076646
 21
340.1947951244
 31
0.0
  0
LINE
  5
83
330
1F
100
AcDbEntity
  8
0
  6
Continuous
 62
     7
370
    15
100
AcDbLine
 10
214.6678520891
 20
312.5929365234
 30
0.0
 11
214.6678520891
 21
322.7971194612
 31
0.0
  0
LINE
  5
84
330
1F
100
AcDbEntity
  8
0
  6
Continuous
 62
     7
370
    15
100
AcDbLine
 10
211.1678524467
 20
312.5929365234
 30
0.0
 11
214.6678520891
 21
312.5929365234
 31
0.0
  0
LWPOLYLINE
  5
85
330
1F
100
AcDbEntity
  8
0
  6
Continuous
 62
     7
370
    15
100
AcDbPolyline
 90
       10
 70
   128
 43
0.0
 10
196.1678518506
 20
325.3657462375
 10
196.3613434287
 20
323.4686179386
 10
196.9437702152
 20
321.53511218
 10
197.9235811683
 20
319.6276145356
 10
199.2751760932
 20
317.8238420116
 10
200.9187145683
 20
316.2406159865
 10
202.8371049615
 20
314.8850573527
 10
205.0042255374
 20
313.803490095
 10
207.3388351652
 20
313.0482266025
 10
211.1678524467
 20
312.5929365234
  0
LINE
  5
86
330
1F
100
AcDbEntity
  8
0
  6
Continuous
 62
     7
370
    15
100
AcDbLine
 10
274.1678460094
 20
325.3657462375
 30
0.0
 11
274.1678460094
 21
340.2041679548
 31
0.0
  0
LWPOLYLINE
  5
87
330
1F
100
AcDbEntity
  8
0
  6
Continuous
 62
     7
370
    15
100
AcDbPolyline
 90
       10
 70
   128
 43
0.0
 10
259.1678454133
 20
312.5929365234
 10
261.6834668967
 20
312.789417647
 10
264.1282929632
 20
313.3648688273
 10
266.431848571
 20
314.3023195045
 10
268.5300810787
 20
315.5587816911
 10
270.3509880754
 20
317.0808347242
 10
271.85669826
 20
318.8081587033
 10
272.9828460666
 20
320.6380492376
 10
273.7412779185
 20
322.5294089244
 10
274.1678460094
 20
325.3657462375
  0
LINE
  5
88
330
1F
100
AcDbEntity
  8
0
  6
Continuous
 62
     7
370
    15
100
AcDbLine
 10
248.5678447935
 20
312.5929365234
 30
0.0
 11
259.1678454133
 21
312.5929365234
 31
0.0
  0
LINE
  5
89
330
1F
100
AcDbEntity
  8
0
  6
Continuous
 62
     7
370
    15
100
AcDbLine
 10
248.5678447935
 20
312.5929365234
 30
0.0
 11
248.5678447935
 21
314.5828878807
 31
0.0
  0
LINE
  5
8A
330
1F
100
AcDbEntity
  8
0
  6
Continuous
 62
     7
370
    15
100
AcDbLine
 10
243.7678454968
 20
314.5828878807
 30
0.0
 11
243.7678454968
 21
312.5929365234
 31
0.0
  0
LINE
  5
8B
330
1F
100
AcDbEntity
  8
0
  6
Continuous
 62
     7
370
    15
100
AcDbLine
 10
223.6678479763
 20
312.5929365234
 30
0.0
 11
243.7678454968
 21
312.5929365234
 31
0.0
  0
LINE
  5
8C
330
1F
100
AcDbEntity
  8
0
  6
Continuous
 62
     7
370
    15
100
AcDbLine
 10
223.6678479763
 20
322.7971194612
 30
0.0
 11
223.6678479763
 21
312.5929365234
 31
0.0
  0
LINE
  5
8D
330
1F
100
AcDbEntity
  8
0
  6
Continuous
 62
     7
370
    15
100
AcDbLine
 10
223.6678479763
 20
312.3554474043
 30
0.0
 11
243.7678454968
 21
312.3554474043
 31
0.0
  0
LINE
  5
8E
330
1F
100
AcDbEntity
  8
0
  6
Continuous
 62
     7
370
    15
100
AcDbLine
 10
248.5678447935
 20
312.3554474043
 30
0.0
 11
259.1678454133
 21
312.3554474043
 31
0.0
  0
LWPOLYLINE
  5
8F
330
1F
100
AcDbEntity
  8
0
  6
Continuous
 62
     7
370
    15
100
AcDbPolyline
 90
       10
 70
   128
 43
0.0
 10
274.1678460094
 20
325.1141252296
 10
273.9749057743
 20
323.2241792904
 10
273.3938051912
 20
321.2959969716
 10
272.4155439588
 20
319.3918763028
 10
271.0654615017
 20
317.5899310337
 10
269.424493477
 20
316.0083813892
 10
267.5088076445
 20
314.6533182191
 10
265.3439818474
 20
313.5710152166
 10
263.0114956352
 20
312.8142597453
 10
259.1678454133
 20
312.3554474043
  0
LWPOLYLINE
  5
90
330
1F
100
AcDbEntity
  8
0
  6
Continuous
 62
     7
370
    15
100
AcDbPolyline
 90
       10
 70
   128
 43
0.0
 10
211.1678524467
 20
312.3554474043
 10
208.6522980186
 20
312.5519173519
 10
206.2075241062
 20
313.1272996144
 10
203.9040132019
 20
314.0645454006
 10
201.8058402988
 20
315.3205139862
 10
199.9852313253
 20
316.841382377
 10
198.4798117134
 20
318.5666928367
 10
197.3543568107
 20
320.3925824093
 10
196.5960516187
 20
322.2785311119
 10
196.1678518506
 20
325.1141252296
  0
LINE
  5
91
330
1F
100
AcDbEntity
  8
0
  6
Continuous
 62
     7
370
    15
100
AcDbLine
 10
211.1678524467
 20
312.3554474043
 30
0.0
 11
214.6678520891
 21
312.3554474043
 31
0.0
  0
LINE
  5
92
330
1F
100
AcDbEntity
  8
0
  6
Continuous
 62
     7
370
    15
100
AcDbLine
 10
274.1678460094
 20
325.3657462375
 30
0.0
 11
274.1678460094
 21
325.1141252296
 31
0.0
  0
LINE
  5
93
330
1F
100
AcDbEntity
  8
0
  6
Continuous
 62
     7
370
    15
100
AcDbLine
 10
199.1678430292
 20
366.4379900621
 30
0.0
 11
199.1678430292
 21
374.988492422
 31
0.0
  0
LINE
  5
94
330
1F
100
AcDbEntity
  8
0
  6
Continuous
 62
     7
370
    15
100
AcDbLine
 10
271.1678473803
 20
374.988492422
 30
0.0
 11
271.1678473803
 21
366.4379900621
 31
0.0
  0
LINE
  5
95
330
1F
100
AcDbEntity
  8
0
  6
Continuous
 62
     7
370
    15
100
AcDbLine
 10
243.7678454968
 20
312.5929365234
 30
0.0
 11
243.7678454968
 21
312.3554474043
 31
0.0
  0
LINE
  5
96
330
1F
100
AcDbEntity
  8
0
  6
Continuous
 62
     7
370
    15
100
AcDbLine
 10
223.6678479763
 20
312.5929365234
 30
0.0
 11
223.6678479763
 21
312.3554474043
 31
0.0
  0
LINE
  5
97
330
1F
100
AcDbEntity
  8
0
  6
Continuous
 62
     7
370
    15
100
AcDbLine
 10
214.6678520891
 20
312.3554474043
 30
0.0
 11
214.6678520891
 21
312.5929365234
 31
0.0
  0
LINE
  5
98
330
1F
100
AcDbEntity
  8
0
  6
Continuous
 62
     7
370
    15
100
AcDbLine
 10
248.5678447935
 20
312.3554474043
 30
0.0
 11
248.5678447935
 21
312.5929365234
 31
0.0
  0
LINE
  5
99
330
1F
100
AcDbEntity
  8
0
  6
Continuous
 62
     7
370
    15
100
AcDbLine
 10
214.6678520891
 20
324.7193636672
 30
0.0
 11
214.6678520891
 21
322.7971194612
 31
0.0
  0
LINE
  5
9A
330
1F
100
AcDbEntity
  8
0
  6
Continuous
 62
     7
370
    15
100
AcDbLine
 10
223.6678479763
 20
322.7971194612
 30
0.0
 11
223.6678479763
 21
324.7193636672
 31
0.0
  0
LWPOLYLINE
  5
9B
330
1F
100
AcDbEntity
  8
0
  6
Continuous
 62
     7
370
    15
100
AcDbPolyline
 90
        6
 70
   128
 43
0.0
 10
204.1678531619
 20
254.7791039871
 10
204.2804165336
 20
255.0967892932
 10
204.6056790801
 20
255.3858308421
 10
205.1067753288
 20
255.6099554824
 10
205.7275279018
 20
255.7399755643
 10
206.1678423139
 20
255.7650765704
  0
LINE
  5
9C
330
1F
100
AcDbEntity
  8
0
  6
Continuous
 62
     7
370
    15
100
AcDbLine
 10
204.1678531619
 20
254.4788008855
 30
0.0
 11
204.1678531619
 21
254.7791039871
 31
0.0
  0
LWPOLYLINE
  5
9D
330
1F
100
AcDbEntity
  8
0
  6
Continuous
 62
     7
370
    15
100
AcDbPolyline
 90
        6
 70
   128
 43
0.0
 10
206.1678423139
 20
253.5964845048
 10
205.5058433267
 20
253.6440788137
 10
204.9184842559
 20
253.782931559
 10
204.4720156642
 20
254.0010249542
 10
204.2167736741
 20
254.2779220568
 10
204.1678531619
 20
254.4788008855
  0
LINE
  5
9E
330
1F
100
AcDbEntity
  8
0
  6
Continuous
 62
     7
370
    15
100
AcDbLine
 10
215.1678456518
 20
253.5964845048
 30
0.0
 11
206.1678423139
 21
253.5964845048
 31
0.0
  0
LWPOLYLINE
  5
9F
330
1F
100
AcDbEntity
  8
0
  6
Continuous
 62
     7
370
    15
100
AcDbPolyline
 90
        6
 70
   128
 43
0.0
 10
217.1678497049
 20
254.4788008855
 10
217.0552714321
 20
254.1780470239
 10
216.7300088855
 20
253.9184166418
 10
216.2289126369
 20
253.7256961988
 10
215.6081600639
 20
253.6171710418
 10
215.1678456518
 20
253.5964845048
  0
LINE
  5
A0
330
1F
100
AcDbEntity
  8
0
  6
Continuous
 62
     7
370
    15
100
AcDbLine
 10
217.1678497049
 20
254.4788008855
 30
0.0
 11
217.1678497049
 21
254.7791039871
 31
0.0
  0
LWPOLYLINE
  5
A1
330
1F
100
AcDbEntity
  8
0
  6
Continuous
 62
     7
370
    15
100
AcDbPolyline
 90
        6
 70
   128
 43
0.0
 10
215.1678456518
 20
255.7650765704
 10
215.829844639
 20
255.7074724065
 10
216.4172186109
 20
255.5425091015
 10
216.8636723014
 20
255.2923074292
 10
217.1189142915
 20
254.9893221186
 10
217.1678497049
 20
254.7791039871
  0
LINE
  5
A2
330
1F
100
AcDbEntity
  8
0
  6
Continuous
 62
     7
370
    15
100
AcDbLine
 10
215.1678456518
 20
255.7650765704
 30
0.0
 11
206.1678423139
 21
255.7650765704
 31
0.0
  0
LWPOLYLINE
  5
A3
330
1F
100
AcDbEntity
  8
0
  6
Continuous
 62
     7
370
    15
100
AcDbPolyline
 90
        6
 70
   128
 43
0.0
 10
204.1678531619
 20
261.2308113204
 10
204.2804165336
 20
261.6812622474
 10
204.6056790801
 20
262.0869351851
 10
205.1067753288
 20
262.3989431487
 10
205.7275279018
 20
262.5789715277
 10
206.1678423139
 20
262.6136539804
  0
LINE
  5
A4
330
1F
100
AcDbEntity
  8
0
  6
Continuous
 62
     7
370
    15
100
AcDbLine
 10
204.1678531619
 20
260.8002608942
 30
0.0
 11
204.1678531619
 21
261.2308113204
 31
0.0
  0
LWPOLYLINE
  5
A5
330
1F
100
AcDbEntity
  8
0
  6
Continuous
 62
     7
370
    15
100
AcDbPolyline
 90
        6
 70
   128
 43
0.0
 10
206.1678423139
 20
259.5044745432
 10
205.5058433267
 20
259.5756871925
 10
204.9184842559
 20
259.7825190352
 10
204.4720156642
 20
260.1047417449
 10
204.2167736741
 20
260.5094796346
 10
204.1678531619
 20
260.8002608942
  0
LINE
  5
A6
330
1F
100
AcDbEntity
  8
0
  6
Continuous
 62
     7
370
    15
100
AcDbLine
 10
215.1678456518
 20
259.5044745432
 30
0.0
 11
206.1678423139
 21
259.5044745432
 31
0.0
  0
LWPOLYLINE
  5
A7
330
1F
100
AcDbEntity
  8
0
  6
Continuous
 62
     7
370
    15
100
AcDbPolyline
 90
        6
 70
   128
 43
0.0
 10
217.1678497049
 20
260.8002608942
 10
217.0552714321
 20
260.3640331255
 10
216.7300088855
 20
259.9830625878
 10
216.2289126369
 20
259.6974259542
 10
215.6081600639
 20
259.5354466067
 10
215.1678456518
 20
259.5044745432
  0
LINE
  5
A8
330
1F
100
AcDbEntity
  8
0
  6
Continuous
 62
     7
370
    15
100
AcDbLine
 10
217.1678497049
 20
260.8002608942
 30
0.0
 11
217.1678497049
 21
261.2308113204
 31
0.0
  0
LWPOLYLINE
  5
A9
330
1F
100
AcDbEntity
  8
0
  6
Continuous
 62
     7
370
    15
100
AcDbPolyline
 90
        6
 70
   128
 43
0.0
 10
215.1678456518
 20
262.6136539804
 10
215.829844639
 20
262.5340333508
 10
216.4172186109
 20
262.3052744495
 10
216.8636723014
 20
261.9560880886
 10
217.1189142915
 20
261.5294380413
 10
217.1678497049
 20
261.2308113204
  0
LINE
  5
AA
330
1F
100
AcDbEntity
  8
0
  6
Continuous
 62
     7
370
    15
100
AcDbLine
 10
215.1678456518
 20
262.6136539804
 30
0.0
 11
206.1678423139
 21
262.6136539804
 31
0.0
  0
ARC
  5
AB
330
1F
100
AcDbEntity
  8
0
  6
Continuous
 62
     7
370
    15
100
AcDbCircle
 10
206.0535900676
 20
269.5184425055
 30
0.0
 40
1.896039867524408
100
AcDbArc
 50
86.5453576624
 51
174.0242585221
  0
LINE
  5
AC
330
1F
100
AcDbEntity
  8
0
  6
Continuous
 62
     7
370
    15
100
AcDbLine
 10
204.1678531619
 20
269.1813407766
 30
0.0
 11
204.1678531619
 21
269.7158342527
 31
0.0
  0
ARC
  5
AD
330
1F
100
AcDbEntity
  8
0
  6
Continuous
 62
     7
370
    15
100
AcDbCircle
 10
205.9681095739
 20
269.3481790982
 30
0.0
 40
1.807970733808583
100
AcDbArc
 50
185.2947487031
 51
276.3426078179
  0
LINE
  5
AE
330
1F
100
AcDbEntity
  8
0
  6
Continuous
 62
     7
370
    15
100
AcDbLine
 10
215.1678456518
 20
267.5512748139
 30
0.0
 11
206.1678423139
 21
267.5512748139
 31
0.0
  0
ARC
  5
AF
330
1F
100
AcDbEntity
  8
0
  6
Continuous
 62
     7
370
    15
100
AcDbCircle
 10
215.3157127604
 20
269.4118319204
 30
0.0
 40
1.866423700159656
100
AcDbArc
 50
265.4559894033
 51
352.9062359636
  0
LINE
  5
B0
330
1F
100
AcDbEntity
  8
0
  6
Continuous
 62
     7
370
    15
100
AcDbLine
 10
217.1678497049
 20
269.1813407766
 30
0.0
 11
217.1678497049
 21
269.7158342527
 31
0.0
  0
ARC
  5
B1
330
1F
100
AcDbEntity
  8
0
  6
Continuous
 62
     7
370
    15
100
AcDbCircle
 10
215.3249503037
 20
269.5689832975
 30
0.0
 40
1.84874103267582
100
AcDbArc
 50
4.5559724742
 51
94.8748324593
  0
LINE
  5
B2
330
1F
100
AcDbEntity
  8
0
  6
Continuous
 62
     7
370
    15
100
AcDbLine
 10
215.1678456518
 20
271.4110369162
 30
0.0
 11
206.1678423139
 21
271.4110369162
 31
0.0
  0
ARC
  5
B3
330
1F
100
AcDbEntity
  8
0
  6
Continuous
 62
     7
370
    15
100
AcDbCircle
 10
205.7891048611
 20
248.6520816134
 30
0.0
 40
2.647738574804503
100
AcDbArc
 50
81.7760959157
 51
127.7571266895
  0
LINE
  5
B4
330
1F
100
AcDbEntity
  8
0
  6
Continuous
 62
     7
370
    15
100
AcDbLine
 10
204.1678531619
 20
250.5942618774
 30
0.0
 11
204.1678531619
 21
250.7454192566
 31
0.0
  0
LWPOLYLINE
  5
B5
330
1F
100
AcDbEntity
  8
0
  6
Continuous
 62
     7
370
    15
100
AcDbPolyline
 90
        6
 70
   128
 43
0.0
 10
206.1678423139
 20
250.1810415016
 10
205.5058433267
 20
250.202014886
 10
204.9184842559
 20
250.2641266512
 10
204.4720156642
 20
250.3643369602
 10
204.2167736741
 20
250.4959365653
 10
204.1678531619
 20
250.5942618774
  0
LINE
  5
B6
330
1F
100
AcDbEntity
  8
0
  6
Continuous
 62
     7
370
    15
100
AcDbLine
 10
215.1678456518
 20
250.1810415016
 30
0.0
 11
206.1678423139
 21
250.1810415016
 31
0.0
  0
ARC
  5
B7
330
1F
100
AcDbEntity
  8
0
  6
Continuous
 62
     7
370
    15
100
AcDbCircle
 10
215.5908677616
 20
253.1802588298
 30
0.0
 40
3.02890281905509
100
AcDbArc
 50
261.9717217278
 51
301.3755009605
  0
LINE
  5
B8
330
1F
100
AcDbEntity
  8
0
  6
Continuous
 62
     7
370
    15
100
AcDbLine
 10
217.1678497049
 20
250.5942618774
 30
0.0
 11
217.1678497049
 21
250.7454192566
 31
0.0
  0
LWPOLYLINE
  5
B9
330
1F
100
AcDbEntity
  8
0
  6
Continuous
 62
     7
370
    15
100
AcDbPolyline
 90
        6
 70
   128
 43
0.0
 10
215.1678456518
 20
251.2725925373
 10
215.829844639
 20
251.2406146453
 10
216.4172186109
 20
251.1497995185
 10
216.8636723014
 20
251.0142958091
 10
217.1189142915
 20
250.854015194
 10
217.1678497049
 20
250.7454192566
  0
LINE
  5
BA
330
1F
100
AcDbEntity
  8
0
  6
Continuous
 62
     7
370
    15
100
AcDbLine
 10
215.1678456518
 20
251.2725925373
 30
0.0
 11
206.1678423139
 21
251.2725925373
 31
0.0
  0
LWPOLYLINE
  5
BB
330
1F
100
AcDbEntity
  8
0
  6
Continuous
 62
     7
370
    15
100
AcDbPolyline
 90
        6
 70
   128
 43
0.0
 10
293.1678472611
 20
254.4788008855
 10
293.0552727136
 20
254.1780470239
 10
292.7300138923
 20
253.9184166418
 10
292.2289176437
 20
253.7256961988
 10
291.6081650707
 20
253.6171710418
 10
291.1678469333
 20
253.5964845048
  0
LINE
  5
BC
330
1F
100
AcDbEntity
  8
0
  6
Continuous
 62
     7
370
    15
100
AcDbLine
 10
293.1678472611
 20
254.4788008855
 30
0.0
 11
293.1678472611
 21
254.7791039871
 31
0.0
  0
LWPOLYLINE
  5
BD
330
1F
100
AcDbEntity
  8
0
  6
Continuous
 62
     7
370
    15
100
AcDbPolyline
 90
        6
 70
   128
 43
0.0
 10
291.1678469333
 20
255.7650765704
 10
291.8298459205
 20
255.7074724065
 10
292.4172124418
 20
255.5425091015
 10
292.8636735829
 20
255.2923074292
 10
293.1189192983
 20
254.9893221186
 10
293.1678472611
 20
254.7791039871
  0
LINE
  5
BE
330
1F
100
AcDbEntity
  8
0
  6
Continuous
 62
     7
370
    15
100
AcDbLine
 10
282.1678473207
 20
255.7650765704
 30
0.0
 11
291.1678469333
 21
255.7650765704
 31
0.0
  0
LWPOLYLINE
  5
BF
330
1F
100
AcDbEntity
  8
0
  6
Continuous
 62
     7
370
    15
100
AcDbPolyline
 90
        6
 70
   128
 43
0.0
 10
280.1678507182
 20
254.7791039871
 10
280.2804215404
 20
255.0967892932
 10
280.6056766364
 20
255.3858308421
 10
281.106772885
 20
255.6099554824
 10
281.727525458
 20
255.7399755643
 10
282.1678473207
 20
255.7650765704
  0
LINE
  5
C0
330
1F
100
AcDbEntity
  8
0
  6
Continuous
 62
     7
370
    15
100
AcDbLine
 10
280.1678507182
 20
254.4788008855
 30
0.0
 11
280.1678507182
 21
254.7791039871
 31
0.0
  0
LWPOLYLINE
  5
C1
330
1F
100
AcDbEntity
  8
0
  6
Continuous
 62
     7
370
    15
100
AcDbPolyline
 90
        6
 70
   128
 43
0.0
 10
282.1678473207
 20
253.5964845048
 10
281.5058483335
 20
253.6440788137
 10
280.9184818121
 20
253.782931559
 10
280.472020671
 20
254.0010249542
 10
280.2167786809
 20
254.2779220568
 10
280.1678507182
 20
254.4788008855
  0
LINE
  5
C2
330
1F
100
AcDbEntity
  8
0
  6
Continuous
 62
     7
370
    15
100
AcDbLine
 10
282.1678473207
 20
253.5964845048
 30
0.0
 11
291.1678469333
 21
253.5964845048
 31
0.0
  0
LWPOLYLINE
  5
C3
330
1F
100
AcDbEntity
  8
0
  6
Continuous
 62
     7
370
    15
100
AcDbPolyline
 90
        6
 70
   128
 43
0.0
 10
293.1678472611
 20
260.8002608942
 10
293.0552727136
 20
260.3640331255
 10
292.7300138923
 20
259.9830625878
 10
292.2289176437
 20
259.6974259542
 10
291.6081650707
 20
259.5354466067
 10
291.1678469333
 20
259.5044745432
  0
LINE
  5
C4
330
1F
100
AcDbEntity
  8
0
  6
Continuous
 62
     7
370
    15
100
AcDbLine
 10
293.1678472611
 20
260.8002608942
 30
0.0
 11
293.1678472611
 21
261.2308113204
 31
0.0
  0
LWPOLYLINE
  5
C5
330
1F
100
AcDbEntity
  8
0
  6
Continuous
 62
     7
370
    15
100
AcDbPolyline
 90
        6
 70
   128
 43
0.0
 10
291.1678469333
 20
262.6136539804
 10
291.8298459205
 20
262.5340333508
 10
292.4172124418
 20
262.3052744495
 10
292.8636735829
 20
261.9560880886
 10
293.1189192983
 20
261.5294380413
 10
293.1678472611
 20
261.2308113204
  0
LINE
  5
C6
330
1F
100
AcDbEntity
  8
0
  6
Continuous
 62
     7
370
    15
100
AcDbLine
 10
282.1678473207
 20
262.6136539804
 30
0.0
 11
291.1678469333
 21
262.6136539804
 31
0.0
  0
LWPOLYLINE
  5
C7
330
1F
100
AcDbEntity
  8
0
  6
Continuous
 62
     7
370
    15
100
AcDbPolyline
 90
        6
 70
   128
 43
0.0
 10
280.1678507182
 20
261.2308113204
 10
280.2804215404
 20
261.6812622474
 10
280.6056766364
 20
262.0869351851
 10
281.106772885
 20
262.3989431487
 10
281.727525458
 20
262.5789715277
 10
282.1678473207
 20
262.6136539804
  0
LINE
  5
C8
330
1F
100
AcDbEntity
  8
0
  6
Continuous
 62
     7
370
    15
100
AcDbLine
 10
280.1678507182
 20
260.8002608942
 30
0.0
 11
280.1678507182
 21
261.2308113204
 31
0.0
  0
LWPOLYLINE
  5
C9
330
1F
100
AcDbEntity
  8
0
  6
Continuous
 62
     7
370
    15
100
AcDbPolyline
 90
        6
 70
   128
 43
0.0
 10
282.1678473207
 20
259.5044745432
 10
281.5058483335
 20
259.5756871925
 10
280.9184818121
 20
259.7825190352
 10
280.472020671
 20
260.1047417449
 10
280.2167786809
 20
260.5094796346
 10
280.1678507182
 20
260.8002608942
  0
LINE
  5
CA
330
1F
100
AcDbEntity
  8
0
  6
Continuous
 62
     7
370
    15
100
AcDbLine
 10
282.1678473207
 20
259.5044745432
 30
0.0
 11
291.1678469333
 21
259.5044745432
 31
0.0
  0
ARC
  5
CB
330
1F
100
AcDbEntity
  8
0
  6
Continuous
 62
     7
370
    15
100
AcDbCircle
 10
291.31572
 20
269.4118203773
 30
0.0
 40
1.86641266539619
100
AcDbArc
 50
265.4557789999
 51
352.9065508946
  0
LINE
  5
CC
330
1F
100
AcDbEntity
  8
0
  6
Continuous
 62
     7
370
    15
100
AcDbLine
 10
293.1678472611
 20
269.1813407766
 30
0.0
 11
293.1678472611
 21
269.7158342527
 31
0.0
  0
ARC
  5
CD
330
1F
100
AcDbEntity
  8
0
  6
Continuous
 62
     7
370
    15
100
AcDbCircle
 10
291.3249631795
 20
269.5690010264
 30
0.0
 40
1.848724353274232
100
AcDbArc
 50
4.5554624703
 51
94.875237184
  0
LINE
  5
CE
330
1F
100
AcDbEntity
  8
0
  6
Continuous
 62
     7
370
    15
100
AcDbLine
 10
282.1678473207
 20
271.4110369162
 30
0.0
 11
291.1678469333
 21
271.4110369162
 31
0.0
  0
ARC
  5
CF
330
1F
100
AcDbEntity
  8
0
  6
Continuous
 62
     7
370
    15
100
AcDbCircle
 10
282.0535960226
 20
269.5184330989
 30
0.0
 40
1.896049199953968
100
AcDbArc
 50
86.5454033913
 51
174.0240022338
  0
LINE
  5
D0
330
1F
100
AcDbEntity
  8
0
  6
Continuous
 62
     7
370
    15
100
AcDbLine
 10
280.1678507182
 20
269.1813407766
 30
0.0
 11
280.1678507182
 21
269.7158342527
 31
0.0
  0
ARC
  5
D1
330
1F
100
AcDbEntity
  8
0
  6
Continuous
 62
     7
370
    15
100
AcDbCircle
 10
281.9681260265
 20
269.34820137
 30
0.0
 40
1.807991604949783
100
AcDbArc
 50
185.2953962338
 51
276.3421693437
  0
LINE
  5
D2
330
1F
100
AcDbEntity
  8
0
  6
Continuous
 62
     7
370
    15
100
AcDbLine
 10
282.1678473207
 20
267.5512748139
 30
0.0
 11
291.1678469333
 21
267.5512748139
 31
0.0
  0
ARC
  5
D3
330
1F
100
AcDbEntity
  8
0
  6
Continuous
 62
     7
370
    15
100
AcDbCircle
 10
291.5908732657
 20
253.1802241755
 30
0.0
 40
3.028869094064928
100
AcDbArc
 50
261.9715510796
 51
301.3757139028
  0
LINE
  5
D4
330
1F
100
AcDbEntity
  8
0
  6
Continuous
 62
     7
370
    15
100
AcDbLine
 10
293.1678472611
 20
250.5942618774
 30
0.0
 11
293.1678472611
 21
250.7454192566
 31
0.0
  0
LWPOLYLINE
  5
D5
330
1F
100
AcDbEntity
  8
0
  6
Continuous
 62
     7
370
    15
100
AcDbPolyline
 90
        6
 70
   128
 43
0.0
 10
291.1678469333
 20
251.2725925373
 10
291.8298459205
 20
251.2406146453
 10
292.4172124418
 20
251.1497995185
 10
292.8636735829
 20
251.0142958091
 10
293.1189192983
 20
250.854015194
 10
293.1678472611
 20
250.7454192566
  0
LINE
  5
D6
330
1F
100
AcDbEntity
  8
0
  6
Continuous
 62
     7
370
    15
100
AcDbLine
 10
282.1678473207
 20
251.2725925373
 30
0.0
 11
291.1678469333
 21
251.2725925373
 31
0.0
  0
ARC
  5
D7
330
1F
100
AcDbEntity
  8
0
  6
Continuous
 62
     7
370
    15
100
AcDbCircle
 10
281.7891105986
 20
248.652055928
 30
0.0
 40
2.647763891482829
100
AcDbArc
 50
81.7761910686
 51
127.7569263242
  0
LINE
  5
D8
330
1F
100
AcDbEntity
  8
0
  6
Continuous
 62
     7
370
    15
100
AcDbLine
 10
280.1678507182
 20
250.5942618774
 30
0.0
 11
280.1678507182
 21
250.7454192566
 31
0.0
  0
LWPOLYLINE
  5
D9
330
1F
100
AcDbEntity
  8
0
  6
Continuous
 62
     7
370
    15
100
AcDbPolyline
 90
        6
 70
   128
 43
0.0
 10
282.1678473207
 20
250.1810415016
 10
281.5058483335
 20
250.202014886
 10
280.9184818121
 20
250.2641266512
 10
280.472020671
 20
250.3643369602
 10
280.2167786809
 20
250.4959365653
 10
280.1678507182
 20
250.5942618774
  0
LINE
  5
DA
330
1F
100
AcDbEntity
  8
0
  6
Continuous
 62
     7
370
    15
100
AcDbLine
 10
282.1678473207
 20
250.1810415016
 30
0.0
 11
291.1678469333
 21
250.1810415016
 31
0.0
  0
ARC
  5
DB
330
1F
100
AcDbEntity
  8
0
  6
Continuous
 62
     7
370
    15
100
AcDbCircle
 10
206.0745269742
 20
258.541769351
 30
0.0
 40
3.495261927002267
100
AcDbArc
 50
245.2016815565
 51
271.5298454268
  0
ARC
  5
DC
330
1F
100
AcDbEntity
  8
0
  6
Continuous
 62
     7
370
    15
100
AcDbCircle
 10
215.3369638879
 20
258.0329098268
 30
0.0
 40
2.989943224482052
100
AcDbArc
 50
266.7574851305
 51
297.7362315642
  0
LINE
  5
DD
330
1F
100
AcDbEntity
  8
0
  6
Continuous
 62
     7
370
    15
100
AcDbLine
 10
215.1678456518
 20
255.047753297
 30
0.0
 11
206.1678423139
 21
255.047753297
 31
0.0
  0
ARC
  5
DE
330
1F
100
AcDbEntity
  8
0
  6
Continuous
 62
     7
370
    15
100
AcDbCircle
 10
205.8988634144
 20
262.6422325031
 30
0.0
 40
1.915065146514208
100
AcDbArc
 50
212.0169762193
 51
278.07412837
  0
ARC
  5
DF
330
1F
100
AcDbEntity
  8
0
  6
Continuous
 62
     7
370
    15
100
AcDbCircle
 10
215.3952133419
 20
262.6930436961
 30
0.0
 40
1.96012423894198
100
AcDbArc
 50
263.338890943
 51
328.1779153708
  0
LINE
  5
E0
330
1F
100
AcDbEntity
  8
0
  6
Continuous
 62
     7
370
    15
100
AcDbLine
 10
215.1678456518
 20
260.7461510526
 30
0.0
 11
206.1678423139
 21
260.7461510526
 31
0.0
  0
ARC
  5
E1
330
1F
100
AcDbEntity
  8
0
  6
Continuous
 62
     7
370
    15
100
AcDbCircle
 10
205.9844029476
 20
270.3210081067
 30
0.0
 40
1.822787090124453
100
AcDbArc
 50
196.6186478016
 51
275.7758384653
  0
ARC
  5
E2
330
1F
100
AcDbEntity
  8
0
  6
Continuous
 62
     7
370
    15
100
AcDbCircle
 10
215.3673162531
 20
270.3046173114
 30
0.0
 40
1.808178489550087
100
AcDbArc
 50
263.6664813918
 51
354.7294014727
  0
LINE
  5
E3
330
1F
100
AcDbEntity
  8
0
  6
Continuous
 62
     7
370
    15
100
AcDbLine
 10
215.1678456518
 20
268.5074748771
 30
0.0
 11
206.1678423139
 21
268.5074748771
 31
0.0
  0
ARC
  5
E4
330
1F
100
AcDbEntity
  8
0
  6
Continuous
 62
     7
370
    15
100
AcDbCircle
 10
291.3369469312
 20
258.0330244546
 30
0.0
 40
2.99005663724226
100
AcDbArc
 50
266.7579582938
 51
297.7356449966
  0
LINE
  5
E5
330
1F
100
AcDbEntity
  8
0
  6
Continuous
 62
     7
370
    15
100
AcDbLine
 10
282.1678473207
 20
255.047753297
 30
0.0
 11
291.1678469333
 21
255.047753297
 31
0.0
  0
ARC
  5
E6
330
1F
100
AcDbEntity
  8
0
  6
Continuous
 62
     7
370
    15
100
AcDbCircle
 10
282.0745233262
 20
258.5417273158
 30
0.0
 40
3.495220137869127
100
AcDbArc
 50
245.2015213364
 51
271.5300056469
  0
ARC
  5
E7
330
1F
100
AcDbEntity
  8
0
  6
Continuous
 62
     7
370
    15
100
AcDbCircle
 10
291.3952071634
 20
262.6930591566
 30
0.0
 40
1.960138729683053
100
AcDbArc
 50
263.3391599514
 51
328.1776463624
  0
LINE
  5
E8
330
1F
100
AcDbEntity
  8
0
  6
Continuous
 62
     7
370
    15
100
AcDbLine
 10
282.1678473207
 20
260.7461510526
 30
0.0
 11
291.1678469333
 21
260.7461510526
 31
0.0
  0
ARC
  5
E9
330
1F
100
AcDbEntity
  8
0
  6
Continuous
 62
     7
370
    15
100
AcDbCircle
 10
281.8987809995
 20
262.6420583718
 30
0.0
 40
1.914905023316506
100
AcDbArc
 50
212.0138271581
 51
278.0774499723
  0
ARC
  5
EA
330
1F
100
AcDbEntity
  8
0
  6
Continuous
 62
     7
370
    15
100
AcDbCircle
 10
291.3673312201
 20
270.3045964178
 30
0.0
 40
1.808159233261925
100
AcDbArc
 50
263.6659773474
 51
354.7300100574
  0
LINE
  5
EB
330
1F
100
AcDbEntity
  8
0
  6
Continuous
 62
     7
370
    15
100
AcDbLine
 10
282.1678473207
 20
268.5074748771
 30
0.0
 11
291.1678469333
 21
268.5074748771
 31
0.0
  0
ARC
  5
EC
330
1F
100
AcDbEntity
  8
0
  6
Continuous
 62
     7
370
    15
100
AcDbCircle
 10
281.984374843
 20
270.3209586506
 30
0.0
 40
1.822741217695955
100
AcDbArc
 50
196.6174558159
 51
275.7770304509
  0
LINE
  5
ED
330
1F
100
AcDbEntity
  8
0
  6
Continuous
 62
     7
370
    15
100
AcDbLine
 10
325.6678479316
 20
267.457136728
 30
0.0
 11
333.6678473803
 21
267.457136728
 31
0.0
  0
LINE
  5
EE
330
1F
100
AcDbEntity
  8
0
  6
Continuous
 62
     7
370
    15
100
AcDbLine
 10
325.6678479316
 20
252.5654508101
 30
0.0
 11
325.6678479316
 21
267.457136728
 31
0.0
  0
LINE
  5
EF
330
1F
100
AcDbEntity
  8
0
  6
Continuous
 62
     7
370
    15
100
AcDbLine
 10
325.6678479316
 20
321.5512017088
 30
0.0
 11
333.6678473803
 21
321.5512017088
 31
0.0
  0
LINE
  5
F0
330
1F
100
AcDbEntity
  8
0
  6
Continuous
 62
     7
370
    15
100
AcDbLine
 10
325.6678479316
 20
321.5512017088
 30
0.0
 11
325.6678479316
 21
336.4428876268
 31
0.0
  0
LINE
  5
F1
330
1F
100
AcDbEntity
  8
0
  6
Continuous
 62
     7
370
    15
100
AcDbLine
 10
333.6678473803
 20
314.8334900217
 30
0.0
 11
329.667847656
 21
314.8334900217
 31
0.0
  0
LINE
  5
F2
330
1F
100
AcDbEntity
  8
0
  6
Continuous
 62
     7
370
    15
100
AcDbLine
 10
329.667847656
 20
313.1464997606
 30
0.0
 11
327.1678472462
 21
313.1464997606
 31
0.0
  0
LWPOLYLINE
  5
F3
330
1F
100
AcDbEntity
  8
0
  6
Continuous
 62
     7
370
    15
100
AcDbPolyline
 90
        3
 70
   128
 43
0.0
 10
327.1678472462
 20
313.1464997606
 10
314.9981843832
 20
310.5162622707
 10
313.1678468141
 20
310.1177884565
  0
LINE
  5
F4
330
1F
100
AcDbEntity
  8
0
  6
Continuous
 62
     7
370
    15
100
AcDbLine
 10
313.1678468141
 20
310.1177884565
 30
0.0
 11
313.1678468141
 21
306.2582470776
 31
0.0
  0
LINE
  5
F5
330
1F
100
AcDbEntity
  8
0
  6
Continuous
 62
     7
370
    15
100
AcDbLine
 10
313.1678468141
 20
306.2582470776
 30
0.0
 11
306.1678475293
 21
306.2582470776
 31
0.0
  0
LINE
  5
F6
330
1F
100
AcDbEntity
  8
0
  6
Continuous
 62
     7
370
    15
100
AcDbLine
 10
306.1678475293
 20
314.6465512292
 30
0.0
 11
315.9675719741
 21
314.6465512292
 31
0.0
  0
LWPOLYLINE
  5
F7
330
1F
100
AcDbEntity
  8
0
  6
Continuous
 62
     7
370
    15
100
AcDbPolyline
 90
        3
 70
   128
 43
0.0
 10
315.9675719741
 20
314.6465512292
 10
319.3154046836
 20
315.361158766
 10
325.6678479316
 20
316.7126549708
  0
LINE
  5
F8
330
1F
100
AcDbEntity
  8
0
  6
Continuous
 62
     7
370
    15
100
AcDbLine
 10
325.6678479316
 20
316.7126549708
 30
0.0
 11
325.6678479316
 21
321.5512017088
 31
0.0
  0
LINE
  5
F9
330
1F
100
AcDbEntity
  8
0
  6
Continuous
 62
     7
370
    15
100
AcDbLine
 10
325.6678479316
 20
267.457136728
 30
0.0
 11
325.6678479316
 21
272.2956834661
 31
0.0
  0
LWPOLYLINE
  5
FA
330
1F
100
AcDbEntity
  8
0
  6
Continuous
 62
     7
370
    15
100
AcDbPolyline
 90
        3
 70
   128
 43
0.0
 10
325.6678479316
 20
272.2956834661
 10
322.0345201495
 20
273.0679957496
 10
315.9675719741
 20
274.3617872076
  0
LINE
  5
FB
330
1F
100
AcDbEntity
  8
0
  6
Continuous
 62
     7
370
    15
100
AcDbLine
 10
315.9675719741
 20
274.3617872076
 30
0.0
 11
306.1678475293
 21
274.3617872076
 31
0.0
  0
LINE
  5
FC
330
1F
100
AcDbEntity
  8
0
  6
Continuous
 62
     7
370
    15
100
AcDbLine
 10
306.1678475293
 20
282.7500913592
 30
0.0
 11
313.1678468141
 21
282.7500913592
 31
0.0
  0
LINE
  5
FD
330
1F
100
AcDbEntity
  8
0
  6
Continuous
 62
     7
370
    15
100
AcDbLine
 10
313.1678468141
 20
282.7500913592
 30
0.0
 11
313.1678468141
 21
278.8905499803
 31
0.0
  0
LWPOLYLINE
  5
FE
330
1F
100
AcDbEntity
  8
0
  6
Continuous
 62
     7
370
    15
100
AcDbPolyline
 90
        3
 70
   128
 43
0.0
 10
313.1678468141
 20
278.8905499803
 10
325.3297145071
 20
276.2571757959
 10
327.1678472462
 20
275.8618386762
  0
LINE
  5
FF
330
1F
100
AcDbEntity
  8
0
  6
Continuous
 62
     7
370
    15
100
AcDbLine
 10
327.1678472462
 20
275.8618386762
 30
0.0
 11
329.667847656
 21
275.8618386762
 31
0.0
  0
LINE
  5
100
330
1F
100
AcDbEntity
  8
0
  6
Continuous
 62
     7
370
    15
100
AcDbLine
 10
329.667847656
 20
274.1748484151
 30
0.0
 11
333.6678473803
 21
274.1748484151
 31
0.0
  0
LINE
  5
101
330
1F
100
AcDbEntity
  8
0
  6
Continuous
 62
     7
370
    15
100
AcDbLine
 10
325.6678479316
 20
246.7888815628
 30
0.0
 11
325.6678479316
 21
252.5654508101
 31
0.0
  0
LINE
  5
102
330
1F
100
AcDbEntity
  8
0
  6
Continuous
 62
     7
370
    15
100
AcDbLine
 10
325.6678479316
 20
336.4428876268
 30
0.0
 11
325.6678479316
 21
338.9326146172
 31
0.0
  0
LINE
  5
103
330
1F
100
AcDbEntity
  8
0
  6
Continuous
 62
     7
370
    15
100
AcDbLine
 10
325.6678479316
 20
339.7535456644
 30
0.0
 11
325.6678479316
 21
342.1901649164
 31
0.0
  0
LINE
  5
104
330
1F
100
AcDbEntity
  8
0
  6
Continuous
 62
     7
370
    15
100
AcDbLine
 10
301.1678485724
 20
340.5041693078
 30
0.0
 11
301.1678485724
 21
248.504169129
 31
0.0
  0
LINE
  5
105
330
1F
100
AcDbEntity
  8
0
  6
Continuous
 62
     7
370
    15
100
AcDbLine
 10
306.1678475293
 20
335.8597530352
 30
0.0
 11
306.1678475293
 21
340.5041693078
 31
0.0
  0
LINE
  5
106
330
1F
100
AcDbEntity
  8
0
  6
Continuous
 62
     7
370
    15
100
AcDbLine
 10
315.9675719741
 20
335.8597530352
 30
0.0
 11
306.1678475293
 21
335.8597530352
 31
0.0
  0
LINE
  5
107
330
1F
100
AcDbEntity
  8
0
  6
Continuous
 62
     7
370
    15
100
AcDbLine
 10
315.9675719741
 20
335.8597530352
 30
0.0
 11
315.9675719741
 21
314.6465512292
 31
0.0
  0
LINE
  5
108
330
1F
100
AcDbEntity
  8
0
  6
Continuous
 62
     7
370
    15
100
AcDbLine
 10
306.1678475293
 20
274.3617872076
 30
0.0
 11
306.1678475293
 21
314.6465512292
 31
0.0
  0
LINE
  5
109
330
1F
100
AcDbEntity
  8
0
  6
Continuous
 62
     7
370
    15
100
AcDbLine
 10
315.9675719741
 20
274.3617872076
 30
0.0
 11
315.9675719741
 21
253.1485854016
 31
0.0
  0
LINE
  5
10A
330
1F
100
AcDbEntity
  8
0
  6
Continuous
 62
     7
370
    15
100
AcDbLine
 10
306.1678475293
 20
253.1485854016
 30
0.0
 11
315.9675719741
 21
253.1485854016
 31
0.0
  0
LINE
  5
10B
330
1F
100
AcDbEntity
  8
0
  6
Continuous
 62
     7
370
    15
100
AcDbLine
 10
306.1678475293
 20
248.504169129
 30
0.0
 11
306.1678475293
 21
253.1485854016
 31
0.0
  0
LWPOLYLINE
  5
10C
330
1F
100
AcDbEntity
  8
0
  6
Continuous
 62
     7
370
    15
100
AcDbPolyline
 90
        3
 70
   128
 43
0.0
 10
320.6678471121
 20
336.8620982693
 10
319.3154046836
 20
336.574360572
 10
315.9675719741
 20
335.8597530352
  0
LINE
  5
10D
330
1F
100
AcDbEntity
  8
0
  6
Continuous
 62
     7
370
    15
100
AcDbLine
 10
315.9675719741
 20
253.1485854016
 30
0.0
 11
320.6678471121
 21
252.1457707809
 31
0.0
  0
LINE
  5
10E
330
1F
100
AcDbEntity
  8
0
  6
Continuous
 62
     7
370
    15
100
AcDbLine
 10
325.6678479316
 20
246.2439349221
 30
0.0
 11
333.6678473803
 21
246.2439349221
 31
0.0
  0
LINE
  5
10F
330
1F
100
AcDbEntity
  8
0
  6
Continuous
 62
     7
370
    15
100
AcDbLine
 10
325.6678479316
 20
246.2439349221
 30
0.0
 11
325.6678479316
 21
246.7888815628
 31
0.0
  0
LINE
  5
110
330
1F
100
AcDbEntity
  8
0
  6
Continuous
 62
     7
370
    15
100
AcDbLine
 10
325.6678479316
 20
342.7644035147
 30
0.0
 11
333.6678473803
 21
342.7644035147
 31
0.0
  0
LINE
  5
111
330
1F
100
AcDbEntity
  8
0
  6
Continuous
 62
     7
370
    15
100
AcDbLine
 10
325.6678479316
 20
342.3505237626
 30
0.0
 11
325.6678479316
 21
342.7644035147
 31
0.0
  0
LINE
  5
112
330
1F
100
AcDbEntity
  8
0
  6
Continuous
 62
     7
370
    15
100
AcDbLine
 10
329.667847656
 20
314.8334900217
 30
0.0
 11
329.667847656
 21
274.1748484151
 31
0.0
  0
LINE
  5
113
330
1F
100
AcDbEntity
  8
0
  6
Continuous
 62
     7
370
    15
100
AcDbLine
 10
328.1678474101
 20
313.1464997606
 30
0.0
 11
328.1678474101
 21
275.8618386762
 31
0.0
  0
LINE
  5
114
330
1F
100
AcDbEntity
  8
0
  6
Continuous
 62
     7
370
    15
100
AcDbLine
 10
321.1678481254
 20
311.9463211225
 30
0.0
 11
321.1678481254
 21
277.0737650173
 31
0.0
  0
LINE
  5
115
330
1F
100
AcDbEntity
  8
0
  6
Continuous
 62
     7
370
    15
100
AcDbLine
 10
317.1678474697
 20
306.6388301851
 30
0.0
 11
317.1678474697
 21
280.0041696356
 31
0.0
  0
LINE
  5
116
330
1F
100
AcDbEntity
  8
0
  6
Continuous
 62
     7
370
    15
100
AcDbLine
 10
318.1678476336
 20
306.5975558312
 30
0.0
 11
317.1678474697
 21
306.6388301851
 31
0.0
  0
LINE
  5
117
330
1F
100
AcDbEntity
  8
0
  6
Continuous
 62
     7
370
    15
100
AcDbLine
 10
321.1678481254
 20
306.5975558312
 30
0.0
 11
318.1678476336
 21
306.5975558312
 31
0.0
  0
LINE
  5
118
330
1F
100
AcDbEntity
  8
0
  6
Continuous
 62
     7
370
    15
100
AcDbLine
 10
317.1678474697
 20
310.9851925002
 30
0.0
 11
317.1678474697
 21
306.6388301851
 31
0.0
  0
LINE
  5
119
330
1F
100
AcDbEntity
  8
0
  6
Continuous
 62
     7
370
    15
100
AcDbLine
 10
341.6678472946
 20
298.1854405554
 30
0.0
 11
341.6678472946
 21
290.8228978814
 31
0.0
  0
LINE
  5
11A
330
1F
100
AcDbEntity
  8
0
  6
Continuous
 62
     7
370
    15
100
AcDbLine
 10
333.6678473803
 20
298.1854405554
 30
0.0
 11
333.6678473803
 21
290.8228978814
 31
0.0
  0
LINE
  5
11B
330
1F
100
AcDbEntity
  8
0
  6
Continuous
 62
     7
370
    15
100
AcDbLine
 10
341.6678472946
 20
290.8228978814
 30
0.0
 11
341.6678472946
 21
251.9982232081
 31
0.0
  0
LINE
  5
11C
330
1F
100
AcDbEntity
  8
0
  6
Continuous
 62
     7
370
    15
100
AcDbLine
 10
333.6678473803
 20
290.8228978814
 30
0.0
 11
333.6678473803
 21
251.9982232081
 31
0.0
  0
LINE
  5
11D
330
1F
100
AcDbEntity
  8
0
  6
Continuous
 62
     7
370
    15
100
AcDbLine
 10
341.6678472946
 20
337.0101152288
 30
0.0
 11
341.6678472946
 21
298.1854405554
 31
0.0
  0
LINE
  5
11E
330
1F
100
AcDbEntity
  8
0
  6
Continuous
 62
     7
370
    15
100
AcDbLine
 10
333.6678473803
 20
337.0101152288
 30
0.0
 11
333.6678473803
 21
298.1854405554
 31
0.0
  0
LINE
  5
11F
330
1F
100
AcDbEntity
  8
0
  6
Continuous
 62
     7
370
    15
100
AcDbLine
 10
341.6678472946
 20
251.9982232081
 30
0.0
 11
341.6678472946
 21
246.4469669686
 31
0.0
  0
LINE
  5
120
330
1F
100
AcDbEntity
  8
0
  6
Continuous
 62
     7
370
    15
100
AcDbLine
 10
333.6678473803
 20
251.9982232081
 30
0.0
 11
333.6678473803
 21
246.4469669686
 31
0.0
  0
LINE
  5
121
330
1F
100
AcDbEntity
  8
0
  6
Continuous
 62
     7
370
    15
100
AcDbLine
 10
341.6678472946
 20
342.5613714682
 30
0.0
 11
341.6678472946
 21
337.0101152288
 31
0.0
  0
LINE
  5
122
330
1F
100
AcDbEntity
  8
0
  6
Continuous
 62
     7
370
    15
100
AcDbLine
 10
333.6678473803
 20
342.5613714682
 30
0.0
 11
333.6678473803
 21
337.0101152288
 31
0.0
  0
LWPOLYLINE
  5
123
330
1F
100
AcDbEntity
  8
0
  6
Continuous
 62
     7
370
    15
100
AcDbPolyline
 90
        3
 70
   128
 43
0.0
 10
353.1499496254
 20
301.454865683
 10
353.5395041632
 20
306.9775140213
 10
353.6678469333
 20
312.3589771168
  0
LINE
  5
124
330
1F
100
AcDbEntity
  8
0
  6
Continuous
 62
     7
370
    15
100
AcDbLine
 10
353.6678469333
 20
312.3589771168
 30
0.0
 11
353.6678469333
 21
254.9030704723
 31
0.0
  0
ARC
  5
125
330
1F
100
AcDbEntity
  8
0
  6
Continuous
 62
     7
370
    15
100
AcDbCircle
 10
346.2907122517
 20
254.5224485532
 30
0.0
 40
7.386947214825234
100
AcDbArc
 50
272.9264662006
 51
2.9535463527
  0
LINE
  5
126
330
1F
100
AcDbEntity
  8
0
  6
Continuous
 62
     7
370
    15
100
AcDbLine
 10
353.6678469333
 20
330.6765107738
 30
0.0
 11
353.6678469333
 21
312.3589771168
 31
0.0
  0
LINE
  5
127
330
1F
100
AcDbEntity
  8
0
  6
Continuous
 62
     7
370
    15
100
AcDbLine
 10
335.6678477081
 20
243.8644765245
 30
0.0
 11
341.6678472946
 21
243.8644765245
 31
0.0
  0
LINE
  5
128
330
1F
100
AcDbEntity
  8
0
  6
Continuous
 62
     7
370
    15
100
AcDbLine
 10
341.6678472946
 20
246.4469669686
 30
0.0
 11
341.6678472946
 21
243.8644765245
 31
0.0
  0
LINE
  5
129
330
1F
100
AcDbEntity
  8
0
  6
Continuous
 62
     7
370
    15
100
AcDbLine
 10
333.6678473803
 20
246.4469669686
 30
0.0
 11
333.6678473803
 21
243.6372040139
 31
0.0
  0
ARC
  5
12A
330
1F
100
AcDbEntity
  8
0
  6
Continuous
 62
     7
370
    15
100
AcDbCircle
 10
340.5848462232
 20
368.4838594021
 30
0.0
 40
23.74178522914532
100
AcDbArc
 50
256.7812412295
 51
272.6145013795
  0
LINE
  5
12B
330
1F
100
AcDbEntity
  8
0
  6
Continuous
 62
     7
370
    15
100
AcDbLine
 10
341.6678472946
 20
344.7667880283
 30
0.0
 11
341.6678472946
 21
342.5613714682
 31
0.0
  0
LINE
  5
12C
330
1F
100
AcDbEntity
  8
0
  6
Continuous
 62
     7
370
    15
100
AcDbLine
 10
333.6678473803
 20
345.3711344229
 30
0.0
 11
333.6678473803
 21
342.5613714682
 31
0.0
  0
LINE
  5
12D
330
1F
100
AcDbEntity
  8
0
  6
Continuous
 62
     7
370
    15
100
AcDbLine
 10
359.8956000584
 20
282.3394796179
 30
0.0
 11
359.8956000584
 21
315.0041697847
 31
0.0
  0
ARC
  5
12E
330
1F
100
AcDbEntity
  8
0
  6
Continuous
 62
     7
370
    15
100
AcDbCircle
 10
67.1543163577
 20
338.7152247542
 30
0.0
 40
298.1202506077553
100
AcDbArc
 50
343.9595759509
 51
349.0994981149
  0
LINE
  5
12F
330
1F
100
AcDbEntity
  8
0
  6
Continuous
 62
     7
370
    15
100
AcDbLine
 10
358.1046555715
 20
247.1451347993
 30
0.0
 11
346.6678474157
 21
247.1451347993
 31
0.0
  0
ARC
  5
130
330
1F
100
AcDbEntity
  8
0
  6
Continuous
 62
     7
370
    15
100
AcDbCircle
 10
364.393719352
 20
193.270821118
 30
0.0
 40
54.24015116013664
100
AcDbArc
 50
96.6583356778
 51
110.6047516157
  0
LINE
  5
131
330
1F
100
AcDbEntity
  8
0
  6
Continuous
 62
     7
370
    15
100
AcDbLine
 10
353.6678469333
 20
334.4678579198
 30
0.0
 11
353.6678469333
 21
330.6765107738
 31
0.0
  0
LINE
  5
132
330
1F
100
AcDbEntity
  8
0
  6
Continuous
 62
     7
370
    15
100
AcDbLine
 10
323.1678465905
 20
375.5041694568
 30
0.0
 11
374.1678474995
 21
375.5041694568
 31
0.0
  0
LINE
  5
133
330
1F
100
AcDbEntity
  8
0
  6
Continuous
 62
     7
370
    15
100
AcDbLine
 10
323.1678465905
 20
213.50416898
 30
0.0
 11
374.1678474995
 21
213.50416898
 31
0.0
  0
LINE
  5
134
330
1F
100
AcDbEntity
  8
0
  6
Continuous
 62
     7
370
    15
100
AcDbLine
 10
367.6678473654
 20
282.3394796179
 30
0.0
 11
359.8956000584
 21
282.3394796179
 31
0.0
  0
LINE
  5
135
330
1F
100
AcDbEntity
  8
0
  6
Continuous
 62
     7
370
    15
100
AcDbLine
 10
367.6678473654
 20
315.0041697847
 30
0.0
 11
367.6678473654
 21
282.3394796179
 31
0.0
  0
LINE
  5
136
330
1F
100
AcDbEntity
  8
0
  6
Continuous
 62
     7
370
    15
100
AcDbLine
 10
353.6678469333
 20
336.0598532783
 30
0.0
 11
353.6678469333
 21
334.4678579198
 31
0.0
  0
ARC
  5
137
330
1F
100
AcDbEntity
  8
0
  6
Continuous
 62
     7
370
    15
100
AcDbCircle
 10
347.2704167519
 20
236.4904428382
 30
0.0
 40
7.802263616256808
100
AcDbArc
 50
104.5858898734
 51
125.9227381423
  0
LWPOLYLINE
  5
138
330
1F
100
AcDbEntity
  8
0
  6
Continuous
 62
     7
370
    15
100
AcDbPolyline
 90
        5
 70
   128
 43
0.0
 10
367.6678473654
 20
270.9351720588
 10
366.3623864355
 20
267.4824128227
 10
364.9170389923
 20
264.0813922809
 10
362.0748045447
 20
257.2572863029
 10
358.1046555715
 20
247.1451347993
  0
LINE
  5
139
330
1F
100
AcDbEntity
  8
0
  6
Continuous
 62
     7
370
    15
100
AcDbLine
 10
392.1255386027
 20
276.5041699933
 30
0.0
 11
392.1283698234
 21
284.5041694419
 31
0.0
  0
LINE
  5
13A
330
1F
100
AcDbEntity
  8
0
  6
Continuous
 62
     7
370
    15
100
AcDbLine
 10
391.9984130713
 20
275.5041698294
 30
0.0
 11
392.1255386027
 21
276.5041699933
 31
0.0
  0
LINE
  5
13B
330
1F
100
AcDbEntity
  8
0
  6
Continuous
 62
     7
370
    15
100
AcDbLine
 10
391.9859594258
 20
266.5041683541
 30
0.0
 11
391.9984130713
 21
275.5041698294
 31
0.0
  0
LINE
  5
13C
330
1F
100
AcDbEntity
  8
0
  6
Continuous
 62
     7
370
    15
100
AcDbLine
 10
392.0111312124
 20
284.5041694419
 30
0.0
 11
392.1678467246
 21
286.5041688384
 31
0.0
  0
LINE
  5
13D
330
1F
100
AcDbEntity
  8
0
  6
Continuous
 62
     7
370
    15
100
AcDbLine
 10
335.0737821835
 20
345.3711344229
 30
0.0
 11
335.1558214578
 21
345.3711344229
 31
0.0
  0
LINE
  5
13E
330
1F
100
AcDbEntity
  8
0
  6
Continuous
 62
     7
370
    15
100
AcDbLine
 10
367.6678473654
 20
282.3394796179
 30
0.0
 11
367.6678473654
 21
270.9351720588
 31
0.0
  0
LINE
  5
13F
330
1F
100
AcDbEntity
  8
0
  6
Continuous
 62
     7
370
    15
100
AcDbLine
 10
353.6678469333
 20
336.0598532783
 30
0.0
 11
353.6678469333
 21
343.9915364908
 31
0.0
  0
LINE
  5
140
330
1F
100
AcDbEntity
  8
0
  6
Continuous
 62
     7
370
    15
100
AcDbLine
 10
335.6678477081
 20
243.8644765245
 30
0.0
 11
335.6678477081
 21
242.6609469877
 31
0.0
  0
LINE
  5
141
330
1F
100
AcDbEntity
  8
0
  6
Continuous
 62
     7
370
    15
100
AcDbLine
 10
333.6678473803
 20
243.6372040139
 30
0.0
 11
333.6678473803
 21
243.5041701721
 31
0.0
  0
LINE
  5
142
330
1F
100
AcDbEntity
  8
0
  6
Continuous
 62
     7
370
    15
100
AcDbLine
 10
333.6678473803
 20
345.5041682647
 30
0.0
 11
333.6678473803
 21
345.3711344229
 31
0.0
  0
LINE
  5
143
330
1F
100
AcDbEntity
  8
0
  6
Continuous
 62
     7
370
    15
100
AcDbLine
 10
393.1678487512
 20
286.5041688384
 30
0.0
 11
392.1678467246
 21
286.5041688384
 31
0.0
  0
LINE
  5
144
330
1F
100
AcDbEntity
  8
0
  6
Continuous
 62
     7
370
    15
100
AcDbLine
 10
393.1678487512
 20
284.5041694419
 30
0.0
 11
392.0111312124
 21
284.5041694419
 31
0.0
  0
LINE
  5
145
330
1F
100
AcDbEntity
  8
0
  6
Continuous
 62
     7
370
    15
100
AcDbLine
 10
393.1678487512
 20
286.5041688384
 30
0.0
 11
393.1678487512
 21
284.5041694419
 31
0.0
  0
LINE
  5
146
330
1F
100
AcDbEntity
  8
0
  6
Continuous
 62
     7
370
    15
100
AcDbLine
 10
393.1678487512
 20
276.5041699933
 30
0.0
 11
392.1255386027
 21
276.5041699933
 31
0.0
  0
LINE
  5
147
330
1F
100
AcDbEntity
  8
0
  6
Continuous
 62
     7
370
    15
100
AcDbLine
 10
393.1678487512
 20
275.5041698294
 30
0.0
 11
391.9984130713
 21
275.5041698294
 31
0.0
  0
LINE
  5
148
330
1F
100
AcDbEntity
  8
0
  6
Continuous
 62
     7
370
    15
100
AcDbLine
 10
393.1678487512
 20
276.5041699933
 30
0.0
 11
393.1678487512
 21
275.5041698294
 31
0.0
  0
LINE
  5
149
330
1F
100
AcDbEntity
  8
0
  6
Continuous
 62
     7
370
    15
100
AcDbLine
 10
393.1678487512
 20
266.5041683541
 30
0.0
 11
391.9859594258
 21
266.5041683541
 31
0.0
  0
LINE
  5
14A
330
1F
100
AcDbEntity
  8
0
  6
Continuous
 62
     7
370
    15
100
AcDbLine
 10
393.1678487512
 20
275.5041698294
 30
0.0
 11
393.1678487512
 21
266.5041683541
 31
0.0
  0
LINE
  5
14B
330
1F
100
AcDbEntity
  8
0
  6
Continuous
 62
     7
370
    15
100
AcDbLine
 10
393.1678487512
 20
284.5041694419
 30
0.0
 11
393.1678487512
 21
276.5041699933
 31
0.0
  0
LINE
  5
14C
330
1F
100
AcDbEntity
  8
0
  6
Continuous
 62
     7
370
    15
100
AcDbLine
 10
320.6678471121
 20
249.8981168793
 30
0.0
 11
325.6678479316
 21
249.8981168793
 31
0.0
  0
LINE
  5
14D
330
1F
100
AcDbEntity
  8
0
  6
Continuous
 62
     7
370
    15
100
AcDbLine
 10
320.6678471121
 20
249.8981168793
 30
0.0
 11
320.6678471121
 21
255.6716202127
 31
0.0
  0
LINE
  5
14E
330
1F
100
AcDbEntity
  8
0
  6
Continuous
 62
     7
370
    15
100
AcDbLine
 10
320.6678471121
 20
255.6716202127
 30
0.0
 11
325.6678479316
 21
255.6716202127
 31
0.0
  0
LINE
  5
14F
330
1F
100
AcDbEntity
  8
0
  6
Continuous
 62
     7
370
    15
100
AcDbLine
 10
320.6678471121
 20
247.0113670753
 30
0.0
 11
325.6678479316
 21
247.0113670753
 31
0.0
  0
LINE
  5
150
330
1F
100
AcDbEntity
  8
0
  6
Continuous
 62
     7
370
    15
100
AcDbLine
 10
320.6678471121
 20
247.0113670753
 30
0.0
 11
320.6678471121
 21
249.8981168793
 31
0.0
  0
LINE
  5
151
330
1F
100
AcDbEntity
  8
0
  6
Continuous
 62
     7
370
    15
100
AcDbLine
 10
320.6678471121
 20
255.6716202127
 30
0.0
 11
320.6678471121
 21
258.5583700167
 31
0.0
  0
LINE
  5
152
330
1F
100
AcDbEntity
  8
0
  6
Continuous
 62
     7
370
    15
100
AcDbLine
 10
320.6678471121
 20
258.5583700167
 30
0.0
 11
325.6678479316
 21
258.5583700167
 31
0.0
  0
LINE
  5
153
330
1F
100
AcDbEntity
  8
0
  6
Continuous
 62
     7
370
    15
100
AcDbLine
 10
320.6678471121
 20
330.8035208212
 30
0.0
 11
325.6678479316
 21
330.8035208212
 31
0.0
  0
LINE
  5
154
330
1F
100
AcDbEntity
  8
0
  6
Continuous
 62
     7
370
    15
100
AcDbLine
 10
320.6678471121
 20
330.8035208212
 30
0.0
 11
320.6678471121
 21
333.6902706252
 31
0.0
  0
LINE
  5
155
330
1F
100
AcDbEntity
  8
0
  6
Continuous
 62
     7
370
    15
100
AcDbLine
 10
320.6678471121
 20
333.6902706252
 30
0.0
 11
325.6678479316
 21
333.6902706252
 31
0.0
  0
LINE
  5
156
330
1F
100
AcDbEntity
  8
0
  6
Continuous
 62
     7
370
    15
100
AcDbLine
 10
320.6678471121
 20
339.4637739586
 30
0.0
 11
325.6678479316
 21
339.4637739586
 31
0.0
  0
LINE
  5
157
330
1F
100
AcDbEntity
  8
0
  6
Continuous
 62
     7
370
    15
100
AcDbLine
 10
320.6678471121
 20
342.3505237626
 30
0.0
 11
325.6678479316
 21
342.3505237626
 31
0.0
  0
LINE
  5
158
330
1F
100
AcDbEntity
  8
0
  6
Continuous
 62
     7
370
    15
100
AcDbLine
 10
325.6678479316
 20
339.4637739586
 30
0.0
 11
325.6678479316
 21
339.7535456644
 31
0.0
  0
LINE
  5
159
330
1F
100
AcDbEntity
  8
0
  6
Continuous
 62
     7
370
    15
100
AcDbLine
 10
325.6678479316
 20
342.1901649164
 30
0.0
 11
325.6678479316
 21
342.3505237626
 31
0.0
  0
LINE
  5
15A
330
1F
100
AcDbEntity
  8
0
  6
Continuous
 62
     7
370
    15
100
AcDbLine
 10
320.6678471121
 20
339.4637739586
 30
0.0
 11
320.6678471121
 21
342.3505237626
 31
0.0
  0
LINE
  5
15B
330
1F
100
AcDbEntity
  8
0
  6
Continuous
 62
     7
370
    15
100
AcDbLine
 10
325.6678479316
 20
338.9326146172
 30
0.0
 11
325.6678479316
 21
339.4637739586
 31
0.0
  0
LINE
  5
15C
330
1F
100
AcDbEntity
  8
0
  6
Continuous
 62
     7
370
    15
100
AcDbLine
 10
320.6678471121
 20
333.6902706252
 30
0.0
 11
320.6678471121
 21
339.4637739586
 31
0.0
  0
LINE
  5
15D
330
1F
100
AcDbEntity
  8
0
  6
Continuous
 62
     7
370
    15
100
AcDbLine
 10
242.7097289416
 20
319.0019632058
 30
0.0
 11
242.7097289416
 21
318.1359375195
 31
0.0
  0
ARC
  5
15E
330
1F
100
AcDbEntity
  8
0
  6
Continuous
 62
     7
370
    15
100
AcDbCircle
 10
244.163533768
 20
315.1579123381
 30
0.0
 40
3.313937605756962
100
AcDbArc
 50
88.827358882
 51
116.0205882887
  0
LINE
  5
15F
330
1F
100
AcDbEntity
  8
0
  6
Continuous
 62
     7
370
    15
100
AcDbLine
 10
245.6678478571
 20
317.227117561
 30
0.0
 11
245.6678478571
 21
315.574135475
 31
0.0
  0
LINE
  5
160
330
1F
100
AcDbEntity
  8
0
  6
Continuous
 62
     7
370
    15
100
AcDbLine
 10
245.6678478571
 20
315.574135475
 30
0.0
 11
246.6678498837
 21
315.574135475
 31
0.0
  0
LINE
  5
161
330
1F
100
AcDbEntity
  8
0
  6
Continuous
 62
     7
370
    15
100
AcDbLine
 10
246.6678498837
 20
315.574135475
 30
0.0
 11
246.6678498837
 21
317.227117561
 31
0.0
  0
ARC
  5
162
330
1F
100
AcDbEntity
  8
0
  6
Continuous
 62
     7
370
    15
100
AcDbCircle
 10
248.215833044
 20
315.3561689791
 30
0.0
 40
3.116981709010487
100
AcDbArc
 50
63.1021108386
 51
92.0499419907
  0
LINE
  5
163
330
1F
100
AcDbEntity
  8
0
  6
Continuous
 62
     7
370
    15
100
AcDbLine
 10
249.6259613487
 20
318.1359375195
 30
0.0
 11
249.6259613487
 21
319.0019632058
 31
0.0
  0
ARC
  5
164
330
1F
100
AcDbEntity
  8
0
  6
Continuous
 62
     7
370
    15
100
AcDbCircle
 10
248.1721685355
 20
316.0239925551
 30
0.0
 40
3.31388333231506
100
AcDbArc
 50
63.9791847549
 51
91.1728680743
  0
LINE
  5
165
330
1F
100
AcDbEntity
  8
0
  6
Continuous
 62
     7
370
    15
100
AcDbLine
 10
246.6678498837
 20
320.5812199341
 30
0.0
 11
246.6678498837
 21
321.563767113
 31
0.0
  0
LINE
  5
166
330
1F
100
AcDbEntity
  8
0
  6
Continuous
 62
     7
370
    15
100
AcDbLine
 10
246.6678498837
 20
321.563767113
 30
0.0
 11
245.6678478571
 21
321.563767113
 31
0.0
  0
LINE
  5
167
330
1F
100
AcDbEntity
  8
0
  6
Continuous
 62
     7
370
    15
100
AcDbLine
 10
245.6678478571
 20
321.563767113
 30
0.0
 11
245.6678478571
 21
320.5812199341
 31
0.0
  0
ARC
  5
168
330
1F
100
AcDbEntity
  8
0
  6
Continuous
 62
     7
370
    15
100
AcDbCircle
 10
244.1198572463
 20
316.2221946653
 30
0.0
 40
3.116981709010487
100
AcDbArc
 50
87.9500580093
 51
116.8978891614
  0
LINE
  5
169
330
1F
100
AcDbEntity
  8
0
  6
Continuous
 62
     7
370
    15
100
AcDbLine
 10
244.2313535663
 20
318.4711559044
 30
0.0
 11
245.6678478571
 21
318.4711559044
 31
0.0
  0
LINE
  5
16A
330
1F
100
AcDbEntity
  8
0
  6
Continuous
 62
     7
370
    15
100
AcDbLine
 10
245.6678478571
 20
318.4711559044
 30
0.0
 11
245.6678478571
 21
317.227117561
 31
0.0
  0
LINE
  5
16B
330
1F
100
AcDbEntity
  8
0
  6
Continuous
 62
     7
370
    15
100
AcDbLine
 10
246.6678498837
 20
318.4711559044
 30
0.0
 11
248.1043367239
 21
318.4711559044
 31
0.0
  0
LINE
  5
16C
330
1F
100
AcDbEntity
  8
0
  6
Continuous
 62
     7
370
    15
100
AcDbLine
 10
246.6678498837
 20
317.227117561
 30
0.0
 11
246.6678498837
 21
318.4711559044
 31
0.0
  0
LWPOLYLINE
  5
16D
330
1F
100
AcDbEntity
  8
0
  6
Continuous
 62
     7
370
    15
100
AcDbPolyline
 90
       13
 70
   128
 43
0.0
 10
250.1678495261
 20
317.3541685866
 10
250.1231683942
 20
316.8378712909
 10
249.7717245075
 20
315.8511517869
 10
249.1000546667
 20
314.9979820775
 10
248.1678454729
 20
314.3541699575
 10
247.0579324814
 20
313.9769191222
 10
245.8689241263
 20
313.899753459
 10
244.7064845416
 20
314.1295275019
 10
243.6738862249
 20
314.6458247976
 10
242.8628905269
 20
315.4027721213
 10
242.3455594632
 20
316.333107494
 10
242.1678482148
 20
317.3541685866
 10
242.1678482148
 20
317.3541685866
  0
LINE
  5
16E
330
1F
100
AcDbEntity
  8
0
  6
Continuous
 62
     7
370
    15
100
AcDbLine
 10
245.6678478571
 20
319.3371815907
 30
0.0
 11
245.6678478571
 21
318.4711559044
 31
0.0
  0
LINE
  5
16F
330
1F
100
AcDbEntity
  8
0
  6
Continuous
 62
     7
370
    15
100
AcDbLine
 10
245.6678478571
 20
319.3371815907
 30
0.0
 11
244.2313535663
 21
319.3371815907
 31
0.0
  0
LINE
  5
170
330
1F
100
AcDbEntity
  8
0
  6
Continuous
 62
     7
370
    15
100
AcDbLine
 10
248.1043367239
 20
319.3371815907
 30
0.0
 11
246.6678498837
 21
319.3371815907
 31
0.0
  0
LINE
  5
171
330
1F
100
AcDbEntity
  8
0
  6
Continuous
 62
     7
370
    15
100
AcDbLine
 10
246.6678498837
 20
318.4711559044
 30
0.0
 11
246.6678498837
 21
319.3371815907
 31
0.0
  0
LINE
  5
172
330
1F
100
AcDbEntity
  8
0
  6
Continuous
 62
     7
370
    15
100
AcDbLine
 10
245.6678478571
 20
320.5812199341
 30
0.0
 11
245.6678478571
 21
319.3371815907
 31
0.0
  0
LINE
  5
173
330
1F
100
AcDbEntity
  8
0
  6
Continuous
 62
     7
370
    15
100
AcDbLine
 10
246.6678498837
 20
319.3371815907
 30
0.0
 11
246.6678498837
 21
320.5812199341
 31
0.0
  0
LINE
  5
174
330
1F
100
AcDbEntity
  8
0
  6
Continuous
 62
     7
370
    15
100
AcDbLine
 10
246.6678498837
 20
320.6489848273
 30
0.0
 11
245.6678478571
 21
320.6489848273
 31
0.0
  0
LINE
  5
175
330
1F
100
AcDbEntity
  8
0
  6
Continuous
 62
     7
370
    15
100
AcDbLine
 10
188.8678474876
 20
272.0041683243
 30
0.0
 11
188.8678474876
 21
263.0041687118
 31
0.0
  0
LWPOLYLINE
  5
176
330
1F
100
AcDbEntity
  8
0
  6
Continuous
 62
     7
370
    15
100
AcDbPolyline
 90
        2
 70
   128
 43
0.0
 10
186.4382876607
 20
264.0460541772
 10
186.4382876607
 20
264.0460541772
  0
ARC
  5
177
330
1F
100
AcDbEntity
  8
0
  6
Continuous
 62
     7
370
    15
100
AcDbCircle
 10
187.8100274706
 20
265.5589573111
 30
0.0
 40
2.042191469658873
100
AcDbArc
 50
179.7553611328
 51
227.8015999983
  0
LINE
  5
178
330
1F
100
AcDbEntity
  8
0
  6
Continuous
 62
     7
370
    15
100
AcDbLine
 10
185.7678546163
 20
265.5676769392
 30
0.0
 11
185.7678546163
 21
267.0041693674
 31
0.0
  0
LINE
  5
179
330
1F
100
AcDbEntity
  8
0
  6
Continuous
 62
     7
370
    15
100
AcDbLine
 10
185.7678546163
 20
267.0041693674
 30
0.0
 11
186.4382876607
 21
267.0041693674
 31
0.0
  0
LINE
  5
17A
330
1F
100
AcDbEntity
  8
0
  6
Continuous
 62
     7
370
    15
100
AcDbLine
 10
186.4382876607
 20
267.0041693674
 30
0.0
 11
186.4382876607
 21
268.0041695313
 31
0.0
  0
LINE
  5
17B
330
1F
100
AcDbEntity
  8
0
  6
Continuous
 62
     7
370
    15
100
AcDbLine
 10
186.4382876607
 20
268.0041695313
 30
0.0
 11
185.7678546163
 21
268.0041695313
 31
0.0
  0
LINE
  5
17C
330
1F
100
AcDbEntity
  8
0
  6
Continuous
 62
     7
370
    15
100
AcDbLine
 10
185.7678546163
 20
268.0041695313
 30
0.0
 11
185.7678546163
 21
269.4406600969
 31
0.0
  0
ARC
  5
17D
330
1F
100
AcDbEntity
  8
0
  6
Continuous
 62
     7
370
    15
100
AcDbCircle
 10
187.8021856732
 20
269.4528366999
 30
0.0
 40
2.034367498404387
100
AcDbArc
 50
132.1001476094
 51
180.3429430168
  0
LWPOLYLINE
  5
17E
330
1F
100
AcDbEntity
  8
0
  6
Continuous
 62
     7
370
    15
100
AcDbPolyline
 90
        2
 70
   128
 43
0.0
 10
186.4382876607
 20
270.9622847216
 10
186.4382876607
 20
270.9622847216
  0
LWPOLYLINE
  5
17F
330
1F
100
AcDbEntity
  8
0
  6
Continuous
 62
     7
370
    15
100
AcDbPolyline
 90
       23
 70
   128
 43
0.0
 10
223.5678462836
 20
332.0549203383
 10
223.3896134945
 20
333.219785087
 10
222.8693618032
 20
334.2902807819
 10
222.0492316934
 20
335.1796789394
 10
220.9956748935
 20
335.8159287201
 10
219.7940303537
 20
336.147483282
 10
218.5416622611
 20
336.147483282
 10
217.3400177213
 20
335.8159287201
 10
216.2864609214
 20
335.1796789394
 10
215.4663308116
 20
334.2902807819
 10
214.9460716697
 20
333.219785087
 10
214.7678537818
 20
332.0549203383
 10
214.9460716697
 20
330.8900555895
 10
215.4663308116
 20
329.8195598947
 10
216.2864609214
 20
328.9301617371
 10
217.3400177213
 20
328.2939119564
 10
218.5416622611
 20
327.9623573946
 10
219.7940303537
 20
327.9623573946
 10
220.9956748935
 20
328.2939119564
 10
222.0492316934
 20
328.9301617371
 10
222.8693618032
 20
329.8195598947
 10
223.3896134945
 20
330.8900555895
 10
223.5678462836
 20
332.0549203383
  0
ARC
  5
180
330
1F
100
AcDbEntity
  8
0
  6
Continuous
 62
     7
370
    15
100
AcDbCircle
 10
219.1678500327
 20
333.5563200795
 30
0.0
 40
4.404943089829937
100
AcDbArc
 50
2.7156388775
 51
177.2843611225
  0
LWPOLYLINE
  5
181
330
1F
100
AcDbEntity
  8
0
  6
Continuous
 62
     7
370
    15
100
AcDbPolyline
 90
       19
 70
   128
 43
0.0
 10
212.9178448173
 20
334.1070412027
 10
213.0994601699
 20
335.5125597046
 10
213.6337413045
 20
336.8363974916
 10
214.4896491023
 20
338.0016124176
 10
215.6174434873
 20
338.9404898809
 10
216.9515593502
 20
339.5984655546
 10
218.4144957515
 20
339.9372993337
 10
219.9212043139
 20
339.9372993337
 10
221.3841258141
 20
339.5984655546
 10
222.7182491275
 20
338.9404898809
 10
223.8460360619
 20
338.0016124176
 10
224.7019438597
 20
336.8363974916
 10
225.2362324449
 20
335.5125597046
 10
225.4178477975
 20
334.1070412027
 10
225.2362324449
 20
332.7015227007
 10
224.7019438597
 20
331.3776849137
 10
223.8460360619
 20
330.2124699877
 10
222.7182491275
 20
329.2735925244
 10
221.9372718188
 20
328.842013918
  0
ARC
  5
182
330
1F
100
AcDbEntity
  8
0
  6
Continuous
 62
     7
370
    15
100
AcDbCircle
 10
218.7743304832
 20
334.1956380656
 30
0.0
 40
5.857155773864474
100
AcDbArc
 50
180.8667039293
 51
246.0685418785
  0
ARC
  5
183
330
1F
100
AcDbEntity
  8
0
  6
Continuous
 62
     7
370
    15
100
AcDbCircle
 10
218.0619426974
 20
336.4955562602
 30
0.0
 40
8.894096082366394
100
AcDbArc
 50
159.5423968195
 51
179.9637656133
  0
LWPOLYLINE
  5
184
330
1F
100
AcDbEntity
  8
0
  6
Continuous
 62
     7
370
    15
100
AcDbPolyline
 90
       34
 70
   128
 43
0.0
 10
229.1678442213
 20
335.4751205371
 10
228.9871378395
 20
337.2535033451
 10
228.4515230509
 20
338.967606269
 10
227.5803862664
 20
340.5554851817
 10
226.4051912877
 20
341.9597445356
 10
224.9684138748
 20
343.1296309756
 10
223.3219994756
 20
344.0228661822
 10
221.5254335257
 20
344.6071630643
 10
219.6436627361
 20
344.8614029513
 10
217.744703457
 20
344.7763992773
 10
215.8971680852
 20
344.3552254068
 10
214.1678436252
 20
343.6130991505
 10
212.6192404481
 20
342.5768463241
 10
211.3073124143
 20
341.2839172708
 10
210.2794899198
 20
339.7810420321
 10
209.5729215595
 20
338.1225427912
 10
209.2131330224
 20
336.3683557438
 10
209.2131330224
 20
334.5818853305
 10
209.5729215595
 20
332.8277020084
 10
210.2794899198
 20
331.1691990422
 10
211.3073124143
 20
329.6663275288
 10
212.6192404481
 20
328.3733984755
 10
214.1678436252
 20
327.3371456491
 10
215.8971680852
 20
326.5950193928
 10
217.744703457
 20
326.173841797
 10
219.6436627361
 20
326.088838123
 10
221.5254335257
 20
326.3430817352
 10
223.3219994756
 20
326.9273786174
 10
224.9684138748
 20
327.8206100987
 10
226.4051912877
 20
328.990500264
 10
227.5803862664
 20
330.3947596179
 10
228.4515230509
 20
331.9826385306
 10
228.9871378395
 20
333.6967414545
 10
229.1678442213
 20
335.4751205371
  0
LINE
  5
185
330
1F
100
AcDbEntity
  8
0
  6
Continuous
 62
     7
370
    15
100
AcDbLine
 10
321.0177319648
 20
353.367488675
 30
0.0
 11
319.4648167643
 21
359.1630420016
 31
0.0
  0
LINE
  5
186
330
1F
100
AcDbEntity
  8
0
  6
Continuous
 62
     7
370
    15
100
AcDbLine
 10
317.3928270641
 20
352.3961974608
 30
0.0
 11
321.0177319648
 21
353.367488675
 31
0.0
  0
LINE
  5
187
330
1F
100
AcDbEntity
  8
0
  6
Continuous
 62
     7
370
    15
100
AcDbLine
 10
317.3928270641
 20
352.3961974608
 30
0.0
 11
315.8399137261
 21
358.1917545127
 31
0.0
  0
LINE
  5
188
330
1F
100
AcDbEntity
  8
0
  6
Continuous
 62
     7
370
    15
100
AcDbLine
 10
319.4648167643
 20
359.1630420016
 30
0.0
 11
315.8399137261
 21
358.1917545127
 31
0.0
  0
LINE
  5
189
330
1F
100
AcDbEntity
  8
0
  6
Continuous
 62
     7
370
    15
100
AcDbLine
 10
310.1430191251
 20
350.4536187576
 30
0.0
 11
317.3928270641
 21
352.3961974608
 31
0.0
  0
LINE
  5
18A
330
1F
100
AcDbEntity
  8
0
  6
Continuous
 62
     7
370
    15
100
AcDbLine
 10
310.1430191251
 20
350.4536187576
 30
0.0
 11
308.5901057872
 21
356.2491720842
 31
0.0
  0
LINE
  5
18B
330
1F
100
AcDbEntity
  8
0
  6
Continuous
 62
     7
370
    15
100
AcDbLine
 10
315.8399137261
 20
358.1917545127
 30
0.0
 11
308.5901057872
 21
356.2491720842
 31
0.0
  0
LINE
  5
18C
330
1F
100
AcDbEntity
  8
0
  6
Continuous
 62
     7
370
    15
100
AcDbLine
 10
306.5181142243
 20
349.4823275434
 30
0.0
 11
304.9652008864
 21
355.2778845953
 31
0.0
  0
LINE
  5
18D
330
1F
100
AcDbEntity
  8
0
  6
Continuous
 62
     7
370
    15
100
AcDbLine
 10
306.5181142243
 20
349.4823275434
 30
0.0
 11
310.1430191251
 21
350.4536187576
 31
0.0
  0
LINE
  5
18E
330
1F
100
AcDbEntity
  8
0
  6
Continuous
 62
     7
370
    15
100
AcDbLine
 10
308.5901057872
 20
356.2491720842
 30
0.0
 11
304.9652008864
 21
355.2778845953
 31
0.0
  0
LINE
  5
18F
330
1F
100
AcDbEntity
  8
0
  6
Continuous
 62
     7
370
    15
100
AcDbLine
 10
320.6678471121
 20
340.1736578272
 30
0.0
 11
317.9104654643
 21
350.4643475937
 31
0.0
  0
LINE
  5
190
330
1F
100
AcDbEntity
  8
0
  6
Continuous
 62
     7
370
    15
100
AcDbLine
 10
321.535370365
 20
351.4356350826
 30
0.0
 11
317.9104654643
 21
350.4643475937
 31
0.0
  0
LINE
  5
191
330
1F
100
AcDbEntity
  8
0
  6
Continuous
 62
     7
370
    15
100
AcDbLine
 10
323.9697171899
 20
342.3505237626
 30
0.0
 11
321.535370365
 21
351.4356350826
 31
0.0
  0
LINE
  5
192
330
1F
100
AcDbEntity
  8
0
  6
Continuous
 62
     7
370
    15
100
AcDbLine
 10
320.6678471121
 20
339.8151470648
 30
0.0
 11
313.5076677951
 21
337.8965815829
 31
0.0
  0
LINE
  5
193
330
1F
100
AcDbEntity
  8
0
  6
Continuous
 62
     7
370
    15
100
AcDbLine
 10
313.5076677951
 20
337.8965815829
 30
0.0
 11
310.660659388
 21
348.5217651652
 31
0.0
  0
LINE
  5
194
330
1F
100
AcDbEntity
  8
0
  6
Continuous
 62
     7
370
    15
100
AcDbLine
 10
317.9104654643
 20
350.4643475937
 30
0.0
 11
310.660659388
 21
348.5217651652
 31
0.0
  0
LINE
  5
195
330
1F
100
AcDbEntity
  8
0
  6
Continuous
 62
     7
370
    15
100
AcDbLine
 10
313.5076677951
 20
337.8965815829
 30
0.0
 11
309.8827628943
 21
336.925294094
 31
0.0
  0
LINE
  5
196
330
1F
100
AcDbEntity
  8
0
  6
Continuous
 62
     7
370
    15
100
AcDbLine
 10
309.8827628943
 20
336.925294094
 30
0.0
 11
307.0357544872
 21
347.5504776763
 31
0.0
  0
LINE
  5
197
330
1F
100
AcDbEntity
  8
0
  6
Continuous
 62
     7
370
    15
100
AcDbLine
 10
310.660659388
 20
348.5217651652
 30
0.0
 11
307.0357544872
 21
347.5504776763
 31
0.0
  0
LINE
  5
198
330
1F
100
AcDbEntity
  8
0
  6
Continuous
 62
     7
370
    15
100
AcDbLine
 10
357.1592253226
 20
174.5041719006
 30
0.0
 11
357.1592253226
 21
191.5041690992
 31
0.0
  0
LINE
  5
199
330
1F
100
AcDbEntity
  8
0
  6
Continuous
 62
     7
370
    15
100
AcDbLine
 10
340.1764692331
 20
174.5041719006
 30
0.0
 11
340.1764692331
 21
191.5041690992
 31
0.0
  0
LINE
  5
19A
330
1F
100
AcDbEntity
  8
0
  6
Continuous
 62
     7
370
    15
100
AcDbLine
 10
340.1764692331
 20
174.5041719006
 30
0.0
 11
357.1592253226
 21
174.5041719006
 31
0.0
  0
LINE
  5
19B
330
1F
100
AcDbEntity
  8
0
  6
Continuous
 62
     7
370
    15
100
AcDbLine
 10
369.1678466799
 20
174.5041719006
 30
0.0
 11
369.1678466799
 21
191.5041690992
 31
0.0
  0
LINE
  5
19C
330
1F
100
AcDbEntity
  8
0
  6
Continuous
 62
     7
370
    15
100
AcDbLine
 10
357.1592253226
 20
174.5041719006
 30
0.0
 11
369.1678466799
 21
174.5041719006
 31
0.0
  0
LINE
  5
19D
330
1F
100
AcDbEntity
  8
0
  6
Continuous
 62
     7
370
    15
100
AcDbLine
 10
328.1678474101
 20
174.5041719006
 30
0.0
 11
328.1678474101
 21
191.5041690992
 31
0.0
  0
LINE
  5
19E
330
1F
100
AcDbEntity
  8
0
  6
Continuous
 62
     7
370
    15
100
AcDbLine
 10
328.1678474101
 20
174.5041719006
 30
0.0
 11
340.1764692331
 21
174.5041719006
 31
0.0
  0
LINE
  5
19F
330
1F
100
AcDbEntity
  8
0
  6
Continuous
 62
     7
370
    15
100
AcDbLine
 10
340.1764692331
 20
414.5041665362
 30
0.0
 11
340.1764692331
 21
397.5041693376
 31
0.0
  0
LINE
  5
1A0
330
1F
100
AcDbEntity
  8
0
  6
Continuous
 62
     7
370
    15
100
AcDbLine
 10
357.1592253226
 20
414.5041665362
 30
0.0
 11
357.1592253226
 21
397.5041693376
 31
0.0
  0
LINE
  5
1A1
330
1F
100
AcDbEntity
  8
0
  6
Continuous
 62
     7
370
    15
100
AcDbLine
 10
357.1592253226
 20
414.5041665362
 30
0.0
 11
340.1764692331
 21
414.5041665362
 31
0.0
  0
LINE
  5
1A2
330
1F
100
AcDbEntity
  8
0
  6
Continuous
 62
     7
370
    15
100
AcDbLine
 10
369.1678466799
 20
414.5041665362
 30
0.0
 11
369.1678466799
 21
397.5041693376
 31
0.0
  0
LINE
  5
1A3
330
1F
100
AcDbEntity
  8
0
  6
Continuous
 62
     7
370
    15
100
AcDbLine
 10
369.1678466799
 20
414.5041665362
 30
0.0
 11
357.1592253226
 21
414.5041665362
 31
0.0
  0
LINE
  5
1A4
330
1F
100
AcDbEntity
  8
0
  6
Continuous
 62
     7
370
    15
100
AcDbLine
 10
328.1678474101
 20
414.5041665362
 30
0.0
 11
328.1678474101
 21
397.5041693376
 31
0.0
  0
LINE
  5
1A5
330
1F
100
AcDbEntity
  8
0
  6
Continuous
 62
     7
370
    15
100
AcDbLine
 10
340.1764692331
 20
414.5041665362
 30
0.0
 11
328.1678474101
 21
414.5041665362
 31
0.0
  0
LINE
  5
1A6
330
1F
100
AcDbEntity
  8
0
  6
Continuous
 62
     7
370
    15
100
AcDbLine
 10
360.8871466073
 20
191.5041690992
 30
0.0
 11
360.8871466073
 21
211.5041723775
 31
0.0
  0
LINE
  5
1A7
330
1F
100
AcDbEntity
  8
0
  6
Continuous
 62
     7
370
    15
100
AcDbLine
 10
336.4485474827
 20
191.5041690992
 30
0.0
 11
336.4485474827
 21
211.5041723775
 31
0.0
  0
LINE
  5
1A8
330
1F
100
AcDbEntity
  8
0
  6
Continuous
 62
     7
370
    15
100
AcDbLine
 10
336.4485474827
 20
191.5041690992
 30
0.0
 11
360.8871466073
 21
191.5041690992
 31
0.0
  0
LINE
  5
1A9
330
1F
100
AcDbEntity
  8
0
  6
Continuous
 62
     7
370
    15
100
AcDbLine
 10
360.8871466073
 20
211.5041723775
 30
0.0
 11
336.4485474827
 21
211.5041723775
 31
0.0
  0
LINE
  5
1AA
330
1F
100
AcDbEntity
  8
0
  6
Continuous
 62
     7
370
    15
100
AcDbLine
 10
378.1678481552
 20
191.5041690992
 30
0.0
 11
378.1678481552
 21
211.5041723775
 31
0.0
  0
LINE
  5
1AB
330
1F
100
AcDbEntity
  8
0
  6
Continuous
 62
     7
370
    15
100
AcDbLine
 10
360.8871466073
 20
191.5041690992
 30
0.0
 11
378.1678481552
 21
191.5041690992
 31
0.0
  0
LINE
  5
1AC
330
1F
100
AcDbEntity
  8
0
  6
Continuous
 62
     7
370
    15
100
AcDbLine
 10
378.1678481552
 20
211.5041723775
 30
0.0
 11
360.8871466073
 21
211.5041723775
 31
0.0
  0
LINE
  5
1AD
330
1F
100
AcDbEntity
  8
0
  6
Continuous
 62
     7
370
    15
100
AcDbLine
 10
319.1678477975
 20
191.5041690992
 30
0.0
 11
319.1678477975
 21
211.5041723775
 31
0.0
  0
LINE
  5
1AE
330
1F
100
AcDbEntity
  8
0
  6
Continuous
 62
     7
370
    15
100
AcDbLine
 10
319.1678477975
 20
191.5041690992
 30
0.0
 11
336.4485474827
 21
191.5041690992
 31
0.0
  0
LINE
  5
1AF
330
1F
100
AcDbEntity
  8
0
  6
Continuous
 62
     7
370
    15
100
AcDbLine
 10
336.4485474827
 20
211.5041723775
 30
0.0
 11
319.1678477975
 21
211.5041723775
 31
0.0
  0
LINE
  5
1B0
330
1F
100
AcDbEntity
  8
0
  6
Continuous
 62
     7
370
    15
100
AcDbLine
 10
336.4485474827
 20
397.5041693376
 30
0.0
 11
336.4485474827
 21
377.5041660594
 31
0.0
  0
LINE
  5
1B1
330
1F
100
AcDbEntity
  8
0
  6
Continuous
 62
     7
370
    15
100
AcDbLine
 10
360.8871466073
 20
397.5041693376
 30
0.0
 11
360.8871466073
 21
377.5041660594
 31
0.0
  0
LINE
  5
1B2
330
1F
100
AcDbEntity
  8
0
  6
Continuous
 62
     7
370
    15
100
AcDbLine
 10
360.8871466073
 20
397.5041693376
 30
0.0
 11
336.4485474827
 21
397.5041693376
 31
0.0
  0
LINE
  5
1B3
330
1F
100
AcDbEntity
  8
0
  6
Continuous
 62
     7
370
    15
100
AcDbLine
 10
336.4485474827
 20
377.5041660594
 30
0.0
 11
360.8871466073
 21
377.5041660594
 31
0.0
  0
LINE
  5
1B4
330
1F
100
AcDbEntity
  8
0
  6
Continuous
 62
     7
370
    15
100
AcDbLine
 10
378.1678481552
 20
397.5041693376
 30
0.0
 11
378.1678481552
 21
377.5041660594
 31
0.0
  0
LINE
  5
1B5
330
1F
100
AcDbEntity
  8
0
  6
Continuous
 62
     7
370
    15
100
AcDbLine
 10
378.1678481552
 20
397.5041693376
 30
0.0
 11
360.8871466073
 21
397.5041693376
 31
0.0
  0
LINE
  5
1B6
330
1F
100
AcDbEntity
  8
0
  6
Continuous
 62
     7
370
    15
100
AcDbLine
 10
360.8871466073
 20
377.5041660594
 30
0.0
 11
378.1678481552
 21
377.5041660594
 31
0.0
  0
LINE
  5
1B7
330
1F
100
AcDbEntity
  8
0
  6
Continuous
 62
     7
370
    15
100
AcDbLine
 10
319.1678477975
 20
397.5041693376
 30
0.0
 11
319.1678477975
 21
377.5041660594
 31
0.0
  0
LINE
  5
1B8
330
1F
100
AcDbEntity
  8
0
  6
Continuous
 62
     7
370
    15
100
AcDbLine
 10
336.4485474827
 20
397.5041693376
 30
0.0
 11
319.1678477975
 21
397.5041693376
 31
0.0
  0
LINE
  5
1B9
330
1F
100
AcDbEntity
  8
0
  6
Continuous
 62
     7
370
    15
100
AcDbLine
 10
319.1678477975
 20
377.5041660594
 30
0.0
 11
336.4485474827
 21
377.5041660594
 31
0.0
  0
LINE
  5
1BA
330
1F
100
AcDbEntity
  8
0
  6
Continuous
 62
     7
370
    15
100
AcDbLine
 10
196.1678518506
 20
294.5041692184
 30
0.0
 11
196.1678518506
 21
340.5041693078
 31
0.0
  0
LINE
  5
1BB
330
1F
100
AcDbEntity
  8
0
  6
Continuous
 62
     7
370
    15
100
AcDbLine
 10
196.1678518506
 20
248.504169129
 30
0.0
 11
196.1678518506
 21
294.5041692184
 31
0.0
  0
LINE
  5
1BC
330
1F
100
AcDbEntity
  8
0
  6
Continuous
 62
     7
370
    15
100
AcDbLine
 10
189.6678461286
 20
294.5041692184
 30
0.0
 11
189.6678461286
 21
340.5041693078
 31
0.0
  0
LINE
  5
1BD
330
1F
100
AcDbEntity
  8
0
  6
Continuous
 62
     7
370
    15
100
AcDbLine
 10
189.6678461286
 20
248.504169129
 30
0.0
 11
189.6678461286
 21
294.5041692184
 31
0.0
  0
LINE
  5
1BE
330
1F
100
AcDbEntity
  8
0
  6
Continuous
 62
     7
370
    15
100
AcDbLine
 10
183.1678404066
 20
279.5041695537
 30
0.0
 11
183.1678404066
 21
309.5041688831
 31
0.0
  0
LINE
  5
1BF
330
1F
100
AcDbEntity
  8
SLD-0
  6
CENTERX2
370
     0
100
AcDbLine
 10
176.4651929752
 20
294.5041692184
 30
0.0
 11
401.2335429521
 21
294.5041692184
 31
0.0
  0
LINE
  5
1C0
330
1F
100
AcDbEntity
  8
SLD-0
  6
CENTERX2
370
     0
100
AcDbLine
 10
348.6678473207
 20
432.0130092559
 30
0.0
 11
348.6678473207
 21
160.8349311546
 31
0.0
  0
LINE
  5
1C1
330
1F
100
AcDbEntity
  8
0
  6
Continuous
 62
     7
370
    15
100
AcDbLine
 10
516.7581040757
 20
291.4470337165
 30
0.0
 11
516.7581040757
 21
218.5077851938
 31
0.0
  0
LINE
  5
1C2
330
1F
100
AcDbEntity
  8
0
  6
Continuous
 62
     7
370
    15
100
AcDbLine
 10
551.7593372958
 20
218.5106983708
 30
0.0
 11
551.7593372958
 21
284.5043668823
 31
0.0
  0
LINE
  5
1C3
330
1F
100
AcDbEntity
  8
0
  6
Continuous
 62
     7
370
    15
100
AcDbLine
 10
508.7587211625
 20
377.5041660594
 30
0.0
 11
508.7587211625
 21
375.5041694568
 31
0.0
  0
LINE
  5
1C4
330
1F
100
AcDbEntity
  8
0
  6
Continuous
 62
     7
370
    15
100
AcDbLine
 10
559.7587202089
 20
375.5041694568
 30
0.0
 11
559.7587202089
 21
377.5041660594
 31
0.0
  0
LINE
  5
1C5
330
1F
100
AcDbEntity
  8
0
  6
Continuous
 62
     7
370
    15
100
AcDbLine
 10
559.7587202089
 20
211.5041723775
 30
0.0
 11
559.7587202089
 21
213.50416898
 31
0.0
  0
LINE
  5
1C6
330
1F
100
AcDbEntity
  8
0
  6
Continuous
 62
     7
370
    15
100
AcDbLine
 10
508.7587211625
 20
213.50416898
 30
0.0
 11
508.7587211625
 21
211.5041723775
 31
0.0
  0
ARC
  5
1C7
330
1F
100
AcDbEntity
  8
0
  6
Continuous
 62
     7
370
    15
100
AcDbCircle
 10
511.7581155356
 20
218.5041671184
 30
0.0
 40
4.999998218843958
100
AcDbArc
 50
270.0102753293
 51
0.0884177068
  0
ARC
  5
1C8
330
1F
100
AcDbEntity
  8
0
  6
Continuous
 62
     7
370
    15
100
AcDbCircle
 10
556.7593398929
 20
218.5041711491
 30
0.0
 40
5.000003231600921
100
AcDbArc
 50
179.9711365888
 51
269.962648399
  0
ARC
  5
1C9
330
1F
100
AcDbEntity
  8
0
  6
Continuous
 62
     7
370
    15
100
AcDbCircle
 10
556.969008923
 20
370.5042078926
 30
0.0
 40
4.999961630205488
100
AcDbArc
 50
90.0093095709
 51
179.4365402782
  0
ARC
  5
1CA
330
1F
100
AcDbEntity
  8
0
  6
Continuous
 62
     7
370
    15
100
AcDbCircle
 10
511.5071920916
 20
370.5042030078
 30
0.0
 40
4.999966470708357
100
AcDbArc
 50
0.4037672921
 51
89.9946658913
  0
LWPOLYLINE
  5
1CB
330
1F
100
AcDbEntity
  8
0
  6
Continuous
 62
     7
370
    15
100
AcDbPolyline
 90
       10
 70
   128
 43
0.0
 10
516.5113073187
 20
370.8287811206
 10
516.5715955542
 20
365.4201811479
 10
516.6222222494
 20
360.5654945897
 10
517.0288004325
 20
356.329694234
 10
517.8952265875
 20
352.7694417463
 10
518.9909266652
 20
349.865056418
 10
520.1332608582
 20
347.574677162
 10
521.1811403157
 20
345.8463175522
 10
522.059075755
 20
344.5873817729
 10
522.7677163081
 20
343.6924999879
  0
LWPOLYLINE
  5
1CC
330
1F
100
AcDbEntity
  8
0
  6
Continuous
 62
     7
370
    15
100
AcDbPolyline
 90
       11
 70
   128
 43
0.0
 10
557.6186806308
 20
345.156613581
 10
555.8483984666
 20
346.3111928033
 10
554.513997619
 20
347.5859759675
 10
553.5453681247
 20
348.8697743343
 10
552.8726086365
 20
350.0814622568
 10
552.1540392535
 20
352.078683518
 10
551.8249359326
 20
354.3031139599
 10
551.8358715223
 20
357.6519599484
 10
551.8735882239
 20
362.0582184123
 10
551.9314717846
 20
367.5208127426
 10
551.9694995479
 20
370.5655819105
  0
ARC
  5
1CD
330
1F
100
AcDbEntity
  8
0
  6
Continuous
 62
     7
370
    15
100
AcDbCircle
 10
518.8464256755
 20
340.5538710718
 30
0.0
 40
4.996451632006679
100
AcDbArc
 50
283.3129731543
 51
38.7097628695
  0
LWPOLYLINE
  5
1CE
330
1F
100
AcDbEntity
  8
0
  6
Continuous
 62
     7
370
    15
100
AcDbPolyline
 90
        3
 70
   128
 43
0.0
 10
520.0000705542
 20
335.6923794674
 10
520.0057441713
 20
335.6936386155
 10
520.1350797312
 20
335.7221408116
  0
LINE
  5
1CF
330
1F
100
AcDbEntity
  8
0
  6
Continuous
 62
     7
370
    15
100
AcDbLine
 10
490.970351954
 20
345.8981065379
 30
0.0
 11
488.1512720482
 21
344.8720461057
 31
0.0
  0
ARC
  5
1D0
330
1F
100
AcDbEntity
  8
0
  6
Continuous
 62
     7
370
    15
100
AcDbCircle
 10
485.5887094845
 20
343.1412179536
 30
0.0
 40
3.000000000000038
100
AcDbArc
 50
290.0
 51
20.0
  0
LINE
  5
1D1
330
1F
100
AcDbEntity
  8
0
  6
Continuous
 62
     7
370
    15
100
AcDbLine
 10
486.614768614
 20
340.322140448
 30
0.0
 11
485.6750790374
 21
339.9801215457
 31
0.0
  0
ARC
  5
1D2
330
1F
100
AcDbEntity
  8
0
  6
Continuous
 62
     7
370
    15
100
AcDbCircle
 10
486.017097437
 20
339.0404273272
 30
0.0
 40
1.000000000000024
100
AcDbArc
 50
110.0
 51
200.0
  0
LINE
  5
1D3
330
1F
100
AcDbEntity
  8
0
  6
Continuous
 62
     7
370
    15
100
AcDbLine
 10
483.6794372992
 20
327.9202727901
 30
0.0
 11
485.5941135781
 21
328.6171591209
 31
0.0
  0
LINE
  5
1D4
330
1F
100
AcDbEntity
  8
0
  6
Continuous
 62
     7
370
    15
100
AcDbLine
 10
485.3681225674
 20
337.8996698485
 30
0.0
 11
480.6696597831
 21
336.1895678865
 31
0.0
  0
LINE
  5
1D5
330
1F
100
AcDbEntity
  8
0
  6
Continuous
 62
     7
370
    15
100
AcDbLine
 10
558.758720045
 20
299.2348566951
 30
0.0
 11
555.7587214159
 21
299.1411065051
 31
0.0
  0
LINE
  5
1D6
330
1F
100
AcDbEntity
  8
0
  6
Continuous
 62
     7
370
    15
100
AcDbLine
 10
555.7587214159
 20
289.8672319317
 30
0.0
 11
558.758720045
 21
289.7734817417
 31
0.0
  0
ARC
  5
1D7
330
1F
100
AcDbEntity
  8
0
  6
Continuous
 62
     7
370
    15
100
AcDbCircle
 10
494.7747293022
 20
366.4379889726
 30
0.0
 40
10.60000000000001
100
AcDbArc
 50
110.0
 51
200.0
  0
LINE
  5
1D8
330
1F
100
AcDbEntity
  8
0
  6
Continuous
 62
     7
370
    15
100
AcDbLine
 10
491.1493148999
 20
376.3987308668
 30
0.0
 11
504.7587205069
 21
381.3521525191
 31
0.0
  0
LINE
  5
1D9
330
1F
100
AcDbEntity
  8
0
  6
Continuous
 62
     7
370
    15
100
AcDbLine
 10
492.1737362044
 20
342.5918368922
 30
0.0
 11
484.8139893608
 21
362.8125747965
 31
0.0
  0
LINE
  5
1DA
330
1F
100
AcDbEntity
  8
0
  6
Continuous
 62
     7
370
    15
100
AcDbLine
 10
535.2587207332
 20
284.5041694419
 30
0.0
 11
536.2587207807
 21
284.5041694419
 31
0.0
  0
LINE
  5
1DB
330
1F
100
AcDbEntity
  8
0
  6
Continuous
 62
     7
370
    15
100
AcDbLine
 10
535.2587207332
 20
276.5041699933
 30
0.0
 11
535.2587207332
 21
284.5041694419
 31
0.0
  0
LINE
  5
1DC
330
1F
100
AcDbEntity
  8
0
  6
Continuous
 62
     7
370
    15
100
AcDbLine
 10
536.2587207807
 20
284.5041694419
 30
0.0
 11
534.2587206857
 21
286.5041688384
 31
0.0
  0
LINE
  5
1DD
330
1F
100
AcDbEntity
  8
0
  6
Continuous
 62
     7
370
    15
100
AcDbLine
 10
536.2587207807
 20
266.5041683541
 30
0.0
 11
536.2587207807
 21
275.5041698294
 31
0.0
  0
LINE
  5
1DE
330
1F
100
AcDbEntity
  8
0
  6
Continuous
 62
     7
370
    15
100
AcDbLine
 10
532.2587205907
 20
275.5041698294
 30
0.0
 11
532.2587205907
 21
266.5041683541
 31
0.0
  0
LINE
  5
1DF
330
1F
100
AcDbEntity
  8
0
  6
Continuous
 62
     7
370
    15
100
AcDbLine
 10
536.2587207807
 20
275.5041698294
 30
0.0
 11
535.2587207332
 21
276.5041699933
 31
0.0
  0
LINE
  5
1E0
330
1F
100
AcDbEntity
  8
0
  6
Continuous
 62
     7
370
    15
100
AcDbLine
 10
534.2587206857
 20
268.504168682
 30
0.0
 11
536.2587207807
 21
266.5041683541
 31
0.0
  0
LINE
  5
1E1
330
1F
100
AcDbEntity
  8
0
  6
Continuous
 62
     7
370
    15
100
AcDbLine
 10
532.2587205907
 20
266.5041683541
 30
0.0
 11
534.2587206857
 21
268.504168682
 31
0.0
  0
LINE
  5
1E2
330
1F
100
AcDbEntity
  8
0
  6
Continuous
 62
     7
370
    15
100
AcDbLine
 10
533.2587206382
 20
276.5041699933
 30
0.0
 11
532.2587205907
 21
275.5041698294
 31
0.0
  0
LINE
  5
1E3
330
1F
100
AcDbEntity
  8
0
  6
Continuous
 62
     7
370
    15
100
AcDbLine
 10
533.2587206382
 20
284.5041694419
 30
0.0
 11
533.2587206382
 21
276.5041699933
 31
0.0
  0
LINE
  5
1E4
330
1F
100
AcDbEntity
  8
0
  6
Continuous
 62
     7
370
    15
100
AcDbLine
 10
532.2587205907
 20
284.5041694419
 30
0.0
 11
533.2587206382
 21
284.5041694419
 31
0.0
  0
LINE
  5
1E5
330
1F
100
AcDbEntity
  8
0
  6
Continuous
 62
     7
370
    15
100
AcDbLine
 10
534.2587206857
 20
286.5041688384
 30
0.0
 11
532.2587205907
 21
284.5041694419
 31
0.0
  0
LWPOLYLINE
  5
1E6
330
1F
100
AcDbEntity
  8
0
  6
Continuous
 62
     7
370
    15
100
AcDbPolyline
 90
       16
 70
   128
 43
0.0
 10
548.0676249014
 20
304.5041689949
 10
545.596990955
 20
307.4005496057
 10
543.1601519109
 20
309.324994527
 10
540.3129227804
 20
310.8156172858
 10
537.6165830409
 20
311.6450792478
 10
534.7269043438
 20
311.997182511
 10
532.0449797315
 20
311.8484167682
 10
529.3490609498
 20
311.2303333657
 10
526.8873891206
 20
310.2131000088
 10
524.5614389302
 20
308.7727696003
 10
522.4719860004
 20
306.9609010892
 10
520.6485327678
 20
304.7878731342
 10
519.1256555142
 20
302.2637444848
 10
517.9707922386
 20
299.4767309466
 10
517.0404810803
 20
295.5006371086
 10
516.7676799344
 20
291.4463894741
  0
LWPOLYLINE
  5
1E7
330
1F
100
AcDbEntity
  8
0
  6
Continuous
 62
     7
370
    15
100
AcDbPolyline
 90
       14
 70
   128
 43
0.0
 10
551.2744684117
 20
284.5041694419
 10
550.2007019119
 20
285.0307857917
 10
548.7175101759
 20
286.4418102728
 10
546.9106065454
 20
288.9859120661
 10
546.0669894116
 20
290.6990689991
 10
545.3773711221
 20
292.6103699321
 10
544.9433021592
 20
294.344000362
 10
544.6545679467
 20
296.1114560786
 10
544.4948926912
 20
299.1094434002
 10
544.7206387641
 20
301.6001925172
 10
545.2667709784
 20
303.4314167054
 10
545.6462588506
 20
304.0361132772
 10
546.0578848021
 20
304.3846030088
 10
546.5168470861
 20
304.5041689949
  0
LINE
  5
1E8
330
1F
100
AcDbEntity
  8
0
  6
Continuous
 62
     7
370
    15
100
AcDbLine
 10
555.7587214159
 20
304.5041689949
 30
0.0
 11
546.5168470861
 21
304.5041689949
 31
0.0
  0
LINE
  5
1E9
330
1F
100
AcDbEntity
  8
0
  6
Continuous
 62
     7
370
    15
100
AcDbLine
 10
555.7587214159
 20
284.5041694419
 30
0.0
 11
551.2744684117
 21
284.5041694419
 31
0.0
  0
LINE
  5
1EA
330
1F
100
AcDbEntity
  8
0
  6
Continuous
 62
     7
370
    15
100
AcDbLine
 10
555.7587214159
 20
304.5041689949
 30
0.0
 11
555.7587214159
 21
284.5041694419
 31
0.0
  0
LINE
  5
1EB
330
1F
100
AcDbEntity
  8
0
  6
Continuous
 62
     7
370
    15
100
AcDbLine
 10
534.2587206857
 20
375.5041694568
 30
0.0
 11
559.7587202089
 21
375.5041694568
 31
0.0
  0
LINE
  5
1EC
330
1F
100
AcDbEntity
  8
0
  6
Continuous
 62
     7
370
    15
100
AcDbLine
 10
508.7587211625
 20
375.5041694568
 30
0.0
 11
534.2587206857
 21
375.5041694568
 31
0.0
  0
LINE
  5
1ED
330
1F
100
AcDbEntity
  8
0
  6
Continuous
 62
     7
370
    15
100
AcDbLine
 10
534.2587206857
 20
213.50416898
 30
0.0
 11
559.7587202089
 21
213.50416898
 31
0.0
  0
LINE
  5
1EE
330
1F
100
AcDbEntity
  8
0
  6
Continuous
 62
     7
370
    15
100
AcDbLine
 10
508.7587211625
 20
213.50416898
 30
0.0
 11
534.2587206857
 21
213.50416898
 31
0.0
  0
ARC
  5
1EF
330
1F
100
AcDbEntity
  8
0
  6
Continuous
 62
     7
370
    15
100
AcDbCircle
 10
534.2587206857
 20
294.5041692184
 30
0.0
 40
20.50000000000004
100
AcDbArc
 50
328.764577256
 51
330.8035955904
  0
ARC
  5
1F0
330
1F
100
AcDbEntity
  8
0
  6
Continuous
 62
     7
370
    15
100
AcDbCircle
 10
534.2587206857
 20
294.5041692184
 30
0.0
 40
20.5
100
AcDbArc
 50
29.1964044096
 51
211.2215169124
  0
LWPOLYLINE
  5
1F1
330
1F
100
AcDbEntity
  8
0
  6
Continuous
 62
     7
370
    15
100
AcDbPolyline
 90
        2
 70
   128
 43
0.0
 10
557.6186806308
 20
345.156613581
 10
557.6186806308
 20
345.156613581
  0
LWPOLYLINE
  5
1F2
330
1F
100
AcDbEntity
  8
0
  6
Continuous
 62
     7
370
    15
100
AcDbPolyline
 90
        2
 70
   128
 43
0.0
 10
557.6186806308
 20
345.156613581
 10
557.6186806308
 20
345.156613581
  0
LINE
  5
1F3
330
1F
100
AcDbEntity
  8
0
  6
Continuous
 62
     7
370
    15
100
AcDbLine
 10
522.7612762125
 20
343.6873963402
 30
0.0
 11
522.7657055827
 21
343.6914308296
 31
0.0
  0
ARC
  5
1F4
330
1F
100
AcDbEntity
  8
0
  6
Continuous
 62
     7
370
    15
100
AcDbCircle
 10
534.2587206857
 20
294.5041692184
 30
0.0
 40
41.57854738086708
100
AcDbArc
 50
294.9539891056
 51
245.0634693757
  0
LINE
  5
1F5
330
1F
100
AcDbEntity
  8
0
  6
Continuous
 62
     7
370
    15
100
AcDbLine
 10
565.1625052439
 20
302.8081504928
 30
0.0
 11
562.624278699
 21
304.271213554
 31
0.0
  0
LINE
  5
1F6
330
1F
100
AcDbEntity
  8
0
  6
Continuous
 62
     7
370
    15
100
AcDbLine
 10
564.1967609869
 20
302.5486514272
 30
0.0
 11
565.1625052439
 21
302.8081504928
 31
0.0
  0
ARC
  5
1F7
330
1F
100
AcDbEntity
  8
0
  6
Continuous
 62
     7
370
    15
100
AcDbCircle
 10
534.2587206857
 20
294.5041692184
 30
0.0
 40
30.99999999999996
100
AcDbArc
 50
6.4827010511
 51
15.0403619203
  0
LINE
  5
1F8
330
1F
100
AcDbEntity
  8
0
  6
Continuous
 62
     7
370
    15
100
AcDbLine
 10
566.2587222056
 20
294.5043674646
 30
0.0
 11
565.7587211923
 21
294.9879439731
 31
0.0
  0
ARC
  5
1F9
330
1F
100
AcDbEntity
  8
0
  6
Continuous
 62
     7
370
    15
100
AcDbCircle
 10
534.2587206857
 20
294.5041692184
 30
0.0
 40
31.99999999999997
100
AcDbArc
 50
341.0
 51
0.0003549584
  0
LINE
  5
1FA
330
1F
100
AcDbEntity
  8
0
  6
Continuous
 62
     7
370
    15
100
AcDbLine
 10
563.2120177494
 20
286.6488153415
 30
0.0
 11
564.5153142856
 21
284.0859879108
 31
0.0
  0
LINE
  5
1FB
330
1F
100
AcDbEntity
  8
0
  6
Continuous
 62
     7
370
    15
100
AcDbLine
 10
560.7332412498
 20
285.3882609235
 30
0.0
 11
563.2120177494
 21
286.6488153415
 31
0.0
  0
ARC
  5
1FC
330
1F
100
AcDbEntity
  8
0
  6
Continuous
 62
     7
370
    15
100
AcDbCircle
 10
534.2587206857
 20
294.5041692184
 30
0.0
 40
28.00000000000007
100
AcDbArc
 50
341.0
 51
352.8192442185
  0
ARC
  5
1FD
330
1F
100
AcDbEntity
  8
0
  6
Continuous
 62
     7
370
    15
100
AcDbCircle
 10
534.2587206857
 20
294.5041692184
 30
0.0
 40
28.99999999999996
100
AcDbArc
 50
6.9319061976
 51
15.0403619203
  0
LINE
  5
1FE
330
1F
100
AcDbEntity
  8
0
  6
Continuous
 62
     7
370
    15
100
AcDbLine
 10
561.1612156378
 20
301.7329865435
 30
0.0
 11
562.2652761983
 21
302.0296523647
 31
0.0
  0
LINE
  5
1FF
330
1F
100
AcDbEntity
  8
0
  6
Continuous
 62
     7
370
    15
100
AcDbLine
 10
562.624278699
 20
304.271213554
 30
0.0
 11
561.1612156378
 21
301.7329865435
 31
0.0
  0
ARC
  5
200
330
1F
100
AcDbEntity
  8
0
  6
Continuous
 62
     7
370
    15
100
AcDbCircle
 10
528.9116346143
 20
290.821634353
 30
0.0
 40
42.51238219741157
100
AcDbArc
 50
165.5153389833
 51
216.7969601617
  0
LWPOLYLINE
  5
201
330
1F
100
AcDbEntity
  8
0
  6
Continuous
 62
     7
370
    15
100
AcDbPolyline
 90
        3
 70
   128
 43
0.0
 10
487.7505239444
 20
301.454865683
 10
489.5176973538
 20
306.9775140213
 10
491.9212360279
 20
312.3589771168
  0
ARC
  5
202
330
1F
100
AcDbEntity
  8
0
  6
Continuous
 62
     7
370
    15
100
AcDbCircle
 10
541.0589163668
 20
299.9181543887
 30
0.0
 40
57.68812217470268
100
AcDbArc
 50
216.8050702077
 51
245.0481316483
  0
ARC
  5
203
330
1F
100
AcDbEntity
  8
0
  6
Continuous
 62
     7
370
    15
100
AcDbCircle
 10
526.1273672162
 20
285.5734169633
 30
0.0
 40
67.39332218201119
100
AcDbArc
 50
38.4917816194
 51
62.1423501026
  0
ARC
  5
204
330
1F
100
AcDbEntity
  8
0
  6
Continuous
 62
     7
370
    15
100
AcDbCircle
 10
537.7454780352
 20
287.4094649826
 30
0.0
 40
44.74851651480871
100
AcDbArc
 50
288.2576031903
 51
308.3149279435
  0
ARC
  5
205
330
1F
100
AcDbEntity
  8
0
  6
Continuous
 62
     7
370
    15
100
AcDbCircle
 10
525.9206991919
 20
302.2788691764
 30
0.0
 40
63.74646700631825
100
AcDbArc
 50
308.3680585425
 51
345.6865552977
  0
ARC
  5
206
330
1F
100
AcDbEntity
  8
0
  6
Continuous
 62
     7
370
    15
100
AcDbCircle
 10
541.8180716889
 20
298.107017477
 30
0.0
 40
47.31132576188476
100
AcDbArc
 50
345.8223102934
 51
38.4383926405
  0
ARC
  5
207
330
1F
100
AcDbEntity
  8
0
  6
Continuous
 62
     7
370
    15
100
AcDbCircle
 10
521.7756737746
 20
311.3912576253
 30
0.0
 40
24.0
100
AcDbArc
 50
105.9451766523
 51
126.5293414146
  0
ARC
  5
208
330
1F
100
AcDbEntity
  8
0
  6
Continuous
 62
     7
370
    15
100
AcDbCircle
 10
538.2587206857
 20
253.6997576922
 30
0.0
 40
84.0
100
AcDbArc
 50
101.3400795662
 51
105.9451766523
  0
ARC
  5
209
330
1F
100
AcDbEntity
  8
0
  6
Continuous
 62
     7
370
    15
100
AcDbCircle
 10
539.0379077084
 20
288.0876551305
 30
0.0
 40
53.00073463931362
100
AcDbArc
 50
126.5293414146
 51
152.7455384326
  0
CIRCLE
  5
20A
330
1F
100
AcDbEntity
  8
0
  6
Continuous
 62
     7
370
    15
100
AcDbCircle
 10
575.9780207757
 20
252.7848691284
 30
0.0
 40
3.0
  0
LINE
  5
20B
330
1F
100
AcDbEntity
  8
0
  6
Continuous
 62
     7
370
    15
100
AcDbLine
 10
551.7593372958
 20
244.6373177992
 30
0.0
 11
576.7646666961
 21
246.4469669686
 31
0.0
  0
ARC
  5
20C
330
1F
100
AcDbEntity
  8
0
  6
Continuous
 62
     7
370
    15
100
AcDbCircle
 10
576.3315741663
 20
252.4313157378
 30
0.0
 40
6.00000000000007
100
AcDbArc
 50
274.1393116946
 51
355.8606883054
  0
LINE
  5
20D
330
1F
100
AcDbEntity
  8
0
  6
Continuous
 62
     7
370
    15
100
AcDbLine
 10
582.3159229355
 20
251.9982232081
 30
0.0
 11
584.0633485811
 21
276.1437518822
 31
0.0
  0
CIRCLE
  5
20E
330
1F
100
AcDbEntity
  8
0
  6
Continuous
 62
     7
370
    15
100
AcDbCircle
 10
575.9780207757
 20
336.2234693084
 30
0.0
 40
3.0
  0
LINE
  5
20F
330
1F
100
AcDbEntity
  8
0
  6
Continuous
 62
     7
370
    15
100
AcDbLine
 10
576.7646666961
 20
342.5613714682
 30
0.0
 11
560.1198200481
 21
343.7659701632
 31
0.0
  0
ARC
  5
210
330
1F
100
AcDbEntity
  8
0
  6
Continuous
 62
     7
370
    15
100
AcDbCircle
 10
576.3315741663
 20
336.577022699
 30
0.0
 40
6.000000000000068
100
AcDbArc
 50
4.1393116946
 51
85.8606883054
  0
LINE
  5
211
330
1F
100
AcDbEntity
  8
0
  6
Continuous
 62
     7
370
    15
100
AcDbLine
 10
583.5133206444
 20
320.4647394197
 30
0.0
 11
582.3159229355
 21
337.0101152288
 31
0.0
  0
LINE
  5
212
330
1F
100
AcDbEntity
  8
0
  6
Continuous
 62
     7
370
    15
100
AcDbLine
 10
483.3917554812
 20
290.8228978814
 30
0.0
 11
486.2015184359
 21
251.9982232081
 31
0.0
  0
ARC
  5
213
330
1F
100
AcDbEntity
  8
0
  6
Continuous
 62
     7
370
    15
100
AcDbCircle
 10
534.2587206857
 20
294.5041692184
 30
0.0
 40
51.0
100
AcDbArc
 50
175.8606883054
 51
184.1393116946
  0
CIRCLE
  5
214
330
1F
100
AcDbEntity
  8
0
  6
Continuous
 62
     7
370
    15
100
AcDbCircle
 10
492.5394205957
 20
336.2234693084
 30
0.0
 40
3.0
  0
CIRCLE
  5
215
330
1F
100
AcDbEntity
  8
0
  6
Continuous
 62
     7
370
    15
100
AcDbCircle
 10
492.5394205957
 20
252.7848691284
 30
0.0
 40
3.0
  0
LINE
  5
216
330
1F
100
AcDbEntity
  8
0
  6
Continuous
 62
     7
370
    15
100
AcDbLine
 10
491.7527746754
 20
246.4469669686
 30
0.0
 11
516.7581040757
 21
244.6373177992
 31
0.0
  0
ARC
  5
217
330
1F
100
AcDbEntity
  8
0
  6
Continuous
 62
     7
370
    15
100
AcDbCircle
 10
492.1858672051
 20
252.4313157378
 30
0.0
 40
5.999999999999983
100
AcDbArc
 50
184.1393116946
 51
265.8606883054
  0
ARC
  5
218
330
1F
100
AcDbEntity
  8
0
  6
Continuous
 62
     7
370
    15
100
AcDbCircle
 10
492.1858672051
 20
336.577022699
 30
0.0
 40
6.000000000000007
100
AcDbArc
 50
94.1393116946
 51
175.8606883054
  0
LINE
  5
219
330
1F
100
AcDbEntity
  8
0
  6
Continuous
 62
     7
370
    15
100
AcDbLine
 10
486.2015184359
 20
337.0101152288
 30
0.0
 11
483.3917554812
 21
298.1854405554
 31
0.0
  0
LINE
  5
21A
330
1F
100
AcDbEntity
  8
0
  6
Continuous
 62
     7
370
    15
100
AcDbLine
 10
521.9480295079
 20
344.7466193067
 30
0.0
 11
491.7527746754
 21
342.5613714682
 31
0.0
  0
CIRCLE
  5
21B
330
1F
100
AcDbEntity
  8
0
  6
Continuous
 62
     7
370
    15
100
AcDbCircle
 10
492.5394205957
 20
252.7848691284
 30
0.0
 40
3.0
  0
CIRCLE
  5
21C
330
1F
100
AcDbEntity
  8
0
  6
Continuous
 62
     7
370
    15
100
AcDbCircle
 10
575.9780207757
 20
252.7848691284
 30
0.0
 40
3.0
  0
CIRCLE
  5
21D
330
1F
100
AcDbEntity
  8
0
  6
Continuous
 62
     7
370
    15
100
AcDbCircle
 10
492.1858672051
 20
336.577022699
 30
0.0
 40
3.0
  0
CIRCLE
  5
21E
330
1F
100
AcDbEntity
  8
0
  6
Continuous
 62
     7
370
    15
100
AcDbCircle
 10
575.9780207757
 20
336.2234693084
 30
0.0
 40
3.000000000000114
  0
LWPOLYLINE
  5
21F
330
1F
100
AcDbEntity
  8
0
  6
Continuous
 62
     7
370
    15
100
AcDbPolyline
 90
        7
 70
   128
 43
0.0
 10
489.2631966965
 20
341.8170621918
 10
489.2112661497
 20
341.9597445356
 10
488.7854580181
 20
343.1296309756
 10
488.4603482084
 20
344.0228661822
 10
488.2476825611
 20
344.6071630643
 10
488.1551463501
 20
344.8614029513
 10
488.1512720482
 20
344.8720461057
  0
LWPOLYLINE
  5
220
330
1F
100
AcDbEntity
  8
0
  6
Continuous
 62
     7
370
    15
100
AcDbPolyline
 90
        6
 70
   128
 43
0.0
 10
486.1169915991
 20
335.8421622144
 10
485.9752070503
 20
336.2317158209
 10
485.603326221
 20
337.2534511911
 10
485.3179689841
 20
338.0374571608
 10
485.1385888057
 20
338.5303056167
 10
485.0774046378
 20
338.6984056162
  0
LWPOLYLINE
  5
221
330
1F
100
AcDbEntity
  8
0
  6
Continuous
 62
     7
370
    15
100
AcDbPolyline
 90
        7
 70
   128
 43
0.0
 10
482.1745466785
 20
332.0549203383
 10
481.7505713897
 20
333.219785087
 10
481.3609432773
 20
334.2902807819
 10
481.0372267263
 20
335.1796789394
 10
480.8056515055
 20
335.8159287201
 10
480.6849781768
 20
336.147483282
 10
480.6696597831
 20
336.1895678865
  0
LWPOLYLINE
  5
222
330
1F
100
AcDbEntity
  8
0
  6
Continuous
 62
     7
370
    15
100
AcDbPolyline
 90
        7
 70
   128
 43
0.0
 10
483.6794372992
 20
327.9202727901
 10
483.6641189055
 20
327.9623573946
 10
483.5434418516
 20
328.2939119564
 10
483.3118666308
 20
328.9301617371
 10
482.9881500797
 20
329.8195598947
 10
482.5985219674
 20
330.8900555895
 10
482.1745466785
 20
332.0549203383
  0
LINE
  5
223
330
1F
100
AcDbEntity
  8
0
  6
Continuous
 62
     7
370
    15
100
AcDbLine
 10
558.758720045
 20
298.0041693264
 30
0.0
 11
558.758720045
 21
299.2348566951
 31
0.0
  0
LINE
  5
224
330
1F
100
AcDbEntity
  8
0
  6
Continuous
 62
     7
370
    15
100
AcDbLine
 10
558.758720045
 20
289.7734817417
 30
0.0
 11
558.758720045
 21
291.0041691104
 31
0.0
  0
LINE
  5
225
330
1F
100
AcDbEntity
  8
0
  6
Continuous
 62
     7
370
    15
100
AcDbLine
 10
558.758720045
 20
291.3214967886
 30
0.0
 11
558.758720045
 21
297.6868416482
 31
0.0
  0
LINE
  5
226
330
1F
100
AcDbEntity
  8
0
  6
Continuous
 62
     7
370
    15
100
AcDbLine
 10
558.758720045
 20
291.3214967886
 30
0.0
 11
558.758720045
 21
291.0041691104
 31
0.0
  0
LINE
  5
227
330
1F
100
AcDbEntity
  8
0
  6
Continuous
 62
     7
370
    15
100
AcDbLine
 10
558.758720045
 20
298.0041693264
 30
0.0
 11
565.7587211923
 21
298.0041693264
 31
0.0
  0
LINE
  5
228
330
1F
100
AcDbEntity
  8
0
  6
Continuous
 62
     7
370
    15
100
AcDbLine
 10
558.758720045
 20
291.0041691104
 30
0.0
 11
565.7587211923
 21
291.0041691104
 31
0.0
  0
LINE
  5
229
330
1F
100
AcDbEntity
  8
0
  6
Continuous
 62
     7
370
    15
100
AcDbLine
 10
565.7587211923
 20
298.0041693264
 30
0.0
 11
565.7587211923
 21
291.0041691104
 31
0.0
  0
LINE
  5
22A
330
1F
100
AcDbEntity
  8
0
  6
Continuous
 62
     7
370
    15
100
AcDbLine
 10
558.758720045
 20
298.0041693264
 30
0.0
 11
558.758720045
 21
297.6868416482
 31
0.0
  0
LINE
  5
22B
330
1F
100
AcDbEntity
  8
0
  6
Continuous
 62
     7
370
    15
100
AcDbLine
 10
542.7500989632
 20
174.5041719006
 30
0.0
 11
542.7500989632
 21
191.5041690992
 31
0.0
  0
LINE
  5
22C
330
1F
100
AcDbEntity
  8
0
  6
Continuous
 62
     7
370
    15
100
AcDbLine
 10
525.7673424082
 20
174.5041719006
 30
0.0
 11
525.7673424082
 21
191.5041690992
 31
0.0
  0
LINE
  5
22D
330
1F
100
AcDbEntity
  8
0
  6
Continuous
 62
     7
370
    15
100
AcDbLine
 10
525.7673424082
 20
174.5041719006
 30
0.0
 11
542.7500989632
 21
174.5041719006
 31
0.0
  0
LINE
  5
22E
330
1F
100
AcDbEntity
  8
0
  6
Continuous
 62
     7
370
    15
100
AcDbLine
 10
554.758721252
 20
174.5041719006
 30
0.0
 11
554.758721252
 21
191.5041690992
 31
0.0
  0
LINE
  5
22F
330
1F
100
AcDbEntity
  8
0
  6
Continuous
 62
     7
370
    15
100
AcDbLine
 10
542.7500989632
 20
174.5041719006
 30
0.0
 11
554.758721252
 21
174.5041719006
 31
0.0
  0
LINE
  5
230
330
1F
100
AcDbEntity
  8
0
  6
Continuous
 62
     7
370
    15
100
AcDbLine
 10
513.7587201195
 20
174.5041719006
 30
0.0
 11
513.7587201195
 21
191.5041690992
 31
0.0
  0
LINE
  5
231
330
1F
100
AcDbEntity
  8
0
  6
Continuous
 62
     7
370
    15
100
AcDbLine
 10
513.7587201195
 20
174.5041719006
 30
0.0
 11
525.7673424082
 21
174.5041719006
 31
0.0
  0
LINE
  5
232
330
1F
100
AcDbEntity
  8
0
  6
Continuous
 62
     7
370
    15
100
AcDbLine
 10
525.7673424082
 20
414.5041665362
 30
0.0
 11
525.7673424082
 21
397.5041693376
 31
0.0
  0
LINE
  5
233
330
1F
100
AcDbEntity
  8
0
  6
Continuous
 62
     7
370
    15
100
AcDbLine
 10
542.7500989632
 20
414.5041665362
 30
0.0
 11
542.7500989632
 21
397.5041693376
 31
0.0
  0
LINE
  5
234
330
1F
100
AcDbEntity
  8
0
  6
Continuous
 62
     7
370
    15
100
AcDbLine
 10
542.7500989632
 20
414.5041665362
 30
0.0
 11
525.7673424082
 21
414.5041665362
 31
0.0
  0
LINE
  5
235
330
1F
100
AcDbEntity
  8
0
  6
Continuous
 62
     7
370
    15
100
AcDbLine
 10
554.758721252
 20
414.5041665362
 30
0.0
 11
554.758721252
 21
397.5041693376
 31
0.0
  0
LINE
  5
236
330
1F
100
AcDbEntity
  8
0
  6
Continuous
 62
     7
370
    15
100
AcDbLine
 10
554.758721252
 20
414.5041665362
 30
0.0
 11
542.7500989632
 21
414.5041665362
 31
0.0
  0
LINE
  5
237
330
1F
100
AcDbEntity
  8
0
  6
Continuous
 62
     7
370
    15
100
AcDbLine
 10
513.7587201195
 20
414.5041665362
 30
0.0
 11
513.7587201195
 21
397.5041693376
 31
0.0
  0
LINE
  5
238
330
1F
100
AcDbEntity
  8
0
  6
Continuous
 62
     7
370
    15
100
AcDbLine
 10
525.7673424082
 20
414.5041665362
 30
0.0
 11
513.7587201195
 21
414.5041665362
 31
0.0
  0
LINE
  5
239
330
1F
100
AcDbEntity
  8
0
  6
Continuous
 62
     7
370
    15
100
AcDbLine
 10
546.4780211793
 20
191.5041690992
 30
0.0
 11
546.4780211793
 21
211.5041723775
 31
0.0
  0
LINE
  5
23A
330
1F
100
AcDbEntity
  8
0
  6
Continuous
 62
     7
370
    15
100
AcDbLine
 10
522.0394201921
 20
191.5041690992
 30
0.0
 11
522.0394201921
 21
211.5041723775
 31
0.0
  0
LINE
  5
23B
330
1F
100
AcDbEntity
  8
0
  6
Continuous
 62
     7
370
    15
100
AcDbLine
 10
546.4780211793
 20
211.5041723775
 30
0.0
 11
522.0394201921
 21
211.5041723775
 31
0.0
  0
LINE
  5
23C
330
1F
100
AcDbEntity
  8
0
  6
Continuous
 62
     7
370
    15
100
AcDbLine
 10
522.0394201921
 20
191.5041690992
 30
0.0
 11
546.4780211793
 21
191.5041690992
 31
0.0
  0
LINE
  5
23D
330
1F
100
AcDbEntity
  8
0
  6
Continuous
 62
     7
370
    15
100
AcDbLine
 10
563.7587208645
 20
191.5041690992
 30
0.0
 11
563.7587208645
 21
211.5041723775
 31
0.0
  0
LINE
  5
23E
330
1F
100
AcDbEntity
  8
0
  6
Continuous
 62
     7
370
    15
100
AcDbLine
 10
563.7587208645
 20
211.5041723775
 30
0.0
 11
546.4780211793
 21
211.5041723775
 31
0.0
  0
LINE
  5
23F
330
1F
100
AcDbEntity
  8
0
  6
Continuous
 62
     7
370
    15
100
AcDbLine
 10
546.4780211793
 20
191.5041690992
 30
0.0
 11
563.7587208645
 21
191.5041690992
 31
0.0
  0
LINE
  5
240
330
1F
100
AcDbEntity
  8
0
  6
Continuous
 62
     7
370
    15
100
AcDbLine
 10
504.7587205069
 20
191.5041690992
 30
0.0
 11
504.7587205069
 21
211.5041723775
 31
0.0
  0
LINE
  5
241
330
1F
100
AcDbEntity
  8
0
  6
Continuous
 62
     7
370
    15
100
AcDbLine
 10
522.0394201921
 20
211.5041723775
 30
0.0
 11
504.7587205069
 21
211.5041723775
 31
0.0
  0
LINE
  5
242
330
1F
100
AcDbEntity
  8
0
  6
Continuous
 62
     7
370
    15
100
AcDbLine
 10
504.7587205069
 20
191.5041690992
 30
0.0
 11
522.0394201921
 21
191.5041690992
 31
0.0
  0
LINE
  5
243
330
1F
100
AcDbEntity
  8
0
  6
Continuous
 62
     7
370
    15
100
AcDbLine
 10
522.0394201921
 20
397.5041693376
 30
0.0
 11
522.0394201921
 21
377.5041660594
 31
0.0
  0
LINE
  5
244
330
1F
100
AcDbEntity
  8
0
  6
Continuous
 62
     7
370
    15
100
AcDbLine
 10
546.4780211793
 20
397.5041693376
 30
0.0
 11
546.4780211793
 21
377.5041660594
 31
0.0
  0
LINE
  5
245
330
1F
100
AcDbEntity
  8
0
  6
Continuous
 62
     7
370
    15
100
AcDbLine
 10
522.0394201921
 20
377.5041660594
 30
0.0
 11
546.4780211793
 21
377.5041660594
 31
0.0
  0
LINE
  5
246
330
1F
100
AcDbEntity
  8
0
  6
Continuous
 62
     7
370
    15
100
AcDbLine
 10
546.4780211793
 20
397.5041693376
 30
0.0
 11
522.0394201921
 21
397.5041693376
 31
0.0
  0
LINE
  5
247
330
1F
100
AcDbEntity
  8
0
  6
Continuous
 62
     7
370
    15
100
AcDbLine
 10
563.7587208645
 20
397.5041693376
 30
0.0
 11
563.7587208645
 21
377.5041660594
 31
0.0
  0
LINE
  5
248
330
1F
100
AcDbEntity
  8
0
  6
Continuous
 62
     7
370
    15
100
AcDbLine
 10
546.4780211793
 20
377.5041660594
 30
0.0
 11
563.7587208645
 21
377.5041660594
 31
0.0
  0
LINE
  5
249
330
1F
100
AcDbEntity
  8
0
  6
Continuous
 62
     7
370
    15
100
AcDbLine
 10
563.7587208645
 20
397.5041693376
 30
0.0
 11
546.4780211793
 21
397.5041693376
 31
0.0
  0
LINE
  5
24A
330
1F
100
AcDbEntity
  8
0
  6
Continuous
 62
     7
370
    15
100
AcDbLine
 10
504.7587205069
 20
397.5041693376
 30
0.0
 11
504.7587205069
 21
377.5041660594
 31
0.0
  0
LINE
  5
24B
330
1F
100
AcDbEntity
  8
0
  6
Continuous
 62
     7
370
    15
100
AcDbLine
 10
504.7587205069
 20
377.5041660594
 30
0.0
 11
522.0394201921
 21
377.5041660594
 31
0.0
  0
LINE
  5
24C
330
1F
100
AcDbEntity
  8
0
  6
Continuous
 62
     7
370
    15
100
AcDbLine
 10
522.0394201921
 20
397.5041693376
 30
0.0
 11
504.7587205069
 21
397.5041693376
 31
0.0
  0
LINE
  5
24D
330
1F
100
AcDbEntity
  8
SLD-0
  6
CENTERX2
370
     0
100
AcDbLine
 10
534.2587206857
 20
425.8044365953
 30
0.0
 11
534.2587206857
 21
161.9444762814
 31
0.0
  0
LINE
  5
24E
330
1F
100
AcDbEntity
  8
SLD-0
  6
CENTERX2
370
     0
100
AcDbLine
 10
471.6033021226
 20
294.5041692184
 30
0.0
 11
601.5322546193
 21
294.5041692184
 31
0.0
  0
ENDSEC
  0
SECTION
  2
OBJECTS
  0
DICTIONARY
  5
C
330
0
100
AcDbDictionary
281
     1
  3
ACAD_GROUP
350
D
  3
ACAD_LAYOUT
350
1A
  3
ACAD_MLEADERSTYLE
350
250
  3
ACAD_MLINESTYLE
350
17
  3
ACAD_PLOTSETTINGS
350
19
  3
ACAD_PLOTSTYLENAME
350
E
  3
ACAD_TABLESTYLE
350
24F
  3
ACAD_VISUALSTYLE
350
2A
  3
AcDbVariableDictionary
350
251
  0
DICTIONARY
  5
D
102
{ACAD_REACTORS
330
C
102
}
330
C
100
AcDbDictionary
281
     1
  0
DICTIONARY
  5
1A
102
{ACAD_REACTORS
330
C
102
}
330
C
100
AcDbDictionary
281
     1
  3
Layout1
350
1E
  3
Layout2
350
26
  3
Model
350
22
  0
DICTIONARY
  5
250
102
{ACAD_REACTORS
330
C
102
}
330
C
100
AcDbDictionary
281
     1
  0
DICTIONARY
  5
17
102
{ACAD_REACTORS
330
C
102
}
330
C
100
AcDbDictionary
281
     1
  3
Standard
350
18
  0
DICTIONARY
  5
19
102
{ACAD_REACTORS
330
C
102
}
330
C
100
AcDbDictionary
281
     1
  0
ACDBDICTIONARYWDFLT
  5
E
102
{ACAD_REACTORS
330
C
102
}
330
C
100
AcDbDictionary
281
     1
  3
Normal
350
F
100
AcDbDictionaryWithDefault
340
F
  0
DICTIONARY
  5
24F
102
{ACAD_REACTORS
330
C
102
}
330
C
100
AcDbDictionary
281
     1
  0
DICTIONARY
  5
2A
102
{ACAD_REACTORS
330
C
102
}
330
C
100
AcDbDictionary
281
     1
  3
2dWireframe
350
2F
  3
3D Hidden
350
31
  3
3dWireframe
350
30
  3
Basic
350
32
  3
Brighten
350
36
  3
ColorChange
350
3A
  3
Conceptual
350
34
  3
Dim
350
35
  3
Facepattern
350
39
  3
Flat
350
2B
  3
FlatWithEdges
350
2C
  3
Gouraud
350
2D
  3
GouraudWithEdges
350
2E
  3
Linepattern
350
38
  3
Realistic
350
33
  3
Thicken
350
37
  0
DICTIONARY
  5
251
102
{ACAD_REACTORS
330
C
102
}
330
C
100
AcDbDictionary
281
     1
  3
PSOLHEIGHT
350
253
  3
PSOLWIDTH
350
252
  0
LAYOUT
  5
1E
102
{ACAD_REACTORS
330
1A
102
}
330
1A
100
AcDbPlotSettings
  1

  2
none_device
  4

  6

 40
0.0
 41
0.0
 42
0.0
 43
0.0
 44
0.0
 45
0.0
 46
0.0
 47
0.0
 48
0.0
 49
0.0
140
0.0
141
0.0
142
1.0
143
1.0
 70
   688
 72
     0
 73
     0
 74
     5
  7

 75
    16
147
1.0
148
0.0
149
0.0
100
AcDbLayout
  1
Layout1
 70
     1
 71
     1
 10
0.0
 20
0.0
 11
420.0
 21
297.0
 12
0.0
 22
0.0
 32
0.0
 14
1.0000000000E+20
 24
1.0000000000E+20
 34
1.0000000000E+20
 15
-1.0000000000E+20
 25
-1.0000000000E+20
 35
-1.0000000000E+20
146
0.0
 13
0.0
 23
0.0
 33
0.0
 16
1.0
 26
0.0
 36
0.0
 17
0.0
 27
1.0
 37
0.0
 76
     0
330
1B
  0
LAYOUT
  5
26
102
{ACAD_REACTORS
330
1A
102
}
330
1A
100
AcDbPlotSettings
  1

  2
none_device
  4

  6

 40
0.0
 41
0.0
 42
0.0
 43
0.0
 44
0.0
 45
0.0
 46
0.0
 47
0.0
 48
0.0
 49
0.0
140
0.0
141
0.0
142
1.0
143
1.0
 70
   688
 72
     0
 73
     0
 74
     5
  7

 75
    16
147
1.0
148
0.0
149
0.0
100
AcDbLayout
  1
Layout2
 70
     1
 71
     2
 10
0.0
 20
0.0
 11
0.0
 21
0.0
 12
0.0
 22
0.0
 32
0.0
 14
0.0
 24
0.0
 34
0.0
 15
0.0
 25
0.0
 35
0.0
146
0.0
 13
0.0
 23
0.0
 33
0.0
 16
1.0
 26
0.0
 36
0.0
 17
0.0
 27
1.0
 37
0.0
 76
     0
330
23
  0
LAYOUT
  5
22
102
{ACAD_REACTORS
330
1A
102
}
330
1A
100
AcDbPlotSettings
  1

  2
none_device
  4

  6

 40
0.0
 41
0.0
 42
0.0
 43
0.0
 44
0.0
 45
0.0
 46
0.0
 47
0.0
 48
0.0
 49
0.0
140
0.0
141
0.0
142
1.0
143
1.0
 70
  1712
 72
     0
 73
     0
 74
     0
  7

 75
     0
147
1.0
148
0.0
149
0.0
100
AcDbLayout
  1
Model
 70
     1
 71
     0
 10
0.0
 20
0.0
 11
841.0
 21
594.0
 12
0.0
 22
0.0
 32
0.0
 14
0.0
 24
0.0
 34
0.0
 15
841.0
 25
594.0
 35
0.0
146
0.0
 13
0.0
 23
0.0
 33
0.0
 16
1.0
 26
0.0
 36
0.0
 17
0.0
 27
1.0
 37
0.0
 76
     0
330
1F
331
29
  0
MLINESTYLE
  5
18
102
{ACAD_REACTORS
330
17
102
}
330
17
100
AcDbMlineStyle
  2
Standard
 70
     0
  3

 62
   256
 51
90.0
 52
90.0
 71
     2
 49
0.5
 62
   256
  6
BYLAYER
 49
-0.5
 62
   256
  6
BYLAYER
  0
ACDBPLACEHOLDER
  5
F
102
{ACAD_REACTORS
330
E
102
}
330
E
  0
VISUALSTYLE
  5
2F
102
{ACAD_REACTORS
330
2A
102
}
330
2A
100
AcDbVisualStyle
  2
2dWireframe
 70
     4
 71
     0
 72
     2
 73
     0
 90
        0
 40
-0.6
 41
-30.0
 62
     5
 63
     7
 74
     1
 91
        4
 64
     7
 65
   257
 75
     1
175
     1
 42
1.0
 92
        0
 66
   257
 43
1.0
 76
     1
 77
     6
 78
     2
 67
     7
 79
     5
170
     0
171
     0
290
     0
174
     0
 93
        1
 44
0.0
173
     0
291
     0
 45
0.0
1001
ACAD
1000
AcDbSavedByObjectVersion
1070
     0
  0
VISUALSTYLE
  5
31
102
{ACAD_REACTORS
330
2A
102
}
330
2A
100
AcDbVisualStyle
  2
3D Hidden
 70
     6
 71
     1
 72
     2
 73
     2
 90
        0
 40
-0.6
 41
-30.0
 62
     5
 63
     7
 74
     2
 91
        2
 64
     7
 65
   257
 75
     2
175
     1
 42
40.0
 92
        0
 66
   257
 43
1.0
 76
     1
 77
     6
 78
     2
 67
     7
 79
     3
170
     0
171
     0
290
     0
174
     0
 93
        1
 44
0.0
173
     0
291
     0
 45
0.0
1001
ACAD
1000
AcDbSavedByObjectVersion
1070
     0
  0
VISUALSTYLE
  5
30
102
{ACAD_REACTORS
330
2A
102
}
330
2A
100
AcDbVisualStyle
  2
3dWireframe
 70
     5
 71
     0
 72
     2
 73
     0
 90
        0
 40
-0.6
 41
-30.0
 62
     5
 63
     7
 74
     1
 91
        4
 64
     7
 65
   257
 75
     1
175
     1
 42
1.0
 92
        0
 66
   257
 43
1.0
 76
     1
 77
     6
 78
     2
 67
     7
 79
     5
170
     0
171
     0
290
     0
174
     0
 93
        1
 44
0.0
173
     0
291
     0
 45
0.0
1001
ACAD
1000
AcDbSavedByObjectVersion
1070
     0
  0
VISUALSTYLE
  5
32
102
{ACAD_REACTORS
330
2A
102
}
330
2A
100
AcDbVisualStyle
  2
Basic
 70
     7
 71
     1
 72
     0
 73
     1
 90
        0
 40
-0.6
 41
-30.0
 62
     5
 63
     7
 74
     0
 91
        4
 64
     7
 65
   257
 75
     1
175
     1
 42
1.0
 92
        8
 66
     7
 43
1.0
 76
     1
 77
     6
 78
     2
 67
     7
 79
     5
170
     0
171
     0
290
     0
174
     0
 93
        1
 44
0.0
173
     0
291
     1
 45
0.0
1001
ACAD
1000
AcDbSavedByObjectVersion
1070
     0
  0
VISUALSTYLE
  5
36
102
{ACAD_REACTORS
330
2A
102
}
330
2A
100
AcDbVisualStyle
  2
Brighten
 70
    12
 71
     2
 72
     2
 73
     0
 90
        0
 40
-0.6
 41
-30.0
 62
     5
 63
     7
 74
     1
 91
        4
 64
     7
 65
   257
 75
     1
175
     1
 42
1.0
 92
        8
 66
     7
 43
1.0
 76
     1
 77
     6
 78
     2
 67
     7
 79
     5
170
     0
171
     0
290
     0
174
     0
 93
        1
 44
50.0
173
     0
291
     1
 45
0.0
1001
ACAD
1000
AcDbSavedByObjectVersion
1070
     0
  0
VISUALSTYLE
  5
3A
102
{ACAD_REACTORS
330
2A
102
}
330
2A
100
AcDbVisualStyle
  2
ColorChange
 70
    16
 71
     2
 72
     2
 73
     3
 90
        0
 40
-0.6
 41
-30.0
 62
     5
 63
     8
 74
     1
 91
        4
 64
     7
 65
   257
 75
     1
175
     1
 42
1.0
 92
        8
 66
     8
 43
1.0
 76
     1
 77
     6
 78
     2
 67
     7
 79
     5
170
     0
171
     0
290
     0
174
     0
 93
        1
 44
0.0
173
     0
291
     1
 45
0.0
1001
ACAD
1000
AcDbSavedByObjectVersion
1070
     0
  0
VISUALSTYLE
  5
34
102
{ACAD_REACTORS
330
2A
102
}
330
2A
100
AcDbVisualStyle
  2
Conceptual
 70
     9
 71
     3
 72
     2
 73
     0
 90
        0
 40
-0.6
 41
-30.0
 62
     5
 63
     7
 74
     2
 91
        2
 64
     7
 65
   257
 75
     1
175
     1
 42
40.0
 92
        8
 66
     7
 43
1.0
 76
     1
 77
     6
 78
     2
 67
     7
 79
     3
170
     0
171
     0
290
     0
174
     0
 93
        1
 44
0.0
173
     0
291
     0
 45
0.0
1001
ACAD
1000
AcDbSavedByObjectVersion
1070
     0
  0
VISUALSTYLE
  5
35
102
{ACAD_REACTORS
330
2A
102
}
330
2A
100
AcDbVisualStyle
  2
Dim
 70
    11
 71
     2
 72
     2
 73
     0
 90
        0
 40
-0.6
 41
-30.0
 62
     5
 63
     7
 74
     1
 91
        4
 64
     7
 65
   257
 75
     1
175
     1
 42
1.0
 92
        8
 66
     7
 43
1.0
 76
     1
 77
     6
 78
     2
 67
     7
 79
     5
170
     0
171
     0
290
     0
174
     0
 93
        1
 44
-50.0
173
     0
291
     1
 45
0.0
1001
ACAD
1000
AcDbSavedByObjectVersion
1070
     0
  0
VISUALSTYLE
  5
39
102
{ACAD_REACTORS
330
2A
102
}
330
2A
100
AcDbVisualStyle
  2
Facepattern
 70
    15
 71
     2
 72
     2
 73
     0
 90
        0
 40
-0.6
 41
-30.0
 62
     5
 63
     7
 74
     1
 91
        4
 64
     7
 65
   257
 75
     1
175
     1
 42
1.0
 92
        8
 66
     7
 43
1.0
 76
     1
 77
     6
 78
     2
 67
     7
 79
     5
170
     0
171
     0
290
     0
174
     0
 93
        1
 44
0.0
173
     0
291
     1
 45
0.0
1001
ACAD
1000
AcDbSavedByObjectVersion
1070
     0
  0
VISUALSTYLE
  5
2B
102
{ACAD_REACTORS
330
2A
102
}
330
2A
100
AcDbVisualStyle
  2
Flat
 70
     0
 71
     2
 72
     1
 73
     1
 90
        2
 40
-0.6
 41
30.0
 62
     5
 63
     7
 74
     0
 91
        4
 64
     7
 65
   257
 75
     1
175
     1
 42
1.0
 92
        8
 66
     7
 43
1.0
 76
     1
 77
     6
 78
     2
 67
     7
 79
     5
170
     0
171
     0
290
     0
174
     0
 93
       13
 44
0.0
173
     0
291
     1
 45
0.0
1001
ACAD
1000
AcDbSavedByObjectVersion
1070
     0
  0
VISUALSTYLE
  5
2C
102
{ACAD_REACTORS
330
2A
102
}
330
2A
100
AcDbVisualStyle
  2
FlatWithEdges
 70
     1
 71
     2
 72
     1
 73
     1
 90
        2
 40
-0.6
 41
30.0
 62
     5
 63
     7
 74
     1
 91
        4
 64
     7
 65
   257
 75
     1
175
     1
 42
1.0
 92
        0
 66
   257
 43
1.0
 76
     1
 77
     6
 78
     2
 67
     7
 79
     5
170
     0
171
     0
290
     0
174
     0
 93
       13
 44
0.0
173
     0
291
     1
 45
0.0
1001
ACAD
1000
AcDbSavedByObjectVersion
1070
     0
  0
VISUALSTYLE
  5
2D
102
{ACAD_REACTORS
330
2A
102
}
330
2A
100
AcDbVisualStyle
  2
Gouraud
 70
     2
 71
     2
 72
     2
 73
     1
 90
        2
 40
-0.6
 41
30.0
 62
     5
 63
     7
 74
     0
 91
        4
 64
     7
 65
   257
 75
     1
175
     1
 42
1.0
 92
        0
 66
     7
 43
1.0
 76
     1
 77
     6
 78
     2
 67
     7
 79
     5
170
     0
171
     0
290
     0
174
     0
 93
       13
 44
0.0
173
     0
291
     1
 45
0.0
1001
ACAD
1000
AcDbSavedByObjectVersion
1070
     0
  0
VISUALSTYLE
  5
2E
102
{ACAD_REACTORS
330
2A
102
}
330
2A
100
AcDbVisualStyle
  2
GouraudWithEdges
 70
     3
 71
     2
 72
     2
 73
     1
 90
        2
 40
-0.6
 41
30.0
 62
     5
 63
     7
 74
     1
 91
        4
 64
     7
 65
   257
 75
     1
175
     1
 42
1.0
 92
        0
 66
   257
 43
1.0
 76
     1
 77
     6
 78
     2
 67
     7
 79
     5
170
     0
171
     0
290
     0
174
     0
 93
       13
 44
0.0
173
     0
291
     1
 45
0.0
1001
ACAD
1000
AcDbSavedByObjectVersion
1070
     0
  0
VISUALSTYLE
  5
38
102
{ACAD_REACTORS
330
2A
102
}
330
2A
100
AcDbVisualStyle
  2
Linepattern
 70
    14
 71
     2
 72
     2
 73
     0
 90
        0
 40
-0.6
 41
-30.0
 62
     5
 63
     7
 74
     1
 91
        4
 64
     7
 65
   257
 75
     7
175
     7
 42
1.0
 92
        8
 66
     7
 43
1.0
 76
     1
 77
     6
 78
     2
 67
     7
 79
     5
170
     0
171
     0
290
     0
174
     0
 93
        1
 44
0.0
173
     0
291
     1
 45
0.0
1001
ACAD
1000
AcDbSavedByObjectVersion
1070
     0
  0
VISUALSTYLE
  5
33
102
{ACAD_REACTORS
330
2A
102
}
330
2A
100
AcDbVisualStyle
  2
Realistic
 70
     8
 71
     2
 72
     2
 73
     0
 90
        0
 40
-0.6
 41
-30.0
 62
     5
 63
     7
 74
     1
 91
        0
 64
     7
 65
   257
 75
     1
175
     1
 42
1.0
 92
        8
 66
     8
 43
1.0
 76
     1
 77
     6
 78
     2
 67
     7
 79
     5
170
     0
171
     0
290
     0
174
     0
 93
       13
 44
0.0
173
     0
291
     0
 45
0.0
1001
ACAD
1000
AcDbSavedByObjectVersion
1070
     0
  0
VISUALSTYLE
  5
37
102
{ACAD_REACTORS
330
2A
102
}
330
2A
100
AcDbVisualStyle
  2
Thicken
 70
    13
 71
     2
 72
     2
 73
     0
 90
        0
 40
-0.6
 41
-30.0
 62
     5
 63
     7
 74
     1
 91
        4
 64
     7
 65
   257
 75
     1
175
     1
 42
1.0
 92
       12
 66
     7
 43
1.0
 76
     1
 77
     6
 78
     2
 67
     7
 79
     5
170
     0
171
     0
290
     0
174
     0
 93
        1
 44
0.0
173
     0
291
     1
 45
0.0
1001
ACAD
1000
AcDbSavedByObjectVersion
1070
     0
  0
DICTIONARYVAR
  5
253
102
{ACAD_REACTORS
330
251
102
}
330
251
100
DictionaryVariables
280
     0
  1
80.000000
  0
DICTIONARYVAR
  5
252
102
{ACAD_REACTORS
330
251
102
}
330
251
100
DictionaryVariables
280
     0
  1
5.000000
  0
ENDSEC
  0
EOF
