  0
SECTION
  2
HEADER
  9
$ACADVER
  1
AC1015
  9
$ACADMAINTVER
 70
     6
  9
$DWGCODEPAGE
  3
DOS932
  9
$INSBASE
 10
0.0
 20
0.0
 30
0.0
  9
$EXTMIN
 10
0.0
 20
0.0
 30
0.0
  9
$EXTMAX
 10
210.0
 20
297.0
 30
0.0
  9
$LIMMIN
 10
0.0
 20
0.0
  9
$LIMMAX
 10
210.0
 20
297.0
  9
$ORTHOMODE
 70
     0
  9
$REGENMODE
 70
     1
  9
$FILLMODE
 70
     1
  9
$QTEXTMODE
 70
     0
  9
$MIRRTEXT
 70
     1
  9
$LTSCALE
 40
1.0
  9
$ATTMODE
 70
     1
  9
$TEXTSIZE
 40
3.5
  9
$TRACEWID
 40
1.0
  9
$TEXTSTYLE
  7
STANDARD
  9
$CLAYER
  8
0
  9
$CELTYPE
  6
ByLayer
  9
$CECOLOR
 62
   256
  9
$CELTSCALE
 40
1.0
  9
$DISPSILH
 70
     0
  9
$DIMSCALE
 40
1.0
  9
$DIMASZ
 40
2.0
  9
$DIMEXO
 40
1.0
  9
$DIMDLI
 40
3.75
  9
$DIMRND
 40
0.0
  9
$DIMDLE
 40
0.0
  9
$DIMEXE
 40
1.0
  9
$DIMTP
 40
0.0
  9
$DIMTM
 40
0.0
  9
$DIMTXT
 40
2.7999999523
  9
$DIMCEN
 40
2.5
  9
$DIMTSZ
 40
0.0
  9
$DIMTOL
 70
     0
  9
$DIMLIM
 70
     0
  9
$DIMTIH
 70
     1
  9
$DIMTOH
 70
     1
  9
$DIMSE1
 70
     0
  9
$DIMSE2
 70
     0
  9
$DIMTAD
 70
     1
  9
$DIMZIN
 70
     1
  9
$DIMBLK
  1

  9
$DIMASO
 70
     1
  9
$DIMSHO
 70
     1
  9
$DIMPOST
  1

  9
$DIMAPOST
  1

  9
$DIMALT
 70
     0
  9
$DIMALTD
 70
     3
  9
$DIMALTF
 40
0.0393700787
  9
$DIMLFAC
 40
5.0
  9
$DIMTOFL
 70
     1
  9
$DIMTVP
 40
0.0
  9
$DIMTIX
 70
     0
  9
$DIMSOXD
 70
     0
  9
$DIMSAH
 70
     0
  9
$DIMBLK1
  1

  9
$DIMBLK2
  1

  9
$DIMSTYLE
  2
ISO-25
  9
$DIMCLRD
 70
     0
  9
$DIMCLRE
 70
     0
  9
$DIMCLRT
 70
     0
  9
$DIMTFAC
 40
1.0
  9
$DIMGAP
 40
1.524
  9
$DIMJUST
 70
     0
  9
$DIMSD1
 70
     0
  9
$DIMSD2
 70
     0
  9
$DIMTOLJ
 70
     0
  9
$DIMTZIN
 70
     1
  9
$DIMALTZ
 70
     0
  9
$DIMALTTZ
 70
     0
  9
$DIMUPT
 70
     0
  9
$DIMDEC
 70
     3
  9
$DIMTDEC
 70
     3
  9
$DIMALTU
 70
     2
  9
$DIMALTTD
 70
     3
  9
$DIMTXSTY
  7
STANDARD
  9
$DIMAUNIT
 70
     0
  9
$DIMADEC
 70
     0
  9
$DIMALTRND
 40
0.0
  9
$DIMAZIN
 70
     0
  9
$DIMDSEP
 70
    44
  9
$DIMATFIT
 70
     3
  9
$DIMFRAC
 70
     0
  9
$DIMLDRBLK
  1

  9
$DIMLUNIT
 70
     2
  9
$DIMLWD
 70
    -2
  9
$DIMLWE
 70
    -2
  9
$DIMTMOVE
 70
     0
  9
$LUNITS
 70
     2
  9
$LUPREC
 70
     3
  9
$SKETCHINC
 40
1.0
  9
$FILLETRAD
 40
10.0
  9
$AUNITS
 70
     0
  9
$AUPREC
 70
     0
  9
$MENU
  1
.
  9
$ELEVATION
 40
0.0
  9
$PELEVATION
 40
0.0
  9
$THICKNESS
 40
0.0
  9
$LIMCHECK
 70
     0
  9
$CHAMFERA
 40
0.0
  9
$CHAMFERB
 40
0.0
  9
$CHAMFERC
 40
0.0
  9
$CHAMFERD
 40
0.0
  9
$SKPOLY
 70
     0
  9
$TDCREATE
 40
2458252.615932974
  9
$TDUCREATE
 40
2458252.240932974
  9
$TDUPDATE
 40
2458252.615934236
  9
$TDUUPDATE
 40
2458252.240934236
  9
$TDINDWG
 40
0.0000000116
  9
$TDUSRTIMER
 40
0.0000000116
  9
$USRTIMER
 70
     1
  9
$ANGBASE
 50
0.0
  9
$ANGDIR
 70
     0
  9
$PDMODE
 70
     0
  9
$PDSIZE
 40
-1.0
  9
$PLINEWID
 40
0.0
  9
$SPLFRAME
 70
     0
  9
$SPLINETYPE
 70
     6
  9
$SPLINESEGS
 70
     8
  9
$HANDSEED
  5
4FB
  9
$SURFTAB1
 70
     6
  9
$SURFTAB2
 70
     6
  9
$SURFTYPE
 70
     6
  9
$SURFU
 70
     6
  9
$SURFV
 70
     6
  9
$UCSBASE
  2

  9
$UCSNAME
  2

  9
$UCSORG
 10
0.0
 20
0.0
 30
0.0
  9
$UCSXDIR
 10
1.0
 20
0.0
 30
0.0
  9
$UCSYDIR
 10
0.0
 20
1.0
 30
0.0
  9
$UCSORTHOREF
  2

  9
$UCSORTHOVIEW
 70
     0
  9
$UCSORGTOP
 10
0.0
 20
0.0
 30
0.0
  9
$UCSORGBOTTOM
 10
0.0
 20
0.0
 30
0.0
  9
$UCSORGLEFT
 10
0.0
 20
0.0
 30
0.0
  9
$UCSORGRIGHT
 10
0.0
 20
0.0
 30
0.0
  9
$UCSORGFRONT
 10
0.0
 20
0.0
 30
0.0
  9
$UCSORGBACK
 10
0.0
 20
0.0
 30
0.0
  9
$PUCSBASE
  2

  9
$PUCSNAME
  2

  9
$PUCSORG
 10
0.0
 20
0.0
 30
0.0
  9
$PUCSXDIR
 10
1.0
 20
0.0
 30
0.0
  9
$PUCSYDIR
 10
0.0
 20
1.0
 30
0.0
  9
$PUCSORTHOREF
  2

  9
$PUCSORTHOVIEW
 70
     0
  9
$PUCSORGTOP
 10
0.0
 20
0.0
 30
0.0
  9
$PUCSORGBOTTOM
 10
0.0
 20
0.0
 30
0.0
  9
$PUCSORGLEFT
 10
0.0
 20
0.0
 30
0.0
  9
$PUCSORGRIGHT
 10
0.0
 20
0.0
 30
0.0
  9
$PUCSORGFRONT
 10
0.0
 20
0.0
 30
0.0
  9
$PUCSORGBACK
 10
0.0
 20
0.0
 30
0.0
  9
$USERI1
 70
     0
  9
$USERI2
 70
     0
  9
$USERI3
 70
     0
  9
$USERI4
 70
     0
  9
$USERI5
 70
     0
  9
$USERR1
 40
0.0
  9
$USERR2
 40
0.0
  9
$USERR3
 40
0.0
  9
$USERR4
 40
0.0
  9
$USERR5
 40
0.0
  9
$WORLDVIEW
 70
     1
  9
$SHADEDGE
 70
     3
  9
$SHADEDIF
 70
    70
  9
$TILEMODE
 70
     1
  9
$MAXACTVP
 70
    64
  9
$PINSBASE
 10
0.0
 20
0.0
 30
0.0
  9
$PLIMCHECK
 70
     0
  9
$PEXTMIN
 10
1.0000000000E+20
 20
1.0000000000E+20
 30
1.0000000000E+20
  9
$PEXTMAX
 10
-1.0000000000E+20
 20
-1.0000000000E+20
 30
-1.0000000000E+20
  9
$PLIMMIN
 10
0.0
 20
0.0
  9
$PLIMMAX
 10
420.0
 20
297.0
  9
$UNITMODE
 70
     0
  9
$VISRETAIN
 70
     1
  9
$PLINEGEN
 70
     0
  9
$PSLTSCALE
 70
     1
  9
$TREEDEPTH
 70
  3020
  9
$CMLSTYLE
  2
Standard
  9
$CMLJUST
 70
     0
  9
$CMLSCALE
 40
20.0
  9
$PROXYGRAPHICS
 70
     1
  9
$MEASUREMENT
 70
     1
  9
$CELWEIGHT
370
    -1
  9
$ENDCAPS
280
     0
  9
$JOINSTYLE
280
     0
  9
$LWDISPLAY
290
     1
  9
$INSUNITS
 70
     4
  9
$HYPERLINKBASE
  1

  9
$STYLESHEET
  1

  9
$XEDIT
290
     1
  9
$CEPSNTYPE
380
     0
  9
$PSTYLEMODE
290
     1
  9
$FINGERPRINTGUID
  2
{777F8F9B-2D95-4F13-8DA7-46DB9033118B}
  9
$VERSIONGUID
  2
{FAEB1C32-E019-11D5-929B-00C0DF256EC4}
  9
$EXTNAMES
290
     1
  9
$PSVPSCALE
 40
0.0
  9
$OLESTARTUP
290
     0
  0
ENDSEC
  0
SECTION
  2
CLASSES
  0
CLASS
  1
ACDBDICTIONARYWDFLT
  2
AcDbDictionaryWithDefault
  3
ObjectDBX Classes
 90
        0
280
     0
281
     0
  0
CLASS
  1
VISUALSTYLE
  2
AcDbVisualStyle
  3
ObjectDBX Classes
 90
     4095
280
     0
281
     0
  0
CLASS
  1
MATERIAL
  2
AcDbMaterial
  3
ObjectDBX Classes
 90
     1153
280
     0
281
     0
  0
CLASS
  1
SCALE
  2
AcDbScale
  3
ObjectDBX Classes
 90
     1153
280
     0
281
     0
  0
CLASS
  1
TABLESTYLE
  2
AcDbTableStyle
  3
ObjectDBX Classes
 90
     4095
280
     0
281
     0
  0
CLASS
  1
MLEADERSTYLE
  2
AcDbMLeaderStyle
  3
ACDB_MLEADERSTYLE_CLASS
 90
     4095
280
     0
281
     0
  0
CLASS
  1
SUN
  2
AcDbSun
  3
SCENEOE
 90
     1153
280
     0
281
     0
  0
CLASS
  1
ACDBPLACEHOLDER
  2
AcDbPlaceHolder
  3
ObjectDBX Classes
 90
        0
280
     0
281
     0
  0
CLASS
  1
LAYOUT
  2
AcDbLayout
  3
ObjectDBX Classes
 90
        0
280
     0
281
     0
  0
ENDSEC
  0
SECTION
  2
TABLES
  0
TABLE
  2
VPORT
  5
8
330
0
100
AcDbSymbolTable
 70
     1
  0
VPORT
  5
29
330
8
100
AcDbSymbolTableRecord
100
AcDbViewportTableRecord
  2
*Active
 70
     0
 10
0.0
 20
0.0
 11
1.0
 21
1.0
 12
105.0
 22
148.5
 13
0.0
 23
0.0
 14
10.0
 24
10.0
 15
10.0
 25
10.0
 16
0.0
 26
0.0
 36
1.0
 17
0.0
 27
0.0
 37
0.0
 40
297.0
 41
0.7070707071
 42
50.0
 43
0.0
 44
0.0
 50
0.0
 51
0.0
 71
     0
 72
  2000
 73
     1
 74
     3
 75
     0
 76
     0
 77
     0
 78
     0
281
     0
 65
     1
110
0.0
120
0.0
130
0.0
111
1.0
121
0.0
131
0.0
112
0.0
122
1.0
132
0.0
 79
     0
146
0.0
  0
ENDTAB
  0
TABLE
  2
LTYPE
  5
5
330
0
100
AcDbSymbolTable
 70
     6
  0
LTYPE
  5
14
330
5
100
AcDbSymbolTableRecord
100
AcDbLinetypeTableRecord
  2
ByBlock
 70
     0
  3

 72
    65
 73
     0
 40
0.0
  0
LTYPE
  5
15
330
5
100
AcDbSymbolTableRecord
100
AcDbLinetypeTableRecord
  2
ByLayer
 70
     0
  3

 72
    65
 73
     0
 40
0.0
  0
LTYPE
  5
16
330
5
100
AcDbSymbolTableRecord
100
AcDbLinetypeTableRecord
  2
Continuous
 70
     0
  3
Solid line
 72
    65
 73
     0
 40
0.0
  0
LTYPE
  5
6E
330
5
100
AcDbSymbolTableRecord
100
AcDbLinetypeTableRecord
  2
HIDDEN
 70
     0
  3
Hidden __ __ __ __ __ __ __ __ __ __ __ __ __ __
 72
    65
 73
     2
 40
1.905
 49
1.27
 74
     0
 49
-0.635
 74
     0
  0
LTYPE
  5
6F
330
5
100
AcDbSymbolTableRecord
100
AcDbLinetypeTableRecord
  2
PHANTOM
 70
     0
  3
Phantom ______  __  __  ______  __  __  ______
 72
    65
 73
     6
 40
12.7
 49
6.35
 74
     0
 49
-1.27
 74
     0
 49
1.27
 74
     0
 49
-1.27
 74
     0
 49
1.27
 74
     0
 49
-1.27
 74
     0
  0
LTYPE
  5
70
330
5
100
AcDbSymbolTableRecord
100
AcDbLinetypeTableRecord
  2
CENTER
 70
     0
  3
Center ____ _ ____ _ ____ _ ____ _ ____ _ ____
 72
    65
 73
     4
 40
10.16
 49
6.35
 74
     0
 49
-1.27
 74
     0
 49
1.27
 74
     0
 49
-1.27
 74
     0
  0
LTYPE
  5
71
330
5
100
AcDbSymbolTableRecord
100
AcDbLinetypeTableRecord
  2
CENTERX2
 70
     0
  3
Center (2x) ________  __  ________  __  _____
 72
    65
 73
     4
 40
20.32
 49
12.7
 74
     0
 49
-2.54
 74
     0
 49
2.54
 74
     0
 49
-2.54
 74
     0
  0
LTYPE
  5
72
330
5
100
AcDbSymbolTableRecord
100
AcDbLinetypeTableRecord
  2
DOT2
 70
     0
  3
Dot (.5x) ........................................
 72
    65
 73
     2
 40
0.635
 49
0.0
 74
     0
 49
-0.635
 74
     0
  0
ENDTAB
  0
TABLE
  2
LAYER
  5
2
330
0
100
AcDbSymbolTable
 70
     2
  0
LAYER
  5
10
330
2
100
AcDbSymbolTableRecord
100
AcDbLayerTableRecord
  2
0
 70
     0
 62
     7
  6
Continuous
370
    -3
390
F
  0
LAYER
  5
73
330
2
100
AcDbSymbolTableRecord
100
AcDbLayerTableRecord
  2
SLD-0
 70
     0
 62
     3
  6
Continuous
370
    -3
390
F
  0
ENDTAB
  0
TABLE
  2
STYLE
  5
3
330
0
100
AcDbSymbolTable
 70
     1
  0
STYLE
  5
11
330
3
100
AcDbSymbolTableRecord
100
AcDbTextStyleTableRecord
  2
STANDARD
 70
     0
 40
0.0
 41
1.0
 50
0.0
 71
     0
 42
3.5
  3
MSGOTHIC.TTC
  4

1001
ACAD
1000
ＭＳ ゴシック
1071
    32817
  0
ENDTAB
  0
TABLE
  2
VIEW
  5
6
330
0
100
AcDbSymbolTable
 70
     0
  0
ENDTAB
  0
TABLE
  2
UCS
  5
7
330
0
100
AcDbSymbolTable
 70
     0
  0
ENDTAB
  0
TABLE
  2
APPID
  5
9
330
0
100
AcDbSymbolTable
 70
     1
  0
APPID
  5
12
330
9
100
AcDbSymbolTableRecord
100
AcDbRegAppTableRecord
  2
ACAD
 70
     0
  0
ENDTAB
  0
TABLE
  2
DIMSTYLE
  5
A
330
0
100
AcDbSymbolTable
 70
     1
100
AcDbDimStyleTable
  0
DIMSTYLE
105
27
330
A
100
AcDbSymbolTableRecord
100
AcDbDimStyleTableRecord
  2
ISO-25
 70
     0
 41
2.5
 42
0.625
 43
3.75
 44
1.25
 73
     0
 74
     0
 77
     1
 78
     8
140
2.5
141
2.5
143
0.0393700787
147
0.625
171
     3
172
     1
178
     0
271
     2
272
     2
274
     3
278
    44
283
     0
284
     8
340
11
  0
ENDTAB
  0
TABLE
  2
BLOCK_RECORD
  5
1
330
0
100
AcDbSymbolTable
 70
     5
  0
BLOCK_RECORD
  5
1F
330
1
100
AcDbSymbolTableRecord
100
AcDbBlockTableRecord
  2
*Model_Space
340
22
  0
BLOCK_RECORD
  5
1B
330
1
100
AcDbSymbolTableRecord
100
AcDbBlockTableRecord
  2
*Paper_Space
340
1E
  0
BLOCK_RECORD
  5
23
330
1
100
AcDbSymbolTableRecord
100
AcDbBlockTableRecord
  2
*Paper_Space0
340
26
  0
BLOCK_RECORD
  5
28B
330
1
100
AcDbSymbolTableRecord
100
AcDbBlockTableRecord
  2
SW_CENTERMARKSYMBOL_0
340
0
102
{BLKREFS
331
296
102
}
  0
BLOCK_RECORD
  5
297
330
1
100
AcDbSymbolTableRecord
100
AcDbBlockTableRecord
  2
SW_CENTERMARKSYMBOL_1
340
0
102
{BLKREFS
331
2A2
102
}
  0
BLOCK_RECORD
  5
2A3
330
1
100
AcDbSymbolTableRecord
100
AcDbBlockTableRecord
  2
SW_CENTERMARKSYMBOL_2
340
0
102
{BLKREFS
331
2AE
102
}
  0
BLOCK_RECORD
  5
4E8
330
1
100
AcDbSymbolTableRecord
100
AcDbBlockTableRecord
  2
SW_CENTERMARKSYMBOL_3
340
0
102
{BLKREFS
331
4FA
102
}
  0
ENDTAB
  0
ENDSEC
  0
SECTION
  2
BLOCKS
  0
BLOCK
  5
20
330
1F
100
AcDbEntity
  8
0
100
AcDbBlockBegin
  2
*Model_Space
 70
     0
 10
0.0
 20
0.0
 30
0.0
  3
*Model_Space
  1

  0
ENDBLK
  5
21
330
1F
100
AcDbEntity
  8
0
100
AcDbBlockEnd
  0
BLOCK
  5
1C
330
1B
100
AcDbEntity
 67
     1
  8
0
100
AcDbBlockBegin
  2
*Paper_Space
 70
     0
 10
0.0
 20
0.0
 30
0.0
  3
*Paper_Space
  1

  0
ENDBLK
  5
1D
330
1B
100
AcDbEntity
 67
     1
  8
0
100
AcDbBlockEnd
  0
BLOCK
  5
24
330
23
100
AcDbEntity
  8
0
100
AcDbBlockBegin
  2
*Paper_Space0
 70
     0
 10
0.0
 20
0.0
 30
0.0
  3
*Paper_Space0
  1

  0
ENDBLK
  5
25
330
23
100
AcDbEntity
  8
0
100
AcDbBlockEnd
  0
BLOCK
  5
28C
330
28B
100
AcDbEntity
  8
0
100
AcDbBlockBegin
  2
SW_CENTERMARKSYMBOL_0
 70
     0
 10
0.0
 20
0.0
 30
0.0
  3
SW_CENTERMARKSYMBOL_0
  1

  0
LINE
  5
28E
330
28B
100
AcDbEntity
  8
SLD-0
 62
     0
100
AcDbLine
 10
0.0
 20
0.0
 30
0.0
 11
0.0
 21
0.5
 31
0.0
  0
LINE
  5
28F
330
28B
100
AcDbEntity
  8
SLD-0
 62
     0
100
AcDbLine
 10
0.0
 20
0.0
 30
0.0
 11
-0.5
 21
0.0
 31
0.0
  0
LINE
  5
290
330
28B
100
AcDbEntity
  8
SLD-0
 62
     0
100
AcDbLine
 10
0.0
 20
0.0
 30
0.0
 11
0.0
 21
-0.5
 31
0.0
  0
LINE
  5
291
330
28B
100
AcDbEntity
  8
SLD-0
 62
     0
100
AcDbLine
 10
0.0
 20
0.0
 30
0.0
 11
0.5
 21
0.0
 31
0.0
  0
LINE
  5
292
330
28B
100
AcDbEntity
  8
SLD-0
 62
     0
100
AcDbLine
 10
0.0
 20
1.0
 30
0.0
 11
0.0
 21
1.7
 31
0.0
  0
LINE
  5
293
330
28B
100
AcDbEntity
  8
SLD-0
 62
     0
100
AcDbLine
 10
-1.0
 20
0.0
 30
0.0
 11
-1.7
 21
0.0
 31
0.0
  0
LINE
  5
294
330
28B
100
AcDbEntity
  8
SLD-0
 62
     0
100
AcDbLine
 10
0.0
 20
-1.0
 30
0.0
 11
0.0
 21
-1.7
 31
0.0
  0
LINE
  5
295
330
28B
100
AcDbEntity
  8
SLD-0
 62
     0
100
AcDbLine
 10
1.0
 20
0.0
 30
0.0
 11
1.7
 21
0.0
 31
0.0
  0
ENDBLK
  5
28D
330
28B
100
AcDbEntity
  8
0
100
AcDbBlockEnd
  0
BLOCK
  5
298
330
297
100
AcDbEntity
  8
0
100
AcDbBlockBegin
  2
SW_CENTERMARKSYMBOL_1
 70
     0
 10
0.0
 20
0.0
 30
0.0
  3
SW_CENTERMARKSYMBOL_1
  1

  0
LINE
  5
29A
330
297
100
AcDbEntity
  8
SLD-0
 62
     0
100
AcDbLine
 10
0.0
 20
0.0
 30
0.0
 11
0.0
 21
0.5
 31
0.0
  0
LINE
  5
29B
330
297
100
AcDbEntity
  8
SLD-0
 62
     0
100
AcDbLine
 10
0.0
 20
0.0
 30
0.0
 11
-0.5
 21
0.0
 31
0.0
  0
LINE
  5
29C
330
297
100
AcDbEntity
  8
SLD-0
 62
     0
100
AcDbLine
 10
0.0
 20
0.0
 30
0.0
 11
0.0
 21
-0.5
 31
0.0
  0
LINE
  5
29D
330
297
100
AcDbEntity
  8
SLD-0
 62
     0
100
AcDbLine
 10
0.0
 20
0.0
 30
0.0
 11
0.5
 21
0.0
 31
0.0
  0
LINE
  5
29E
330
297
100
AcDbEntity
  8
SLD-0
 62
     0
100
AcDbLine
 10
0.0
 20
1.0
 30
0.0
 11
0.0
 21
1.7
 31
0.0
  0
LINE
  5
29F
330
297
100
AcDbEntity
  8
SLD-0
 62
     0
100
AcDbLine
 10
-1.0
 20
0.0
 30
0.0
 11
-1.7
 21
0.0
 31
0.0
  0
LINE
  5
2A0
330
297
100
AcDbEntity
  8
SLD-0
 62
     0
100
AcDbLine
 10
0.0
 20
-1.0
 30
0.0
 11
0.0
 21
-1.7
 31
0.0
  0
LINE
  5
2A1
330
297
100
AcDbEntity
  8
SLD-0
 62
     0
100
AcDbLine
 10
1.0
 20
0.0
 30
0.0
 11
1.7
 21
0.0
 31
0.0
  0
ENDBLK
  5
299
330
297
100
AcDbEntity
  8
0
100
AcDbBlockEnd
  0
BLOCK
  5
2A4
330
2A3
100
AcDbEntity
  8
0
100
AcDbBlockBegin
  2
SW_CENTERMARKSYMBOL_2
 70
     0
 10
0.0
 20
0.0
 30
0.0
  3
SW_CENTERMARKSYMBOL_2
  1

  0
LINE
  5
2A6
330
2A3
100
AcDbEntity
  8
SLD-0
 62
     0
100
AcDbLine
 10
0.0
 20
0.0
 30
0.0
 11
0.0
 21
0.5
 31
0.0
  0
LINE
  5
2A7
330
2A3
100
AcDbEntity
  8
SLD-0
 62
     0
100
AcDbLine
 10
0.0
 20
0.0
 30
0.0
 11
-0.5
 21
0.0
 31
0.0
  0
LINE
  5
2A8
330
2A3
100
AcDbEntity
  8
SLD-0
 62
     0
100
AcDbLine
 10
0.0
 20
0.0
 30
0.0
 11
0.0
 21
-0.5
 31
0.0
  0
LINE
  5
2A9
330
2A3
100
AcDbEntity
  8
SLD-0
 62
     0
100
AcDbLine
 10
0.0
 20
0.0
 30
0.0
 11
0.5
 21
0.0
 31
0.0
  0
LINE
  5
2AA
330
2A3
100
AcDbEntity
  8
SLD-0
 62
     0
100
AcDbLine
 10
0.0
 20
1.0
 30
0.0
 11
0.0
 21
1.212414057
 31
0.0
  0
LINE
  5
2AB
330
2A3
100
AcDbEntity
  8
SLD-0
 62
     0
100
AcDbLine
 10
-1.0
 20
0.0
 30
0.0
 11
-1.212414057
 21
0.0
 31
0.0
  0
LINE
  5
2AC
330
2A3
100
AcDbEntity
  8
SLD-0
 62
     0
100
AcDbLine
 10
0.0
 20
-1.0
 30
0.0
 11
0.0
 21
-1.212414057
 31
0.0
  0
LINE
  5
2AD
330
2A3
100
AcDbEntity
  8
SLD-0
 62
     0
100
AcDbLine
 10
1.0
 20
0.0
 30
0.0
 11
1.212414057
 21
0.0
 31
0.0
  0
ENDBLK
  5
2A5
330
2A3
100
AcDbEntity
  8
0
100
AcDbBlockEnd
  0
BLOCK
  5
4E9
330
4E8
100
AcDbEntity
  8
0
100
AcDbBlockBegin
  2
SW_CENTERMARKSYMBOL_3
 70
     0
 10
0.0
 20
0.0
 30
0.0
  3
SW_CENTERMARKSYMBOL_3
  1

  0
LINE
  5
4EB
330
4E8
100
AcDbEntity
  8
SLD-0
 62
     0
100
AcDbLine
 10
0.0
 20
0.0
 30
0.0
 11
0.0
 21
0.5
 31
0.0
  0
LINE
  5
4EC
330
4E8
100
AcDbEntity
  8
SLD-0
 62
     0
100
AcDbLine
 10
0.0
 20
0.0
 30
0.0
 11
-0.5
 21
0.0
 31
0.0
  0
LINE
  5
4ED
330
4E8
100
AcDbEntity
  8
SLD-0
 62
     0
100
AcDbLine
 10
0.0
 20
0.0
 30
0.0
 11
0.0
 21
-0.5
 31
0.0
  0
LINE
  5
4EE
330
4E8
100
AcDbEntity
  8
SLD-0
 62
     0
100
AcDbLine
 10
0.0
 20
0.0
 30
0.0
 11
0.5
 21
0.0
 31
0.0
  0
LINE
  5
4EF
330
4E8
100
AcDbEntity
  8
SLD-0
 62
     0
100
AcDbLine
 10
0.0
 20
1.0
 30
0.0
 11
0.0
 21
5.8
 31
0.0
  0
LINE
  5
4F0
330
4E8
100
AcDbEntity
  8
SLD-0
 62
     0
100
AcDbLine
 10
-1.0
 20
0.0
 30
0.0
 11
-23.0245653148
 21
0.0
 31
0.0
  0
LINE
  5
4F1
330
4E8
100
AcDbEntity
  8
SLD-0
 62
     0
100
AcDbLine
 10
0.0
 20
-1.0
 30
0.0
 11
0.0
 21
-5.8
 31
0.0
  0
LINE
  5
4F2
330
4E8
100
AcDbEntity
  8
SLD-0
 62
     0
100
AcDbLine
 10
32.0
 20
0.0
 30
0.0
 11
32.0
 21
0.5
 31
0.0
  0
LINE
  5
4F3
330
4E8
100
AcDbEntity
  8
SLD-0
 62
     0
100
AcDbLine
 10
32.0
 20
0.0
 30
0.0
 11
31.5
 21
0.0
 31
0.0
  0
LINE
  5
4F4
330
4E8
100
AcDbEntity
  8
SLD-0
 62
     0
100
AcDbLine
 10
32.0
 20
0.0
 30
0.0
 11
32.0
 21
-0.5
 31
0.0
  0
LINE
  5
4F5
330
4E8
100
AcDbEntity
  8
SLD-0
 62
     0
100
AcDbLine
 10
32.0
 20
0.0
 30
0.0
 11
32.5
 21
0.0
 31
0.0
  0
LINE
  5
4F6
330
4E8
100
AcDbEntity
  8
SLD-0
 62
     0
100
AcDbLine
 10
32.0
 20
1.0
 30
0.0
 11
32.0
 21
5.8
 31
0.0
  0
LINE
  5
4F7
330
4E8
100
AcDbEntity
  8
SLD-0
 62
     0
100
AcDbLine
 10
32.0
 20
-1.0
 30
0.0
 11
32.0
 21
-5.8
 31
0.0
  0
LINE
  5
4F8
330
4E8
100
AcDbEntity
  8
SLD-0
 62
     0
100
AcDbLine
 10
33.0
 20
0.0
 30
0.0
 11
52.6012843472
 21
0.0
 31
0.0
  0
LINE
  5
4F9
330
4E8
100
AcDbEntity
  8
SLD-0
 62
     0
100
AcDbLine
 10
1.0
 20
0.0
 30
0.0
 11
31.0
 21
0.0
 31
0.0
  0
ENDBLK
  5
4EA
330
4E8
100
AcDbEntity
  8
0
100
AcDbBlockEnd
  0
ENDSEC
  0
SECTION
  2
ENTITIES
  0
SPLINE
  5
74
330
1F
100
AcDbEntity
  8
0
  6
Continuous
 62
     7
370
    25
100
AcDbSpline
210
0.0
220
0.0
230
1.0
 70
     8
 71
     3
 72
    10
 73
     6
 74
     0
 42
0.000000001
 43
0.00000001
 40
0.0
 40
0.0
 40
0.0
 40
0.0
 40
0.4857845695283643
 40
0.9918006028637497
 40
1.0
 40
1.0
 40
1.0
 40
1.0
 10
140.3055264332268
 20
210.0383384493328
 30
0.0
 10
140.306033792459
 20
210.0572019440931
 30
0.0
 10
140.3070696409069
 20
210.0957145413409
 30
0.0
 10
140.3095453839036
 20
210.1178682524142
 30
0.0
 10
140.3087869794681
 20
210.1128241036921
 30
0.0
 10
140.308774886367
 20
210.112743672464
 30
0.0
  0
SPLINE
  5
75
330
1F
100
AcDbEntity
  8
0
  6
Continuous
 62
     7
370
    25
100
AcDbSpline
210
0.0
220
0.0
230
1.0
 70
     8
 71
     3
 72
    10
 73
     6
 74
     0
 42
0.000000001
 43
0.00000001
 40
0.0
 40
0.0
 40
0.0
 40
0.0
 40
0.0973603662327983
 40
0.472387550939122
 40
1.0
 40
1.0
 40
1.0
 40
1.0
 10
140.3086944200966
 20
189.7774941628016
 30
0.0
 10
140.3087127098155
 20
189.7773438950612
 30
0.0
 10
140.3088014506024
 20
189.7766148036186
 30
0.0
 10
140.3072945428179
 20
189.7949380473211
 30
0.0
 10
140.3062031304522
 20
189.8278429787858
 30
0.0
 10
140.3055651762459
 20
189.8470766251124
 30
0.0
  0
SPLINE
  5
76
330
1F
100
AcDbEntity
  8
0
  6
Continuous
 62
     7
370
    25
100
AcDbSpline
210
0.0
220
0.0
230
1.0
 70
     8
 71
     3
 72
    10
 73
     6
 74
     0
 42
0.000000001
 43
0.00000001
 40
0.0
 40
0.0
 40
0.0
 40
0.0
 40
0.2482129647535417
 40
0.7156865003379014
 40
0.9999999999999999
 40
0.9999999999999999
 40
0.9999999999999999
 40
0.9999999999999999
 10
141.9561787226174
 20
193.2219750587977
 30
0.0
 10
141.9747262033669
 20
193.2412840101651
 30
0.0
 10
142.0282052051625
 20
193.2969586033237
 30
0.0
 10
142.0759083576903
 20
193.3987237272782
 30
0.0
 10
142.0818083472743
 20
193.4797436503029
 30
0.0
 10
142.0840396263573
 20
193.5103840534723
 30
0.0
  0
SPLINE
  5
77
330
1F
100
AcDbEntity
  8
0
  6
Continuous
 62
     7
370
    25
100
AcDbSpline
210
0.0
220
0.0
230
1.0
 70
     8
 71
     3
 72
    10
 73
     6
 74
     0
 42
0.000000001
 43
0.00000001
 40
0.0
 40
0.0
 40
0.0
 40
0.0
 40
0.252355501898878
 40
0.6911796918125132
 40
1.0
 40
1.0
 40
1.0
 40
1.0
 10
142.0840396263573
 20
206.3790130769051
 30
0.0
 10
142.082265246672
 20
206.4062043916034
 30
0.0
 10
142.0774053755979
 20
206.4806790290564
 30
0.0
 10
142.0341841751668
 20
206.5839900789753
 30
0.0
 10
141.9789808715893
 20
206.6430339282207
 30
0.0
 10
141.9561787226174
 20
206.6674224441088
 30
0.0
  0
LINE
  5
78
330
1F
100
AcDbEntity
  8
0
  6
Continuous
 62
     7
370
    25
100
AcDbLine
 10
142.0840396264
 20
193.5103840535
 30
0.0
 11
142.0840396264
 21
206.3790130769
 31
0.0
  0
LINE
  5
79
330
1F
100
AcDbEntity
  8
0
  6
Continuous
 62
     7
370
    25
100
AcDbLine
 10
140.2982010224
 20
191.6921503251
 30
0.0
 11
141.9561787226
 21
193.2219750588
 31
0.0
  0
LINE
  5
7A
330
1F
100
AcDbEntity
  8
0
  6
Continuous
 62
     7
370
    25
100
AcDbLine
 10
141.9561787226
 20
206.6674224441
 30
0.0
 11
140.2982010224
 21
208.1972460137
 31
0.0
  0
SPLINE
  5
7B
330
1F
100
AcDbEntity
  8
0
  6
Continuous
 62
     7
370
    25
100
AcDbSpline
210
0.0
220
0.0
230
1.0
 70
     8
 71
     3
 72
    10
 73
     6
 74
     0
 42
0.000000001
 43
0.00000001
 40
0.0
 40
0.0
 40
0.0
 40
0.0
 40
0.2482185296744929
 40
0.7156871391705659
 40
1.0
 40
1.0
 40
1.0
 40
1.0
 10
142.0608921625588
 20
193.2219750587977
 30
0.0
 10
142.0794408897652
 20
193.241283832965
 30
0.0
 10
142.1329223342289
 20
193.2969567167052
 30
0.0
 10
142.1806212024355
 20
193.3987245042412
 30
0.0
 10
142.1865216155424
 20
193.4797437488917
 30
0.0
 10
142.1887530662987
 20
193.5103840534723
 30
0.0
  0
LINE
  5
7C
330
1F
100
AcDbEntity
  8
0
  6
Continuous
 62
     7
370
    25
100
AcDbLine
 10
142.1887530663
 20
193.5103840535
 30
0.0
 11
142.1887530663
 21
206.3790130769
 31
0.0
  0
SPLINE
  5
7D
330
1F
100
AcDbEntity
  8
0
  6
Continuous
 62
     7
370
    25
100
AcDbSpline
210
0.0
220
0.0
230
1.0
 70
     8
 71
     3
 72
    10
 73
     6
 74
     0
 42
0.000000001
 43
0.00000001
 40
0.0
 40
0.0
 40
0.0
 40
0.0
 40
0.2523548686340016
 40
0.6911744965381807
 40
1.0
 40
1.0
 40
1.0
 40
1.0
 10
142.1887530662987
 20
206.3790130769051
 30
0.0
 10
142.1869785401579
 20
206.4062043196801
 30
0.0
 10
142.182118292291
 20
206.4806783872384
 30
0.0
 10
142.1389013528567
 20
206.583991775455
 30
0.0
 10
142.0836956619408
 20
206.6430341483988
 30
0.0
 10
142.0608921625588
 20
206.6674224441088
 30
0.0
  0
LINE
  5
7E
330
1F
100
AcDbEntity
  8
0
  6
Continuous
 62
     7
370
    25
100
AcDbLine
 10
140.2982010224
 20
191.5955311959
 30
0.0
 11
142.0608921626
 21
193.2219750588
 31
0.0
  0
LINE
  5
7F
330
1F
100
AcDbEntity
  8
0
  6
Continuous
 62
     7
370
    25
100
AcDbLine
 10
142.0608921626
 20
206.6674224441
 30
0.0
 11
140.2982010224
 21
208.2938664933
 31
0.0
  0
SPLINE
  5
80
330
1F
100
AcDbEntity
  8
0
  6
Continuous
 62
     7
370
    25
100
AcDbSpline
210
0.0
220
0.0
230
1.0
 70
     8
 71
     3
 72
    10
 73
     6
 74
     0
 42
0.000000001
 43
0.00000001
 40
0.0
 40
0.0
 40
0.0
 40
0.0
 40
0.248213232029949
 40
0.7156873041540591
 40
1.0
 40
1.0
 40
1.0
 40
1.0
 10
142.1656085827324
 20
193.2219750587977
 30
0.0
 10
142.1841560117606
 20
193.2412840169431
 30
0.0
 10
142.2376348669031
 20
193.2969586322248
 30
0.0
 10
142.2853395608934
 20
193.3987234388083
 30
0.0
 10
142.2912364175071
 20
193.4797436260968
 30
0.0
 10
142.2934665062401
 20
193.5103840534723
 30
0.0
  0
LINE
  5
81
330
1F
100
AcDbEntity
  8
0
  6
Continuous
 62
     7
370
    25
100
AcDbLine
 10
142.2934665062
 20
193.5103840535
 30
0.0
 11
142.2934665062
 21
206.3790130769
 31
0.0
  0
SPLINE
  5
82
330
1F
100
AcDbEntity
  8
0
  6
Continuous
 62
     7
370
    25
100
AcDbSpline
210
0.0
220
0.0
230
1.0
 70
     8
 71
     3
 72
    10
 73
     6
 74
     0
 42
0.000000001
 43
0.00000001
 40
0.0
 40
0.0
 40
0.0
 40
0.0
 40
0.2523547573286014
 40
0.691179396767789
 40
1.0
 40
1.0
 40
1.0
 40
1.0
 10
142.2934665062401
 20
206.3790130769051
 30
0.0
 10
142.2916933105002
 20
206.4062044124642
 30
0.0
 10
142.2868366698932
 20
206.4806792949987
 30
0.0
 10
142.2436137383235
 20
206.5839900419637
 30
0.0
 10
142.1884106442456
 20
206.6430339181006
 30
0.0
 10
142.1656085827324
 20
206.6674224441088
 30
0.0
  0
LINE
  5
83
330
1F
100
AcDbEntity
  8
0
  6
Continuous
 62
     7
370
    25
100
AcDbLine
 10
142.1656085827
 20
206.6674224441
 30
0.0
 11
140.2982010224
 21
208.3904869729
 31
0.0
  0
LINE
  5
84
330
1F
100
AcDbEntity
  8
0
  6
Continuous
 62
     7
370
    25
100
AcDbLine
 10
140.2982010224
 20
191.4989105766
 30
0.0
 11
142.1656085827
 21
193.2219750588
 31
0.0
  0
SPLINE
  5
85
330
1F
100
AcDbEntity
  8
0
  6
Continuous
 62
     7
370
    25
100
AcDbSpline
210
0.0
220
0.0
230
1.0
 70
     8
 71
     3
 72
    10
 73
     6
 74
     0
 42
0.000000001
 43
0.00000001
 40
0.0
 40
0.0
 40
0.0
 40
0.0
 40
0.2482129588581382
 40
0.7156865165022678
 40
1.0
 40
1.0
 40
1.0
 40
1.0
 10
142.2703220226738
 20
193.2219750587977
 30
0.0
 10
142.2888695035823
 20
193.2412840106859
 30
0.0
 10
142.3423485083142
 20
193.2969586079257
 30
0.0
 10
142.3900516558245
 20
193.3987237193585
 30
0.0
 10
142.3959516469081
 20
193.479743649568
 30
0.0
 10
142.3981829264138
 20
193.5103840534723
 30
0.0
  0
SPLINE
  5
86
330
1F
100
AcDbEntity
  8
0
  6
Continuous
 62
     7
370
    25
100
AcDbSpline
210
0.0
220
0.0
230
1.0
 70
     8
 71
     3
 72
    10
 73
     6
 74
     0
 42
0.000000001
 43
0.00000001
 40
0.0
 40
0.0
 40
0.0
 40
0.0
 40
0.2523554684677067
 40
0.6911796597723953
 40
0.9999999999999999
 40
0.9999999999999999
 40
0.9999999999999999
 40
0.9999999999999999
 10
142.3981829264138
 20
206.3790130769051
 30
0.0
 10
142.3964085465259
 20
206.4062043921993
 30
0.0
 10
142.3915486744784
 20
206.4806790376981
 30
0.0
 10
142.3483274709986
 20
206.5839900838812
 30
0.0
 10
142.2931241713635
 20
206.6430339286359
 30
0.0
 10
142.2703220226738
 20
206.6674224441088
 30
0.0
  0
LINE
  5
87
330
1F
100
AcDbEntity
  8
0
  6
Continuous
 62
     7
370
    25
100
AcDbLine
 10
142.3981829264
 20
193.5103840535
 30
0.0
 11
142.3981829264
 21
206.3790130769
 31
0.0
  0
LINE
  5
88
330
1F
100
AcDbEntity
  8
0
  6
Continuous
 62
     7
370
    25
100
AcDbLine
 10
142.2703220227
 20
206.6674224441
 30
0.0
 11
140.3241409638
 21
208.4631716241
 31
0.0
  0
LINE
  5
89
330
1F
100
AcDbEntity
  8
0
  6
Continuous
 62
     7
370
    25
100
AcDbLine
 10
140.3241409638
 20
191.4262256925
 30
0.0
 11
142.2703220227
 21
193.2219750588
 31
0.0
  0
SPLINE
  5
8A
330
1F
100
AcDbEntity
  8
0
  6
Continuous
 62
     7
370
    25
100
AcDbSpline
210
0.0
220
0.0
230
1.0
 70
     8
 71
     3
 72
    10
 73
     6
 74
     0
 42
0.000000001
 43
0.00000001
 40
0.0
 40
0.0
 40
0.0
 40
0.0
 40
0.2523548631081906
 40
0.6911744509339
 40
1.0
 40
1.0
 40
1.0
 40
1.0
 10
142.5028963663551
 20
206.3790130769051
 30
0.0
 10
142.5011218406561
 20
206.4062043190476
 30
0.0
 10
142.4962615942133
 20
206.4806783815904
 30
0.0
 10
142.4530446427956
 20
206.5839917903529
 30
0.0
 10
142.3978389613034
 20
206.6430341503326
 30
0.0
 10
142.3750354626152
 20
206.6674224441088
 30
0.0
  0
SPLINE
  5
8B
330
1F
100
AcDbEntity
  8
0
  6
Continuous
 62
     7
370
    25
100
AcDbSpline
210
0.0
220
0.0
230
1.0
 70
     8
 71
     3
 72
    10
 73
     6
 74
     0
 42
0.000000001
 43
0.00000001
 40
0.0
 40
0.0
 40
0.0
 40
0.0
 40
0.2482185237789021
 40
0.7156871553349587
 40
1.0
 40
1.0
 40
1.0
 40
1.0
 10
142.3750354626152
 20
193.2219750587977
 30
0.0
 10
142.3935841899806
 20
193.2412838334858
 30
0.0
 10
142.4470656373807
 20
193.2969567213073
 30
0.0
 10
142.4947645005697
 20
193.3987244963214
 30
0.0
 10
142.5006649151761
 20
193.4797437481569
 30
0.0
 10
142.5028963663551
 20
193.5103840534723
 30
0.0
  0
LINE
  5
8C
330
1F
100
AcDbEntity
  8
0
  6
Continuous
 62
     7
370
    25
100
AcDbLine
 10
142.5028963664
 20
193.5103840535
 30
0.0
 11
142.5028963664
 21
206.3790130769
 31
0.0
  0
LINE
  5
8D
330
1F
100
AcDbEntity
  8
0
  6
Continuous
 62
     7
370
    25
100
AcDbLine
 10
142.3750354626
 20
206.6674224441
 30
0.0
 11
140.428857384
 21
208.4631716241
 31
0.0
  0
LINE
  5
8E
330
1F
100
AcDbEntity
  8
0
  6
Continuous
 62
     7
370
    25
100
AcDbLine
 10
140.428857384
 20
191.4262256925
 30
0.0
 11
142.3750354626
 21
193.2219750588
 31
0.0
  0
SPLINE
  5
8F
330
1F
100
AcDbEntity
  8
0
  6
Continuous
 62
     7
370
    25
100
AcDbSpline
210
0.0
220
0.0
230
1.0
 70
     8
 71
     3
 72
    10
 73
     6
 74
     0
 42
0.000000001
 43
0.00000001
 40
0.0
 40
0.0
 40
0.0
 40
0.0
 40
0.2523547573286014
 40
0.691179396767789
 40
1.0
 40
1.0
 40
1.0
 40
1.0
 10
142.6076098062966
 20
206.3790130769051
 30
0.0
 10
142.6058366105567
 20
206.4062044124642
 30
0.0
 10
142.6009799699496
 20
206.4806792949987
 30
0.0
 10
142.55775703838
 20
206.5839900419637
 30
0.0
 10
142.5025539443021
 20
206.6430339181006
 30
0.0
 10
142.4797518827889
 20
206.6674224441088
 30
0.0
  0
LINE
  5
90
330
1F
100
AcDbEntity
  8
0
  6
Continuous
 62
     7
370
    25
100
AcDbLine
 10
142.6076098063
 20
193.5103840535
 30
0.0
 11
142.6076098063
 21
206.3790130769
 31
0.0
  0
SPLINE
  5
91
330
1F
100
AcDbEntity
  8
0
  6
Continuous
 62
     7
370
    25
100
AcDbSpline
210
0.0
220
0.0
230
1.0
 70
     8
 71
     3
 72
    10
 73
     6
 74
     0
 42
0.000000001
 43
0.00000001
 40
0.0
 40
0.0
 40
0.0
 40
0.0
 40
0.248213232029949
 40
0.7156873041540591
 40
1.0
 40
1.0
 40
1.0
 40
1.0
 10
142.4797518827889
 20
193.2219750587977
 30
0.0
 10
142.4982993118171
 20
193.2412840169431
 30
0.0
 10
142.5517781669595
 20
193.2969586322248
 30
0.0
 10
142.5994828609498
 20
193.3987234388083
 30
0.0
 10
142.6053797175636
 20
193.4797436260968
 30
0.0
 10
142.6076098062966
 20
193.5103840534723
 30
0.0
  0
LINE
  5
92
330
1F
100
AcDbEntity
  8
0
  6
Continuous
 62
     7
370
    25
100
AcDbLine
 10
140.5335708239
 20
191.4262256925
 30
0.0
 11
142.4797518828
 21
193.2219750588
 31
0.0
  0
LINE
  5
93
330
1F
100
AcDbEntity
  8
0
  6
Continuous
 62
     7
370
    25
100
AcDbLine
 10
142.4797518828
 20
206.6674224441
 30
0.0
 11
140.5335708239
 21
208.4631716241
 31
0.0
  0
SPLINE
  5
94
330
1F
100
AcDbEntity
  8
0
  6
Continuous
 62
     7
370
    25
100
AcDbSpline
210
0.0
220
0.0
230
1.0
 70
     8
 71
     3
 72
    17
 73
    13
 74
     0
 42
0.000000001
 43
0.00000001
 40
0.0
 40
0.0
 40
0.0
 40
0.0
 40
0.1776440633557582
 40
0.4105020653431346
 40
0.6469799239155274
 40
0.7470347685000842
 40
0.7886514706772095
 40
0.8236256417974027
 40
0.8651160046882795
 40
0.9143406888855311
 40
0.9695299021104832
 40
1.0
 40
1.0
 40
1.0
 40
1.0
 10
140.964396176574
 20
210.347678918872
 30
0.0
 10
140.9634142890376
 20
210.4003264356673
 30
0.0
 10
140.961145331359
 20
210.5219849587355
 30
0.0
 10
140.9568018082563
 20
210.6546333478671
 30
0.0
 10
140.9522461466865
 20
210.7300556089802
 30
0.0
 10
140.9485839277991
 20
210.7654158660768
 30
0.0
 10
140.9416999517129
 20
210.7981498358836
 30
0.0
 10
140.927799024425
 20
210.8355952556749
 30
0.0
 10
140.8994110368605
 20
210.8792444061548
 30
0.0
 10
140.8518207995776
 20
210.9195740610166
 30
0.0
 10
140.7970547490655
 20
210.9418057254198
 30
0.0
 10
140.760474240267
 20
210.9439394963414
 30
0.0
 10
140.7474620916817
 20
210.9446985055841
 30
0.0
  0
SPLINE
  5
95
330
1F
100
AcDbEntity
  8
0
  6
Continuous
 62
     7
370
    25
100
AcDbSpline
210
0.0
220
0.0
230
1.0
 70
     8
 71
     3
 72
    19
 73
    15
 74
     0
 42
0.000000001
 43
0.00000001
 40
0.0
 40
0.0
 40
0.0
 40
0.0
 40
0.0560229787212503
 40
0.1013437588927135
 40
0.1394639235119683
 40
0.1721145323935994
 40
0.199094696625086
 40
0.2241518526040227
 40
0.2581923364458903
 40
0.3286029356417261
 40
0.4985438505232964
 40
0.7166591055848738
 40
0.9470797435085905
 40
1.0
 40
1.0
 40
1.0
 40
1.0
 10
140.7474620916817
 20
188.9446980659998
 30
0.0
 10
140.7722201409122
 20
188.9473443636437
 30
0.0
 10
140.8170066522534
 20
188.9521314306026
 30
0.0
 10
140.8707176405242
 20
188.9841131947008
 30
0.0
 10
140.9062464133153
 20
189.0199120121816
 30
0.0
 10
140.9275807413164
 20
189.0546796771731
 30
0.0
 10
140.9386233213597
 20
189.0824654706555
 30
0.0
 10
140.9443235232191
 20
189.1032659039181
 30
0.0
 10
140.9482814815681
 20
189.1240024895101
 30
0.0
 10
140.951740305117
 20
189.1533397274671
 30
0.0
 10
140.955438598124
 20
189.2074697752214
 30
0.0
 10
140.9598842261565
 20
189.3272880259335
 30
0.0
 10
140.9631877278679
 20
189.453778360638
 30
0.0
 10
140.9645952300266
 20
189.5502351095247
 30
0.0
 10
140.964858112571
 20
189.5682505672015
 30
0.0
  0
LINE
  5
96
330
1F
100
AcDbEntity
  8
0
  6
Continuous
 62
     7
370
    25
100
AcDbLine
 10
142.4661053994
 20
186.797056288
 30
0.0
 11
142.0661045887
 21
186.797056288
 31
0.0
  0
LINE
  5
97
330
1F
100
AcDbEntity
  8
0
  6
Continuous
 62
     7
370
    25
100
AcDbLine
 10
142.0661045887
 20
182.7970571225
 30
0.0
 11
142.4661053994
 21
182.7970571225
 31
0.0
  0
LINE
  5
98
330
1F
100
AcDbEntity
  8
0
  6
Continuous
 62
     7
370
    25
100
AcDbLine
 10
130.4685278513
 20
240.7898730938
 30
0.0
 11
130.4685278513
 21
240.3898722832
 31
0.0
  0
LINE
  5
99
330
1F
100
AcDbEntity
  8
0
  6
Continuous
 62
     7
370
    25
100
AcDbLine
 10
134.4685270169
 20
240.3898722832
 30
0.0
 11
134.4685270169
 21
240.7898730938
 31
0.0
  0
LINE
  5
9A
330
1F
100
AcDbEntity
  8
0
  6
Continuous
 62
     7
370
    25
100
AcDbLine
 10
114.468528209
 20
240.7898730938
 30
0.0
 11
114.468528209
 21
240.3898722832
 31
0.0
  0
LINE
  5
9B
330
1F
100
AcDbEntity
  8
0
  6
Continuous
 62
     7
370
    25
100
AcDbLine
 10
118.4685281196
 20
240.3898722832
 30
0.0
 11
118.4685281196
 21
240.7898730938
 31
0.0
  0
LINE
  5
9C
330
1F
100
AcDbEntity
  8
0
  6
Continuous
 62
     7
370
    25
100
AcDbLine
 10
118.4636815169
 20
177.6898718779
 30
0.0
 11
118.4636815169
 21
178.0898726885
 31
0.0
  0
LINE
  5
9D
330
1F
100
AcDbEntity
  8
0
  6
Continuous
 62
     7
370
    25
100
AcDbLine
 10
114.4636816063
 20
178.0898726885
 30
0.0
 11
114.4636816063
 21
177.6898718779
 31
0.0
  0
LINE
  5
9E
330
1F
100
AcDbEntity
  8
0
  6
Continuous
 62
     7
370
    25
100
AcDbLine
 10
117.4661046543
 20
178.0898726885
 30
0.0
 11
117.4661046543
 21
178.1898714011
 31
0.0
  0
LINE
  5
9F
330
1F
100
AcDbEntity
  8
0
  6
Continuous
 62
     7
370
    25
100
AcDbLine
 10
115.4661050715
 20
178.1898714011
 30
0.0
 11
115.4661050715
 21
178.0898726885
 31
0.0
  0
LINE
  5
A0
330
1F
100
AcDbEntity
  8
0
  6
Continuous
 62
     7
370
    25
100
AcDbLine
 10
102.4636811295
 20
177.6098735039
 30
0.0
 11
102.4636811295
 21
178.0098713343
 31
0.0
  0
LINE
  5
A1
330
1F
100
AcDbEntity
  8
0
  6
Continuous
 62
     7
370
    25
100
AcDbLine
 10
98.4636812189
 20
178.0098713343
 30
0.0
 11
98.4636812189
 21
177.6098735039
 31
0.0
  0
LINE
  5
A2
330
1F
100
AcDbEntity
  8
0
  6
Continuous
 62
     7
370
    25
100
AcDbLine
 10
72.6661040165
 20
198.7922958438
 30
0.0
 11
73.0661048272
 21
198.7922958438
 31
0.0
  0
LINE
  5
A3
330
1F
100
AcDbEntity
  8
0
  6
Continuous
 62
     7
370
    25
100
AcDbLine
 10
73.0661048272
 20
202.792296127
 30
0.0
 11
72.6661040165
 21
202.792296127
 31
0.0
  0
LINE
  5
A4
330
1F
100
AcDbEntity
  8
0
  6
Continuous
 62
     7
370
    25
100
AcDbLine
 10
72.6661040165
 20
182.7922947114
 30
0.0
 11
73.0661048272
 21
182.7922947114
 31
0.0
  0
LINE
  5
A5
330
1F
100
AcDbEntity
  8
0
  6
Continuous
 62
     7
370
    25
100
AcDbLine
 10
73.0661048272
 20
186.792295367
 30
0.0
 11
72.6661040165
 21
186.792295367
 31
0.0
  0
LINE
  5
A6
330
1F
100
AcDbEntity
  8
0
  6
Continuous
 62
     7
370
    25
100
AcDbLine
 10
134.4636811593
 20
177.6898718779
 30
0.0
 11
134.4636811593
 21
178.0898726885
 31
0.0
  0
LINE
  5
A7
330
1F
100
AcDbEntity
  8
0
  6
Continuous
 62
     7
370
    25
100
AcDbLine
 10
130.4636819937
 20
178.0898726885
 30
0.0
 11
130.4636819937
 21
177.6898718779
 31
0.0
  0
LINE
  5
A8
330
1F
100
AcDbEntity
  8
0
  6
Continuous
 62
     7
370
    25
100
AcDbLine
 10
133.4661050417
 20
178.0898726885
 30
0.0
 11
133.4661050417
 21
178.1898714011
 31
0.0
  0
LINE
  5
A9
330
1F
100
AcDbEntity
  8
0
  6
Continuous
 62
     7
370
    25
100
AcDbLine
 10
131.4661039689
 20
178.1898714011
 30
0.0
 11
131.4661039689
 21
178.0898726885
 31
0.0
  0
LINE
  5
AA
330
1F
100
AcDbEntity
  8
0
  6
Continuous
 62
     7
370
    25
100
AcDbLine
 10
86.463680742
 20
177.6098735039
 30
0.0
 11
86.463680742
 21
178.0098713343
 31
0.0
  0
LINE
  5
AB
330
1F
100
AcDbEntity
  8
0
  6
Continuous
 62
     7
370
    25
100
AcDbLine
 10
82.4636800864
 20
178.0098713343
 30
0.0
 11
82.4636800864
 21
177.6098735039
 31
0.0
  0
LINE
  5
AC
330
1F
100
AcDbEntity
  8
0
  6
Continuous
 62
     7
370
    25
100
AcDbLine
 10
126.5661044695
 20
240.7898730938
 30
0.0
 11
126.5661044695
 21
241.9898725455
 31
0.0
  0
LINE
  5
AD
330
1F
100
AcDbEntity
  8
0
  6
Continuous
 62
     7
370
    25
100
AcDbLine
 10
122.3661048987
 20
241.9898725455
 30
0.0
 11
122.3661048987
 21
240.7898730938
 31
0.0
  0
ARC
  5
AE
330
1F
100
AcDbEntity
  8
0
  6
Continuous
 62
     7
370
    25
100
AcDbCircle
 10
114.066104708
 20
239.9898725216
 30
0.0
 40
0.4000000000000057
100
AcDbArc
 50
90.0
 51
180.0
  0
LINE
  5
AF
330
1F
100
AcDbEntity
  8
0
  6
Continuous
 62
     7
370
    25
100
AcDbLine
 10
113.6661047765
 20
239.9898714726
 30
0.0
 11
113.6661047765
 21
239.2644531434
 31
0.0
  0
LINE
  5
B0
330
1F
100
AcDbEntity
  8
0
  6
Continuous
 62
     7
370
    25
100
AcDbLine
 10
135.2661057093
 20
239.2644531434
 30
0.0
 11
135.2661057093
 21
239.9898714726
 31
0.0
  0
ARC
  5
B1
330
1F
100
AcDbEntity
  8
0
  6
Continuous
 62
     7
370
    25
100
AcDbCircle
 10
134.866104708
 20
239.9898725216
 30
0.0
 40
0.4000000000000057
100
AcDbArc
 50
0.0
 51
90.0
  0
ARC
  5
B2
330
1F
100
AcDbEntity
  8
0
  6
Continuous
 62
     7
370
    25
100
AcDbCircle
 10
128.166104708
 20
240.7898725216
 30
0.0
 40
0.4000000000000341
100
AcDbArc
 50
180.0
 51
270.0
  0
ARC
  5
B3
330
1F
100
AcDbEntity
  8
0
  6
Continuous
 62
     7
370
    25
100
AcDbCircle
 10
73.466104708
 20
203.1898725216
 30
0.0
 40
0.4000000000000057
100
AcDbArc
 50
90.0
 51
180.0
  0
LINE
  5
B4
330
1F
100
AcDbEntity
  8
0
  6
Continuous
 62
     7
370
    25
100
AcDbLine
 10
73.4661056378
 20
181.9898731415
 30
0.0
 11
74.1914882042
 21
181.9898731415
 31
0.0
  0
LINE
  5
B5
330
1F
100
AcDbEntity
  8
0
  6
Continuous
 62
     7
370
    25
100
AcDbLine
 10
74.1914882042
 20
203.5898725842
 30
0.0
 11
73.4661056378
 21
203.5898725842
 31
0.0
  0
ARC
  5
B6
330
1F
100
AcDbEntity
  8
0
  6
Continuous
 62
     7
370
    25
100
AcDbCircle
 10
73.466104708
 20
182.3898725216
 30
0.0
 40
0.4000000000000199
100
AcDbArc
 50
180.0
 51
270.0
  0
ARC
  5
B7
330
1F
100
AcDbEntity
  8
0
  6
Continuous
 62
     7
370
    25
100
AcDbCircle
 10
72.666104708
 20
196.4898725216
 30
0.0
 40
0.4000000000000057
100
AcDbArc
 50
270.0
 51
0.0
  0
LINE
  5
B8
330
1F
100
AcDbEntity
  8
0
  6
Continuous
 62
     7
370
    25
100
AcDbLine
 10
140.9406854489
 20
181.9898731415
 30
0.0
 11
141.6661037781
 21
181.9898731415
 31
0.0
  0
ARC
  5
B9
330
1F
100
AcDbEntity
  8
0
  6
Continuous
 62
     7
370
    25
100
AcDbCircle
 10
141.666104708
 20
182.3898725216
 30
0.0
 40
0.4000000000000057
100
AcDbArc
 50
270.0
 51
0.0
  0
ARC
  5
BA
330
1F
100
AcDbEntity
  8
0
  6
Continuous
 62
     7
370
    25
100
AcDbCircle
 10
142.466104708
 20
189.0898725216
 30
0.0
 40
0.4000000000000057
100
AcDbArc
 50
90.0
 51
180.0
  0
LINE
  5
BB
330
1F
100
AcDbEntity
  8
0
  6
Continuous
 62
     7
370
    25
100
AcDbLine
 10
119.1661043742
 20
177.989873976
 30
0.0
 11
119.1661043742
 21
175.6698734467
 31
0.0
  0
LINE
  5
BC
330
1F
100
AcDbEntity
  8
0
  6
Continuous
 62
     7
370
    25
100
AcDbLine
 10
129.7661049941
 20
175.6698734467
 30
0.0
 11
129.7661049941
 21
177.989873976
 31
0.0
  0
ARC
  5
BD
330
1F
100
AcDbEntity
  8
0
  6
Continuous
 62
     7
370
    25
100
AcDbCircle
 10
119.366104708
 20
175.6698725216
 30
0.0
 40
0.1999999999999886
100
AcDbArc
 50
180.0
 51
270.0
  0
ARC
  5
BE
330
1F
100
AcDbEntity
  8
0
  6
Continuous
 62
     7
370
    25
100
AcDbCircle
 10
129.566104708
 20
175.6698725216
 30
0.0
 40
0.2000000000000171
100
AcDbArc
 50
270.0
 51
0.0
  0
ARC
  5
BF
330
1F
100
AcDbEntity
  8
0
  6
Continuous
 62
     7
370
    25
100
AcDbCircle
 10
134.666104708
 20
178.7898725216
 30
0.0
 40
0.6000000000000227
100
AcDbArc
 50
270.0
 51
332.956180753
  0
ARC
  5
C0
330
1F
100
AcDbEntity
  8
0
  6
Continuous
 62
     7
370
    25
100
AcDbCircle
 10
114.266104708
 20
178.7898725216
 30
0.0
 40
0.6000000000000227
100
AcDbArc
 50
207.0437190236
 51
270.0
  0
ARC
  5
C1
330
1F
100
AcDbEntity
  8
0
  6
Continuous
 62
     7
370
    25
100
AcDbCircle
 10
118.966104708
 20
177.9898725216
 30
0.0
 40
0.2000000000000171
100
AcDbArc
 50
0.0
 51
90.0
  0
ARC
  5
C2
330
1F
100
AcDbEntity
  8
0
  6
Continuous
 62
     7
370
    25
100
AcDbCircle
 10
129.966104708
 20
177.9898725216
 30
0.0
 40
0.2000000000000171
100
AcDbArc
 50
90.0
 51
180.0
  0
LINE
  5
C3
330
1F
100
AcDbEntity
  8
0
  6
Continuous
 62
     7
370
    25
100
AcDbLine
 10
87.1661050894
 20
177.8098739092
 30
0.0
 11
87.1661050894
 21
175.4898733799
 31
0.0
  0
LINE
  5
C4
330
1F
100
AcDbEntity
  8
0
  6
Continuous
 62
     7
370
    25
100
AcDbLine
 10
97.7661049643
 20
175.4898733799
 30
0.0
 11
97.7661049643
 21
177.8098739092
 31
0.0
  0
ARC
  5
C5
330
1F
100
AcDbEntity
  8
0
  6
Continuous
 62
     7
370
    25
100
AcDbCircle
 10
87.366104708
 20
175.4898725216
 30
0.0
 40
0.2000000000000171
100
AcDbArc
 50
180.0
 51
270.0
  0
ARC
  5
C6
330
1F
100
AcDbEntity
  8
0
  6
Continuous
 62
     7
370
    25
100
AcDbCircle
 10
97.566104708
 20
175.4898725216
 30
0.0
 40
0.2000000000000171
100
AcDbArc
 50
270.0
 51
0.0
  0
ARC
  5
C7
330
1F
100
AcDbEntity
  8
0
  6
Continuous
 62
     7
370
    25
100
AcDbCircle
 10
102.666104708
 20
178.6098725216
 30
0.0
 40
0.5999999999999943
100
AcDbArc
 50
270.0
 51
350.9477061003
  0
ARC
  5
C8
330
1F
100
AcDbEntity
  8
0
  6
Continuous
 62
     7
370
    25
100
AcDbCircle
 10
82.266104708
 20
178.6098725216
 30
0.0
 40
0.5999999999999966
100
AcDbArc
 50
189.0521945485
 51
270.0
  0
ARC
  5
C9
330
1F
100
AcDbEntity
  8
0
  6
Continuous
 62
     7
370
    25
100
AcDbCircle
 10
86.966104708
 20
177.8098725216
 30
0.0
 40
0.2000000000000171
100
AcDbArc
 50
0.0
 51
90.0
  0
ARC
  5
CA
330
1F
100
AcDbEntity
  8
0
  6
Continuous
 62
     7
370
    25
100
AcDbCircle
 10
97.966104708
 20
177.8098725216
 30
0.0
 40
0.2000000000000171
100
AcDbArc
 50
90.0
 51
180.0
  0
ARC
  5
CB
330
1F
100
AcDbEntity
  8
0
  6
Continuous
 62
     7
370
    25
100
AcDbCircle
 10
181.5644052384
 20
190.3703453737
 30
0.0
 40
41.27704498443921
100
AcDbArc
 50
179.7579836891
 51
181.5237404258
  0
ARC
  5
CC
330
1F
100
AcDbEntity
  8
0
  6
Continuous
 62
     7
370
    25
100
AcDbCircle
 10
182.7815680341
 20
209.5124769771
 30
0.0
 40
42.49417076654426
100
AcDbArc
 50
178.53745535
 51
180.2262198509
  0
ARC
  5
CD
330
1F
100
AcDbEntity
  8
0
  6
Continuous
 62
     7
370
    25
100
AcDbCircle
 10
162.8218553019
 20
190.1447832488
 30
0.0
 40
22.94104087770047
100
AcDbArc
 50
179.0011522578
 51
182.9986091504
  0
LINE
  5
CE
330
1F
100
AcDbEntity
  8
0
  6
Continuous
 62
     7
370
    25
100
AcDbLine
 10
139.9122251847
 20
188.944698066
 30
0.0
 11
140.1121928074
 21
188.944698066
 31
0.0
  0
ARC
  5
CF
330
1F
100
AcDbEntity
  8
0
  6
Continuous
 62
     7
370
    25
100
AcDbCircle
 10
162.8218233824
 20
209.7446139381
 30
0.0
 40
22.94100896979729
100
AcDbArc
 50
177.0013882139
 51
180.9988500869
  0
LINE
  5
D0
330
1F
100
AcDbEntity
  8
0
  6
Continuous
 62
     7
370
    25
100
AcDbLine
 10
139.9122251847
 20
210.9446985056
 30
0.0
 11
140.1121928074
 21
210.9446985056
 31
0.0
  0
LINE
  5
D1
330
1F
100
AcDbEntity
  8
0
  6
Continuous
 62
     7
370
    25
100
AcDbLine
 10
139.8843004086
 20
209.3446984762
 30
0.0
 11
139.8843004086
 21
190.5446983283
 31
0.0
  0
ARC
  5
D2
330
1F
100
AcDbEntity
  8
0
  6
Continuous
 62
     7
370
    25
100
AcDbCircle
 10
109.6541633809
 20
190.4898361039
 30
0.0
 40
31.30727679134739
100
AcDbArc
 50
359.0275141189
 51
0.1004039905
  0
ARC
  5
D3
330
1F
100
AcDbEntity
  8
0
  6
Continuous
 62
     7
370
    25
100
AcDbCircle
 10
106.4038206727
 20
209.3786418851
 30
0.0
 40
34.55758809985085
100
AcDbArc
 50
359.9437225081
 51
0.8702764475
  0
ARC
  5
D4
330
1F
100
AcDbEntity
  8
0
  6
Continuous
 62
     7
370
    25
100
AcDbCircle
 10
165.1487222032
 20
209.4375865709
 30
0.0
 40
24.85069478213152
100
AcDbArc
 50
178.5879249516
 51
180.2141633557
  0
LINE
  5
D5
330
1F
100
AcDbEntity
  8
0
  6
Continuous
 62
     7
370
    25
100
AcDbLine
 10
140.2982010224
 20
190.5446983283
 30
0.0
 11
140.2982010224
 21
209.3446984762
 31
0.0
  0
ARC
  5
D6
330
1F
100
AcDbEntity
  8
0
  6
Continuous
 62
     7
370
    25
100
AcDbCircle
 10
165.0895663933
 20
190.4515423097
 30
0.0
 40
24.79154039176776
100
AcDbArc
 50
179.7847064292
 51
181.4183509365
  0
LINE
  5
D7
330
1F
100
AcDbEntity
  8
0
  6
Continuous
 62
     7
370
    25
100
AcDbLine
 10
140.9718646386
 20
208.058756717
 30
0.0
 11
140.9718646386
 21
209.3446984762
 31
0.0
  0
LINE
  5
D8
330
1F
100
AcDbEntity
  8
0
  6
Continuous
 62
     7
370
    25
100
AcDbLine
 10
140.9718646386
 20
190.5446983283
 30
0.0
 11
140.9718646386
 21
191.8306402271
 31
0.0
  0
ARC
  5
D9
330
1F
100
AcDbEntity
  8
0
  6
Continuous
 62
     7
370
    25
100
AcDbCircle
 10
80.4122059595
 20
190.4859349403
 30
0.0
 40
60.55968718929292
100
AcDbArc
 50
359.1311113963
 51
0.0555963018
  0
ARC
  5
DA
330
1F
100
AcDbEntity
  8
0
  6
Continuous
 62
     7
370
    25
100
AcDbCircle
 10
85.0513997069
 20
209.4343290446
 30
0.0
 40
55.92053676256121
100
AcDbArc
 50
359.9081651253
 51
0.936255962
  0
ARC
  5
DB
330
1F
100
AcDbEntity
  8
0
  6
Continuous
 62
     7
370
    25
100
AcDbCircle
 10
131.9548473912
 20
209.494629161
 30
0.0
 40
8.604422991718273
100
AcDbArc
 50
359.0015797412
 51
2.9983240744
  0
LINE
  5
DC
330
1F
100
AcDbEntity
  8
0
  6
Continuous
 62
     7
370
    25
100
AcDbLine
 10
140.5579640248
 20
190.5446983283
 30
0.0
 11
140.5579640248
 21
191.4487324064
 31
0.0
  0
LINE
  5
DD
330
1F
100
AcDbEntity
  8
0
  6
Continuous
 62
     7
370
    25
100
AcDbLine
 10
140.5579640248
 20
208.4406649568
 30
0.0
 11
140.5579640248
 21
209.3446984762
 31
0.0
  0
ARC
  5
DE
330
1F
100
AcDbEntity
  8
0
  6
Continuous
 62
     7
370
    25
100
AcDbCircle
 10
131.9548860885
 20
190.3947672125
 30
0.0
 40
8.604384307839116
100
AcDbArc
 50
357.0016674802
 51
0.9984276179
  0
ELLIPSE
  5
DF
330
1F
100
AcDbEntity
  8
0
  6
Continuous
 62
     7
370
    25
100
AcDbEllipse
 10
140.3241006478
 20
208.1910786261
 30
0.0
 11
0.0
 21
0.2721120334627187
 31
0.0
210
0.0
220
0.0
230
1.0
 40
0.0128273684
 41
6.271349991442285
 42
6.559522156029315
  0
LINE
  5
E0
330
1F
100
AcDbEntity
  8
0
  6
Continuous
 62
     7
370
    25
100
AcDbLine
 10
140.3194411375
 20
208.3708893382
 30
0.0
 11
140.3231485465
 21
208.4528670986
 31
0.0
  0
LINE
  5
E1
330
1F
100
AcDbEntity
  8
0
  6
Continuous
 62
     7
370
    25
100
AcDbLine
 10
140.3231485465
 20
191.4365298455
 30
0.0
 11
140.3194411375
 21
191.5185070937
 31
0.0
  0
ELLIPSE
  5
E2
330
1F
100
AcDbEntity
  8
0
  6
Continuous
 62
     7
370
    25
100
AcDbEllipse
 10
140.3241006478
 20
191.698318365
 30
0.0
 11
0.0
 21
0.2721120334627187
 31
0.0
210
0.0
220
0.0
230
1.0
 40
0.0128273684
 41
2.865255804740006
 42
3.153427969337382
  0
ELLIPSE
  5
E3
330
1F
100
AcDbEntity
  8
0
  6
Continuous
 62
     7
370
    25
100
AcDbEllipse
 10
140.4288150864
 20
208.1910786261
 30
0.0
 11
0.0
 21
0.2721120334627187
 31
0.0
210
0.0
220
0.0
230
1.0
 40
0.0128273684
 41
6.271349991434184
 42
6.559522156021496
  0
LINE
  5
E4
330
1F
100
AcDbEntity
  8
0
  6
Continuous
 62
     7
370
    25
100
AcDbLine
 10
140.4241545775
 20
208.3708893382
 30
0.0
 11
140.4278619864
 21
208.4528670986
 31
0.0
  0
LINE
  5
E5
330
1F
100
AcDbEntity
  8
0
  6
Continuous
 62
     7
370
    25
100
AcDbLine
 10
140.4278619864
 20
191.4365298455
 30
0.0
 11
140.4241545775
 21
191.5185070937
 31
0.0
  0
ELLIPSE
  5
E6
330
1F
100
AcDbEntity
  8
0
  6
Continuous
 62
     7
370
    25
100
AcDbEllipse
 10
140.4288150864
 20
191.698318365
 30
0.0
 11
0.0
 21
0.2721120334627187
 31
0.0
210
0.0
220
0.0
230
1.0
 40
0.0128273684
 41
2.865255804747825
 42
3.153427969337382
  0
ELLIPSE
  5
E7
330
1F
100
AcDbEntity
  8
0
  6
Continuous
 62
     7
370
    25
100
AcDbEllipse
 10
140.533529525
 20
208.1910786261
 30
0.0
 11
0.0
 21
0.2721120334627187
 31
0.0
210
0.0
220
0.0
230
1.0
 40
0.0128273684
 41
6.271349991434088
 42
6.559522156031452
  0
LINE
  5
E8
330
1F
100
AcDbEntity
  8
0
  6
Continuous
 62
     7
370
    25
100
AcDbLine
 10
140.5288680174
 20
208.3708893382
 30
0.0
 11
140.5325784066
 21
208.4528670986
 31
0.0
  0
LINE
  5
E9
330
1F
100
AcDbEntity
  8
0
  6
Continuous
 62
     7
370
    25
100
AcDbLine
 10
140.5325784066
 20
191.4365298455
 30
0.0
 11
140.5288680174
 21
191.5185070937
 31
0.0
  0
ELLIPSE
  5
EA
330
1F
100
AcDbEntity
  8
0
  6
Continuous
 62
     7
370
    25
100
AcDbEllipse
 10
140.533529525
 20
191.698318365
 30
0.0
 11
0.0
 21
0.2721120334627187
 31
0.0
210
0.0
220
0.0
230
1.0
 40
0.0128273684
 41
2.865255804737869
 42
3.153427969337478
  0
LINE
  5
EB
330
1F
100
AcDbEntity
  8
0
  6
Continuous
 62
     7
370
    25
100
AcDbLine
 10
140.1121928074
 20
189.9446986024
 30
0.0
 11
140.7474620917
 21
189.9446986024
 31
0.0
  0
LINE
  5
EC
330
1F
100
AcDbEntity
  8
0
  6
Continuous
 62
     7
370
    25
100
AcDbLine
 10
140.7474620917
 20
209.9446985279
 30
0.0
 11
140.3029276707
 21
209.9446985279
 31
0.0
  0
LINE
  5
ED
330
1F
100
AcDbEntity
  8
0
  6
Continuous
 62
     7
370
    25
100
AcDbLine
 10
140.1121928074
 20
210.9446985056
 30
0.0
 11
140.7474620917
 21
210.9446985056
 31
0.0
  0
LINE
  5
EE
330
1F
100
AcDbEntity
  8
0
  6
Continuous
 62
     7
370
    25
100
AcDbLine
 10
140.7474620917
 20
188.944698066
 30
0.0
 11
140.1121928074
 21
188.944698066
 31
0.0
  0
ELLIPSE
  5
EF
330
1F
100
AcDbEntity
  8
0
  6
Continuous
 62
     7
370
    25
100
AcDbEllipse
 10
138.0933764353
 20
181.3625648462
 30
0.0
 11
1.909769910757888
 21
-1.909769910757859
 31
0.0
210
0.0
220
0.0
230
1.0
 40
0.9996954599
 41
5.497939437029716
 42
6.778534153124926
  0
SPLINE
  5
F0
330
1F
100
AcDbEntity
  8
0
  6
Continuous
 62
     7
370
    25
100
AcDbSpline
210
0.0
220
0.0
230
1.0
 70
     8
 71
     3
 72
    11
 73
     7
 74
     0
 42
0.000000001
 43
0.00000001
 40
0.0
 40
0.0
 40
0.0
 40
0.0
 40
0.2603313587373986
 40
0.5299649819655594
 40
0.7617526740168178
 40
1.0
 40
1.0
 40
1.0
 40
1.0
 10
140.7063944914315
 20
181.449133843664
 30
0.0
 10
140.7032567190662
 20
181.31473754972
 30
0.0
 10
140.6968690541955
 20
181.0411426595702
 30
0.0
 10
140.6494770152905
 20
180.7808128846201
 30
0.0
 10
140.6173152908342
 20
180.6187370534804
 30
0.0
 10
140.6202582390094
 20
180.5995704215144
 30
0.0
 10
140.6217499353859
 20
180.5898554031885
 30
0.0
  0
SPLINE
  5
F1
330
1F
100
AcDbEntity
  8
0
  6
Continuous
 62
     7
370
    25
100
AcDbSpline
210
0.0
220
0.0
230
1.0
 70
     8
 71
     3
 72
    12
 73
     8
 74
     0
 42
0.000000001
 43
0.00000001
 40
0.0
 40
0.0
 40
0.0
 40
0.0
 40
0.2047564732690466
 40
0.414039924134409
 40
0.64774088107744
 40
0.8877002106347123
 40
1.0
 40
1.0
 40
1.0
 40
1.0
 10
74.51042371773455
 20
180.5898554031885
 30
0.0
 10
74.51216702692172
 20
180.5971169573906
 30
0.0
 10
74.51569218826128
 20
180.6118006120899
 30
0.0
 10
74.49103091223321
 20
180.7350552987312
 30
0.0
 10
74.45365010594871
 20
180.9461556508211
 30
0.0
 10
74.42532030085665
 20
181.2008452020029
 30
0.0
 10
74.42566823931965
 20
181.3891139803853
 30
0.0
 10
74.42577916168902
 20
181.449133843664
 30
0.0
  0
ELLIPSE
  5
F2
330
1F
100
AcDbEntity
  8
0
  6
Continuous
 62
     7
370
    25
100
AcDbEllipse
 10
77.0387970325
 20
181.3625648462
 30
0.0
 11
-1.909769910757873
 21
-1.909769910757859
 31
0.0
210
0.0
220
0.0
230
1.0
 40
0.9996954599
 41
5.787836461234267
 42
7.068431177329451
  0
ELLIPSE
  5
F3
330
1F
100
AcDbEntity
  8
0
  6
Continuous
 62
     7
370
    25
100
AcDbEllipse
 10
138.0933764353
 20
236.417144249
 30
0.0
 11
1.909769910757859
 21
1.909769910757888
 31
0.0
210
0.0
220
0.0
230
1.0
 40
0.9996954599
 41
5.49793943702972
 42
7.068431177329451
  0
ELLIPSE
  5
F4
330
1F
100
AcDbEntity
  8
0
  6
Continuous
 62
     7
370
    25
100
AcDbEllipse
 10
77.0387970325
 20
236.417144249
 30
0.0
 11
-1.909769910757873
 21
1.909769910757888
 31
0.0
210
0.0
220
0.0
230
1.0
 40
0.9996954599
 41
5.497939437029739
 42
7.06843117732946
  0
ELLIPSE
  5
F5
330
1F
100
AcDbEntity
  8
0
  6
Continuous
 62
     7
370
    25
100
AcDbEllipse
 10
124.4660867339
 20
178.5678962099
 30
0.0
 11
15.40000000000002
 21
0.0
 31
0.0
210
0.0
220
0.0
230
1.0
 40
0.0174550649
 41
0.7610127542247598
 42
2.380579899365038
  0
ELLIPSE
  5
F6
330
1F
100
AcDbEntity
  8
0
  6
Continuous
 62
     7
370
    25
100
AcDbEllipse
 10
116.0660867339
 20
178.7075367293
 30
0.0
 11
3.799999999999997
 21
0.0
 31
0.0
210
0.0
220
0.0
230
1.0
 40
0.0174550649
 41
2.38057989936491
 42
3.141592653589786
  0
LINE
  5
F7
330
1F
100
AcDbEntity
  8
0
  6
Continuous
 62
     7
370
    25
100
AcDbLine
 10
112.2660866656
 20
178.6621547644
 30
0.0
 11
110.0660866775
 21
178.6621547644
 31
0.0
  0
ELLIPSE
  5
F8
330
1F
100
AcDbEntity
  8
0
  6
Continuous
 62
     7
370
    25
100
AcDbEllipse
 10
108.4660867339
 20
178.7023002098
 30
0.0
 11
1.600000000000009
 21
0.0
 31
0.0
210
0.0
220
0.0
230
1.0
 40
0.0174550649
 41
0.0
 42
1.570796326794888
  0
ELLIPSE
  5
F9
330
1F
100
AcDbEntity
  8
0
  6
Continuous
 62
     7
370
    25
100
AcDbEllipse
 10
108.4660867339
 20
178.7023002098
 30
0.0
 11
1.600000000000009
 21
0.0
 31
0.0
210
0.0
220
0.0
230
1.0
 40
0.0174550649
 41
1.570796326794897
 42
3.141592653589786
  0
LINE
  5
FA
330
1F
100
AcDbEntity
  8
0
  6
Continuous
 62
     7
370
    25
100
AcDbLine
 10
106.8660867118
 20
178.6621547644
 30
0.0
 11
104.6660867237
 21
178.6621547644
 31
0.0
  0
ELLIPSE
  5
FB
330
1F
100
AcDbEntity
  8
0
  6
Continuous
 62
     7
370
    25
100
AcDbEllipse
 10
100.8660867339
 20
178.7075367293
 30
0.0
 11
3.800000000000011
 21
0.0
 31
0.0
210
0.0
220
0.0
230
1.0
 40
0.0174550649
 41
0.0
 42
0.761012754224881
  0
ELLIPSE
  5
FC
330
1F
100
AcDbEntity
  8
0
  6
Continuous
 62
     7
370
    25
100
AcDbEllipse
 10
92.4660867339
 20
178.5678962099
 30
0.0
 11
15.39999999999999
 21
0.0
 31
0.0
210
0.0
220
0.0
230
1.0
 40
0.0174550649
 41
0.7610127542247589
 42
2.380579899365039
  0
ELLIPSE
  5
FD
330
1F
100
AcDbEntity
  8
0
  6
Continuous
 62
     7
370
    25
100
AcDbEllipse
 10
84.0660867339
 20
178.7075367293
 30
0.0
 11
3.799999999999997
 21
0.0
 31
0.0
210
0.0
220
0.0
230
1.0
 40
0.0174550649
 41
2.38057989936491
 42
3.141592653589786
  0
LINE
  5
FE
330
1F
100
AcDbEntity
  8
0
  6
Continuous
 62
     7
370
    25
100
AcDbLine
 10
80.2660866358
 20
178.6621547644
 30
0.0
 11
77.0379735806
 21
178.6621547644
 31
0.0
  0
LINE
  5
FF
330
1F
100
AcDbEntity
  8
0
  6
Continuous
 62
     7
370
    25
100
AcDbLine
 10
138.0942000725
 20
178.6621547644
 30
0.0
 11
136.6660876849
 21
178.6621547644
 31
0.0
  0
ELLIPSE
  5
100
330
1F
100
AcDbEntity
  8
0
  6
Continuous
 62
     7
370
    25
100
AcDbEllipse
 10
132.8660867339
 20
178.7075367293
 30
0.0
 11
3.80000000000004
 21
0.0
 31
0.0
210
0.0
220
0.0
230
1.0
 40
0.0174550649
 41
0.0
 42
0.7610127542248796
  0
ELLIPSE
  5
101
330
1F
100
AcDbEntity
  8
0
  6
Continuous
 62
     7
370
    25
100
AcDbEllipse
 10
74.3837689156
 20
184.3898545476
 30
0.0
 11
0.0
 21
3.800000000000011
 31
0.0
210
0.0
220
0.0
230
1.0
 40
0.0174550649
 41
3.827454164286447
 42
3.902605407814884
  0
ELLIPSE
  5
102
330
1F
100
AcDbEntity
  8
0
  6
Continuous
 62
     7
370
    25
100
AcDbEllipse
 10
74.2441283962
 20
192.7898545476
 30
0.0
 11
0.0
 21
15.40000000000001
 31
0.0
210
0.0
220
0.0
230
1.0
 40
0.0174550649
 41
3.902605407814927
 42
5.522172552955282
  0
ELLIPSE
  5
103
330
1F
100
AcDbEntity
  8
0
  6
Continuous
 62
     7
370
    25
100
AcDbEllipse
 10
74.3837689156
 20
201.1898545476
 30
0.0
 11
0.0
 21
3.800000000000011
 31
0.0
210
0.0
220
0.0
230
1.0
 40
0.0174550649
 41
5.522172552955324
 42
6.283185307179586
  0
LINE
  5
104
330
1F
100
AcDbEntity
  8
0
  6
Continuous
 62
     7
370
    25
100
AcDbLine
 10
74.3383868315
 20
204.9898545598
 30
0.0
 11
74.3383868315
 21
236.417967767
 31
0.0
  0
ELLIPSE
  5
105
330
1F
100
AcDbEntity
  8
0
  6
Continuous
 62
     7
370
    25
100
AcDbEllipse
 10
108.4660867339
 20
239.0774088854
 30
0.0
 11
1.600000000000009
 21
0.0
 31
0.0
210
0.0
220
0.0
230
1.0
 40
0.0174550649
 41
3.141592653589786
 42
4.712388980384681
  0
ELLIPSE
  5
106
330
1F
100
AcDbEntity
  8
0
  6
Continuous
 62
     7
370
    25
100
AcDbEllipse
 10
108.4660867339
 20
239.0774088854
 30
0.0
 11
1.600000000000009
 21
0.0
 31
0.0
210
0.0
220
0.0
230
1.0
 40
0.0174550649
 41
4.71238898038469
 42
6.283185307179586
  0
LINE
  5
107
330
1F
100
AcDbEntity
  8
0
  6
Continuous
 62
     7
370
    25
100
AcDbLine
 10
110.0660866775
 20
239.1175545161
 30
0.0
 11
112.2660866656
 21
239.1175545161
 31
0.0
  0
ELLIPSE
  5
108
330
1F
100
AcDbEntity
  8
0
  6
Continuous
 62
     7
370
    25
100
AcDbEllipse
 10
116.0660867339
 20
239.0721723659
 30
0.0
 11
3.799999999999997
 21
0.0
 31
0.0
210
0.0
220
0.0
230
1.0
 40
0.0174550649
 41
3.141592653589786
 42
3.902605407815096
  0
ELLIPSE
  5
109
330
1F
100
AcDbEntity
  8
0
  6
Continuous
 62
     7
370
    25
100
AcDbEllipse
 10
124.4660867339
 20
239.2118128853
 30
0.0
 11
15.40000000000001
 21
0.0
 31
0.0
210
0.0
220
0.0
230
1.0
 40
0.0174550649
 41
3.902605407814953
 42
5.522172552955282
  0
ELLIPSE
  5
10A
330
1F
100
AcDbEntity
  8
0
  6
Continuous
 62
     7
370
    25
100
AcDbEllipse
 10
132.8660867339
 20
239.0721723659
 30
0.0
 11
3.800000000000011
 21
0.0
 31
0.0
210
0.0
220
0.0
230
1.0
 40
0.0174550649
 41
5.522172552955138
 42
6.283185307179586
  0
LINE
  5
10B
330
1F
100
AcDbEntity
  8
0
  6
Continuous
 62
     7
370
    25
100
AcDbLine
 10
136.6660876849
 20
239.1175545161
 30
0.0
 11
138.0942000725
 21
239.1175545161
 31
0.0
  0
LINE
  5
10C
330
1F
100
AcDbEntity
  8
0
  6
Continuous
 62
     7
370
    25
100
AcDbLine
 10
77.0379735806
 20
239.1175545161
 30
0.0
 11
83.7660862782
 21
239.1175545161
 31
0.0
  0
ELLIPSE
  5
10D
330
1F
100
AcDbEntity
  8
0
  6
Continuous
 62
     7
370
    25
100
AcDbEllipse
 10
85.8660867339
 20
239.047735275
 30
0.0
 11
2.099999999999994
 21
0.0
 31
0.0
210
0.0
220
0.0
230
1.0
 40
0.0174550649
 41
3.141592653589786
 42
6.283185307179586
  0
LINE
  5
10E
330
1F
100
AcDbEntity
  8
0
  6
Continuous
 62
     7
370
    25
100
AcDbLine
 10
87.9660873392
 20
239.1175545161
 30
0.0
 11
106.8660867118
 21
239.1175545161
 31
0.0
  0
ELLIPSE
  5
10F
330
1F
100
AcDbEntity
  8
0
  6
Continuous
 62
     7
370
    25
100
AcDbEllipse
 10
140.8880450717
 20
192.7898545476
 30
0.0
 11
0.0
 21
15.40000000000001
 31
0.0
210
0.0
220
0.0
230
1.0
 40
0.0174550649
 41
1.823151737896323
 42
2.380579899365066
  0
ELLIPSE
  5
110
330
1F
100
AcDbEntity
  8
0
  6
Continuous
 62
     7
370
    25
100
AcDbEllipse
 10
140.7484045522
 20
184.3898545476
 30
0.0
 11
0.0
 21
3.800000000000011
 31
0.0
210
0.0
220
0.0
230
1.0
 40
0.0174550649
 41
2.380579899364922
 42
2.455731142893235
  0
LINE
  5
111
330
1F
100
AcDbEntity
  8
0
  6
Continuous
 62
     7
370
    25
100
AcDbLine
 10
140.7937868216
 20
236.417967767
 30
0.0
 11
140.7937868216
 21
210.9379773368
 31
0.0
  0
ELLIPSE
  5
112
330
1F
100
AcDbEntity
  8
0
  6
Continuous
 62
     7
370
    25
100
AcDbEllipse
 10
140.9658596172
 20
184.3898545476
 30
0.0
 11
0.0
 21
3.800000000000011
 31
0.0
210
0.0
220
0.0
230
1.0
 40
0.0174550649
 41
2.380579899365229
 42
2.85988756522525
  0
ELLIPSE
  5
113
330
1F
100
AcDbEntity
  8
0
  6
Continuous
 62
     7
370
    25
100
AcDbEllipse
 10
141.1055001366
 20
192.7898545476
 30
0.0
 11
0.0
 21
15.40000000000001
 31
0.0
210
0.0
220
0.0
230
1.0
 40
0.0174550649
 41
1.821522241260388
 42
2.380579899365172
  0
ELLIPSE
  5
114
330
1F
100
AcDbEntity
  8
0
  6
Continuous
 62
     7
370
    25
100
AcDbEllipse
 10
141.1055001366
 20
192.7898545476
 30
0.0
 11
0.0
 21
14.40000000000001
 31
0.0
210
0.0
220
0.0
230
1.0
 40
0.0174550649
 41
1.838816579754247
 42
2.380579899365098
  0
ELLIPSE
  5
115
330
1F
100
AcDbEntity
  8
0
  6
Continuous
 62
     7
370
    25
100
AcDbEllipse
 10
140.9658596172
 20
184.3898545476
 30
0.0
 11
0.0
 21
2.800000000000011
 31
0.0
210
0.0
220
0.0
230
1.0
 40
0.0174550649
 41
2.380579899365199
 42
3.141592653589786
  0
LINE
  5
116
330
1F
100
AcDbEntity
  8
0
  6
Continuous
 62
     7
370
    25
100
AcDbLine
 10
140.9658594706
 20
181.5898544495
 30
0.0
 11
141.0112424471
 21
181.5898544495
 31
0.0
  0
LINE
  5
117
330
1F
100
AcDbEntity
  8
0
  6
Continuous
 62
     7
370
    25
100
AcDbLine
 10
141.0112424471
 20
181.3446975653
 30
0.0
 11
141.0112424471
 21
181.5898544495
 31
0.0
  0
ARC
  5
118
330
1F
100
AcDbEntity
  8
0
  6
Continuous
 62
     7
370
    25
100
AcDbCircle
 10
138.111242786
 20
181.3446984956
 30
0.0
 40
2.900000000000009
100
AcDbArc
 50
347.9572806887
 51
0.0
  0
LINE
  5
119
330
1F
100
AcDbEntity
  8
0
  6
Continuous
 62
     7
370
    25
100
AcDbLine
 10
81.2660856822
 20
178.4446991389
 30
0.0
 11
80.2660866358
 21
178.4446991389
 31
0.0
  0
LINE
  5
11A
330
1F
100
AcDbEntity
  8
0
  6
Continuous
 62
     7
370
    25
100
AcDbLine
 10
80.2660866358
 20
178.4446991389
 30
0.0
 11
80.2660866358
 21
178.4900821154
 31
0.0
  0
ELLIPSE
  5
11B
330
1F
100
AcDbEntity
  8
0
  6
Continuous
 62
     7
370
    25
100
AcDbEllipse
 10
84.0660867339
 20
178.4900816644
 30
0.0
 11
3.799999999999997
 21
0.0
 31
0.0
210
0.0
220
0.0
230
1.0
 40
0.0174550649
 41
2.380579899365003
 42
3.141592653589786
  0
ELLIPSE
  5
11C
330
1F
100
AcDbEntity
  8
0
  6
Continuous
 62
     7
370
    25
100
AcDbEllipse
 10
92.4660867339
 20
178.350441145
 30
0.0
 11
15.39999999999999
 21
0.0
 31
0.0
210
0.0
220
0.0
230
1.0
 40
0.0174550649
 41
0.7610127542247351
 42
2.380579899365053
  0
ELLIPSE
  5
11D
330
1F
100
AcDbEntity
  8
0
  6
Continuous
 62
     7
370
    25
100
AcDbEllipse
 10
100.8660867339
 20
178.4900816644
 30
0.0
 11
3.799999999999997
 21
0.0
 31
0.0
210
0.0
220
0.0
230
1.0
 40
0.0174550649
 41
0.0
 42
0.7610127542247829
  0
LINE
  5
11E
330
1F
100
AcDbEntity
  8
0
  6
Continuous
 62
     7
370
    25
100
AcDbLine
 10
104.6660867237
 20
178.4900821154
 30
0.0
 11
104.6660867237
 21
178.4446991389
 31
0.0
  0
LINE
  5
11F
330
1F
100
AcDbEntity
  8
0
  6
Continuous
 62
     7
370
    25
100
AcDbLine
 10
104.6660867237
 20
178.4446991389
 30
0.0
 11
103.6660867461
 21
178.4446991389
 31
0.0
  0
LINE
  5
120
330
1F
100
AcDbEntity
  8
0
  6
Continuous
 62
     7
370
    25
100
AcDbLine
 10
103.6660867461
 20
178.4900821154
 30
0.0
 11
103.6660867461
 21
178.4446991389
 31
0.0
  0
ELLIPSE
  5
121
330
1F
100
AcDbEntity
  8
0
  6
Continuous
 62
     7
370
    25
100
AcDbEllipse
 10
100.8660867339
 20
178.4900816644
 30
0.0
 11
2.799999999999997
 21
0.0
 31
0.0
210
0.0
220
0.0
230
1.0
 40
0.0174550649
 41
0.0
 42
0.7610127542250251
  0
ELLIPSE
  5
122
330
1F
100
AcDbEntity
  8
0
  6
Continuous
 62
     7
370
    25
100
AcDbEllipse
 10
92.4660867339
 20
178.350441145
 30
0.0
 11
14.39999999999999
 21
0.0
 31
0.0
210
0.0
220
0.0
230
1.0
 40
0.0174550649
 41
0.7610127542247783
 42
2.380579899365018
  0
ELLIPSE
  5
123
330
1F
100
AcDbEntity
  8
0
  6
Continuous
 62
     7
370
    25
100
AcDbEllipse
 10
84.0660867339
 20
178.4900816644
 30
0.0
 11
2.800000000000011
 21
0.0
 31
0.0
210
0.0
220
0.0
230
1.0
 40
0.0174550649
 41
2.380579899364772
 42
3.141592653589786
  0
LINE
  5
124
330
1F
100
AcDbEntity
  8
0
  6
Continuous
 62
     7
370
    25
100
AcDbLine
 10
81.2660856822
 20
178.4446991389
 30
0.0
 11
81.2660856822
 21
178.4900821154
 31
0.0
  0
ELLIPSE
  5
125
330
1F
100
AcDbEntity
  8
0
  6
Continuous
 62
     7
370
    25
100
AcDbEllipse
 10
74.0266733313
 20
192.7898545476
 30
0.0
 11
0.0
 21
15.40000000000001
 31
0.0
210
0.0
220
0.0
230
1.0
 40
0.0174550649
 41
3.90260540781498
 42
5.522172552955229
  0
ELLIPSE
  5
126
330
1F
100
AcDbEntity
  8
0
  6
Continuous
 62
     7
370
    25
100
AcDbEllipse
 10
124.4660867339
 20
178.350441145
 30
0.0
 11
15.40000000000002
 21
0.0
 31
0.0
210
0.0
220
0.0
230
1.0
 40
0.0174550649
 41
0.7610127542247361
 42
2.380579899365052
  0
LINE
  5
127
330
1F
100
AcDbEntity
  8
0
  6
Continuous
 62
     7
370
    25
100
AcDbLine
 10
135.6660856583
 20
178.4446991389
 30
0.0
 11
135.6660856583
 21
178.4900821154
 31
0.0
  0
ELLIPSE
  5
128
330
1F
100
AcDbEntity
  8
0
  6
Continuous
 62
     7
370
    25
100
AcDbEllipse
 10
132.8660867339
 20
178.4900816644
 30
0.0
 11
2.800000000000011
 21
0.0
 31
0.0
210
0.0
220
0.0
230
1.0
 40
0.0174550649
 41
0.0
 42
0.7610127542250207
  0
ELLIPSE
  5
129
330
1F
100
AcDbEntity
  8
0
  6
Continuous
 62
     7
370
    25
100
AcDbEllipse
 10
124.4660867339
 20
178.350441145
 30
0.0
 11
14.40000000000003
 21
0.0
 31
0.0
210
0.0
220
0.0
230
1.0
 40
0.0174550649
 41
0.7610127542247234
 42
2.380579899365073
  0
ELLIPSE
  5
12A
330
1F
100
AcDbEntity
  8
0
  6
Continuous
 62
     7
370
    25
100
AcDbEllipse
 10
116.0660867339
 20
178.4900816644
 30
0.0
 11
2.799999999999997
 21
0.0
 31
0.0
210
0.0
220
0.0
230
1.0
 40
0.0174550649
 41
2.380579899364774
 42
3.141592653589786
  0
LINE
  5
12B
330
1F
100
AcDbEntity
  8
0
  6
Continuous
 62
     7
370
    25
100
AcDbLine
 10
113.2660868295
 20
178.4900821154
 30
0.0
 11
113.2660868295
 21
178.4446991389
 31
0.0
  0
LINE
  5
12C
330
1F
100
AcDbEntity
  8
0
  6
Continuous
 62
     7
370
    25
100
AcDbLine
 10
113.2660868295
 20
178.4446991389
 30
0.0
 11
112.2660866656
 21
178.4446991389
 31
0.0
  0
LINE
  5
12D
330
1F
100
AcDbEntity
  8
0
  6
Continuous
 62
     7
370
    25
100
AcDbLine
 10
112.2660866656
 20
178.4446991389
 30
0.0
 11
112.2660866656
 21
178.4900821154
 31
0.0
  0
ELLIPSE
  5
12E
330
1F
100
AcDbEntity
  8
0
  6
Continuous
 62
     7
370
    25
100
AcDbEllipse
 10
116.0660867339
 20
178.4900816644
 30
0.0
 11
3.799999999999997
 21
0.0
 31
0.0
210
0.0
220
0.0
230
1.0
 40
0.0174550649
 41
2.380579899365003
 42
3.141592653589786
  0
ELLIPSE
  5
12F
330
1F
100
AcDbEntity
  8
0
  6
Continuous
 62
     7
370
    25
100
AcDbEllipse
 10
132.8660867339
 20
178.4900816644
 30
0.0
 11
3.80000000000004
 21
0.0
 31
0.0
210
0.0
220
0.0
230
1.0
 40
0.0174550649
 41
0.0
 42
0.7610127542247833
  0
LINE
  5
130
330
1F
100
AcDbEntity
  8
0
  6
Continuous
 62
     7
370
    25
100
AcDbLine
 10
136.6660876849
 20
178.4900821154
 30
0.0
 11
136.6660876849
 21
178.4446991389
 31
0.0
  0
LINE
  5
131
330
1F
100
AcDbEntity
  8
0
  6
Continuous
 62
     7
370
    25
100
AcDbLine
 10
136.6660876849
 20
178.4446991389
 30
0.0
 11
135.6660856583
 21
178.4446991389
 31
0.0
  0
ELLIPSE
  5
132
330
1F
100
AcDbEntity
  8
0
  6
Continuous
 62
     7
370
    25
100
AcDbEllipse
 10
124.4660867339
 20
239.4292679503
 30
0.0
 11
15.40000000000001
 21
0.0
 31
0.0
210
0.0
220
0.0
230
1.0
 40
0.0174550649
 41
3.9026054078149
 42
5.522172552955335
  0
LINE
  5
133
330
1F
100
AcDbEntity
  8
0
  6
Continuous
 62
     7
370
    25
100
AcDbLine
 10
112.2660866656
 20
239.2896271651
 30
0.0
 11
112.2660866656
 21
239.3350101416
 31
0.0
  0
LINE
  5
134
330
1F
100
AcDbEntity
  8
0
  6
Continuous
 62
     7
370
    25
100
AcDbLine
 10
113.2660868295
 20
239.3350101416
 30
0.0
 11
112.2660866656
 21
239.3350101416
 31
0.0
  0
LINE
  5
135
330
1F
100
AcDbEntity
  8
0
  6
Continuous
 62
     7
370
    25
100
AcDbLine
 10
113.2660868295
 20
239.3350101416
 30
0.0
 11
113.2660868295
 21
239.2896271651
 31
0.0
  0
ELLIPSE
  5
136
330
1F
100
AcDbEntity
  8
0
  6
Continuous
 62
     7
370
    25
100
AcDbEllipse
 10
116.0660867339
 20
239.2896274308
 30
0.0
 11
2.799999999999997
 21
0.0
 31
0.0
210
0.0
220
0.0
230
1.0
 40
0.0174550649
 41
3.141592653589786
 42
3.902605407814804
  0
ELLIPSE
  5
137
330
1F
100
AcDbEntity
  8
0
  6
Continuous
 62
     7
370
    25
100
AcDbEllipse
 10
124.4660867339
 20
239.4292679503
 30
0.0
 11
14.40000000000003
 21
0.0
 31
0.0
210
0.0
220
0.0
230
1.0
 40
0.0174550649
 41
3.902605407814853
 42
5.52217255295537
  0
ELLIPSE
  5
138
330
1F
100
AcDbEntity
  8
0
  6
Continuous
 62
     7
370
    25
100
AcDbEllipse
 10
132.8660867339
 20
239.2896274308
 30
0.0
 11
2.800000000000011
 21
0.0
 31
0.0
210
0.0
220
0.0
230
1.0
 40
0.0174550649
 41
5.522172552955415
 42
6.283185307179586
  0
LINE
  5
139
330
1F
100
AcDbEntity
  8
0
  6
Continuous
 62
     7
370
    25
100
AcDbLine
 10
135.6660856583
 20
239.2896271651
 30
0.0
 11
135.6660856583
 21
239.3350101416
 31
0.0
  0
LINE
  5
13A
330
1F
100
AcDbEntity
  8
0
  6
Continuous
 62
     7
370
    25
100
AcDbLine
 10
136.6660876849
 20
239.3350101416
 30
0.0
 11
135.6660856583
 21
239.3350101416
 31
0.0
  0
LINE
  5
13B
330
1F
100
AcDbEntity
  8
0
  6
Continuous
 62
     7
370
    25
100
AcDbLine
 10
136.6660876849
 20
239.3350101416
 30
0.0
 11
136.6660876849
 21
239.2896271651
 31
0.0
  0
ELLIPSE
  5
13C
330
1F
100
AcDbEntity
  8
0
  6
Continuous
 62
     7
370
    25
100
AcDbEllipse
 10
132.8660867339
 20
239.2896274308
 30
0.0
 11
3.800000000000011
 21
0.0
 31
0.0
210
0.0
220
0.0
230
1.0
 40
0.0174550649
 41
5.522172552955432
 42
6.283185307179586
  0
ELLIPSE
  5
13D
330
1F
100
AcDbEntity
  8
0
  6
Continuous
 62
     7
370
    25
100
AcDbEllipse
 10
116.0660867339
 20
239.2896274308
 30
0.0
 11
3.799999999999997
 21
0.0
 31
0.0
210
0.0
220
0.0
230
1.0
 40
0.0174550649
 41
3.141592653589786
 42
3.902605407814776
  0
LINE
  5
13E
330
1F
100
AcDbEntity
  8
0
  6
Continuous
 62
     7
370
    25
100
AcDbLine
 10
74.120931206
 20
181.5898544495
 30
0.0
 11
74.1663141825
 21
181.5898544495
 31
0.0
  0
ELLIPSE
  5
13F
330
1F
100
AcDbEntity
  8
0
  6
Continuous
 62
     7
370
    25
100
AcDbEllipse
 10
74.1663138507
 20
184.3898545476
 30
0.0
 11
0.0
 21
2.800000000000011
 31
0.0
210
0.0
220
0.0
230
1.0
 40
0.0174550649
 41
3.141592653589786
 42
3.902605407814944
  0
ELLIPSE
  5
140
330
1F
100
AcDbEntity
  8
0
  6
Continuous
 62
     7
370
    25
100
AcDbEllipse
 10
74.0266733313
 20
192.7898545476
 30
0.0
 11
0.0
 21
14.40000000000001
 31
0.0
210
0.0
220
0.0
230
1.0
 40
0.0174550649
 41
3.90260540781496
 42
5.522172552955262
  0
ELLIPSE
  5
141
330
1F
100
AcDbEntity
  8
0
  6
Continuous
 62
     7
370
    25
100
AcDbEllipse
 10
74.1663138507
 20
201.1898545476
 30
0.0
 11
0.0
 21
2.800000000000011
 31
0.0
210
0.0
220
0.0
230
1.0
 40
0.0174550649
 41
5.522172552955278
 42
6.283185307179586
  0
LINE
  5
142
330
1F
100
AcDbEntity
  8
0
  6
Continuous
 62
     7
370
    25
100
AcDbLine
 10
74.1663141825
 20
203.9898543959
 30
0.0
 11
74.120931206
 21
203.9898543959
 31
0.0
  0
LINE
  5
143
330
1F
100
AcDbEntity
  8
0
  6
Continuous
 62
     7
370
    25
100
AcDbLine
 10
74.120931206
 20
203.9898543959
 30
0.0
 11
74.120931206
 21
204.9898545598
 31
0.0
  0
LINE
  5
144
330
1F
100
AcDbEntity
  8
0
  6
Continuous
 62
     7
370
    25
100
AcDbLine
 10
74.120931206
 20
204.9898545598
 30
0.0
 11
74.1663141825
 21
204.9898545598
 31
0.0
  0
ELLIPSE
  5
145
330
1F
100
AcDbEntity
  8
0
  6
Continuous
 62
     7
370
    25
100
AcDbEllipse
 10
74.1663138507
 20
201.1898545476
 30
0.0
 11
0.0
 21
3.800000000000011
 31
0.0
210
0.0
220
0.0
230
1.0
 40
0.0174550649
 41
5.522172552955138
 42
6.283185307179586
  0
ELLIPSE
  5
146
330
1F
100
AcDbEntity
  8
0
  6
Continuous
 62
     7
370
    25
100
AcDbEllipse
 10
74.1663138507
 20
184.3898545476
 30
0.0
 11
0.0
 21
3.800000000000011
 31
0.0
210
0.0
220
0.0
230
1.0
 40
0.0174550649
 41
3.423297741955685
 42
3.902605407815098
  0
ARC
  5
147
330
1F
100
AcDbEntity
  8
0
  6
Continuous
 62
     7
370
    25
100
AcDbCircle
 10
77.0209306819
 20
181.3446984956
 30
0.0
 40
2.90000000000002
100
AcDbArc
 50
180.0
 51
192.0427193113
  0
LINE
  5
148
330
1F
100
AcDbEntity
  8
0
  6
Continuous
 62
     7
370
    25
100
AcDbLine
 10
74.120931206
 20
181.3446975653
 30
0.0
 11
74.120931206
 21
181.5898544495
 31
0.0
  0
LINE
  5
149
330
1F
100
AcDbEntity
  8
0
  6
Continuous
 62
     7
370
    25
100
AcDbLine
 10
83.7660862782
 20
239.0477366154
 30
0.0
 11
83.7660862782
 21
239.2651892607
 31
0.0
  0
ELLIPSE
  5
14A
330
1F
100
AcDbEntity
  8
0
  6
Continuous
 62
     7
370
    25
100
AcDbEllipse
 10
85.8660867339
 20
239.2651903399
 30
0.0
 11
2.099999999999994
 21
0.0
 31
0.0
210
0.0
220
0.0
230
1.0
 40
0.0174550649
 41
3.141592653442478
 42
6.283185307179586
  0
LINE
  5
14B
330
1F
100
AcDbEntity
  8
0
  6
Continuous
 62
     7
370
    25
100
AcDbLine
 10
87.9660873392
 20
239.0477366154
 30
0.0
 11
87.9660873392
 21
239.2651892607
 31
0.0
  0
LINE
  5
14C
330
1F
100
AcDbEntity
  8
0
  6
Continuous
 62
     7
370
    25
100
AcDbLine
 10
87.9660873392
 20
239.3350101416
 30
0.0
 11
87.9660873392
 21
239.2651892607
 31
0.0
  0
LINE
  5
14D
330
1F
100
AcDbEntity
  8
0
  6
Continuous
 62
     7
370
    25
100
AcDbLine
 10
83.7660862782
 20
239.2651892607
 30
0.0
 11
83.7660862782
 21
239.3350101416
 31
0.0
  0
LINE
  5
14E
330
1F
100
AcDbEntity
  8
0
  6
Continuous
 62
     7
370
    25
100
AcDbLine
 10
84.7660868146
 20
239.3350101416
 30
0.0
 11
83.7660862782
 21
239.3350101416
 31
0.0
  0
LINE
  5
14F
330
1F
100
AcDbEntity
  8
0
  6
Continuous
 62
     7
370
    25
100
AcDbLine
 10
84.7660868146
 20
239.2651892607
 30
0.0
 11
84.7660868146
 21
239.3350101416
 31
0.0
  0
ELLIPSE
  5
150
330
1F
100
AcDbEntity
  8
0
  6
Continuous
 62
     7
370
    25
100
AcDbEllipse
 10
85.8660867339
 20
239.2651903399
 30
0.0
 11
1.099999999999994
 21
0.0
 31
0.0
210
0.0
220
0.0
230
1.0
 40
0.0174550649
 41
3.141592653589786
 42
6.283185307179586
  0
LINE
  5
151
330
1F
100
AcDbEntity
  8
0
  6
Continuous
 62
     7
370
    25
100
AcDbLine
 10
86.9660868027
 20
239.3350101416
 30
0.0
 11
86.9660868027
 21
239.2651892607
 31
0.0
  0
LINE
  5
152
330
1F
100
AcDbEntity
  8
0
  6
Continuous
 62
     7
370
    25
100
AcDbLine
 10
87.9660873392
 20
239.3350101416
 30
0.0
 11
86.9660868027
 21
239.3350101416
 31
0.0
  0
LINE
  5
153
330
1F
100
AcDbEntity
  8
0
  6
Continuous
 62
     7
370
    25
100
AcDbLine
 10
140.6217499354
 20
180.5898554032
 30
0.0
 11
140.9112794974
 21
180.5898554032
 31
0.0
  0
SPLINE
  5
154
330
1F
100
AcDbEntity
  8
0
  6
Continuous
 62
     7
370
    25
100
AcDbSpline
210
0.0
220
0.0
230
1.0
 70
     8
 71
     3
 72
     9
 73
     5
 74
     0
 42
0.000000001
 43
0.00000001
 40
0.0
 40
0.0
 40
0.0
 40
0.0
 40
0.4948381101399356
 40
1.0
 40
1.0
 40
1.0
 40
1.0
 10
140.947420773742
 20
180.7396388952769
 30
0.0
 10
140.9374012035814
 20
180.6964524784073
 30
0.0
 10
140.9171530255304
 20
180.6091786488767
 30
0.0
 10
140.9132507687781
 20
180.5963406639275
 30
0.0
 10
140.9112794973824
 20
180.5898554031885
 30
0.0
  0
LINE
  5
155
330
1F
100
AcDbEntity
  8
0
  6
Continuous
 62
     7
370
    25
100
AcDbLine
 10
104.6660867237
 20
178.7075377409
 30
0.0
 11
104.6660867237
 21
178.4900821154
 31
0.0
  0
LINE
  5
156
330
1F
100
AcDbEntity
  8
0
  6
Continuous
 62
     7
370
    25
100
AcDbLine
 10
136.6660876849
 20
178.7075377409
 30
0.0
 11
136.6660876849
 21
178.4900821154
 31
0.0
  0
LINE
  5
157
330
1F
100
AcDbEntity
  8
0
  6
Continuous
 62
     7
370
    25
100
AcDbLine
 10
112.2660866656
 20
178.7075377409
 30
0.0
 11
112.2660866656
 21
178.4900821154
 31
0.0
  0
LINE
  5
158
330
1F
100
AcDbEntity
  8
0
  6
Continuous
 62
     7
370
    25
100
AcDbLine
 10
136.6660876849
 20
239.2896271651
 30
0.0
 11
136.6660876849
 21
239.0721715395
 31
0.0
  0
LINE
  5
159
330
1F
100
AcDbEntity
  8
0
  6
Continuous
 62
     7
370
    25
100
AcDbLine
 10
112.2660866656
 20
239.2896271651
 30
0.0
 11
112.2660866656
 21
239.0721715395
 31
0.0
  0
LINE
  5
15A
330
1F
100
AcDbEntity
  8
0
  6
Continuous
 62
     7
370
    25
100
AcDbLine
 10
80.2660866358
 20
178.7075377409
 30
0.0
 11
80.2660866358
 21
178.4900821154
 31
0.0
  0
LINE
  5
15B
330
1F
100
AcDbEntity
  8
0
  6
Continuous
 62
     7
370
    25
100
AcDbLine
 10
74.5104237177
 20
180.5898554032
 30
0.0
 11
74.2208941557
 21
180.5898554032
 31
0.0
  0
SPLINE
  5
15C
330
1F
100
AcDbEntity
  8
0
  6
Continuous
 62
     7
370
    25
100
AcDbSpline
210
0.0
220
0.0
230
1.0
 70
     8
 71
     3
 72
     9
 73
     5
 74
     0
 42
0.000000001
 43
0.00000001
 40
0.0
 40
0.0
 40
0.0
 40
0.0
 40
0.4947671148487
 40
1.0
 40
1.0
 40
1.0
 40
1.0
 10
74.22089415573808
 20
180.5898554031885
 30
0.0
 10
74.21900323534156
 20
180.596075752058
 30
0.0
 10
74.21518139605642
 20
180.6086480283527
 30
0.0
 10
74.19496624066215
 20
180.6956716831083
 30
0.0
 10
74.18475287937854
 20
180.7396388952769
 30
0.0
  0
LINE
  5
15D
330
1F
100
AcDbEntity
  8
0
  6
Continuous
 62
     7
370
    25
100
AcDbLine
 10
74.3837698081
 20
204.9898545598
 30
0.0
 11
74.1663141825
 21
204.9898545598
 31
0.0
  0
ELLIPSE
  5
15E
330
1F
100
AcDbEntity
  8
0
  6
Continuous
 62
     7
370
    25
100
AcDbEllipse
 10
108.4660867339
 20
239.2948639503
 30
0.0
 11
1.600000000000009
 21
0.0
 31
0.0
210
0.0
220
0.0
230
1.0
 40
0.0174550649
 41
4.712388980384699
 42
6.283185307179586
  0
LINE
  5
15F
330
1F
100
AcDbEntity
  8
0
  6
Continuous
 62
     7
370
    25
100
AcDbLine
 10
110.0660866775
 20
239.2948634331
 30
0.0
 11
110.0660866775
 21
239.0774078076
 31
0.0
  0
LINE
  5
160
330
1F
100
AcDbEntity
  8
0
  6
Continuous
 62
     7
370
    25
100
AcDbLine
 10
110.0660866775
 20
178.7023014729
 30
0.0
 11
110.0660866775
 21
178.4848458474
 31
0.0
  0
ELLIPSE
  5
161
330
1F
100
AcDbEntity
  8
0
  6
Continuous
 62
     7
370
    25
100
AcDbEllipse
 10
108.4660867339
 20
178.4848451449
 30
0.0
 11
1.600000000000009
 21
0.0
 31
0.0
210
0.0
220
0.0
230
1.0
 40
0.0174550649
 41
0.0
 42
1.570796326794897
  0
LINE
  5
162
330
1F
100
AcDbEntity
  8
0
  6
Continuous
 62
     7
370
    25
100
AcDbLine
 10
106.8660867118
 20
239.0774078076
 30
0.0
 11
106.8660867118
 21
239.2948634331
 31
0.0
  0
ELLIPSE
  5
163
330
1F
100
AcDbEntity
  8
0
  6
Continuous
 62
     7
370
    25
100
AcDbEllipse
 10
108.4660867339
 20
239.2948639503
 30
0.0
 11
1.599999999999994
 21
0.0
 31
0.0
210
0.0
220
0.0
230
1.0
 40
0.0174550649
 41
3.141592653589786
 42
4.71238898038469
  0
ELLIPSE
  5
164
330
1F
100
AcDbEntity
  8
0
  6
Continuous
 62
     7
370
    25
100
AcDbEllipse
 10
108.4660867339
 20
178.4848451449
 30
0.0
 11
1.599999999999994
 21
0.0
 31
0.0
210
0.0
220
0.0
230
1.0
 40
0.0174550649
 41
1.570796326794905
 42
3.141592653589786
  0
LINE
  5
165
330
1F
100
AcDbEntity
  8
0
  6
Continuous
 62
     7
370
    25
100
AcDbLine
 10
106.8660867118
 20
178.4848458474
 30
0.0
 11
106.8660867118
 21
178.7023014729
 31
0.0
  0
ELLIPSE
  5
166
330
1F
100
AcDbEntity
  8
0
  6
Continuous
 62
     7
370
    25
100
AcDbEllipse
 10
108.4660867339
 20
239.2948639503
 30
0.0
 11
0.6000000000000085
 21
0.0
 31
0.0
210
0.0
220
0.0
230
1.0
 40
0.0174550649
 41
3.141592653589786
 42
6.283185307179586
  0
LINE
  5
167
330
1F
100
AcDbEntity
  8
0
  6
Continuous
 62
     7
370
    25
100
AcDbLine
 10
109.0660866999
 20
239.3350101416
 30
0.0
 11
109.0660866999
 21
239.2948634331
 31
0.0
  0
LINE
  5
168
330
1F
100
AcDbEntity
  8
0
  6
Continuous
 62
     7
370
    25
100
AcDbLine
 10
110.0660866775
 20
239.3350101416
 30
0.0
 11
109.0660866999
 21
239.3350101416
 31
0.0
  0
LINE
  5
169
330
1F
100
AcDbEntity
  8
0
  6
Continuous
 62
     7
370
    25
100
AcDbLine
 10
110.0660866775
 20
239.3350101416
 30
0.0
 11
110.0660866775
 21
239.2948634331
 31
0.0
  0
LINE
  5
16A
330
1F
100
AcDbEntity
  8
0
  6
Continuous
 62
     7
370
    25
100
AcDbLine
 10
106.8660867118
 20
239.2948634331
 30
0.0
 11
106.8660867118
 21
239.3350101416
 31
0.0
  0
LINE
  5
16B
330
1F
100
AcDbEntity
  8
0
  6
Continuous
 62
     7
370
    25
100
AcDbLine
 10
107.866086736
 20
239.3350101416
 30
0.0
 11
106.8660867118
 21
239.3350101416
 31
0.0
  0
LINE
  5
16C
330
1F
100
AcDbEntity
  8
0
  6
Continuous
 62
     7
370
    25
100
AcDbLine
 10
107.866086736
 20
239.2948634331
 30
0.0
 11
107.866086736
 21
239.3350101416
 31
0.0
  0
LINE
  5
16D
330
1F
100
AcDbEntity
  8
0
  6
Continuous
 62
     7
370
    25
100
AcDbLine
 10
110.0660866775
 20
178.4848458474
 30
0.0
 11
110.0660866775
 21
178.4446991389
 31
0.0
  0
LINE
  5
16E
330
1F
100
AcDbEntity
  8
0
  6
Continuous
 62
     7
370
    25
100
AcDbLine
 10
110.0660866775
 20
178.4446991389
 30
0.0
 11
109.0660866999
 21
178.4446991389
 31
0.0
  0
LINE
  5
16F
330
1F
100
AcDbEntity
  8
0
  6
Continuous
 62
     7
370
    25
100
AcDbLine
 10
109.0660866999
 20
178.4848458474
 30
0.0
 11
109.0660866999
 21
178.4446991389
 31
0.0
  0
ELLIPSE
  5
170
330
1F
100
AcDbEntity
  8
0
  6
Continuous
 62
     7
370
    25
100
AcDbEllipse
 10
108.4660867339
 20
178.4848451449
 30
0.0
 11
0.6000000000000085
 21
0.0
 31
0.0
210
0.0
220
0.0
230
1.0
 40
0.0174550649
 41
0.0
 42
3.141592653589786
  0
LINE
  5
171
330
1F
100
AcDbEntity
  8
0
  6
Continuous
 62
     7
370
    25
100
AcDbLine
 10
107.866086736
 20
178.4446991389
 30
0.0
 11
107.866086736
 21
178.4848458474
 31
0.0
  0
LINE
  5
172
330
1F
100
AcDbEntity
  8
0
  6
Continuous
 62
     7
370
    25
100
AcDbLine
 10
107.866086736
 20
178.4446991389
 30
0.0
 11
106.8660867118
 21
178.4446991389
 31
0.0
  0
LINE
  5
173
330
1F
100
AcDbEntity
  8
0
  6
Continuous
 62
     7
370
    25
100
AcDbLine
 10
106.8660867118
 20
178.4446991389
 30
0.0
 11
106.8660867118
 21
178.4848458474
 31
0.0
  0
LINE
  5
174
330
1F
100
AcDbEntity
  8
0
  6
Continuous
 62
     7
370
    25
100
AcDbLine
 10
136.6660876849
 20
239.3350101416
 30
0.0
 11
138.1112440207
 21
239.3350101416
 31
0.0
  0
ARC
  5
175
330
1F
100
AcDbEntity
  8
0
  6
Continuous
 62
     7
370
    25
100
AcDbCircle
 10
138.111242786
 20
236.4350105997
 30
0.0
 40
2.900000000000034
100
AcDbArc
 50
0.0
 51
90.0
  0
LINE
  5
176
330
1F
100
AcDbEntity
  8
0
  6
Continuous
 62
     7
370
    25
100
AcDbLine
 10
141.0112424471
 20
236.4350117152
 30
0.0
 11
141.0112424471
 21
208.0224216324
 31
0.0
  0
LINE
  5
177
330
1F
100
AcDbEntity
  8
0
  6
Continuous
 62
     7
370
    25
100
AcDbLine
 10
80.2660866358
 20
178.4446991389
 30
0.0
 11
77.0209296324
 21
178.4446991389
 31
0.0
  0
ARC
  5
178
330
1F
100
AcDbEntity
  8
0
  6
Continuous
 62
     7
370
    25
100
AcDbCircle
 10
77.0209306819
 20
181.3446984956
 30
0.0
 40
2.900000000000009
100
AcDbArc
 50
195.0873307316
 51
270.0
  0
LINE
  5
179
330
1F
100
AcDbEntity
  8
0
  6
Continuous
 62
     7
370
    25
100
AcDbLine
 10
74.120931206
 20
204.9898545598
 30
0.0
 11
74.120931206
 21
236.4350117152
 31
0.0
  0
ARC
  5
17A
330
1F
100
AcDbEntity
  8
0
  6
Continuous
 62
     7
370
    25
100
AcDbCircle
 10
77.0209306819
 20
236.4350105997
 30
0.0
 40
2.900000000000034
100
AcDbArc
 50
90.0
 51
180.0
  0
LINE
  5
17B
330
1F
100
AcDbEntity
  8
0
  6
Continuous
 62
     7
370
    25
100
AcDbLine
 10
77.0209296324
 20
239.3350101416
 30
0.0
 11
83.7660862782
 21
239.3350101416
 31
0.0
  0
LINE
  5
17C
330
1F
100
AcDbEntity
  8
0
  6
Continuous
 62
     7
370
    25
100
AcDbLine
 10
110.0660866775
 20
239.3350101416
 30
0.0
 11
112.2660866656
 21
239.3350101416
 31
0.0
  0
LINE
  5
17D
330
1F
100
AcDbEntity
  8
0
  6
Continuous
 62
     7
370
    25
100
AcDbLine
 10
106.8660867118
 20
178.4446991389
 30
0.0
 11
104.6660867237
 21
178.4446991389
 31
0.0
  0
LINE
  5
17E
330
1F
100
AcDbEntity
  8
0
  6
Continuous
 62
     7
370
    25
100
AcDbLine
 10
138.1112440207
 20
178.4446991389
 30
0.0
 11
136.6660876849
 21
178.4446991389
 31
0.0
  0
ARC
  5
17F
330
1F
100
AcDbEntity
  8
0
  6
Continuous
 62
     7
370
    25
100
AcDbCircle
 10
138.111242786
 20
181.3446984956
 30
0.0
 40
2.899999999999988
100
AcDbArc
 50
270.0
 51
344.9126692684
  0
LINE
  5
180
330
1F
100
AcDbEntity
  8
0
  6
Continuous
 62
     7
370
    25
100
AcDbLine
 10
87.9660873392
 20
239.3350101416
 30
0.0
 11
106.8660867118
 21
239.3350101416
 31
0.0
  0
LINE
  5
181
330
1F
100
AcDbEntity
  8
0
  6
Continuous
 62
     7
370
    25
100
AcDbLine
 10
112.2660866656
 20
178.4446991389
 30
0.0
 11
110.0660866775
 21
178.4446991389
 31
0.0
  0
LINE
  5
182
330
1F
100
AcDbEntity
  8
0
  6
Continuous
 62
     7
370
    25
100
AcDbLine
 10
142.4661053994
 20
183.7970561688
 30
0.0
 11
142.4661053994
 21
186.797056288
 31
0.0
  0
LINE
  5
183
330
1F
100
AcDbEntity
  8
0
  6
Continuous
 62
     7
370
    25
100
AcDbLine
 10
142.4661053994
 20
182.7970571225
 30
0.0
 11
142.4661053994
 21
183.7970561688
 31
0.0
  0
LINE
  5
184
330
1F
100
AcDbEntity
  8
0
  6
Continuous
 62
     7
370
    25
100
AcDbLine
 10
143.8661052563
 20
186.4898718302
 30
0.0
 11
142.4661053994
 21
186.4898718302
 31
0.0
  0
LINE
  5
185
330
1F
100
AcDbEntity
  8
0
  6
Continuous
 62
     7
370
    25
100
AcDbLine
 10
143.8661052563
 20
184.7898728554
 30
0.0
 11
142.4661053994
 21
184.7898728554
 31
0.0
  0
LINE
  5
186
330
1F
100
AcDbEntity
  8
0
  6
Continuous
 62
     7
370
    25
100
AcDbLine
 10
143.8661052563
 20
186.4898718302
 30
0.0
 11
143.8661052563
 21
184.7898728554
 31
0.0
  0
LINE
  5
187
330
1F
100
AcDbEntity
  8
0
  6
Continuous
 62
     7
370
    25
100
AcDbLine
 10
143.8661052563
 20
183.0898738806
 30
0.0
 11
142.4661053994
 21
183.0898738806
 31
0.0
  0
LINE
  5
188
330
1F
100
AcDbEntity
  8
0
  6
Continuous
 62
     7
370
    25
100
AcDbLine
 10
143.8661052563
 20
184.7898728554
 30
0.0
 11
143.8661052563
 21
183.0898738806
 31
0.0
  0
LINE
  5
189
330
1F
100
AcDbEntity
  8
0
  6
Continuous
 62
     7
370
    25
100
AcDbLine
 10
143.8661052563
 20
202.4898722177
 30
0.0
 11
142.6076098063
 21
202.4898722177
 31
0.0
  0
LINE
  5
18A
330
1F
100
AcDbEntity
  8
0
  6
Continuous
 62
     7
370
    25
100
AcDbLine
 10
143.8661052563
 20
202.4898722177
 30
0.0
 11
143.8661052563
 21
200.7898724978
 31
0.0
  0
LINE
  5
18B
330
1F
100
AcDbEntity
  8
0
  6
Continuous
 62
     7
370
    25
100
AcDbLine
 10
143.8661052563
 20
200.7898724978
 30
0.0
 11
142.6076098063
 21
200.7898724978
 31
0.0
  0
LINE
  5
18C
330
1F
100
AcDbEntity
  8
0
  6
Continuous
 62
     7
370
    25
100
AcDbLine
 10
143.8661052563
 20
199.0898727779
 30
0.0
 11
142.6076098063
 21
199.0898727779
 31
0.0
  0
LINE
  5
18D
330
1F
100
AcDbEntity
  8
0
  6
Continuous
 62
     7
370
    25
100
AcDbLine
 10
143.8661052563
 20
200.7898724978
 30
0.0
 11
143.8661052563
 21
199.0898727779
 31
0.0
  0
LINE
  5
18E
330
1F
100
AcDbEntity
  8
0
  6
Continuous
 62
     7
370
    25
100
AcDbLine
 10
134.4685270169
 20
240.7898730938
 30
0.0
 11
130.4685278513
 21
240.7898730938
 31
0.0
  0
LINE
  5
18F
330
1F
100
AcDbEntity
  8
0
  6
Continuous
 62
     7
370
    25
100
AcDbLine
 10
130.7661040404
 20
242.1898729508
 30
0.0
 11
130.7661040404
 21
240.7898730938
 31
0.0
  0
LINE
  5
190
330
1F
100
AcDbEntity
  8
0
  6
Continuous
 62
     7
370
    25
100
AcDbLine
 10
130.7661040404
 20
242.1898729508
 30
0.0
 11
132.4661045053
 21
242.1898729508
 31
0.0
  0
LINE
  5
191
330
1F
100
AcDbEntity
  8
0
  6
Continuous
 62
     7
370
    25
100
AcDbLine
 10
132.4661045053
 20
242.1898729508
 30
0.0
 11
132.4661045053
 21
240.7898730938
 31
0.0
  0
LINE
  5
192
330
1F
100
AcDbEntity
  8
0
  6
Continuous
 62
     7
370
    25
100
AcDbLine
 10
132.4661045053
 20
242.1898729508
 30
0.0
 11
134.1661049702
 21
242.1898729508
 31
0.0
  0
LINE
  5
193
330
1F
100
AcDbEntity
  8
0
  6
Continuous
 62
     7
370
    25
100
AcDbLine
 10
134.1661049702
 20
242.1898729508
 30
0.0
 11
134.1661049702
 21
240.7898730938
 31
0.0
  0
LINE
  5
194
330
1F
100
AcDbEntity
  8
0
  6
Continuous
 62
     7
370
    25
100
AcDbLine
 10
118.4685281196
 20
240.7898730938
 30
0.0
 11
114.468528209
 21
240.7898730938
 31
0.0
  0
LINE
  5
195
330
1F
100
AcDbEntity
  8
0
  6
Continuous
 62
     7
370
    25
100
AcDbLine
 10
114.766104398
 20
242.1898729508
 30
0.0
 11
114.766104398
 21
240.7898730938
 31
0.0
  0
LINE
  5
196
330
1F
100
AcDbEntity
  8
0
  6
Continuous
 62
     7
370
    25
100
AcDbLine
 10
114.766104398
 20
242.1898729508
 30
0.0
 11
116.4661048629
 21
242.1898729508
 31
0.0
  0
LINE
  5
197
330
1F
100
AcDbEntity
  8
0
  6
Continuous
 62
     7
370
    25
100
AcDbLine
 10
116.4661048629
 20
242.1898729508
 30
0.0
 11
116.4661048629
 21
240.7898730938
 31
0.0
  0
LINE
  5
198
330
1F
100
AcDbEntity
  8
0
  6
Continuous
 62
     7
370
    25
100
AcDbLine
 10
118.1661045828
 20
242.1898729508
 30
0.0
 11
118.1661045828
 21
240.7898730938
 31
0.0
  0
LINE
  5
199
330
1F
100
AcDbEntity
  8
0
  6
Continuous
 62
     7
370
    25
100
AcDbLine
 10
116.4661048629
 20
242.1898729508
 30
0.0
 11
118.1661045828
 21
242.1898729508
 31
0.0
  0
LINE
  5
19A
330
1F
100
AcDbEntity
  8
0
  6
Continuous
 62
     7
370
    25
100
AcDbLine
 10
114.4636816063
 20
177.6898718779
 30
0.0
 11
118.4636815169
 21
177.6898718779
 31
0.0
  0
LINE
  5
19B
330
1F
100
AcDbEntity
  8
0
  6
Continuous
 62
     7
370
    25
100
AcDbLine
 10
114.4636816063
 20
178.0898726885
 30
0.0
 11
118.4636815169
 21
178.0898726885
 31
0.0
  0
LINE
  5
19C
330
1F
100
AcDbEntity
  8
0
  6
Continuous
 62
     7
370
    25
100
AcDbLine
 10
118.1661045828
 20
176.289872021
 30
0.0
 11
118.1661045828
 21
177.6898718779
 31
0.0
  0
LINE
  5
19D
330
1F
100
AcDbEntity
  8
0
  6
Continuous
 62
     7
370
    25
100
AcDbLine
 10
118.1661045828
 20
176.289872021
 30
0.0
 11
116.4661048629
 21
176.289872021
 31
0.0
  0
LINE
  5
19E
330
1F
100
AcDbEntity
  8
0
  6
Continuous
 62
     7
370
    25
100
AcDbLine
 10
116.4661048629
 20
176.289872021
 30
0.0
 11
116.4661048629
 21
177.6898718779
 31
0.0
  0
LINE
  5
19F
330
1F
100
AcDbEntity
  8
0
  6
Continuous
 62
     7
370
    25
100
AcDbLine
 10
116.4661048629
 20
176.289872021
 30
0.0
 11
114.766104398
 21
176.289872021
 31
0.0
  0
LINE
  5
1A0
330
1F
100
AcDbEntity
  8
0
  6
Continuous
 62
     7
370
    25
100
AcDbLine
 10
114.766104398
 20
176.289872021
 30
0.0
 11
114.766104398
 21
177.6898718779
 31
0.0
  0
LINE
  5
1A1
330
1F
100
AcDbEntity
  8
0
  6
Continuous
 62
     7
370
    25
100
AcDbLine
 10
98.4636812189
 20
177.6098735039
 30
0.0
 11
102.4636811295
 21
177.6098735039
 31
0.0
  0
LINE
  5
1A2
330
1F
100
AcDbEntity
  8
0
  6
Continuous
 62
     7
370
    25
100
AcDbLine
 10
99.1298942544
 20
178.0098713343
 30
0.0
 11
101.7974680939
 21
178.0098713343
 31
0.0
  0
LINE
  5
1A3
330
1F
100
AcDbEntity
  8
0
  6
Continuous
 62
     7
370
    25
100
AcDbLine
 10
100.4661044755
 20
176.209873647
 30
0.0
 11
100.4661044755
 21
177.6098735039
 31
0.0
  0
LINE
  5
1A4
330
1F
100
AcDbEntity
  8
0
  6
Continuous
 62
     7
370
    25
100
AcDbLine
 10
100.4661044755
 20
176.209873647
 30
0.0
 11
98.7661047556
 21
176.209873647
 31
0.0
  0
LINE
  5
1A5
330
1F
100
AcDbEntity
  8
0
  6
Continuous
 62
     7
370
    25
100
AcDbLine
 10
98.7661047556
 20
176.209873647
 30
0.0
 11
98.7661047556
 21
177.6098735039
 31
0.0
  0
LINE
  5
1A6
330
1F
100
AcDbEntity
  8
0
  6
Continuous
 62
     7
370
    25
100
AcDbLine
 10
102.1661045679
 20
176.209873647
 30
0.0
 11
102.1661045679
 21
177.6098735039
 31
0.0
  0
LINE
  5
1A7
330
1F
100
AcDbEntity
  8
0
  6
Continuous
 62
     7
370
    25
100
AcDbLine
 10
102.1661045679
 20
176.209873647
 30
0.0
 11
100.4661044755
 21
176.209873647
 31
0.0
  0
LINE
  5
1A8
330
1F
100
AcDbEntity
  8
0
  6
Continuous
 62
     7
370
    25
100
AcDbLine
 10
72.6661040165
 20
202.792296127
 30
0.0
 11
72.6661040165
 21
198.7922958438
 31
0.0
  0
LINE
  5
1A9
330
1F
100
AcDbEntity
  8
0
  6
Continuous
 62
     7
370
    25
100
AcDbLine
 10
71.2661041596
 20
199.0898727779
 30
0.0
 11
72.6661040165
 21
199.0898727779
 31
0.0
  0
LINE
  5
1AA
330
1F
100
AcDbEntity
  8
0
  6
Continuous
 62
     7
370
    25
100
AcDbLine
 10
71.2661041596
 20
199.0898727779
 30
0.0
 11
71.2661041596
 21
200.7898724978
 31
0.0
  0
LINE
  5
1AB
330
1F
100
AcDbEntity
  8
0
  6
Continuous
 62
     7
370
    25
100
AcDbLine
 10
71.2661041596
 20
200.7898724978
 30
0.0
 11
72.6661040165
 21
200.7898724978
 31
0.0
  0
LINE
  5
1AC
330
1F
100
AcDbEntity
  8
0
  6
Continuous
 62
     7
370
    25
100
AcDbLine
 10
71.2661041596
 20
202.4898722177
 30
0.0
 11
72.6661040165
 21
202.4898722177
 31
0.0
  0
LINE
  5
1AD
330
1F
100
AcDbEntity
  8
0
  6
Continuous
 62
     7
370
    25
100
AcDbLine
 10
71.2661041596
 20
200.7898724978
 30
0.0
 11
71.2661041596
 21
202.4898722177
 31
0.0
  0
LINE
  5
1AE
330
1F
100
AcDbEntity
  8
0
  6
Continuous
 62
     7
370
    25
100
AcDbLine
 10
72.6661040165
 20
186.792295367
 30
0.0
 11
72.6661040165
 21
182.7922947114
 31
0.0
  0
LINE
  5
1AF
330
1F
100
AcDbEntity
  8
0
  6
Continuous
 62
     7
370
    25
100
AcDbLine
 10
71.2661041596
 20
183.0898738806
 30
0.0
 11
72.6661040165
 21
183.0898738806
 31
0.0
  0
LINE
  5
1B0
330
1F
100
AcDbEntity
  8
0
  6
Continuous
 62
     7
370
    25
100
AcDbLine
 10
71.2661041596
 20
183.0898738806
 30
0.0
 11
71.2661041596
 21
184.7898728554
 31
0.0
  0
LINE
  5
1B1
330
1F
100
AcDbEntity
  8
0
  6
Continuous
 62
     7
370
    25
100
AcDbLine
 10
71.2661041596
 20
184.7898728554
 30
0.0
 11
72.6661040165
 21
184.7898728554
 31
0.0
  0
LINE
  5
1B2
330
1F
100
AcDbEntity
  8
0
  6
Continuous
 62
     7
370
    25
100
AcDbLine
 10
71.2661041596
 20
186.4898718302
 30
0.0
 11
72.6661040165
 21
186.4898718302
 31
0.0
  0
LINE
  5
1B3
330
1F
100
AcDbEntity
  8
0
  6
Continuous
 62
     7
370
    25
100
AcDbLine
 10
71.2661041596
 20
184.7898728554
 30
0.0
 11
71.2661041596
 21
186.4898718302
 31
0.0
  0
LINE
  5
1B4
330
1F
100
AcDbEntity
  8
0
  6
Continuous
 62
     7
370
    25
100
AcDbLine
 10
130.4636819937
 20
177.6898718779
 30
0.0
 11
134.4636811593
 21
177.6898718779
 31
0.0
  0
LINE
  5
1B5
330
1F
100
AcDbEntity
  8
0
  6
Continuous
 62
     7
370
    25
100
AcDbLine
 10
130.4636819937
 20
178.0898726885
 30
0.0
 11
134.4636811593
 21
178.0898726885
 31
0.0
  0
LINE
  5
1B6
330
1F
100
AcDbEntity
  8
0
  6
Continuous
 62
     7
370
    25
100
AcDbLine
 10
132.4661045053
 20
176.289872021
 30
0.0
 11
132.4661045053
 21
177.6898718779
 31
0.0
  0
LINE
  5
1B7
330
1F
100
AcDbEntity
  8
0
  6
Continuous
 62
     7
370
    25
100
AcDbLine
 10
130.7661040404
 20
176.289872021
 30
0.0
 11
130.7661040404
 21
177.6898718779
 31
0.0
  0
LINE
  5
1B8
330
1F
100
AcDbEntity
  8
0
  6
Continuous
 62
     7
370
    25
100
AcDbLine
 10
132.4661045053
 20
176.289872021
 30
0.0
 11
130.7661040404
 21
176.289872021
 31
0.0
  0
LINE
  5
1B9
330
1F
100
AcDbEntity
  8
0
  6
Continuous
 62
     7
370
    25
100
AcDbLine
 10
134.1661049702
 20
176.289872021
 30
0.0
 11
134.1661049702
 21
177.6898718779
 31
0.0
  0
LINE
  5
1BA
330
1F
100
AcDbEntity
  8
0
  6
Continuous
 62
     7
370
    25
100
AcDbLine
 10
134.1661049702
 20
176.289872021
 30
0.0
 11
132.4661045053
 21
176.289872021
 31
0.0
  0
LINE
  5
1BB
330
1F
100
AcDbEntity
  8
0
  6
Continuous
 62
     7
370
    25
100
AcDbLine
 10
82.4636800864
 20
177.6098735039
 30
0.0
 11
86.463680742
 21
177.6098735039
 31
0.0
  0
LINE
  5
1BC
330
1F
100
AcDbEntity
  8
0
  6
Continuous
 62
     7
370
    25
100
AcDbLine
 10
83.1298946121
 20
178.0098713343
 30
0.0
 11
85.7974677064
 21
178.0098713343
 31
0.0
  0
LINE
  5
1BD
330
1F
100
AcDbEntity
  8
0
  6
Continuous
 62
     7
370
    25
100
AcDbLine
 10
86.166104553
 20
176.209873647
 30
0.0
 11
86.166104553
 21
177.6098735039
 31
0.0
  0
LINE
  5
1BE
330
1F
100
AcDbEntity
  8
0
  6
Continuous
 62
     7
370
    25
100
AcDbLine
 10
84.4661040881
 20
176.209873647
 30
0.0
 11
84.4661040881
 21
177.6098735039
 31
0.0
  0
LINE
  5
1BF
330
1F
100
AcDbEntity
  8
0
  6
Continuous
 62
     7
370
    25
100
AcDbLine
 10
86.166104553
 20
176.209873647
 30
0.0
 11
84.4661040881
 21
176.209873647
 31
0.0
  0
LINE
  5
1C0
330
1F
100
AcDbEntity
  8
0
  6
Continuous
 62
     7
370
    25
100
AcDbLine
 10
82.7661051133
 20
176.209873647
 30
0.0
 11
82.7661051133
 21
177.6098735039
 31
0.0
  0
LINE
  5
1C1
330
1F
100
AcDbEntity
  8
0
  6
Continuous
 62
     7
370
    25
100
AcDbLine
 10
84.4661040881
 20
176.209873647
 30
0.0
 11
82.7661051133
 21
176.209873647
 31
0.0
  0
LINE
  5
1C2
330
1F
100
AcDbEntity
  8
0
  6
Continuous
 62
     7
370
    25
100
AcDbLine
 10
124.4661046841
 20
241.9898725455
 30
0.0
 11
124.4661046841
 21
244.9898726647
 31
0.0
  0
LINE
  5
1C3
330
1F
100
AcDbEntity
  8
0
  6
Continuous
 62
     7
370
    25
100
AcDbLine
 10
124.4661046841
 20
241.9898725455
 30
0.0
 11
121.8680291154
 21
241.9898725455
 31
0.0
  0
LINE
  5
1C4
330
1F
100
AcDbEntity
  8
0
  6
Continuous
 62
     7
370
    25
100
AcDbLine
 10
121.8680291154
 20
241.9898725455
 30
0.0
 11
121.8680291154
 21
244.9898726647
 31
0.0
  0
LINE
  5
1C5
330
1F
100
AcDbEntity
  8
0
  6
Continuous
 62
     7
370
    25
100
AcDbLine
 10
124.4661046841
 20
244.9898726647
 30
0.0
 11
121.8680291154
 21
244.9898726647
 31
0.0
  0
LINE
  5
1C6
330
1F
100
AcDbEntity
  8
0
  6
Continuous
 62
     7
370
    25
100
AcDbLine
 10
127.0641802528
 20
241.9898725455
 30
0.0
 11
127.0641802528
 21
244.9898726647
 31
0.0
  0
LINE
  5
1C7
330
1F
100
AcDbEntity
  8
0
  6
Continuous
 62
     7
370
    25
100
AcDbLine
 10
127.0641802528
 20
241.9898725455
 30
0.0
 11
124.4661046841
 21
241.9898725455
 31
0.0
  0
LINE
  5
1C8
330
1F
100
AcDbEntity
  8
0
  6
Continuous
 62
     7
370
    25
100
AcDbLine
 10
127.0641802528
 20
244.9898726647
 30
0.0
 11
124.4661046841
 21
244.9898726647
 31
0.0
  0
LINE
  5
1C9
330
1F
100
AcDbEntity
  8
0
  6
Continuous
 62
     7
370
    25
100
AcDbLine
 10
114.6574995198
 20
240.3898722832
 30
0.0
 11
124.4661046841
 21
240.3898722832
 31
0.0
  0
LINE
  5
1CA
330
1F
100
AcDbEntity
  8
0
  6
Continuous
 62
     7
370
    25
100
AcDbLine
 10
124.4661046841
 20
240.3898722832
 30
0.0
 11
134.2747105935
 21
240.3898722832
 31
0.0
  0
SPLINE
  5
1CB
330
1F
100
AcDbEntity
  8
0
  6
Continuous
 62
     7
370
    25
100
AcDbSpline
210
0.0
220
0.0
230
1.0
 70
     8
 71
     3
 72
    11
 73
     7
 74
     0
 42
0.000000001
 43
0.00000001
 40
0.0
 40
0.0
 40
0.0
 40
0.0
 40
0.0037789449790733
 40
0.2992978082228497
 40
0.5919902502157433
 40
1.0
 40
1.0
 40
1.0
 40
1.0
 10
124.8074843265984
 20
240.7898730938471
 30
0.0
 10
124.8079458149137
 20
240.7894380201938
 30
0.0
 10
124.8444963447715
 20
240.7549795690737
 30
0.0
 10
124.9149659985719
 20
240.6853248362177
 30
0.0
 10
125.0273003890902
 20
240.5602518900247
 30
0.0
 10
125.0764322829616
 20
240.452572555615
 30
0.0
 10
125.10504114413
 20
240.389872283224
 30
0.0
  0
LINE
  5
1CC
330
1F
100
AcDbEntity
  8
0
  6
Continuous
 62
     7
370
    25
100
AcDbLine
 10
124.1247250416
 20
240.7898730938
 30
0.0
 11
124.8074843266
 21
240.7898730938
 31
0.0
  0
SPLINE
  5
1CD
330
1F
100
AcDbEntity
  8
0
  6
Continuous
 62
     7
370
    25
100
AcDbSpline
210
0.0
220
0.0
230
1.0
 70
     8
 71
     3
 72
    10
 73
     6
 74
     0
 42
0.000000001
 43
0.00000001
 40
0.0
 40
0.0
 40
0.0
 40
0.0
 40
0.4082517227410928
 40
0.9962188138919076
 40
1.0
 40
1.0
 40
1.0
 40
1.0
 10
123.8271682240937
 20
240.389872283224
 30
0.0
 10
123.8561230867492
 20
240.4523957364047
 30
0.0
 10
123.9267789525406
 20
240.6049659201871
 30
0.0
 10
124.0520533670387
 20
240.721345159089
 30
0.0
 10
124.1242636284739
 20
240.7894379904797
 30
0.0
 10
124.1247250416253
 20
240.7898730938471
 30
0.0
  0
LINE
  5
1CE
330
1F
100
AcDbEntity
  8
0
  6
Continuous
 62
     7
370
    25
100
AcDbLine
 10
124.8074843266
 20
240.7898730938
 30
0.0
 11
127.758248029
 21
240.7898730938
 31
0.0
  0
SPLINE
  5
1CF
330
1F
100
AcDbEntity
  8
0
  6
Continuous
 62
     7
370
    25
100
AcDbSpline
210
0.0
220
0.0
230
1.0
 70
     8
 71
     3
 72
    11
 73
     7
 74
     0
 42
0.000000001
 43
0.00000001
 40
0.0
 40
0.0
 40
0.0
 40
0.0
 40
0.3833434105418153
 40
0.6883374085199412
 40
0.9962500673034194
 40
0.9999999999999999
 40
0.9999999999999999
 40
0.9999999999999999
 40
0.9999999999999999
 10
127.7222676851723
 20
240.389872283224
 30
0.0
 10
127.7268754434925
 20
240.4490405432501
 30
0.0
 10
127.735149206218
 20
240.5552839940387
 30
0.0
 10
127.7490527048805
 20
240.6804357183491
 30
0.0
 10
127.7555348330362
 20
240.7532776599778
 30
0.0
 10
127.7582157718628
 20
240.7894380115232
 30
0.0
 10
127.758248028991
 20
240.7898730938471
 30
0.0
  0
SPLINE
  5
1D0
330
1F
100
AcDbEntity
  8
0
  6
Continuous
 62
     7
370
    25
100
AcDbSpline
210
0.0
220
0.0
230
1.0
 70
     8
 71
     3
 72
    10
 73
     6
 74
     0
 42
0.000000001
 43
0.00000001
 40
0.0
 40
0.0
 40
0.0
 40
0.0
 40
0.0037521809382603
 40
0.616426759031095
 40
1.0
 40
1.0
 40
1.0
 40
1.0
 10
121.1739613392327
 20
240.7898730938471
 30
0.0
 10
121.1739935847796
 20
240.7894379792869
 30
0.0
 10
121.1792910419988
 20
240.7179552169759
 30
0.0
 10
121.1931786264629
 20
240.6020779279565
 30
0.0
 10
121.2052817600146
 20
240.4488628358831
 30
0.0
 10
121.2099416830513
 20
240.389872283224
 30
0.0
  0
LINE
  5
1D1
330
1F
100
AcDbEntity
  8
0
  6
Continuous
 62
     7
370
    25
100
AcDbLine
 10
121.1739613392
 20
240.7898730938
 30
0.0
 11
124.1247250416
 21
240.7898730938
 31
0.0
  0
LINE
  5
1D2
330
1F
100
AcDbEntity
  8
0
  6
Continuous
 62
     7
370
    25
100
AcDbLine
 10
114.0661044695
 20
240.3898722832
 30
0.0
 11
114.6574995198
 21
240.3898722832
 31
0.0
  0
LINE
  5
1D3
330
1F
100
AcDbEntity
  8
0
  6
Continuous
 62
     7
370
    25
100
AcDbLine
 10
134.2747105935
 20
240.3898722832
 30
0.0
 11
134.8661048987
 21
240.3898722832
 31
0.0
  0
SPLINE
  5
1D4
330
1F
100
AcDbEntity
  8
0
  6
Continuous
 62
     7
370
    25
100
AcDbSpline
210
0.0
220
0.0
230
1.0
 70
     8
 71
     3
 72
    12
 73
     8
 74
     0
 42
0.000000001
 43
0.00000001
 40
0.0
 40
0.0
 40
0.0
 40
0.0
 40
0.1394663224238302
 40
0.3538121435907006
 40
0.5689665170547489
 40
0.7844849814422453
 40
1.0
 40
1.0
 40
1.0
 40
1.0
 10
127.758248028991
 20
240.7898730938471
 30
0.0
 10
127.7601731829533
 20
240.7606354047684
 30
0.0
 10
127.7650571064577
 20
240.6864623050063
 30
0.0
 10
127.81321102304
 20
240.5739582979019
 30
0.0
 10
127.9043161618418
 20
240.4722815420037
 30
0.0
 10
128.0249504051073
 20
240.4031860938429
 30
0.0
 10
128.115447449712
 20
240.3943101964446
 30
0.0
 10
128.1606956102821
 20
240.389872283224
 30
0.0
  0
SPLINE
  5
1D5
330
1F
100
AcDbEntity
  8
0
  6
Continuous
 62
     7
370
    25
100
AcDbSpline
210
0.0
220
0.0
230
1.0
 70
     8
 71
     3
 72
    12
 73
     8
 74
     0
 42
0.000000001
 43
0.00000001
 40
0.0
 40
0.0
 40
0.0
 40
0.0
 40
0.1351096261295876
 40
0.3503860435592419
 40
0.5650368408194028
 40
0.7789015822786312
 40
1.0
 40
1.0
 40
1.0
 40
1.0
 10
120.7715137579415
 20
240.389872283224
 30
0.0
 10
120.7997863793438
 20
240.3916446911729
 30
0.0
 10
120.8731070763065
 20
240.3962411586979
 30
0.0
 10
120.9852472649653
 20
240.4424025028973
 30
0.0
 10
121.0881571504953
 20
240.5316040278483
 30
0.0
 10
121.1598027524011
 20
240.6518467046917
 30
0.0
 10
121.1691897731848
 20
240.7433570085885
 30
0.0
 10
121.1739613392327
 20
240.7898730938471
 30
0.0
  0
LINE
  5
1D6
330
1F
100
AcDbEntity
  8
0
  6
Continuous
 62
     7
370
    25
100
AcDbLine
 10
121.1661054471
 20
240.7898730938
 30
0.0
 11
121.1739613392
 21
240.7898730938
 31
0.0
  0
LINE
  5
1D7
330
1F
100
AcDbEntity
  8
0
  6
Continuous
 62
     7
370
    25
100
AcDbLine
 10
127.758248029
 20
240.7898730938
 30
0.0
 11
127.7661054113
 21
240.7898730938
 31
0.0
  0
LINE
  5
1D8
330
1F
100
AcDbEntity
  8
0
  6
Continuous
 62
     7
370
    25
100
AcDbLine
 10
73.0661048272
 20
192.7898726766
 30
0.0
 11
73.0661048272
 21
202.5984770958
 31
0.0
  0
LINE
  5
1D9
330
1F
100
AcDbEntity
  8
0
  6
Continuous
 62
     7
370
    25
100
AcDbLine
 10
73.0661048272
 20
182.9812682574
 30
0.0
 11
73.0661048272
 21
192.7898726766
 31
0.0
  0
LINE
  5
1DA
330
1F
100
AcDbEntity
  8
0
  6
Continuous
 62
     7
370
    25
100
AcDbLine
 10
72.6661040165
 20
192.4484930341
 30
0.0
 11
72.6661040165
 21
193.1312523191
 31
0.0
  0
SPLINE
  5
1DB
330
1F
100
AcDbEntity
  8
0
  6
Continuous
 62
     7
370
    25
100
AcDbSpline
210
0.0
220
0.0
230
1.0
 70
     8
 71
     3
 72
    11
 73
     7
 74
     0
 42
0.000000001
 43
0.00000001
 40
0.0
 40
0.0
 40
0.0
 40
0.0
 40
0.0037789469317313
 40
0.2992979628761324
 40
0.5919886647591482
 40
1.0
 40
1.0
 40
1.0
 40
1.0
 10
72.66610401653978
 20
193.1312523191012
 30
0.0
 10
72.66653909020141
 20
193.1317138074059
 30
0.0
 10
72.70099754198012
 20
193.1682643364261
 30
0.0
 10
72.77065174420305
 20
193.2387341570286
 30
0.0
 10
72.89572615447423
 20
193.3510665321773
 30
0.0
 10
73.00340473580208
 20
193.4001995206223
 30
0.0
 10
73.06610482716296
 20
193.4288091366327
 30
0.0
  0
SPLINE
  5
1DC
330
1F
100
AcDbEntity
  8
0
  6
Continuous
 62
     7
370
    25
100
AcDbSpline
210
0.0
220
0.0
230
1.0
 70
     8
 71
     3
 72
    10
 73
     6
 74
     0
 42
0.000000001
 43
0.00000001
 40
0.0
 40
0.0
 40
0.0
 40
0.0
 40
0.4082517227410928
 40
0.9962188138919076
 40
1.0
 40
1.0
 40
1.0
 40
1.0
 10
73.06610482716296
 20
192.1509362165964
 30
0.0
 10
73.00358137398221
 20
192.1798910792519
 30
0.0
 10
72.85101119019971
 20
192.2505469450433
 30
0.0
 10
72.73463195129798
 20
192.3758213595417
 30
0.0
 10
72.66653911990723
 20
192.4480316209767
 30
0.0
 10
72.66610401653978
 20
192.448493034128
 30
0.0
  0
LINE
  5
1DD
330
1F
100
AcDbEntity
  8
0
  6
Continuous
 62
     7
370
    25
100
AcDbLine
 10
72.6661040165
 20
193.1312523191
 30
0.0
 11
72.6661040165
 21
196.0820160215
 31
0.0
  0
SPLINE
  5
1DE
330
1F
100
AcDbEntity
  8
0
  6
Continuous
 62
     7
370
    25
100
AcDbSpline
210
0.0
220
0.0
230
1.0
 70
     8
 71
     3
 72
    11
 73
     7
 74
     0
 42
0.000000001
 43
0.00000001
 40
0.0
 40
0.0
 40
0.0
 40
0.0
 40
0.3833434105418153
 40
0.6883374085199412
 40
0.9962500673034194
 40
0.9999999999999999
 40
0.9999999999999999
 40
0.9999999999999999
 40
0.9999999999999999
 10
73.06610482716296
 20
196.0460356776751
 30
0.0
 10
73.00693656713678
 20
196.0506434359953
 30
0.0
 10
72.90069311634814
 20
196.0589171987208
 30
0.0
 10
72.77554139203785
 20
196.0728206973832
 30
0.0
 10
72.70269945040903
 20
196.0793028255391
 30
0.0
 10
72.66653909886371
 20
196.0819837643656
 30
0.0
 10
72.66610401653978
 20
196.0820160214938
 30
0.0
  0
SPLINE
  5
1DF
330
1F
100
AcDbEntity
  8
0
  6
Continuous
 62
     7
370
    25
100
AcDbSpline
210
0.0
220
0.0
230
1.0
 70
     8
 71
     3
 72
    10
 73
     6
 74
     0
 42
0.000000001
 43
0.00000001
 40
0.0
 40
0.0
 40
0.0
 40
0.0
 40
0.0037521809382603
 40
0.616426759031095
 40
1.0
 40
1.0
 40
1.0
 40
1.0
 10
72.66610401653978
 20
189.4977293317355
 30
0.0
 10
72.6665391311
 20
189.4977615772824
 30
0.0
 10
72.73802189341103
 20
189.5030590345017
 30
0.0
 10
72.85389918243038
 20
189.5169466189657
 30
0.0
 10
73.00711427450379
 20
189.5290497525174
 30
0.0
 10
73.06610482716296
 20
189.5337096755541
 30
0.0
  0
LINE
  5
1E0
330
1F
100
AcDbEntity
  8
0
  6
Continuous
 62
     7
370
    25
100
AcDbLine
 10
72.6661040165
 20
189.4977293317
 30
0.0
 11
72.6661040165
 21
192.4484930341
 31
0.0
  0
LINE
  5
1E1
330
1F
100
AcDbEntity
  8
0
  6
Continuous
 62
     7
370
    25
100
AcDbLine
 10
73.0661048272
 20
202.5984770958
 30
0.0
 11
73.0661048272
 21
203.1898725187
 31
0.0
  0
LINE
  5
1E2
330
1F
100
AcDbEntity
  8
0
  6
Continuous
 62
     7
370
    25
100
AcDbLine
 10
73.0661048272
 20
182.3898739522
 30
0.0
 11
73.0661048272
 21
182.9812682574
 31
0.0
  0
SPLINE
  5
1E3
330
1F
100
AcDbEntity
  8
0
  6
Continuous
 62
     7
370
    25
100
AcDbSpline
210
0.0
220
0.0
230
1.0
 70
     8
 71
     3
 72
    12
 73
     8
 74
     0
 42
0.000000001
 43
0.00000001
 40
0.0
 40
0.0
 40
0.0
 40
0.0
 40
0.1394661338909883
 40
0.3538129714386422
 40
0.5689674580226506
 40
0.7844860357215321
 40
1.0
 40
1.0
 40
1.0
 40
1.0
 10
72.66610401653978
 20
196.0820160214938
 30
0.0
 10
72.69534174668041
 20
196.0839405059384
 30
0.0
 10
72.76951522443132
 20
196.0888227489664
 30
0.0
 10
72.88201843726945
 20
196.1369795933007
 30
0.0
 10
72.98369563211595
 20
196.2280839658461
 30
0.0
 10
73.05279087031938
 20
196.3487182258083
 30
0.0
 10
73.06166687321561
 20
196.4392149699551
 30
0.0
 10
73.06610482716296
 20
196.4844628577269
 30
0.0
  0
SPLINE
  5
1E4
330
1F
100
AcDbEntity
  8
0
  6
Continuous
 62
     7
370
    25
100
AcDbSpline
210
0.0
220
0.0
230
1.0
 70
     8
 71
     3
 72
    12
 73
     8
 74
     0
 42
0.000000001
 43
0.00000001
 40
0.0
 40
0.0
 40
0.0
 40
0.0
 40
0.1351096261295876
 40
0.3503860435592419
 40
0.5650368408194028
 40
0.7789015822786312
 40
1.0
 40
1.0
 40
1.0
 40
1.0
 10
73.06610482716295
 20
189.0952817504442
 30
0.0
 10
73.06433241921395
 20
189.1235543718466
 30
0.0
 10
73.05973595168896
 20
189.1968750688093
 30
0.0
 10
73.01357460748959
 20
189.309015257468
 30
0.0
 10
72.92437308253862
 20
189.411925142998
 30
0.0
 10
72.80413040569519
 20
189.4835707449039
 30
0.0
 10
72.71262010179836
 20
189.4929577656876
 30
0.0
 10
72.66610401653978
 20
189.4977293317355
 30
0.0
  0
LINE
  5
1E5
330
1F
100
AcDbEntity
  8
0
  6
Continuous
 62
     7
370
    25
100
AcDbLine
 10
72.6661040165
 20
189.4898719494
 30
0.0
 11
72.6661040165
 21
189.4977293317
 31
0.0
  0
LINE
  5
1E6
330
1F
100
AcDbEntity
  8
0
  6
Continuous
 62
     7
370
    25
100
AcDbLine
 10
72.6661040165
 20
196.0820160215
 30
0.0
 11
72.6661040165
 21
196.0898719137
 31
0.0
  0
LINE
  5
1E7
330
1F
100
AcDbEntity
  8
0
  6
Continuous
 62
     7
370
    25
100
AcDbLine
 10
142.0661045887
 20
192.7898726766
 30
0.0
 11
142.0661045887
 21
182.9812682574
 31
0.0
  0
LINE
  5
1E8
330
1F
100
AcDbEntity
  8
0
  6
Continuous
 62
     7
370
    25
100
AcDbLine
 10
142.0661045887
 20
192.8403011863
 30
0.0
 11
142.0661045887
 21
192.7898726766
 31
0.0
  0
LINE
  5
1E9
330
1F
100
AcDbEntity
  8
0
  6
Continuous
 62
     7
370
    25
100
AcDbLine
 10
142.4661053994
 20
193.1312523191
 30
0.0
 11
142.4661053994
 21
192.4484930341
 31
0.0
  0
SPLINE
  5
1EA
330
1F
100
AcDbEntity
  8
0
  6
Continuous
 62
     7
370
    25
100
AcDbSpline
210
0.0
220
0.0
230
1.0
 70
     8
 71
     3
 72
    11
 73
     7
 74
     0
 42
0.000000001
 43
0.00000001
 40
0.0
 40
0.0
 40
0.0
 40
0.0
 40
0.0037789442410311
 40
0.2992998364213125
 40
0.5919903299015837
 40
0.9999999999999999
 40
0.9999999999999999
 40
0.9999999999999999
 40
0.9999999999999999
 10
142.4661053993675
 20
192.448493034128
 30
0.0
 10
142.4656703256774
 20
192.4480315458514
 30
0.0
 10
142.4312116313993
 20
192.4114807642315
 30
0.0
 10
142.3615582314527
 20
192.3410096669169
 30
0.0
 10
142.2364834360928
 20
192.22867737731
 30
0.0
 10
142.1288046886144
 20
192.1795452758582
 30
0.0
 10
142.0661045887444
 20
192.1509362165964
 30
0.0
  0
SPLINE
  5
1EB
330
1F
100
AcDbEntity
  8
0
  6
Continuous
 62
     7
370
    25
100
AcDbSpline
210
0.0
220
0.0
230
1.0
 70
     8
 71
     3
 72
     9
 73
     5
 74
     0
 42
0.000000001
 43
0.00000001
 40
0.0
 40
0.0
 40
0.0
 40
0.0
 40
0.9784100754574863
 40
1.0
 40
1.0
 40
1.0
 40
1.0
 10
142.4014760830376
 20
193.1909851138628
 30
0.0
 10
142.4232638456824
 20
193.1722508237298
 30
0.0
 10
142.4455323843978
 20
193.1531031364738
 30
0.0
 10
142.465670616457
 20
193.1317141066413
 30
0.0
 10
142.4661053993675
 20
193.1312523191012
 30
0.0
  0
LINE
  5
1EC
330
1F
100
AcDbEntity
  8
0
  6
Continuous
 62
     7
370
    25
100
AcDbLine
 10
142.4661053994
 20
193.236594588
 30
0.0
 11
142.4661053994
 21
193.1312523191
 31
0.0
  0
LINE
  5
1ED
330
1F
100
AcDbEntity
  8
0
  6
Continuous
 62
     7
370
    25
100
AcDbLine
 10
142.4661053994
 20
192.4484930341
 30
0.0
 11
142.4661053994
 21
189.4977293317
 31
0.0
  0
SPLINE
  5
1EE
330
1F
100
AcDbEntity
  8
0
  6
Continuous
 62
     7
370
    25
100
AcDbSpline
210
0.0
220
0.0
230
1.0
 70
     8
 71
     3
 72
    11
 73
     7
 74
     0
 42
0.000000001
 43
0.00000001
 40
0.0
 40
0.0
 40
0.0
 40
0.0
 40
0.3833434105418153
 40
0.6883374085199412
 40
0.9962500673034194
 40
0.9999999999999999
 40
0.9999999999999999
 40
0.9999999999999999
 40
0.9999999999999999
 10
142.0661045887444
 20
189.5337096755541
 30
0.0
 10
142.1252728487705
 20
189.5291019172339
 30
0.0
 10
142.2315162995592
 20
189.5208281545084
 30
0.0
 10
142.3566680238695
 20
189.5069246558459
 30
0.0
 10
142.4295099654983
 20
189.5004425276902
 30
0.0
 10
142.4656703170436
 20
189.4977615888636
 30
0.0
 10
142.4661053993675
 20
189.4977293317355
 30
0.0
  0
LINE
  5
1EF
330
1F
100
AcDbEntity
  8
0
  6
Continuous
 62
     7
370
    25
100
AcDbLine
 10
142.0661045887
 20
182.9812682574
 30
0.0
 11
142.0661045887
 21
182.3898739522
 31
0.0
  0
SPLINE
  5
1F0
330
1F
100
AcDbEntity
  8
0
  6
Continuous
 62
     7
370
    25
100
AcDbSpline
210
0.0
220
0.0
230
1.0
 70
     8
 71
     3
 72
    12
 73
     8
 74
     0
 42
0.000000001
 43
0.00000001
 40
0.0
 40
0.0
 40
0.0
 40
0.0
 40
0.1394663224238302
 40
0.3538121435907006
 40
0.5689665170547489
 40
0.7844849814422453
 40
1.0
 40
1.0
 40
1.0
 40
1.0
 10
142.4661053993675
 20
189.4977293317355
 30
0.0
 10
142.4368677102888
 20
189.4958041777731
 30
0.0
 10
142.3626946105268
 20
189.4909202542687
 30
0.0
 10
142.2501906034224
 20
189.4427663376864
 30
0.0
 10
142.1485138475242
 20
189.3516611988846
 30
0.0
 10
142.0794183993634
 20
189.2310269556191
 30
0.0
 10
142.070542501965
 20
189.1405299110144
 30
0.0
 10
142.0661045887444
 20
189.0952817504442
 30
0.0
  0
LINE
  5
1F1
330
1F
100
AcDbEntity
  8
0
  6
Continuous
 62
     7
370
    25
100
AcDbLine
 10
142.4661053994
 20
189.4977293317
 30
0.0
 11
142.4661053994
 21
189.4898719494
 31
0.0
  0
LINE
  5
1F2
330
1F
100
AcDbEntity
  8
0
  6
Continuous
 62
     7
370
    25
100
AcDbLine
 10
129.5661045887
 20
175.4698730414
 30
0.0
 11
119.3661047795
 21
175.4698730414
 31
0.0
  0
LINE
  5
1F3
330
1F
100
AcDbEntity
  8
0
  6
Continuous
 62
     7
370
    25
100
AcDbLine
 10
119.1746017613
 20
178.1898714011
 30
0.0
 11
114.999914048
 21
178.1898714011
 31
0.0
  0
SPLINE
  5
1F4
330
1F
100
AcDbEntity
  8
0
  6
Continuous
 62
     7
370
    25
100
AcDbSpline
210
0.0
220
0.0
230
1.0
 70
     8
 71
     3
 72
    12
 73
     8
 74
     0
 42
0.000000001
 43
0.00000001
 40
0.0
 40
0.0
 40
0.0
 40
0.0
 40
0.1795108785398584
 40
0.4638289750993572
 40
0.7592201066363891
 40
0.9959863677917902
 40
0.9999999999999999
 40
0.9999999999999999
 40
0.9999999999999999
 40
0.9999999999999999
 10
134.1034664490197
 20
178.5363830034769
 30
0.0
 10
134.0982276174353
 20
178.4985892466534
 30
0.0
 10
134.0846912685285
 20
178.4009358919644
 30
0.0
 10
134.0437938552455
 20
178.2839006762031
 30
0.0
 10
133.9905228272393
 20
178.2057696227994
 30
0.0
 10
133.9507752229058
 20
178.1899529067954
 30
0.0
 10
133.9325968508852
 20
178.1898727374422
 30
0.0
 10
133.9322938301537
 20
178.1898714010752
 30
0.0
  0
LINE
  5
1F5
330
1F
100
AcDbEntity
  8
0
  6
Continuous
 62
     7
370
    25
100
AcDbLine
 10
133.9322938302
 20
178.1898714011
 30
0.0
 11
129.7576068618
 21
178.1898714011
 31
0.0
  0
LINE
  5
1F6
330
1F
100
AcDbEntity
  8
0
  6
Continuous
 62
     7
370
    25
100
AcDbLine
 10
134.6661044934
 20
178.1898714011
 30
0.0
 11
133.9322938302
 21
178.1898714011
 31
0.0
  0
LINE
  5
1F7
330
1F
100
AcDbEntity
  8
0
  6
Continuous
 62
     7
370
    25
100
AcDbLine
 10
114.999914048
 20
178.1898714011
 30
0.0
 11
114.2661048748
 21
178.1898714011
 31
0.0
  0
LINE
  5
1F8
330
1F
100
AcDbEntity
  8
0
  6
Continuous
 62
     7
370
    25
100
AcDbLine
 10
97.5661045589
 20
175.2898729746
 30
0.0
 11
87.3661040046
 21
175.2898729746
 31
0.0
  0
LINE
  5
1F9
330
1F
100
AcDbEntity
  8
0
  6
Continuous
 62
     7
370
    25
100
AcDbLine
 10
101.9322949179
 20
178.0098713343
 30
0.0
 11
101.7974680939
 21
178.0098713343
 31
0.0
  0
LINE
  5
1FA
330
1F
100
AcDbEntity
  8
0
  6
Continuous
 62
     7
370
    25
100
AcDbLine
 10
99.1298942544
 20
178.0098713343
 30
0.0
 11
97.7576075771
 21
178.0098713343
 31
0.0
  0
LINE
  5
1FB
330
1F
100
AcDbEntity
  8
0
  6
Continuous
 62
     7
370
    25
100
AcDbLine
 10
87.1746017315
 20
178.0098713343
 30
0.0
 11
85.7974677064
 21
178.0098713343
 31
0.0
  0
LINE
  5
1FC
330
1F
100
AcDbEntity
  8
0
  6
Continuous
 62
     7
370
    25
100
AcDbLine
 10
83.1298946121
 20
178.0098713343
 30
0.0
 11
82.9999147632
 21
178.0098713343
 31
0.0
  0
LINE
  5
1FD
330
1F
100
AcDbEntity
  8
0
  6
Continuous
 62
     7
370
    25
100
AcDbLine
 10
102.6661048361
 20
178.0098713343
 30
0.0
 11
101.9322949179
 21
178.0098713343
 31
0.0
  0
LINE
  5
1FE
330
1F
100
AcDbEntity
  8
0
  6
Continuous
 62
     7
370
    25
100
AcDbLine
 10
82.9999147632
 20
178.0098713343
 30
0.0
 11
82.2661055901
 21
178.0098713343
 31
0.0
  0
ELLIPSE
  5
1FF
330
1F
100
AcDbEntity
  8
0
  6
Continuous
 62
     7
370
    25
100
AcDbEllipse
 10
138.3656934222
 20
181.0902838074
 30
0.0
 11
1.909769910757859
 21
-1.909769910757859
 31
0.0
210
0.0
220
0.0
230
1.0
 40
0.9996954599
 41
0.7261129271811817
 42
0.7852458701498755
  0
ELLIPSE
  5
200
330
1F
100
AcDbEntity
  8
0
  6
Continuous
 62
     7
370
    25
100
AcDbEllipse
 10
138.2928489724
 20
181.1631282572
 30
0.0
 11
2.53941639964529
 21
-1.077918309519077
 31
0.0
210
0.0
220
0.0
230
1.0
 40
0.9751955544
 41
0.0969060091214177
 42
0.3240669365865571
  0
ELLIPSE
  5
201
330
1F
100
AcDbEntity
  8
0
  6
Continuous
 62
     7
370
    25
100
AcDbEllipse
 10
138.3656934222
 20
181.0902838074
 30
0.0
 11
1.909769910757859
 21
-1.909769910757859
 31
0.0
210
0.0
220
0.0
230
1.0
 40
0.9996954599
 41
5.497939437029736
 42
6.783284049686816
  0
ELLIPSE
  5
202
330
1F
100
AcDbEntity
  8
0
  6
Continuous
 62
     7
370
    25
100
AcDbEllipse
 10
76.7665159937
 20
236.6894612359
 30
0.0
 11
-1.909769910757859
 21
1.909769910757859
 31
0.0
210
0.0
220
0.0
230
1.0
 40
0.9996954599
 41
0.726112927181191
 42
0.785245870149863
  0
ELLIPSE
  5
203
330
1F
100
AcDbEntity
  8
0
  6
Continuous
 62
     7
370
    25
100
AcDbEllipse
 10
76.8393604435
 20
236.6166167861
 30
0.0
 11
2.539416399645305
 21
-1.077918309519106
 31
0.0
210
0.0
220
0.0
230
1.0
 40
0.9751955544
 41
3.238498662711242
 42
3.465659590176388
  0
ELLIPSE
  5
204
330
1F
100
AcDbEntity
  8
0
  6
Continuous
 62
     7
370
    25
100
AcDbEllipse
 10
76.7665159937
 20
236.6894612359
 30
0.0
 11
-1.909769910757859
 21
1.909769910757859
 31
0.0
210
0.0
220
0.0
230
1.0
 40
0.9996954599
 41
5.497939437029737
 42
6.783284049686823
  0
ELLIPSE
  5
205
330
1F
100
AcDbEntity
  8
0
  6
Continuous
 62
     7
370
    25
100
AcDbEllipse
 10
76.7665159937
 20
181.0902838074
 30
0.0
 11
-1.909769910757859
 21
-1.909769910757859
 31
0.0
210
0.0
220
0.0
230
1.0
 40
0.9996954599
 41
5.78308656467237
 42
7.068431177329453
  0
ELLIPSE
  5
206
330
1F
100
AcDbEntity
  8
0
  6
Continuous
 62
     7
370
    25
100
AcDbEllipse
 10
76.8393604435
 20
181.1631282572
 30
0.0
 11
2.539416399645305
 21
1.077918309519077
 31
0.0
210
0.0
220
0.0
230
1.0
 40
0.9751955544
 41
2.817525717003231
 42
3.044686644468379
  0
ELLIPSE
  5
207
330
1F
100
AcDbEntity
  8
0
  6
Continuous
 62
     7
370
    25
100
AcDbEllipse
 10
76.7665159937
 20
181.0902838074
 30
0.0
 11
-1.909769910757859
 21
-1.909769910757859
 31
0.0
210
0.0
220
0.0
230
1.0
 40
0.9996954599
 41
5.497939437029734
 42
5.557072379998416
  0
ELLIPSE
  5
208
330
1F
100
AcDbEntity
  8
0
  6
Continuous
 62
     7
370
    25
100
AcDbEllipse
 10
138.3656934222
 20
236.6894612359
 30
0.0
 11
1.909769910757859
 21
1.909769910757888
 31
0.0
210
0.0
220
0.0
230
1.0
 40
0.9996954599
 41
5.783086564672346
 42
7.068431177329451
  0
ELLIPSE
  5
209
330
1F
100
AcDbEntity
  8
0
  6
Continuous
 62
     7
370
    25
100
AcDbEllipse
 10
138.2928489724
 20
236.6166167861
 30
0.0
 11
2.539416399645319
 21
1.077918309519077
 31
0.0
210
0.0
220
0.0
230
1.0
 40
0.9751955544
 41
5.959118370593025
 42
6.186279298058154
  0
ELLIPSE
  5
20A
330
1F
100
AcDbEntity
  8
0
  6
Continuous
 62
     7
370
    25
100
AcDbEllipse
 10
138.3656934222
 20
236.6894612359
 30
0.0
 11
1.909769910757859
 21
1.909769910757888
 31
0.0
210
0.0
220
0.0
230
1.0
 40
0.9996954599
 41
5.49793943702972
 42
5.557072379998393
  0
LINE
  5
20B
330
1F
100
AcDbEntity
  8
0
  6
Continuous
 62
     7
370
    25
100
AcDbLine
 10
76.7656936028
 20
178.3898718064
 30
0.0
 11
81.7078931906
 21
178.3898718064
 31
0.0
  0
LINE
  5
20C
330
1F
100
AcDbEntity
  8
0
  6
Continuous
 62
     7
370
    25
100
AcDbLine
 10
103.224316118
 20
178.3898718064
 30
0.0
 11
113.8188912251
 21
178.3898718064
 31
0.0
  0
LINE
  5
20D
330
1F
100
AcDbEntity
  8
0
  6
Continuous
 62
     7
370
    25
100
AcDbLine
 10
135.1133181431
 20
178.3898718064
 30
0.0
 11
138.3665158131
 21
178.3898718064
 31
0.0
  0
LINE
  5
20E
330
1F
100
AcDbEntity
  8
0
  6
Continuous
 62
     7
370
    25
100
AcDbLine
 10
138.3665158131
 20
239.3898732369
 30
0.0
 11
135.2661057093
 21
239.3898732369
 31
0.0
  0
LINE
  5
20F
330
1F
100
AcDbEntity
  8
0
  6
Continuous
 62
     7
370
    25
100
AcDbLine
 10
113.6661047765
 20
239.3898732369
 30
0.0
 11
76.7656936028
 21
239.3898732369
 31
0.0
  0
LINE
  5
210
330
1F
100
AcDbEntity
  8
0
  6
Continuous
 62
     7
370
    25
100
AcDbLine
 10
141.0661055424
 20
234.1898716395
 30
0.0
 11
141.0661055424
 21
236.6902835076
 31
0.0
  0
LINE
  5
211
330
1F
100
AcDbEntity
  8
0
  6
Continuous
 62
     7
370
    25
100
AcDbLine
 10
141.0661055424
 20
219.2898727362
 30
0.0
 11
141.0661055424
 21
226.9898719494
 31
0.0
  0
LINE
  5
212
330
1F
100
AcDbEntity
  8
0
  6
Continuous
 62
     7
370
    25
100
AcDbLine
 10
141.0661055424
 20
181.0894615357
 30
0.0
 11
141.0661055424
 21
181.9898731415
 31
0.0
  0
LINE
  5
213
330
1F
100
AcDbEntity
  8
0
  6
Continuous
 62
     7
370
    25
100
AcDbLine
 10
74.0661038735
 20
181.9898731415
 30
0.0
 11
74.0661038735
 21
181.0894615357
 31
0.0
  0
LINE
  5
214
330
1F
100
AcDbEntity
  8
0
  6
Continuous
 62
     7
370
    25
100
AcDbLine
 10
74.1533799746
 20
203.9898543959
 30
0.0
 11
74.1533799746
 21
203.5898725842
 31
0.0
  0
LINE
  5
215
330
1F
100
AcDbEntity
  8
0
  6
Continuous
 62
     7
370
    25
100
AcDbLine
 10
74.0661038735
 20
226.9898719494
 30
0.0
 11
74.0661038735
 21
219.2898727362
 31
0.0
  0
LINE
  5
216
330
1F
100
AcDbEntity
  8
0
  6
Continuous
 62
     7
370
    25
100
AcDbLine
 10
74.0661038735
 20
236.6902835076
 30
0.0
 11
74.0661038735
 21
234.1898716395
 31
0.0
  0
LINE
  5
217
330
1F
100
AcDbEntity
  8
0
  6
Continuous
 62
     7
370
    25
100
AcDbLine
 10
73.8661034682
 20
203.5898725842
 30
0.0
 11
73.8661034682
 21
218.2898721998
 31
0.0
  0
LINE
  5
218
330
1F
100
AcDbEntity
  8
0
  6
Continuous
 62
     7
370
    25
100
AcDbLine
 10
74.120931206
 20
219.2898727362
 30
0.0
 11
73.8661034682
 21
219.2898727362
 31
0.0
  0
LINE
  5
219
330
1F
100
AcDbEntity
  8
0
  6
Continuous
 62
     7
370
    25
100
AcDbLine
 10
73.8661034682
 20
218.2898721998
 30
0.0
 11
73.8661034682
 21
219.2898727362
 31
0.0
  0
LINE
  5
21A
330
1F
100
AcDbEntity
  8
0
  6
Continuous
 62
     7
370
    25
100
AcDbLine
 10
141.2661059477
 20
218.2898721998
 30
0.0
 11
141.2661059477
 21
207.7872594227
 31
0.0
  0
LINE
  5
21B
330
1F
100
AcDbEntity
  8
0
  6
Continuous
 62
     7
370
    25
100
AcDbLine
 10
141.0112424471
 20
219.2898727362
 30
0.0
 11
141.2661059477
 21
219.2898727362
 31
0.0
  0
LINE
  5
21C
330
1F
100
AcDbEntity
  8
0
  6
Continuous
 62
     7
370
    25
100
AcDbLine
 10
141.2661059477
 20
219.2898727362
 30
0.0
 11
141.2661059477
 21
218.2898721998
 31
0.0
  0
LINE
  5
21D
330
1F
100
AcDbEntity
  8
0
  6
Continuous
 62
     7
370
    25
100
AcDbLine
 10
73.8661034682
 20
227.7898720806
 30
0.0
 11
73.8661034682
 21
233.3898729985
 31
0.0
  0
LINE
  5
21E
330
1F
100
AcDbEntity
  8
0
  6
Continuous
 62
     7
370
    25
100
AcDbLine
 10
74.1209133246
 20
226.9898719494
 30
0.0
 11
73.8661034682
 21
226.9898719494
 31
0.0
  0
LINE
  5
21F
330
1F
100
AcDbEntity
  8
0
  6
Continuous
 62
     7
370
    25
100
AcDbLine
 10
73.8661034682
 20
226.9898719494
 30
0.0
 11
73.8661034682
 21
227.7898720806
 31
0.0
  0
LINE
  5
220
330
1F
100
AcDbEntity
  8
0
  6
Continuous
 62
     7
370
    25
100
AcDbLine
 10
141.2661059477
 20
226.9898719494
 30
0.0
 11
141.0112960913
 21
226.9898719494
 31
0.0
  0
LINE
  5
221
330
1F
100
AcDbEntity
  8
0
  6
Continuous
 62
     7
370
    25
100
AcDbLine
 10
141.2661059477
 20
227.7898720806
 30
0.0
 11
141.2661059477
 21
226.9898719494
 31
0.0
  0
LINE
  5
222
330
1F
100
AcDbEntity
  8
0
  6
Continuous
 62
     7
370
    25
100
AcDbLine
 10
141.0112960913
 20
234.1898716395
 30
0.0
 11
141.2661059477
 21
234.1898716395
 31
0.0
  0
LINE
  5
223
330
1F
100
AcDbEntity
  8
0
  6
Continuous
 62
     7
370
    25
100
AcDbLine
 10
141.2661059477
 20
234.1898716395
 30
0.0
 11
141.2661059477
 21
233.3898729985
 31
0.0
  0
LINE
  5
224
330
1F
100
AcDbEntity
  8
0
  6
Continuous
 62
     7
370
    25
100
AcDbLine
 10
141.2661059477
 20
227.7898720806
 30
0.0
 11
141.2661059477
 21
233.3898729985
 31
0.0
  0
LINE
  5
225
330
1F
100
AcDbEntity
  8
0
  6
Continuous
 62
     7
370
    25
100
AcDbLine
 10
73.8661034682
 20
234.1898716395
 30
0.0
 11
74.1209133246
 21
234.1898716395
 31
0.0
  0
LINE
  5
226
330
1F
100
AcDbEntity
  8
0
  6
Continuous
 62
     7
370
    25
100
AcDbLine
 10
73.8661034682
 20
233.3898729985
 30
0.0
 11
73.8661034682
 21
234.1898716395
 31
0.0
  0
LINE
  5
227
330
1F
100
AcDbEntity
  8
0
  6
Continuous
 62
     7
370
    25
100
AcDbLine
 10
73.6661060431
 20
180.3298718636
 30
0.0
 11
73.6661060431
 21
180.9298730795
 31
0.0
  0
LINE
  5
228
330
1F
100
AcDbEntity
  8
0
  6
Continuous
 62
     7
370
    25
100
AcDbLine
 10
74.0974022725
 20
180.9298730795
 30
0.0
 11
73.6661060431
 21
180.9298730795
 31
0.0
  0
LINE
  5
229
330
1F
100
AcDbEntity
  8
0
  6
Continuous
 62
     7
370
    25
100
AcDbLine
 10
74.2101504185
 20
180.3298718636
 30
0.0
 11
73.6661060431
 21
180.3298718636
 31
0.0
  0
LINE
  5
22A
330
1F
100
AcDbEntity
  8
0
  6
Continuous
 62
     7
370
    25
100
AcDbLine
 10
74.0974022725
 20
236.8498719637
 30
0.0
 11
73.6661060431
 21
236.8498719637
 31
0.0
  0
LINE
  5
22B
330
1F
100
AcDbEntity
  8
0
  6
Continuous
 62
     7
370
    25
100
AcDbLine
 10
73.6661060431
 20
237.4498731797
 30
0.0
 11
73.6661060431
 21
236.8498719637
 31
0.0
  0
LINE
  5
22C
330
1F
100
AcDbEntity
  8
0
  6
Continuous
 62
     7
370
    25
100
AcDbLine
 10
74.2101504185
 20
237.4498731797
 30
0.0
 11
73.6661060431
 21
237.4498731797
 31
0.0
  0
LINE
  5
22D
330
1F
100
AcDbEntity
  8
0
  6
Continuous
 62
     7
370
    25
100
AcDbLine
 10
141.0348071434
 20
180.9298730795
 30
0.0
 11
141.4661033728
 21
180.9298730795
 31
0.0
  0
LINE
  5
22E
330
1F
100
AcDbEntity
  8
0
  6
Continuous
 62
     7
370
    25
100
AcDbLine
 10
141.4661033728
 20
180.3298718636
 30
0.0
 11
141.4661033728
 21
180.9298730795
 31
0.0
  0
LINE
  5
22F
330
1F
100
AcDbEntity
  8
0
  6
Continuous
 62
     7
370
    25
100
AcDbLine
 10
140.9220589974
 20
180.3298718636
 30
0.0
 11
141.4661033728
 21
180.3298718636
 31
0.0
  0
LINE
  5
230
330
1F
100
AcDbEntity
  8
0
  6
Continuous
 62
     7
370
    25
100
AcDbLine
 10
141.4661033728
 20
237.4498731797
 30
0.0
 11
141.4661033728
 21
236.8498719637
 31
0.0
  0
LINE
  5
231
330
1F
100
AcDbEntity
  8
0
  6
Continuous
 62
     7
370
    25
100
AcDbLine
 10
141.0348071434
 20
236.8498719637
 30
0.0
 11
141.4661033728
 21
236.8498719637
 31
0.0
  0
LINE
  5
232
330
1F
100
AcDbEntity
  8
0
  6
Continuous
 62
     7
370
    25
100
AcDbLine
 10
140.9220589974
 20
237.4498731797
 30
0.0
 11
141.4661033728
 21
237.4498731797
 31
0.0
  0
LINE
  5
233
330
1F
100
AcDbEntity
  8
0
  6
Continuous
 62
     7
370
    25
100
AcDbLine
 10
76.7661048748
 20
178.1898714011
 30
0.0
 11
81.8376197197
 21
178.1898714011
 31
0.0
  0
LINE
  5
234
330
1F
100
AcDbEntity
  8
0
  6
Continuous
 62
     7
370
    25
100
AcDbLine
 10
103.0945903339
 20
178.1898714011
 30
0.0
 11
114.2661048748
 21
178.1898714011
 31
0.0
  0
LINE
  5
235
330
1F
100
AcDbEntity
  8
0
  6
Continuous
 62
     7
370
    25
100
AcDbLine
 10
134.6661044934
 20
178.1898714011
 30
0.0
 11
138.3661045411
 21
178.1898714011
 31
0.0
  0
ARC
  5
236
330
1F
100
AcDbEntity
  8
0
  6
Continuous
 62
     7
370
    25
100
AcDbCircle
 10
76.766104708
 20
181.0898725216
 30
0.0
 40
2.900000000000008
100
AcDbArc
 50
195.192862725
 51
270.0
  0
ARC
  5
237
330
1F
100
AcDbEntity
  8
0
  6
Continuous
 62
     7
370
    25
100
AcDbCircle
 10
138.366104708
 20
181.0898725216
 30
0.0
 40
2.899999999999995
100
AcDbArc
 50
270.0
 51
344.807137275
  0
LINE
  5
238
330
1F
100
AcDbEntity
  8
0
  6
Continuous
 62
     7
370
    25
100
AcDbLine
 10
141.2661059477
 20
219.2898727362
 30
0.0
 11
141.2661059477
 21
226.9898719494
 31
0.0
  0
LINE
  5
239
330
1F
100
AcDbEntity
  8
0
  6
Continuous
 62
     7
370
    25
100
AcDbLine
 10
73.8661034682
 20
226.9898719494
 30
0.0
 11
73.8661034682
 21
219.2898727362
 31
0.0
  0
ARC
  5
23A
330
1F
100
AcDbEntity
  8
0
  6
Continuous
 62
     7
370
    25
100
AcDbCircle
 10
138.366104708
 20
181.0898725216
 30
0.0
 40
2.900000000000006
100
AcDbArc
 50
356.8372475908
 51
0.0
  0
LINE
  5
23B
330
1F
100
AcDbEntity
  8
0
  6
Continuous
 62
     7
370
    25
100
AcDbLine
 10
141.2661059477
 20
181.0898728077
 30
0.0
 11
141.2661059477
 21
181.9898731415
 31
0.0
  0
ARC
  5
23C
330
1F
100
AcDbEntity
  8
0
  6
Continuous
 62
     7
370
    25
100
AcDbCircle
 10
76.766104708
 20
181.0898725216
 30
0.0
 40
2.900000000000011
100
AcDbArc
 50
180.0
 51
183.1627524092
  0
LINE
  5
23D
330
1F
100
AcDbEntity
  8
0
  6
Continuous
 62
     7
370
    25
100
AcDbLine
 10
73.8661034682
 20
181.9898731415
 30
0.0
 11
73.8661034682
 21
181.0898728077
 31
0.0
  0
ARC
  5
23E
330
1F
100
AcDbEntity
  8
0
  6
Continuous
 62
     7
370
    25
100
AcDbCircle
 10
76.766104708
 20
236.6898725216
 30
0.0
 40
2.90000000000002
100
AcDbArc
 50
176.8372475908
 51
180.0
  0
LINE
  5
23F
330
1F
100
AcDbEntity
  8
0
  6
Continuous
 62
     7
370
    25
100
AcDbLine
 10
73.8661034682
 20
236.6898722355
 30
0.0
 11
73.8661034682
 21
234.1898716395
 31
0.0
  0
ARC
  5
240
330
1F
100
AcDbEntity
  8
0
  6
Continuous
 62
     7
370
    25
100
AcDbCircle
 10
138.366104708
 20
236.6898725216
 30
0.0
 40
2.899999999999993
100
AcDbArc
 50
0.0
 51
3.1627524092
  0
LINE
  5
241
330
1F
100
AcDbEntity
  8
0
  6
Continuous
 62
     7
370
    25
100
AcDbLine
 10
141.2661059477
 20
234.1898716395
 30
0.0
 11
141.2661059477
 21
236.6898722355
 31
0.0
  0
ARC
  5
242
330
1F
100
AcDbEntity
  8
0
  6
Continuous
 62
     7
370
    25
100
AcDbCircle
 10
138.366104708
 20
236.6898725216
 30
0.0
 40
2.899999999999979
100
AcDbArc
 50
15.192862725
 51
90.0
  0
ARC
  5
243
330
1F
100
AcDbEntity
  8
0
  6
Continuous
 62
     7
370
    25
100
AcDbCircle
 10
76.766104708
 20
236.6898725216
 30
0.0
 40
2.900000000000006
100
AcDbArc
 50
90.0
 51
164.807137275
  0
LINE
  5
244
330
1F
100
AcDbEntity
  8
0
  6
Continuous
 62
     7
370
    25
100
AcDbLine
 10
138.3661045411
 20
239.5898736422
 30
0.0
 11
135.2661057093
 21
239.5898736422
 31
0.0
  0
LINE
  5
245
330
1F
100
AcDbEntity
  8
0
  6
Continuous
 62
     7
370
    25
100
AcDbLine
 10
113.6661047765
 20
239.5898736422
 30
0.0
 11
76.7661048748
 21
239.5898736422
 31
0.0
  0
LINE
  5
246
330
1F
100
AcDbEntity
  8
SLD-0
  6
HIDDEN
 62
    70
370
    18
100
AcDbLine
 10
140.066104708
 20
204.7798656153
 30
0.0
 11
140.066104708
 21
180.7932624557
 31
0.0
  0
LINE
  5
247
330
1F
100
AcDbEntity
  8
SLD-0
  6
HIDDEN
 62
    70
370
    18
100
AcDbLine
 10
140.066104708
 20
180.7932624557
 30
0.0
 11
139.266104708
 21
180.7932624557
 31
0.0
  0
LINE
  5
248
330
1F
100
AcDbEntity
  8
SLD-0
  6
HIDDEN
 62
    70
370
    18
100
AcDbLine
 10
139.266104708
 20
180.7932624557
 30
0.0
 11
139.266104708
 21
181.2051321849
 31
0.0
  0
LINE
  5
249
330
1F
100
AcDbEntity
  8
SLD-0
  6
HIDDEN
 62
    70
370
    18
100
AcDbLine
 10
139.266104708
 20
181.2051321849
 30
0.0
 11
137.266104708
 21
181.2051321849
 31
0.0
  0
LINE
  5
24A
330
1F
100
AcDbEntity
  8
SLD-0
  6
HIDDEN
 62
    70
370
    18
100
AcDbLine
 10
137.266104708
 20
204.3745141347
 30
0.0
 11
137.266104708
 21
202.4898725216
 31
0.0
  0
LINE
  5
24B
330
1F
100
AcDbEntity
  8
SLD-0
  6
HIDDEN
 62
    70
370
    18
100
AcDbLine
 10
137.266104708
 20
186.4898725216
 30
0.0
 11
138.066104708
 21
186.4898725216
 31
0.0
  0
LINE
  5
24C
330
1F
100
AcDbEntity
  8
SLD-0
  6
HIDDEN
 62
    70
370
    18
100
AcDbLine
 10
138.066104708
 20
186.4898725216
 30
0.0
 11
138.066104708
 21
183.0898725216
 31
0.0
  0
LINE
  5
24D
330
1F
100
AcDbEntity
  8
SLD-0
  6
HIDDEN
 62
    70
370
    18
100
AcDbLine
 10
138.066104708
 20
183.0898725216
 30
0.0
 11
137.266104708
 21
183.0898725216
 31
0.0
  0
LINE
  5
24E
330
1F
100
AcDbEntity
  8
SLD-0
  6
HIDDEN
 62
    70
370
    18
100
AcDbLine
 10
136.474941279
 20
238.3558527892
 30
0.0
 11
136.474941279
 21
235.5898725216
 31
0.0
  0
LINE
  5
24F
330
1F
100
AcDbEntity
  8
SLD-0
  6
HIDDEN
 62
    70
370
    18
100
AcDbLine
 10
136.474941279
 20
235.5898725216
 30
0.0
 11
134.166104708
 21
235.5898725216
 31
0.0
  0
LINE
  5
250
330
1F
100
AcDbEntity
  8
SLD-0
  6
HIDDEN
 62
    70
370
    18
100
AcDbLine
 10
134.166104708
 20
235.5898725216
 30
0.0
 11
134.166104708
 21
236.3898725216
 31
0.0
  0
LINE
  5
251
330
1F
100
AcDbEntity
  8
SLD-0
  6
HIDDEN
 62
    70
370
    18
100
AcDbLine
 10
134.166104708
 20
236.3898725216
 30
0.0
 11
130.766104708
 21
236.3898725216
 31
0.0
  0
LINE
  5
252
330
1F
100
AcDbEntity
  8
SLD-0
  6
HIDDEN
 62
    70
370
    18
100
AcDbLine
 10
130.766104708
 20
236.3898725216
 30
0.0
 11
130.766104708
 21
235.5898725216
 31
0.0
  0
LINE
  5
253
330
1F
100
AcDbEntity
  8
SLD-0
  6
HIDDEN
 62
    70
370
    18
100
AcDbLine
 10
130.766104708
 20
235.5898725216
 30
0.0
 11
118.166104708
 21
235.5898725216
 31
0.0
  0
LINE
  5
254
330
1F
100
AcDbEntity
  8
SLD-0
  6
HIDDEN
 62
    70
370
    18
100
AcDbLine
 10
118.166104708
 20
235.5898725216
 30
0.0
 11
118.166104708
 21
236.3898725216
 31
0.0
  0
LINE
  5
255
330
1F
100
AcDbEntity
  8
SLD-0
  6
HIDDEN
 62
    70
370
    18
100
AcDbLine
 10
118.166104708
 20
236.3898725216
 30
0.0
 11
114.766104708
 21
236.3898725216
 31
0.0
  0
LINE
  5
256
330
1F
100
AcDbEntity
  8
SLD-0
  6
HIDDEN
 62
    70
370
    18
100
AcDbLine
 10
114.766104708
 20
236.3898725216
 30
0.0
 11
114.766104708
 21
235.5898725216
 31
0.0
  0
LINE
  5
257
330
1F
100
AcDbEntity
  8
SLD-0
  6
HIDDEN
 62
    70
370
    18
100
AcDbLine
 10
114.766104708
 20
235.5898725216
 30
0.0
 11
112.4649933685
 21
235.5898725216
 31
0.0
  0
LINE
  5
258
330
1F
100
AcDbEntity
  8
SLD-0
  6
HIDDEN
 62
    70
370
    18
100
AcDbLine
 10
112.4649933685
 20
235.5898725216
 30
0.0
 11
112.4649933685
 21
238.3558527892
 31
0.0
  0
LINE
  5
259
330
1F
100
AcDbEntity
  8
SLD-0
  6
HIDDEN
 62
    70
370
    18
100
AcDbLine
 10
137.266104708
 20
183.0898725216
 30
0.0
 11
137.266104708
 21
181.2051321849
 31
0.0
  0
LINE
  5
25A
330
1F
100
AcDbEntity
  8
SLD-0
  6
HIDDEN
 62
    70
370
    18
100
AcDbLine
 10
139.266104708
 20
204.3745141347
 30
0.0
 11
137.266104708
 21
204.3745141347
 31
0.0
  0
LINE
  5
25B
330
1F
100
AcDbEntity
  8
SLD-0
  6
HIDDEN
 62
    70
370
    18
100
AcDbLine
 10
139.266104708
 20
204.3745141347
 30
0.0
 11
139.266104708
 21
204.7798656153
 31
0.0
  0
LINE
  5
25C
330
1F
100
AcDbEntity
  8
SLD-0
  6
HIDDEN
 62
    70
370
    18
100
AcDbLine
 10
139.266104708
 20
204.7798656153
 30
0.0
 11
140.066104708
 21
204.7798656153
 31
0.0
  0
LINE
  5
25D
330
1F
100
AcDbEntity
  8
SLD-0
  6
HIDDEN
 62
    70
370
    18
100
AcDbLine
 10
137.266104708
 20
202.4898725216
 30
0.0
 11
138.066104708
 21
202.4898725216
 31
0.0
  0
LINE
  5
25E
330
1F
100
AcDbEntity
  8
SLD-0
  6
HIDDEN
 62
    70
370
    18
100
AcDbLine
 10
138.066104708
 20
202.4898725216
 30
0.0
 11
138.066104708
 21
199.0898725216
 31
0.0
  0
LINE
  5
25F
330
1F
100
AcDbEntity
  8
SLD-0
  6
HIDDEN
 62
    70
370
    18
100
AcDbLine
 10
138.066104708
 20
199.0898725216
 30
0.0
 11
137.266104708
 21
199.0898725216
 31
0.0
  0
LINE
  5
260
330
1F
100
AcDbEntity
  8
SLD-0
  6
HIDDEN
 62
    70
370
    18
100
AcDbLine
 10
137.266104708
 20
199.0898725216
 30
0.0
 11
137.266104708
 21
186.4898725216
 31
0.0
  0
LINE
  5
261
330
1F
100
AcDbEntity
  8
SLD-0
  6
HIDDEN
 62
    70
370
    18
100
AcDbLine
 10
136.0609355864
 20
180.5898725216
 30
0.0
 11
136.0609355864
 21
183.0898725216
 31
0.0
  0
LINE
  5
262
330
1F
100
AcDbEntity
  8
SLD-0
  6
HIDDEN
 62
    70
370
    18
100
AcDbLine
 10
136.0609355864
 20
183.0898725216
 30
0.0
 11
134.166104708
 21
183.0898725216
 31
0.0
  0
LINE
  5
263
330
1F
100
AcDbEntity
  8
SLD-0
  6
HIDDEN
 62
    70
370
    18
100
AcDbLine
 10
134.166104708
 20
183.0898725216
 30
0.0
 11
134.166104708
 21
182.5898725216
 31
0.0
  0
LINE
  5
264
330
1F
100
AcDbEntity
  8
SLD-0
  6
HIDDEN
 62
    70
370
    18
100
AcDbLine
 10
134.166104708
 20
182.5898725216
 30
0.0
 11
130.766104708
 21
182.5898725216
 31
0.0
  0
LINE
  5
265
330
1F
100
AcDbEntity
  8
SLD-0
  6
HIDDEN
 62
    70
370
    18
100
AcDbLine
 10
130.766104708
 20
182.5898725216
 30
0.0
 11
130.766104708
 21
183.3898725216
 31
0.0
  0
LINE
  5
266
330
1F
100
AcDbEntity
  8
SLD-0
  6
HIDDEN
 62
    70
370
    18
100
AcDbLine
 10
130.766104708
 20
183.3898725216
 30
0.0
 11
118.166104708
 21
183.3898725216
 31
0.0
  0
LINE
  5
267
330
1F
100
AcDbEntity
  8
SLD-0
  6
HIDDEN
 62
    70
370
    18
100
AcDbLine
 10
118.166104708
 20
183.3898725216
 30
0.0
 11
118.166104708
 21
182.5898725216
 31
0.0
  0
LINE
  5
268
330
1F
100
AcDbEntity
  8
SLD-0
  6
HIDDEN
 62
    70
370
    18
100
AcDbLine
 10
118.166104708
 20
182.5898725216
 30
0.0
 11
114.766104708
 21
182.5898725216
 31
0.0
  0
LINE
  5
269
330
1F
100
AcDbEntity
  8
SLD-0
  6
HIDDEN
 62
    70
370
    18
100
AcDbLine
 10
114.766104708
 20
182.5898725216
 30
0.0
 11
114.766104708
 21
183.3898725216
 31
0.0
  0
LINE
  5
26A
330
1F
100
AcDbEntity
  8
SLD-0
  6
HIDDEN
 62
    70
370
    18
100
AcDbLine
 10
114.766104708
 20
183.3898725216
 30
0.0
 11
112.9177314931
 21
183.3898725216
 31
0.0
  0
LINE
  5
26B
330
1F
100
AcDbEntity
  8
SLD-0
  6
HIDDEN
 62
    70
370
    18
100
AcDbLine
 10
112.9177314931
 20
183.3898725216
 30
0.0
 11
112.9178157323
 21
180.5898725216
 31
0.0
  0
LINE
  5
26C
330
1F
100
AcDbEntity
  8
SLD-0
  6
HIDDEN
 62
    70
370
    18
100
AcDbLine
 10
112.9178157323
 20
180.5898725216
 30
0.0
 11
136.0609355864
 21
180.5898725216
 31
0.0
  0
LINE
  5
26D
330
1F
100
AcDbEntity
  8
SLD-0
  6
HIDDEN
 62
    70
370
    18
100
AcDbLine
 10
102.166104708
 20
183.3898725216
 30
0.0
 11
104.0144779228
 21
183.3898725216
 31
0.0
  0
LINE
  5
26E
330
1F
100
AcDbEntity
  8
SLD-0
  6
HIDDEN
 62
    70
370
    18
100
AcDbLine
 10
104.0144779228
 20
183.3898725216
 30
0.0
 11
104.0144779228
 21
180.6004298025
 31
0.0
  0
LINE
  5
26F
330
1F
100
AcDbEntity
  8
SLD-0
  6
HIDDEN
 62
    70
370
    18
100
AcDbLine
 10
104.0144779228
 20
180.6004298025
 30
0.0
 11
80.9177314931
 21
180.6004298025
 31
0.0
  0
LINE
  5
270
330
1F
100
AcDbEntity
  8
SLD-0
  6
HIDDEN
 62
    70
370
    18
100
AcDbLine
 10
80.9177314931
 20
180.6004298025
 30
0.0
 11
80.9177314931
 21
183.3898725216
 31
0.0
  0
LINE
  5
271
330
1F
100
AcDbEntity
  8
SLD-0
  6
HIDDEN
 62
    70
370
    18
100
AcDbLine
 10
80.9177314931
 20
183.3898725216
 30
0.0
 11
82.766104708
 21
183.3898725216
 31
0.0
  0
LINE
  5
272
330
1F
100
AcDbEntity
  8
SLD-0
  6
HIDDEN
 62
    70
370
    18
100
AcDbLine
 10
82.766104708
 20
183.3898725216
 30
0.0
 11
82.766104708
 21
182.5898725216
 31
0.0
  0
LINE
  5
273
330
1F
100
AcDbEntity
  8
SLD-0
  6
HIDDEN
 62
    70
370
    18
100
AcDbLine
 10
82.766104708
 20
182.5898725216
 30
0.0
 11
86.166104708
 21
182.5898725216
 31
0.0
  0
LINE
  5
274
330
1F
100
AcDbEntity
  8
SLD-0
  6
HIDDEN
 62
    70
370
    18
100
AcDbLine
 10
86.166104708
 20
182.5898725216
 30
0.0
 11
86.166104708
 21
183.3898725216
 31
0.0
  0
LINE
  5
275
330
1F
100
AcDbEntity
  8
SLD-0
  6
HIDDEN
 62
    70
370
    18
100
AcDbLine
 10
86.166104708
 20
183.3898725216
 30
0.0
 11
98.766104708
 21
183.3898725216
 31
0.0
  0
LINE
  5
276
330
1F
100
AcDbEntity
  8
SLD-0
  6
HIDDEN
 62
    70
370
    18
100
AcDbLine
 10
98.766104708
 20
183.3898725216
 30
0.0
 11
98.766104708
 21
182.5898725216
 31
0.0
  0
LINE
  5
277
330
1F
100
AcDbEntity
  8
SLD-0
  6
HIDDEN
 62
    70
370
    18
100
AcDbLine
 10
98.766104708
 20
182.5898725216
 30
0.0
 11
102.166104708
 21
182.5898725216
 31
0.0
  0
LINE
  5
278
330
1F
100
AcDbEntity
  8
SLD-0
  6
HIDDEN
 62
    70
370
    18
100
AcDbLine
 10
102.166104708
 20
182.5898725216
 30
0.0
 11
102.166104708
 21
183.3898725216
 31
0.0
  0
LINE
  5
279
330
1F
100
AcDbEntity
  8
SLD-0
  6
HIDDEN
 62
    70
370
    18
100
AcDbLine
 10
77.866104708
 20
186.4898725216
 30
0.0
 11
77.066104708
 21
186.4898725216
 31
0.0
  0
LINE
  5
27A
330
1F
100
AcDbEntity
  8
SLD-0
  6
HIDDEN
 62
    70
370
    18
100
AcDbLine
 10
77.066104708
 20
186.4898725216
 30
0.0
 11
77.066104708
 21
183.0898725216
 31
0.0
  0
LINE
  5
27B
330
1F
100
AcDbEntity
  8
SLD-0
  6
HIDDEN
 62
    70
370
    18
100
AcDbLine
 10
77.066104708
 20
183.0898725216
 30
0.0
 11
77.866104708
 21
183.0898725216
 31
0.0
  0
LINE
  5
27C
330
1F
100
AcDbEntity
  8
SLD-0
  6
HIDDEN
 62
    70
370
    18
100
AcDbLine
 10
77.866104708
 20
183.0898725216
 30
0.0
 11
77.866104708
 21
181.2414607174
 31
0.0
  0
LINE
  5
27D
330
1F
100
AcDbEntity
  8
SLD-0
  6
HIDDEN
 62
    70
370
    18
100
AcDbLine
 10
77.866104708
 20
181.2414607174
 30
0.0
 11
75.066104708
 21
181.2414607174
 31
0.0
  0
LINE
  5
27E
330
1F
100
AcDbEntity
  8
SLD-0
  6
HIDDEN
 62
    70
370
    18
100
AcDbLine
 10
75.066104708
 20
204.4166186528
 30
0.0
 11
77.866104708
 21
204.4166186528
 31
0.0
  0
LINE
  5
27F
330
1F
100
AcDbEntity
  8
SLD-0
  6
HIDDEN
 62
    70
370
    18
100
AcDbLine
 10
77.866104708
 20
204.4166186528
 30
0.0
 11
77.866104708
 21
202.4898725216
 31
0.0
  0
LINE
  5
280
330
1F
100
AcDbEntity
  8
SLD-0
  6
HIDDEN
 62
    70
370
    18
100
AcDbLine
 10
77.866104708
 20
202.4898725216
 30
0.0
 11
77.066104708
 21
202.4898725216
 31
0.0
  0
LINE
  5
281
330
1F
100
AcDbEntity
  8
SLD-0
  6
HIDDEN
 62
    70
370
    18
100
AcDbLine
 10
77.066104708
 20
202.4898725216
 30
0.0
 11
77.066104708
 21
199.0898725216
 31
0.0
  0
LINE
  5
282
330
1F
100
AcDbEntity
  8
SLD-0
  6
HIDDEN
 62
    70
370
    18
100
AcDbLine
 10
77.066104708
 20
199.0898725216
 30
0.0
 11
77.866104708
 21
199.0898725216
 31
0.0
  0
LINE
  5
283
330
1F
100
AcDbEntity
  8
SLD-0
  6
HIDDEN
 62
    70
370
    18
100
AcDbLine
 10
77.866104708
 20
199.0898725216
 30
0.0
 11
77.866104708
 21
186.4898725216
 31
0.0
  0
LINE
  5
284
330
1F
100
AcDbEntity
  8
SLD-0
  6
HIDDEN
 62
    70
370
    18
100
AcDbLine
 10
75.066104708
 20
181.2414607174
 30
0.0
 11
75.066104708
 21
204.4166186528
 31
0.0
  0
LINE
  5
285
330
1F
100
AcDbEntity
  8
SLD-0
  6
HIDDEN
 62
    70
370
    18
100
AcDbLine
 10
136.474941279
 20
238.3558527892
 30
0.0
 11
112.4649933685
 21
238.3558527892
 31
0.0
  0
LINE
  5
286
330
1F
100
AcDbEntity
  8
SLD-0
  6
Continuous
 62
     7
370
    25
100
AcDbLine
 10
94.2621954986
 20
229.6720539559
 30
0.0
 11
94.2621954986
 21
225.9252837301
 31
0.0
  0
LINE
  5
287
330
1F
100
AcDbEntity
  8
SLD-0
  6
HIDDEN
 62
    70
370
    18
100
AcDbLine
 10
84.8536691427
 20
239.3898725216
 30
0.0
 11
86.9536691427
 21
239.3898725216
 31
0.0
  0
CIRCLE
  5
288
330
1F
100
AcDbEntity
  8
SLD-0
  6
HIDDEN
 62
    70
370
    18
100
AcDbCircle
 10
89.066104708
 20
230.5898725216
 30
0.0
 40
1.199999999999998
  0
CIRCLE
  5
289
330
1F
100
AcDbEntity
  8
SLD-0
  6
HIDDEN
 62
    70
370
    18
100
AcDbCircle
 10
109.266104708
 20
187.1898725216
 30
0.0
 40
1.199999999999984
  0
ARC
  5
28A
330
1F
100
AcDbEntity
  8
SLD-0
  6
Continuous
 62
     7
370
    35
100
AcDbCircle
 10
94.2621954986
 20
227.8131353698
 30
0.0
 40
0.7124140570063275
100
AcDbArc
 50
90.0000000001
 51
269.9999999999
  0
INSERT
  5
296
330
1F
100
AcDbEntity
  8
SLD-0
 62
    70
100
AcDbBlockReference
  2
SW_CENTERMARKSYMBOL_0
 10
89.066104708
 20
230.5898725216
 30
0.0
  0
INSERT
  5
2A2
330
1F
100
AcDbEntity
  8
SLD-0
 62
    70
100
AcDbBlockReference
  2
SW_CENTERMARKSYMBOL_1
 10
109.266104708
 20
187.1898725216
 30
0.0
  0
INSERT
  5
2AE
330
1F
100
AcDbEntity
  8
SLD-0
 62
    70
100
AcDbBlockReference
  2
SW_CENTERMARKSYMBOL_2
 10
94.2621954986
 20
227.8131353698
 30
0.0
  0
LINE
  5
2AF
330
1F
100
AcDbEntity
  8
SLD-0
  6
CENTERX2
 62
    70
370
    18
100
AcDbLine
 10
92.466104708
 20
173.4898725216
 30
0.0
 11
92.466104708
 21
179.8098725216
 31
0.0
  0
LINE
  5
2B0
330
1F
100
AcDbEntity
  8
SLD-0
  6
CENTERX2
 62
    70
370
    18
100
AcDbLine
 10
69.266104708
 20
192.7898725216
 30
0.0
 11
85.119201447
 21
192.7898725216
 31
0.0
  0
LINE
  5
2B1
330
1F
100
AcDbEntity
  8
SLD-0
  6
CENTERX2
 62
    70
370
    18
100
AcDbLine
 10
145.866104708
 20
192.7898725216
 30
0.0
 11
85.309151089
 21
192.7898725216
 31
0.0
  0
LINE
  5
2B2
330
1F
100
AcDbEntity
  8
SLD-0
  6
CENTERX2
 62
    70
370
    18
100
AcDbLine
 10
124.466104708
 20
189.8268020647
 30
0.0
 11
124.466104708
 21
246.9898725216
 31
0.0
  0
LINE
  5
2B3
330
1F
100
AcDbEntity
  8
SLD-0
  6
CENTERX2
 62
    70
370
    18
100
AcDbLine
 10
124.466104708
 20
173.6698725216
 30
0.0
 11
124.466104708
 21
189.4882179062
 31
0.0
  0
LINE
  5
2B4
330
1F
100
AcDbEntity
  8
0
  6
Continuous
 62
     7
370
    25
100
AcDbLine
 10
140.6068308928
 20
97.0317797734
 30
0.0
 11
140.8067985156
 21
97.0352696254
 31
0.0
  0
ARC
  5
2B5
330
1F
100
AcDbEntity
  8
0
  6
Continuous
 62
     7
370
    25
100
AcDbCircle
 10
140.8033086898
 20
97.2352391711
 30
0.0
 40
0.2000000000000083
100
AcDbArc
 50
271.0
 51
1.0
  0
LINE
  5
2B6
330
1F
100
AcDbEntity
  8
0
  6
Continuous
 62
     7
370
    25
100
AcDbLine
 10
74.5129360535
 20
96.3209586217
 30
0.0
 11
74.295480428
 21
96.3209586217
 31
0.0
  0
LINE
  5
2B7
330
1F
100
AcDbEntity
  8
0
  6
Continuous
 62
     7
370
    25
100
AcDbLine
 10
140.8366932251
 20
96.3209586217
 30
0.0
 11
140.6192375996
 21
96.3209586217
 31
0.0
  0
LINE
  5
2B8
330
1F
100
AcDbEntity
  8
0
  6
Continuous
 62
     7
370
    25
100
AcDbLine
 10
142.4661053994
 20
90.727903135
 30
0.0
 11
142.0661045887
 21
90.727903135
 31
0.0
  0
LINE
  5
2B9
330
1F
100
AcDbEntity
  8
0
  6
Continuous
 62
     7
370
    25
100
AcDbLine
 10
142.0661045887
 20
86.7279024794
 30
0.0
 11
142.4661053994
 21
86.7279024794
 31
0.0
  0
LINE
  5
2BA
330
1F
100
AcDbEntity
  8
0
  6
Continuous
 62
     7
370
    25
100
AcDbLine
 10
72.6661040165
 20
86.7306517436
 30
0.0
 11
73.0661048272
 21
86.7306517436
 31
0.0
  0
LINE
  5
2BB
330
1F
100
AcDbEntity
  8
0
  6
Continuous
 62
     7
370
    25
100
AcDbLine
 10
73.0661048272
 20
90.7306509091
 30
0.0
 11
72.6661040165
 21
90.7306509091
 31
0.0
  0
ARC
  5
2BC
330
1F
100
AcDbEntity
  8
0
  6
Continuous
 62
     7
370
    25
100
AcDbCircle
 10
73.466104708
 20
94.3210105985
 30
0.0
 40
0.4000000000000057
100
AcDbArc
 50
90.0
 51
180.0
  0
LINE
  5
2BD
330
1F
100
AcDbEntity
  8
0
  6
Continuous
 62
     7
370
    25
100
AcDbLine
 10
74.2675526717
 20
94.7210105135
 30
0.0
 11
73.4661056378
 21
94.7210105135
 31
0.0
  0
ARC
  5
2BE
330
1F
100
AcDbEntity
  8
0
  6
Continuous
 62
     7
370
    25
100
AcDbCircle
 10
73.466104708
 20
83.120904213
 30
0.0
 40
0.4000000000000057
100
AcDbArc
 50
180.0
 51
270.0
  0
LINE
  5
2BF
330
1F
100
AcDbEntity
  8
0
  6
Continuous
 62
     7
370
    25
100
AcDbLine
 10
73.4661056378
 20
82.7209042384
 30
0.0
 11
74.268583832
 21
82.7209042384
 31
0.0
  0
ARC
  5
2C0
330
1F
100
AcDbEntity
  8
0
  6
Continuous
 62
     7
370
    25
100
AcDbCircle
 10
72.666104708
 20
85.0209574058
 30
0.0
 40
0.4000000000000057
100
AcDbArc
 50
0.0
 51
90.0
  0
ARC
  5
2C1
330
1F
100
AcDbEntity
  8
0
  6
Continuous
 62
     7
370
    25
100
AcDbCircle
 10
72.666104708
 20
92.4209574058
 30
0.0
 40
0.4000000000000057
100
AcDbArc
 50
270.0
 51
0.0
  0
LINE
  5
2C2
330
1F
100
AcDbEntity
  8
0
  6
Continuous
 62
     7
370
    25
100
AcDbLine
 10
140.8636255839
 20
82.7209042384
 30
0.0
 11
141.6661037781
 21
82.7209042384
 31
0.0
  0
ARC
  5
2C3
330
1F
100
AcDbEntity
  8
0
  6
Continuous
 62
     7
370
    25
100
AcDbCircle
 10
141.666104708
 20
83.120904213
 30
0.0
 40
0.4000000000000057
100
AcDbArc
 50
270.0
 51
0.0
  0
ARC
  5
2C4
330
1F
100
AcDbEntity
  8
0
  6
Continuous
 62
     7
370
    25
100
AcDbCircle
 10
141.666104708
 20
94.3210105985
 30
0.0
 40
0.4000000000000199
100
AcDbArc
 50
0.0
 51
90.0
  0
LINE
  5
2C5
330
1F
100
AcDbEntity
  8
0
  6
Continuous
 62
     7
370
    25
100
AcDbLine
 10
141.6661037781
 20
94.7210105135
 30
0.0
 11
140.8646180012
 21
94.7210105135
 31
0.0
  0
ARC
  5
2C6
330
1F
100
AcDbEntity
  8
0
  6
Continuous
 62
     7
370
    25
100
AcDbCircle
 10
142.466104708
 20
92.4209574058
 30
0.0
 40
0.4000000000000057
100
AcDbArc
 50
180.0
 51
270.0
  0
ARC
  5
2C7
330
1F
100
AcDbEntity
  8
0
  6
Continuous
 62
     7
370
    25
100
AcDbCircle
 10
142.466104708
 20
85.0209574058
 30
0.0
 40
0.4000000000000057
100
AcDbArc
 50
90.0
 51
180.0
  0
LINE
  5
2C8
330
1F
100
AcDbEntity
  8
0
  6
Continuous
 62
     7
370
    25
100
AcDbLine
 10
134.1444833853
 20
79.3259220197
 30
0.0
 11
134.1444833853
 21
79.3283650651
 31
0.0
  0
LINE
  5
2C9
330
1F
100
AcDbEntity
  8
0
  6
Continuous
 62
     7
370
    25
100
AcDbLine
 10
132.8097357132
 20
79.3335476889
 30
0.0
 11
132.8097357132
 21
79.3359914794
 31
0.0
  0
LINE
  5
2CA
330
1F
100
AcDbEntity
  8
0
  6
Continuous
 62
     7
370
    25
100
AcDbLine
 10
134.0834661105
 20
80.1113957538
 30
0.0
 11
134.0834661105
 21
80.1138387992
 31
0.0
  0
LINE
  5
2CB
330
1F
100
AcDbEntity
  8
0
  6
Continuous
 62
     7
370
    25
100
AcDbLine
 10
132.8860087969
 20
80.1190214231
 30
0.0
 11
132.8860087969
 21
80.1214644684
 31
0.0
  0
LINE
  5
2CC
330
1F
100
AcDbEntity
  8
0
  6
Continuous
 62
     7
370
    25
100
AcDbLine
 10
131.8182109573
 20
80.2562886848
 30
0.0
 11
131.8182109573
 21
80.2587317302
 31
0.0
  0
LINE
  5
2CD
330
1F
100
AcDbEntity
  8
0
  6
Continuous
 62
     7
370
    25
100
AcDbLine
 10
133.4885491707
 20
80.2715407683
 30
0.0
 11
133.4885491707
 21
80.2739838137
 31
0.0
  0
LINE
  5
2CE
330
1F
100
AcDbEntity
  8
0
  6
Continuous
 62
     7
370
    25
100
AcDbLine
 10
140.3121634104
 20
136.8327008559
 30
0.0
 11
140.9474297144
 21
100.4382418468
 31
0.0
  0
LINE
  5
2CF
330
1F
100
AcDbEntity
  8
0
  6
Continuous
 62
     7
370
    25
100
AcDbLine
 10
139.8843004086
 20
138.425474055
 30
0.0
 11
140.0842710116
 21
138.4289668872
 31
0.0
  0
ARC
  5
2D0
330
1F
100
AcDbEntity
  8
0
  6
Continuous
 62
     7
370
    25
100
AcDbCircle
 10
140.0877600259
 20
138.2289946725
 30
0.0
 40
0.2000000000000083
100
AcDbArc
 50
1.0
 51
91.0
  0
LWPOLYLINE
  5
2D1
330
1F
100
AcDbEntity
  8
0
  6
Continuous
 62
     7
370
    25
100
AcDbPolyline
 90
        9
 70
   128
 43
0.0
 10
140.2877284863
 20
138.2324861362
 10
140.288199363
 20
138.20558656
 10
140.2895881512
 20
138.1259309127
 10
140.2918471673
 20
137.9965769126
 10
140.2948870041
 20
137.8224955871
 10
140.2985884526
 20
137.6103805377
 10
140.3028114417
 20
137.368373759
 10
140.3073950388
 20
137.1057854964
 10
140.3121634104
 20
136.8327008559
  0
LINE
  5
2D2
330
1F
100
AcDbEntity
  8
0
  6
Continuous
 62
     7
370
    25
100
AcDbLine
 10
140.5754162648
 20
98.8315062596
 30
0.0
 11
140.7753838875
 21
98.8349961116
 31
0.0
  0
LWPOLYLINE
  5
2D3
330
1F
100
AcDbEntity
  8
0
  6
Continuous
 62
     7
370
    25
100
AcDbPolyline
 90
        9
 70
   128
 43
0.0
 10
140.9474297144
 20
100.4382418468
 10
140.952198086
 20
100.1651572063
 10
140.9567816832
 20
99.9025659635
 10
140.9610046723
 20
99.660562165
 10
140.9647061207
 20
99.4484441354
 10
140.9677459576
 20
99.2743628099
 10
140.9700049736
 20
99.1450088098
 10
140.9713937619
 20
99.0653531625
 10
140.9718646386
 20
99.0384565665
  0
ARC
  5
2D4
330
1F
100
AcDbEntity
  8
0
  6
Continuous
 62
     7
370
    25
100
AcDbCircle
 10
140.7718943582
 20
99.0349650224
 30
0.0
 40
0.2000000000000081
100
AcDbArc
 50
271.0
 51
1.0
  0
LINE
  5
2D5
330
1F
100
AcDbEntity
  8
0
  6
Continuous
 62
     7
370
    25
100
AcDbLine
 10
141.9287576058
 20
125.0591205432
 30
0.0
 11
140.5181004384
 21
125.0344978644
 31
0.0
  0
LINE
  5
2D6
330
1F
100
AcDbEntity
  8
0
  6
Continuous
 62
     7
370
    25
100
AcDbLine
 10
142.0334710457
 20
119.0600322558
 30
0.0
 11
140.6228168585
 21
119.0354095771
 31
0.0
  0
LINE
  5
2D7
330
1F
100
AcDbEntity
  8
0
  6
Continuous
 62
     7
370
    25
100
AcDbLine
 10
142.2429009058
 20
107.0618616416
 30
0.0
 11
140.8322437384
 21
107.0372359826
 31
0.0
  0
LINE
  5
2D8
330
1F
100
AcDbEntity
  8
0
  6
Continuous
 62
     7
370
    25
100
AcDbLine
 10
141.8240441658
 20
131.0582028701
 30
0.0
 11
140.4133869984
 21
131.0335801913
 31
0.0
  0
LINE
  5
2D9
330
1F
100
AcDbEntity
  8
0
  6
Continuous
 62
     7
370
    25
100
AcDbLine
 10
142.3476143458
 20
101.0627733542
 30
0.0
 11
140.9369601586
 21
101.0381506755
 31
0.0
  0
LINE
  5
2DA
330
1F
100
AcDbEntity
  8
0
  6
Continuous
 62
     7
370
    25
100
AcDbLine
 10
142.1381874659
 20
113.0609469487
 30
0.0
 11
140.7275302985
 21
113.03632427
 31
0.0
  0
ARC
  5
2DB
330
1F
100
AcDbEntity
  8
0
  6
Continuous
 62
     7
370
    25
100
AcDbCircle
 10
142.3028962829
 20
107.2629378503
 30
0.0
 40
0.2000000000000085
100
AcDbArc
 50
271.0
 51
23.6961821243
  0
LWPOLYLINE
  5
2DC
330
1F
100
AcDbEntity
  8
0
  6
Continuous
 62
     7
370
    25
100
AcDbPolyline
 90
        5
 70
   128
 43
0.0
 10
142.306385813
 20
107.0629673078
 10
142.3022224286
 20
107.0628957822
 10
142.2898872473
 20
107.0626812055
 10
142.2698571064
 20
107.0623295381
 10
142.2429009058
 20
107.0618616416
  0
ARC
  5
2DD
330
1F
100
AcDbEntity
  8
0
  6
Continuous
 62
     7
370
    25
100
AcDbCircle
 10
141.988752967
 20
125.2601963631
 30
0.0
 40
0.2000000000000085
100
AcDbArc
 50
271.0
 51
23.6961821243
  0
LWPOLYLINE
  5
2DE
330
1F
100
AcDbEntity
  8
0
  6
Continuous
 62
     7
370
    25
100
AcDbPolyline
 90
        5
 70
   128
 43
0.0
 10
141.9922425129
 20
125.0602291896
 10
141.9880791285
 20
125.0601517036
 10
141.9757439473
 20
125.0599371268
 10
141.9557138064
 20
125.0595914199
 10
141.9287576058
 20
125.0591205432
  0
ARC
  5
2DF
330
1F
100
AcDbEntity
  8
0
  6
Continuous
 62
     7
370
    25
100
AcDbCircle
 10
142.0934674056
 20
119.2611101922
 30
0.0
 40
0.2000000000000083
100
AcDbArc
 50
271.0
 51
23.6961821243
  0
LWPOLYLINE
  5
2E0
330
1F
100
AcDbEntity
  8
0
  6
Continuous
 62
     7
370
    25
100
AcDbPolyline
 90
        5
 70
   128
 43
0.0
 10
142.0969589331
 20
119.0611409022
 10
142.0927925684
 20
119.0610693767
 10
142.0804573872
 20
119.0608518197
 10
142.0604272463
 20
119.0605031325
 10
142.0334710457
 20
119.0600322558
  0
ARC
  5
2E1
330
1F
100
AcDbEntity
  8
0
  6
Continuous
 62
     7
370
    25
100
AcDbCircle
 10
142.1981818442
 20
113.2620240213
 30
0.0
 40
0.2000000000000085
100
AcDbArc
 50
271.0
 51
23.6961821243
  0
LWPOLYLINE
  5
2E2
330
1F
100
AcDbEntity
  8
0
  6
Continuous
 62
     7
370
    25
100
AcDbPolyline
 90
        5
 70
   128
 43
0.0
 10
142.2016723731
 20
113.0620555951
 10
142.1975060084
 20
113.0619810893
 10
142.1851738074
 20
113.0617665126
 10
142.1651436665
 20
113.0614178254
 10
142.1381874659
 20
113.0609469487
  0
ARC
  5
2E3
330
1F
100
AcDbEntity
  8
0
  6
Continuous
 62
     7
370
    25
100
AcDbCircle
 10
141.8840385284
 20
131.2592825341
 30
0.0
 40
0.2000000000000088
100
AcDbArc
 50
271.0
 51
23.6961821243
  0
LWPOLYLINE
  5
2E4
330
1F
100
AcDbEntity
  8
0
  6
Continuous
 62
     7
370
    25
100
AcDbPolyline
 90
        5
 70
   128
 43
0.0
 10
141.887529073
 20
131.0593115165
 10
141.8833627083
 20
131.0592399909
 10
141.8710305073
 20
131.0590254142
 10
141.8510003664
 20
131.0586737468
 10
141.8240441658
 20
131.0582028701
  0
ARC
  5
2E5
330
1F
100
AcDbEntity
  8
0
  6
Continuous
 62
     7
370
    25
100
AcDbCircle
 10
142.4076107215
 20
101.2638516794
 30
0.0
 40
0.2000000000000028
100
AcDbArc
 50
271.0
 51
23.6961821243
  0
LWPOLYLINE
  5
2E6
330
1F
100
AcDbEntity
  8
0
  6
Continuous
 62
     7
370
    25
100
AcDbPolyline
 90
        5
 70
   128
 43
0.0
 10
142.4111022332
 20
101.0638820006
 10
142.4069358685
 20
101.0638104751
 10
142.3946006873
 20
101.0635929181
 10
142.3745705464
 20
101.0632442309
 10
142.3476143458
 20
101.0627733542
  0
LINE
  5
2E7
330
1F
100
AcDbEntity
  8
0
  6
Continuous
 62
     7
370
    25
100
AcDbLine
 10
140.7581849673
 20
111.2801807
 30
0.0
 11
142.4860342123
 21
107.3433147742
 31
0.0
  0
LINE
  5
2E8
330
1F
100
AcDbEntity
  8
0
  6
Continuous
 62
     7
370
    25
100
AcDbLine
 10
140.339325247
 20
135.2765249087
 30
0.0
 11
142.0671774724
 21
131.3396619632
 31
0.0
  0
LINE
  5
2E9
330
1F
100
AcDbEntity
  8
0
  6
Continuous
 62
     7
370
    25
100
AcDbLine
 10
140.5487551072
 20
123.2783542945
 30
0.0
 11
142.2766043522
 21
119.3414883687
 31
0.0
  0
LINE
  5
2EA
330
1F
100
AcDbEntity
  8
0
  6
Continuous
 62
     7
370
    25
100
AcDbLine
 10
140.6534685471
 20
117.2792660071
 30
0.0
 11
142.3813207724
 21
113.3424000814
 31
0.0
  0
LINE
  5
2EB
330
1F
100
AcDbEntity
  8
0
  6
Continuous
 62
     7
370
    25
100
AcDbLine
 10
140.8628984072
 20
105.2810953929
 30
0.0
 11
142.5907476523
 21
101.3442294671
 31
0.0
  0
LINE
  5
2EC
330
1F
100
AcDbEntity
  8
0
  6
Continuous
 62
     7
370
    25
100
AcDbLine
 10
140.4440416672
 20
129.2774366214
 30
0.0
 11
142.1718909123
 21
125.3405736758
 31
0.0
  0
LWPOLYLINE
  5
2ED
330
1F
100
AcDbEntity
  8
0
  6
Continuous
 62
     7
370
    25
100
AcDbPolyline
 90
        9
 70
   128
 43
0.0
 10
140.9718646386
 20
99.0384565665
 10
140.9721984246
 20
99.0192430093
 10
140.9731938221
 20
98.9623473956
 10
140.9748061278
 20
98.8699512555
 10
140.9769757369
 20
98.7456070258
 10
140.9796192028
 20
98.5940920188
 10
140.9826381781
 20
98.4212325885
 10
140.9859104731
 20
98.2336686923
 10
140.9893168786
 20
98.0386065318
  0
LWPOLYLINE
  5
2EE
330
1F
100
AcDbEntity
  8
0
  6
Continuous
 62
     7
370
    25
100
AcDbPolyline
 90
        6
 70
   128
 43
0.0
 10
140.9893168786
 20
98.0386065318
 10
140.9936322548
 20
97.7914320304
 10
140.9975214579
 20
97.5684510543
 10
141.0006119587
 20
97.3914938047
 10
141.0025938132
 20
97.277878411
 10
141.0032792666
 20
97.2387300803
  0
LINE
  5
2EF
330
1F
100
AcDbEntity
  8
0
  6
Continuous
 62
     7
370
    25
100
AcDbLine
 10
107.866086736
 20
85.3209571912
 30
0.0
 11
103.6660867461
 21
85.3209571912
 31
0.0
  0
LINE
  5
2F0
330
1F
100
AcDbEntity
  8
0
  6
Continuous
 62
     7
370
    25
100
AcDbLine
 10
103.6660867461
 20
86.3209577276
 30
0.0
 11
103.6660867461
 21
85.3209571912
 31
0.0
  0
LINE
  5
2F1
330
1F
100
AcDbEntity
  8
0
  6
Continuous
 62
     7
370
    25
100
AcDbLine
 10
106.8660867118
 20
86.3209577276
 30
0.0
 11
104.6660867237
 21
86.3209577276
 31
0.0
  0
LINE
  5
2F2
330
1F
100
AcDbEntity
  8
0
  6
Continuous
 62
     7
370
    25
100
AcDbLine
 10
107.866086736
 20
86.3209577276
 30
0.0
 11
107.866086736
 21
85.3209571912
 31
0.0
  0
LINE
  5
2F3
330
1F
100
AcDbEntity
  8
0
  6
Continuous
 62
     7
370
    25
100
AcDbLine
 10
110.0660866775
 20
88.6209579184
 30
0.0
 11
110.0660866775
 21
86.3209577276
 31
0.0
  0
LINE
  5
2F4
330
1F
100
AcDbEntity
  8
0
  6
Continuous
 62
     7
370
    25
100
AcDbLine
 10
109.0660866999
 20
88.6209579184
 30
0.0
 11
109.0660866999
 21
86.3209577276
 31
0.0
  0
ARC
  5
2F5
330
1F
100
AcDbEntity
  8
0
  6
Continuous
 62
     7
370
    25
100
AcDbCircle
 10
108.4660867339
 20
88.6209574058
 30
0.0
 40
0.6000000000000085
100
AcDbArc
 50
0.0
 51
180.0
  0
LINE
  5
2F6
330
1F
100
AcDbEntity
  8
0
  6
Continuous
 62
     7
370
    25
100
AcDbLine
 10
107.866086736
 20
86.3209577276
 30
0.0
 11
107.866086736
 21
88.6209579184
 31
0.0
  0
LINE
  5
2F7
330
1F
100
AcDbEntity
  8
0
  6
Continuous
 62
     7
370
    25
100
AcDbLine
 10
106.8660867118
 20
86.3209577276
 30
0.0
 11
106.8660867118
 21
88.6209579184
 31
0.0
  0
ARC
  5
2F8
330
1F
100
AcDbEntity
  8
0
  6
Continuous
 62
     7
370
    25
100
AcDbCircle
 10
108.4660867339
 20
88.6209574058
 30
0.0
 40
1.600000000000009
100
AcDbArc
 50
90.0
 51
180.0
  0
ARC
  5
2F9
330
1F
100
AcDbEntity
  8
0
  6
Continuous
 62
     7
370
    25
100
AcDbCircle
 10
108.4660867339
 20
88.6209574058
 30
0.0
 40
1.600000000000009
100
AcDbArc
 50
0.0
 51
90.0
  0
LINE
  5
2FA
330
1F
100
AcDbEntity
  8
0
  6
Continuous
 62
     7
370
    25
100
AcDbLine
 10
135.6660856583
 20
86.3209577276
 30
0.0
 11
135.6660856583
 21
88.9209570362
 31
0.0
  0
ARC
  5
2FB
330
1F
100
AcDbEntity
  8
0
  6
Continuous
 62
     7
370
    25
100
AcDbCircle
 10
132.8660867339
 20
88.9209574058
 30
0.0
 40
2.800000000000011
100
AcDbArc
 50
0.0
 51
43.6028189727
  0
ARC
  5
2FC
330
1F
100
AcDbEntity
  8
0
  6
Continuous
 62
     7
370
    25
100
AcDbCircle
 10
124.4660867339
 20
80.9209574058
 30
0.0
 40
14.40000000000002
100
AcDbArc
 50
43.6028189727
 51
136.3971810273
  0
ARC
  5
2FD
330
1F
100
AcDbEntity
  8
0
  6
Continuous
 62
     7
370
    25
100
AcDbCircle
 10
116.0660867339
 20
88.9209574058
 30
0.0
 40
2.800000000000014
100
AcDbArc
 50
136.3971810273
 51
180.0
  0
LINE
  5
2FE
330
1F
100
AcDbEntity
  8
0
  6
Continuous
 62
     7
370
    25
100
AcDbLine
 10
113.2660868295
 20
88.9209570362
 30
0.0
 11
113.2660868295
 21
86.3209577276
 31
0.0
  0
LINE
  5
2FF
330
1F
100
AcDbEntity
  8
0
  6
Continuous
 62
     7
370
    25
100
AcDbLine
 10
112.2660866656
 20
86.3209577276
 30
0.0
 11
112.2660866656
 21
88.9209570362
 31
0.0
  0
ARC
  5
300
330
1F
100
AcDbEntity
  8
0
  6
Continuous
 62
     7
370
    25
100
AcDbCircle
 10
116.0660867339
 20
88.9209574058
 30
0.0
 40
3.799999999999997
100
AcDbArc
 50
136.3971810273
 51
180.0
  0
ARC
  5
301
330
1F
100
AcDbEntity
  8
0
  6
Continuous
 62
     7
370
    25
100
AcDbCircle
 10
124.4660867339
 20
80.9209574058
 30
0.0
 40
15.40000000000001
100
AcDbArc
 50
43.6028189727
 51
136.3971810273
  0
ARC
  5
302
330
1F
100
AcDbEntity
  8
0
  6
Continuous
 62
     7
370
    25
100
AcDbCircle
 10
132.8660867339
 20
88.9209574058
 30
0.0
 40
3.80000000000004
100
AcDbArc
 50
0.0
 51
43.6028189727
  0
LINE
  5
303
330
1F
100
AcDbEntity
  8
0
  6
Continuous
 62
     7
370
    25
100
AcDbLine
 10
136.6660876849
 20
88.9209570362
 30
0.0
 11
136.6660876849
 21
86.3209577276
 31
0.0
  0
LINE
  5
304
330
1F
100
AcDbEntity
  8
0
  6
Continuous
 62
     7
370
    25
100
AcDbLine
 10
109.0660866999
 20
85.3209571912
 30
0.0
 11
109.0660866999
 21
86.3209577276
 31
0.0
  0
LINE
  5
305
330
1F
100
AcDbEntity
  8
0
  6
Continuous
 62
     7
370
    25
100
AcDbLine
 10
112.2660866656
 20
86.3209577276
 30
0.0
 11
110.0660866775
 21
86.3209577276
 31
0.0
  0
LINE
  5
306
330
1F
100
AcDbEntity
  8
0
  6
Continuous
 62
     7
370
    25
100
AcDbLine
 10
113.2660868295
 20
86.3209577276
 30
0.0
 11
113.2660868295
 21
85.3209571912
 31
0.0
  0
LINE
  5
307
330
1F
100
AcDbEntity
  8
0
  6
Continuous
 62
     7
370
    25
100
AcDbLine
 10
113.2660868295
 20
85.3209571912
 30
0.0
 11
109.0660866999
 21
85.3209571912
 31
0.0
  0
LINE
  5
308
330
1F
100
AcDbEntity
  8
0
  6
Continuous
 62
     7
370
    25
100
AcDbLine
 10
74.2208941557
 20
86.3209577276
 30
0.0
 11
74.2208941557
 21
88.9209570362
 31
0.0
  0
LINE
  5
309
330
1F
100
AcDbEntity
  8
0
  6
Continuous
 62
     7
370
    25
100
AcDbLine
 10
74.120931206
 20
86.3209577276
 30
0.0
 11
74.120931206
 21
85.3209571912
 31
0.0
  0
LWPOLYLINE
  5
30A
330
1F
100
AcDbEntity
  8
0
  6
Continuous
 62
     7
370
    25
100
AcDbPolyline
 90
        9
 70
   128
 43
0.0
 10
74.1847528794
 20
89.9773346259
 10
74.169836817
 20
89.1227887942
 10
74.1568877079
 20
88.3809866383
 10
74.1459174731
 20
87.7524392678
 10
74.1369290926
 20
87.2375803067
 10
74.1299344876
 20
86.8367658927
 10
74.1249336579
 20
86.5502716972
 10
74.121932564
 20
86.3782959058
 10
74.120931206
 20
86.3209577276
  0
SPLINE
  5
30B
330
1F
100
AcDbEntity
  8
0
  6
Continuous
 62
     7
370
    25
100
AcDbSpline
210
0.0
220
0.0
230
1.0
 70
     8
 71
     3
 72
     9
 73
     5
 74
     0
 42
0.000000001
 43
0.00000001
 40
0.0
 40
0.0
 40
0.0
 40
0.0
 40
0.4947671148487
 40
1.0
 40
1.0
 40
1.0
 40
1.0
 10
74.22089415573808
 20
88.92095703621482
 30
0.0
 10
74.21900323534156
 20
89.09792257004057
 30
0.0
 10
74.21518139605642
 20
89.45559697586654
 30
0.0
 10
74.19496624066215
 20
89.80221287510557
 30
0.0
 10
74.18475287937854
 20
89.97733462591742
 30
0.0
  0
LINE
  5
30C
330
1F
100
AcDbEntity
  8
0
  6
Continuous
 62
     7
370
    25
100
AcDbLine
 10
77.0209296324
 20
85.3209571912
 30
0.0
 11
74.120931206
 21
85.3209571912
 31
0.0
  0
LINE
  5
30D
330
1F
100
AcDbEntity
  8
0
  6
Continuous
 62
     7
370
    25
100
AcDbLine
 10
77.0209296324
 20
86.3209577276
 30
0.0
 11
74.2208941557
 21
86.3209577276
 31
0.0
  0
ARC
  5
30E
330
1F
100
AcDbEntity
  8
0
  6
Continuous
 62
     7
370
    25
100
AcDbCircle
 10
84.0660867339
 20
88.9209574058
 30
0.0
 40
3.79999999999999
100
AcDbArc
 50
136.3971810273
 51
180.0
  0
ARC
  5
30F
330
1F
100
AcDbEntity
  8
0
  6
Continuous
 62
     7
370
    25
100
AcDbCircle
 10
92.4660867339
 20
80.9209574058
 30
0.0
 40
15.40000000000001
100
AcDbArc
 50
43.6028189727
 51
136.3971810273
  0
ARC
  5
310
330
1F
100
AcDbEntity
  8
0
  6
Continuous
 62
     7
370
    25
100
AcDbCircle
 10
100.8660867339
 20
88.9209574058
 30
0.0
 40
3.80000000000001
100
AcDbArc
 50
0.0
 51
43.6028189727
  0
LINE
  5
311
330
1F
100
AcDbEntity
  8
0
  6
Continuous
 62
     7
370
    25
100
AcDbLine
 10
103.6660867461
 20
88.9209570362
 30
0.0
 11
103.6660867461
 21
86.3209577276
 31
0.0
  0
ARC
  5
312
330
1F
100
AcDbEntity
  8
0
  6
Continuous
 62
     7
370
    25
100
AcDbCircle
 10
100.8660867339
 20
88.9209574058
 30
0.0
 40
2.799999999999997
100
AcDbArc
 50
0.0
 51
43.6028189727
  0
ARC
  5
313
330
1F
100
AcDbEntity
  8
0
  6
Continuous
 62
     7
370
    25
100
AcDbCircle
 10
92.4660867339
 20
80.9209574058
 30
0.0
 40
14.40000000000002
100
AcDbArc
 50
43.6028189727
 51
136.3971810273
  0
ARC
  5
314
330
1F
100
AcDbEntity
  8
0
  6
Continuous
 62
     7
370
    25
100
AcDbCircle
 10
84.0660867339
 20
88.9209574058
 30
0.0
 40
2.800000000000003
100
AcDbArc
 50
136.3971810273
 51
180.0
  0
LINE
  5
315
330
1F
100
AcDbEntity
  8
0
  6
Continuous
 62
     7
370
    25
100
AcDbLine
 10
81.2660856822
 20
86.3209577276
 30
0.0
 11
81.2660856822
 21
88.9209570362
 31
0.0
  0
LINE
  5
316
330
1F
100
AcDbEntity
  8
0
  6
Continuous
 62
     7
370
    25
100
AcDbLine
 10
104.6660867237
 20
88.9209570362
 30
0.0
 11
104.6660867237
 21
86.3209577276
 31
0.0
  0
LINE
  5
317
330
1F
100
AcDbEntity
  8
0
  6
Continuous
 62
     7
370
    25
100
AcDbLine
 10
80.2660866358
 20
86.3209577276
 30
0.0
 11
80.2660866358
 21
88.9209570362
 31
0.0
  0
LINE
  5
318
330
1F
100
AcDbEntity
  8
0
  6
Continuous
 62
     7
370
    25
100
AcDbLine
 10
81.2660856822
 20
85.3209571912
 30
0.0
 11
81.2660856822
 21
86.3209577276
 31
0.0
  0
LINE
  5
319
330
1F
100
AcDbEntity
  8
0
  6
Continuous
 62
     7
370
    25
100
AcDbLine
 10
81.2660856822
 20
85.3209571912
 30
0.0
 11
77.0209296324
 21
85.3209571912
 31
0.0
  0
LINE
  5
31A
330
1F
100
AcDbEntity
  8
0
  6
Continuous
 62
     7
370
    25
100
AcDbLine
 10
80.2660866358
 20
86.3209577276
 30
0.0
 11
77.0209296324
 21
86.3209577276
 31
0.0
  0
LINE
  5
31B
330
1F
100
AcDbEntity
  8
0
  6
Continuous
 62
     7
370
    25
100
AcDbLine
 10
138.1112440207
 20
85.3209571912
 30
0.0
 11
135.6660856583
 21
85.3209571912
 31
0.0
  0
LINE
  5
31C
330
1F
100
AcDbEntity
  8
0
  6
Continuous
 62
     7
370
    25
100
AcDbLine
 10
135.6660856583
 20
85.3209571912
 30
0.0
 11
135.6660856583
 21
86.3209577276
 31
0.0
  0
LINE
  5
31D
330
1F
100
AcDbEntity
  8
0
  6
Continuous
 62
     7
370
    25
100
AcDbLine
 10
138.1112440207
 20
86.3209577276
 30
0.0
 11
136.6660876849
 21
86.3209577276
 31
0.0
  0
LINE
  5
31E
330
1F
100
AcDbEntity
  8
0
  6
Continuous
 62
     7
370
    25
100
AcDbLine
 10
140.9112794974
 20
88.9209570362
 30
0.0
 11
140.9112794974
 21
86.3209577276
 31
0.0
  0
SPLINE
  5
31F
330
1F
100
AcDbEntity
  8
0
  6
Continuous
 62
     7
370
    25
100
AcDbSpline
210
0.0
220
0.0
230
1.0
 70
     8
 71
     3
 72
     9
 73
     5
 74
     0
 42
0.000000001
 43
0.00000001
 40
0.0
 40
0.0
 40
0.0
 40
0.0
 40
0.4948381101399356
 40
1.0
 40
1.0
 40
1.0
 40
1.0
 10
140.947420773742
 20
89.97733462591742
 30
0.0
 10
140.9374012035814
 20
89.8058628709251
 30
0.0
 10
140.9171530255304
 20
89.45934195533954
 30
0.0
 10
140.9132507687781
 20
89.1016495883246
 30
0.0
 10
140.9112794973824
 20
88.9209570362148
 30
0.0
  0
LWPOLYLINE
  5
320
330
1F
100
AcDbEntity
  8
0
  6
Continuous
 62
     7
370
    25
100
AcDbPolyline
 90
        9
 70
   128
 43
0.0
 10
141.0112424471
 20
86.3209577276
 10
141.0102410891
 20
86.3782959058
 10
141.0072399952
 20
86.5502716972
 10
141.0022391655
 20
86.8367658927
 10
140.9952445605
 20
87.2375803067
 10
140.98625618
 20
87.7524392678
 10
140.9752859452
 20
88.3809866383
 10
140.9623368361
 20
89.1227887942
 10
140.9474207737
 20
89.9773346259
  0
LINE
  5
321
330
1F
100
AcDbEntity
  8
0
  6
Continuous
 62
     7
370
    25
100
AcDbLine
 10
141.0112424471
 20
86.3209577276
 30
0.0
 11
141.0112424471
 21
85.3209571912
 31
0.0
  0
LINE
  5
322
330
1F
100
AcDbEntity
  8
0
  6
Continuous
 62
     7
370
    25
100
AcDbLine
 10
141.0112424471
 20
85.3209571912
 30
0.0
 11
138.1112440207
 21
85.3209571912
 31
0.0
  0
LINE
  5
323
330
1F
100
AcDbEntity
  8
0
  6
Continuous
 62
     7
370
    25
100
AcDbLine
 10
140.9112794974
 20
86.3209577276
 30
0.0
 11
138.1112440207
 21
86.3209577276
 31
0.0
  0
SPLINE
  5
324
330
1F
100
AcDbEntity
  8
0
  6
Continuous
 62
     7
370
    25
100
AcDbSpline
210
0.0
220
0.0
230
1.0
 70
     8
 71
     3
 72
    12
 73
     8
 74
     0
 42
0.000000001
 43
0.00000001
 40
0.0
 40
0.0
 40
0.0
 40
0.0
 40
0.2047564732690466
 40
0.414039924134409
 40
0.64774088107744
 40
0.8877002106347123
 40
1.0
 40
1.0
 40
1.0
 40
1.0
 10
74.51042371773455
 20
88.9209570362148
 30
0.0
 10
74.51216702692172
 20
89.09897809128242
 30
0.0
 10
74.51569218826128
 20
89.45895608346862
 30
0.0
 10
74.49103091223321
 20
90.01067487385784
 30
0.0
 10
74.45365010594871
 20
90.56554442647949
 30
0.0
 10
74.42532030085665
 20
91.00930935582737
 30
0.0
 10
74.42566823931965
 20
91.25069582195765
 30
0.0
 10
74.42577916168902
 20
91.32764954109763
 30
0.0
  0
LINE
  5
325
330
1F
100
AcDbEntity
  8
0
  6
Continuous
 62
     7
370
    25
100
AcDbLine
 10
74.4257791617
 20
91.3276495411
 30
0.0
 11
75.2624495604
 21
139.2605768516
 31
0.0
  0
ELLIPSE
  5
326
330
1F
100
AcDbEntity
  8
0
  6
Continuous
 62
     7
370
    25
100
AcDbEllipse
 10
76.2660867339
 20
42.0524140473
 30
0.0
 11
-2.700411160456014
 21
-154.7064517697993
 31
0.0
210
0.0
220
0.0
230
1.0
 40
0.0174497492
 41
4.40490545928746
 42
4.42249195618022
  0
LINE
  5
327
330
1F
100
AcDbEntity
  8
0
  6
Continuous
 62
     7
370
    25
100
AcDbLine
 10
139.8697240927
 20
139.2605768516
 30
0.0
 11
140.7063944914
 21
91.3276495411
 31
0.0
  0
SPLINE
  5
328
330
1F
100
AcDbEntity
  8
0
  6
Continuous
 62
     7
370
    25
100
AcDbSpline
210
0.0
220
0.0
230
1.0
 70
     8
 71
     3
 72
    11
 73
     7
 74
     0
 42
0.000000001
 43
0.00000001
 40
0.0
 40
0.0
 40
0.0
 40
0.0
 40
0.2603313587373986
 40
0.5299649819655594
 40
0.7617526740168178
 40
1.0
 40
1.0
 40
1.0
 40
1.0
 10
140.7063944914315
 20
91.32764954109763
 30
0.0
 10
140.7032567190662
 20
91.1450293074398
 30
0.0
 10
140.6968690541955
 20
90.77326338071316
 30
0.0
 10
140.6494770152905
 20
90.16133185219816
 30
0.0
 10
140.6173152908342
 20
89.5370020630137
 30
0.0
 10
140.6202582390094
 20
89.12817818405189
 30
0.0
 10
140.6217499353859
 20
88.9209570362148
 30
0.0
  0
ELLIPSE
  5
329
330
1F
100
AcDbEntity
  8
0
  6
Continuous
 62
     7
370
    25
100
AcDbEllipse
 10
138.8660867339
 20
42.0524140473
 30
0.0
 11
2.700411160456014
 21
-154.7064517697993
 31
0.0
210
0.0
220
0.0
230
1.0
 40
0.0174497492
 41
1.860693350999433
 42
1.878279847892206
  0
ARC
  5
32A
330
1F
100
AcDbEntity
  8
0
  6
Continuous
 62
     7
370
    25
100
AcDbCircle
 10
83.2612317994
 20
139.1209574058
 30
0.0
 40
7.999999999999991
100
AcDbArc
 50
90.0
 51
179.0
  0
LINE
  5
32B
330
1F
100
AcDbEntity
  8
0
  6
Continuous
 62
     7
370
    25
100
AcDbLine
 10
83.2612319567
 20
147.1209572627
 30
0.0
 11
131.8709416964
 21
147.1209572627
 31
0.0
  0
ARC
  5
32C
330
1F
100
AcDbEntity
  8
0
  6
Continuous
 62
     7
370
    25
100
AcDbCircle
 10
131.8709416685
 20
139.1209574058
 30
0.0
 40
7.999999999999991
100
AcDbArc
 50
1.0
 51
90.0
  0
LWPOLYLINE
  5
32D
330
1F
100
AcDbEntity
  8
0
  6
Continuous
 62
     7
370
    25
100
AcDbPolyline
 90
        4
 70
   128
 43
0.0
 10
140.9474207737
 20
89.9773346259
 10
140.937517462
 20
90.5445950105
 10
140.9283383467
 20
91.0704972221
 10
140.920115886
 20
91.5416466071
  0
LWPOLYLINE
  5
32E
330
1F
100
AcDbEntity
  8
0
  6
Continuous
 62
     7
370
    25
100
AcDbPolyline
 90
        4
 70
   128
 43
0.0
 10
74.2120577672
 20
91.5416466071
 10
74.2038353064
 20
91.0704972221
 10
74.1946532109
 20
90.5445950105
 10
74.1847528794
 20
89.9773346259
  0
LWPOLYLINE
  5
32F
330
1F
100
AcDbEntity
  8
0
  6
Continuous
 62
     7
370
    25
100
AcDbPolyline
 90
       13
 70
   128
 43
0.0
 10
74.295480428
 20
96.3209586217
 10
74.2948694804
 20
96.2859051301
 10
74.2930366375
 20
96.1809115483
 10
74.2899908402
 20
96.0064547135
 10
74.2857469895
 20
95.7633243873
 10
74.280325947
 20
95.4526321961
 10
74.2737455943
 20
95.0757907703
 10
74.2660446742
 20
94.6345152332
 10
74.2572529891
 20
94.1308127715
 10
74.247409282
 20
93.566979654
 10
74.2365642168
 20
92.9455803706
 10
74.2247624972
 20
92.2694431617
 10
74.2120577672
 20
91.5416466071
  0
LWPOLYLINE
  5
330
330
1F
100
AcDbEntity
  8
0
  6
Continuous
 62
     7
370
    25
100
AcDbPolyline
 90
       13
 70
   128
 43
0.0
 10
140.920115886
 20
91.5416466071
 10
140.9074111559
 20
92.2694431617
 10
140.8956094363
 20
92.9455803706
 10
140.8847643712
 20
93.566979654
 10
140.8749206641
 20
94.1308127715
 10
140.866128979
 20
94.6345152332
 10
140.8584280589
 20
95.0757907703
 10
140.8518477061
 20
95.4526321961
 10
140.8464266636
 20
95.7633243873
 10
140.8421828129
 20
96.0064547135
 10
140.8391370156
 20
96.1809115483
 10
140.8373041728
 20
96.2859051301
 10
140.8366932251
 20
96.3209586217
  0
LINE
  5
331
330
1F
100
AcDbEntity
  8
0
  6
Continuous
 62
     7
370
    25
100
AcDbLine
 10
142.4661053994
 20
90.4599534347
 30
0.0
 11
142.4661053994
 21
90.727903135
 31
0.0
  0
LINE
  5
332
330
1F
100
AcDbEntity
  8
0
  6
Continuous
 62
     7
370
    25
100
AcDbLine
 10
142.4661053994
 20
86.7279024794
 30
0.0
 11
142.4661053994
 21
90.4599534347
 31
0.0
  0
LINE
  5
333
330
1F
100
AcDbEntity
  8
0
  6
Continuous
 62
     7
370
    25
100
AcDbLine
 10
143.8661052563
 20
89.7024529054
 30
0.0
 11
142.4661053994
 21
89.7024529054
 31
0.0
  0
LINE
  5
334
330
1F
100
AcDbEntity
  8
0
  6
Continuous
 62
     7
370
    25
100
AcDbLine
 10
143.8661052563
 20
87.7394618465
 30
0.0
 11
142.4661053994
 21
87.7394618465
 31
0.0
  0
LINE
  5
335
330
1F
100
AcDbEntity
  8
0
  6
Continuous
 62
     7
370
    25
100
AcDbLine
 10
143.8661052563
 20
89.7024529054
 30
0.0
 11
143.8661052563
 21
87.7394618465
 31
0.0
  0
LINE
  5
336
330
1F
100
AcDbEntity
  8
0
  6
Continuous
 62
     7
370
    25
100
AcDbLine
 10
143.8661052563
 20
90.6839476897
 30
0.0
 11
142.4661053994
 21
90.6839476897
 31
0.0
  0
LINE
  5
337
330
1F
100
AcDbEntity
  8
0
  6
Continuous
 62
     7
370
    25
100
AcDbLine
 10
143.8661052563
 20
90.6839476897
 30
0.0
 11
143.8661052563
 21
89.7024529054
 31
0.0
  0
LINE
  5
338
330
1F
100
AcDbEntity
  8
0
  6
Continuous
 62
     7
370
    25
100
AcDbLine
 10
143.8661052563
 20
86.7579670622
 30
0.0
 11
142.4661053994
 21
86.7579670622
 31
0.0
  0
LINE
  5
339
330
1F
100
AcDbEntity
  8
0
  6
Continuous
 62
     7
370
    25
100
AcDbLine
 10
143.8661052563
 20
87.7394618465
 30
0.0
 11
143.8661052563
 21
86.7579670622
 31
0.0
  0
LINE
  5
33A
330
1F
100
AcDbEntity
  8
0
  6
Continuous
 62
     7
370
    25
100
AcDbLine
 10
118.1661045828
 20
89.7024529054
 30
0.0
 11
116.4661048629
 21
90.6839476897
 31
0.0
  0
LINE
  5
33B
330
1F
100
AcDbEntity
  8
0
  6
Continuous
 62
     7
370
    25
100
AcDbLine
 10
118.1661045828
 20
87.7394618465
 30
0.0
 11
118.1661045828
 21
89.7024529054
 31
0.0
  0
LINE
  5
33C
330
1F
100
AcDbEntity
  8
0
  6
Continuous
 62
     7
370
    25
100
AcDbLine
 10
114.766104398
 20
87.7394618465
 30
0.0
 11
116.4661048629
 21
86.7579670622
 31
0.0
  0
LINE
  5
33D
330
1F
100
AcDbEntity
  8
0
  6
Continuous
 62
     7
370
    25
100
AcDbLine
 10
114.766104398
 20
89.7024529054
 30
0.0
 11
114.766104398
 21
87.7394618465
 31
0.0
  0
LINE
  5
33E
330
1F
100
AcDbEntity
  8
0
  6
Continuous
 62
     7
370
    25
100
AcDbLine
 10
116.4661048629
 20
86.7579670622
 30
0.0
 11
118.1661045828
 21
87.7394618465
 31
0.0
  0
LINE
  5
33F
330
1F
100
AcDbEntity
  8
0
  6
Continuous
 62
     7
370
    25
100
AcDbLine
 10
116.4661048629
 20
90.6839476897
 30
0.0
 11
114.766104398
 21
89.7024529054
 31
0.0
  0
CIRCLE
  5
340
330
1F
100
AcDbEntity
  8
0
  6
Continuous
 62
     7
370
    25
100
AcDbCircle
 10
116.4636812624
 20
88.7306511881
 30
0.0
 40
2.0
  0
LINE
  5
341
330
1F
100
AcDbEntity
  8
0
  6
Continuous
 62
     7
370
    25
100
AcDbLine
 10
100.4661044755
 20
90.6839476897
 30
0.0
 11
98.7661047556
 21
89.7024529054
 31
0.0
  0
LINE
  5
342
330
1F
100
AcDbEntity
  8
0
  6
Continuous
 62
     7
370
    25
100
AcDbLine
 10
102.1661045679
 20
87.7394618465
 30
0.0
 11
102.1661045679
 21
89.7024529054
 31
0.0
  0
LINE
  5
343
330
1F
100
AcDbEntity
  8
0
  6
Continuous
 62
     7
370
    25
100
AcDbLine
 10
100.4661044755
 20
86.7579670622
 30
0.0
 11
102.1661045679
 21
87.7394618465
 31
0.0
  0
LINE
  5
344
330
1F
100
AcDbEntity
  8
0
  6
Continuous
 62
     7
370
    25
100
AcDbLine
 10
98.7661047556
 20
87.7394618465
 30
0.0
 11
100.4661044755
 21
86.7579670622
 31
0.0
  0
LINE
  5
345
330
1F
100
AcDbEntity
  8
0
  6
Continuous
 62
     7
370
    25
100
AcDbLine
 10
98.7661047556
 20
89.7024529054
 30
0.0
 11
98.7661047556
 21
87.7394618465
 31
0.0
  0
LINE
  5
346
330
1F
100
AcDbEntity
  8
0
  6
Continuous
 62
     7
370
    25
100
AcDbLine
 10
102.1661045679
 20
89.7024529054
 30
0.0
 11
100.4661044755
 21
90.6839476897
 31
0.0
  0
CIRCLE
  5
347
330
1F
100
AcDbEntity
  8
0
  6
Continuous
 62
     7
370
    25
100
AcDbCircle
 10
100.4636812624
 20
88.7306511881
 30
0.0
 40
2.0
  0
LINE
  5
348
330
1F
100
AcDbEntity
  8
0
  6
Continuous
 62
     7
370
    25
100
AcDbLine
 10
72.6661040165
 20
90.7306509091
 30
0.0
 11
72.6661040165
 21
86.7306517436
 31
0.0
  0
LINE
  5
349
330
1F
100
AcDbEntity
  8
0
  6
Continuous
 62
     7
370
    25
100
AcDbLine
 10
71.2661041596
 20
86.7579670622
 30
0.0
 11
72.6661040165
 21
86.7579670622
 31
0.0
  0
LINE
  5
34A
330
1F
100
AcDbEntity
  8
0
  6
Continuous
 62
     7
370
    25
100
AcDbLine
 10
71.2661041596
 20
86.7579670622
 30
0.0
 11
71.2661041596
 21
87.7394618465
 31
0.0
  0
LINE
  5
34B
330
1F
100
AcDbEntity
  8
0
  6
Continuous
 62
     7
370
    25
100
AcDbLine
 10
71.2661041596
 20
87.7394618465
 30
0.0
 11
72.6661040165
 21
87.7394618465
 31
0.0
  0
LINE
  5
34C
330
1F
100
AcDbEntity
  8
0
  6
Continuous
 62
     7
370
    25
100
AcDbLine
 10
71.2661041596
 20
89.7024529054
 30
0.0
 11
72.6661040165
 21
89.7024529054
 31
0.0
  0
LINE
  5
34D
330
1F
100
AcDbEntity
  8
0
  6
Continuous
 62
     7
370
    25
100
AcDbLine
 10
71.2661041596
 20
89.7024529054
 30
0.0
 11
71.2661041596
 21
90.6839476897
 31
0.0
  0
LINE
  5
34E
330
1F
100
AcDbEntity
  8
0
  6
Continuous
 62
     7
370
    25
100
AcDbLine
 10
71.2661041596
 20
90.6839476897
 30
0.0
 11
72.6661040165
 21
90.6839476897
 31
0.0
  0
LINE
  5
34F
330
1F
100
AcDbEntity
  8
0
  6
Continuous
 62
     7
370
    25
100
AcDbLine
 10
71.2661041596
 20
87.7394618465
 30
0.0
 11
71.2661041596
 21
89.7024529054
 31
0.0
  0
LINE
  5
350
330
1F
100
AcDbEntity
  8
0
  6
Continuous
 62
     7
370
    25
100
AcDbLine
 10
130.7661040404
 20
89.7024529054
 30
0.0
 11
130.7661040404
 21
87.7394618465
 31
0.0
  0
LINE
  5
351
330
1F
100
AcDbEntity
  8
0
  6
Continuous
 62
     7
370
    25
100
AcDbLine
 10
134.1661049702
 20
89.7024529054
 30
0.0
 11
132.4661045053
 21
90.6839476897
 31
0.0
  0
LINE
  5
352
330
1F
100
AcDbEntity
  8
0
  6
Continuous
 62
     7
370
    25
100
AcDbLine
 10
134.1661049702
 20
87.7394618465
 30
0.0
 11
134.1661049702
 21
89.7024529054
 31
0.0
  0
LINE
  5
353
330
1F
100
AcDbEntity
  8
0
  6
Continuous
 62
     7
370
    25
100
AcDbLine
 10
132.4661045053
 20
90.6839476897
 30
0.0
 11
130.7661040404
 21
89.7024529054
 31
0.0
  0
LINE
  5
354
330
1F
100
AcDbEntity
  8
0
  6
Continuous
 62
     7
370
    25
100
AcDbLine
 10
132.4661045053
 20
86.7579670622
 30
0.0
 11
134.1661049702
 21
87.7394618465
 31
0.0
  0
LINE
  5
355
330
1F
100
AcDbEntity
  8
0
  6
Continuous
 62
     7
370
    25
100
AcDbLine
 10
130.7661040404
 20
87.7394618465
 30
0.0
 11
132.4661045053
 21
86.7579670622
 31
0.0
  0
CIRCLE
  5
356
330
1F
100
AcDbEntity
  8
0
  6
Continuous
 62
     7
370
    25
100
AcDbCircle
 10
132.4636812624
 20
88.7306511881
 30
0.0
 40
2.0
  0
LINE
  5
357
330
1F
100
AcDbEntity
  8
0
  6
Continuous
 62
     7
370
    25
100
AcDbLine
 10
82.7661051133
 20
87.7394618465
 30
0.0
 11
84.4661040881
 21
86.7579670622
 31
0.0
  0
LINE
  5
358
330
1F
100
AcDbEntity
  8
0
  6
Continuous
 62
     7
370
    25
100
AcDbLine
 10
82.7661051133
 20
89.7024529054
 30
0.0
 11
82.7661051133
 21
87.7394618465
 31
0.0
  0
LINE
  5
359
330
1F
100
AcDbEntity
  8
0
  6
Continuous
 62
     7
370
    25
100
AcDbLine
 10
84.4661040881
 20
86.7579670622
 30
0.0
 11
86.166104553
 21
87.7394618465
 31
0.0
  0
LINE
  5
35A
330
1F
100
AcDbEntity
  8
0
  6
Continuous
 62
     7
370
    25
100
AcDbLine
 10
86.166104553
 20
89.7024529054
 30
0.0
 11
84.4661040881
 21
90.6839476897
 31
0.0
  0
LINE
  5
35B
330
1F
100
AcDbEntity
  8
0
  6
Continuous
 62
     7
370
    25
100
AcDbLine
 10
86.166104553
 20
87.7394618465
 30
0.0
 11
86.166104553
 21
89.7024529054
 31
0.0
  0
LINE
  5
35C
330
1F
100
AcDbEntity
  8
0
  6
Continuous
 62
     7
370
    25
100
AcDbLine
 10
84.4661040881
 20
90.6839476897
 30
0.0
 11
82.7661051133
 21
89.7024529054
 31
0.0
  0
CIRCLE
  5
35D
330
1F
100
AcDbEntity
  8
0
  6
Continuous
 62
     7
370
    25
100
AcDbCircle
 10
84.4636812624
 20
88.7306511881
 30
0.0
 40
2.0
  0
LINE
  5
35E
330
1F
100
AcDbEntity
  8
0
  6
Continuous
 62
     7
370
    25
100
AcDbLine
 10
73.0661048272
 20
87.2600974514
 30
0.0
 11
73.0661048272
 21
90.1818173005
 31
0.0
  0
LINE
  5
35F
330
1F
100
AcDbEntity
  8
0
  6
Continuous
 62
     7
370
    25
100
AcDbLine
 10
73.0661048272
 20
90.1818173005
 30
0.0
 11
73.0661048272
 21
94.3209560587
 31
0.0
  0
LINE
  5
360
330
1F
100
AcDbEntity
  8
0
  6
Continuous
 62
     7
370
    25
100
AcDbLine
 10
73.0661048272
 20
83.1209586932
 30
0.0
 11
73.0661048272
 21
87.2600974514
 31
0.0
  0
LINE
  5
361
330
1F
100
AcDbEntity
  8
0
  6
Continuous
 62
     7
370
    25
100
AcDbLine
 10
72.6661040165
 20
90.7306509091
 30
0.0
 11
72.6661040165
 21
92.0032517983
 31
0.0
  0
SPLINE
  5
362
330
1F
100
AcDbEntity
  8
0
  6
Continuous
 62
     7
370
    25
100
AcDbSpline
210
0.0
220
0.0
230
1.0
 70
     8
 71
     3
 72
    10
 73
     6
 74
     0
 42
0.000000001
 43
0.00000001
 40
0.0
 40
0.0
 40
0.0
 40
0.0
 40
0.4082517227410928
 40
0.9962188138919076
 40
1.0
 40
1.0
 40
1.0
 40
1.0
 10
73.06610482716296
 20
91.95807594795798
 30
0.0
 10
73.00358137398221
 20
91.96383431698821
 30
0.0
 10
72.85101119019971
 20
91.97788593084726
 30
0.0
 10
72.73463195129798
 20
91.99574838147234
 30
0.0
 10
72.66653911990723
 20
92.00320415701941
 30
0.0
 10
72.66610401653978
 20
92.00325179834937
 30
0.0
  0
SPLINE
  5
363
330
1F
100
AcDbEntity
  8
0
  6
Continuous
 62
     7
370
    25
100
AcDbSpline
210
0.0
220
0.0
230
1.0
 70
     8
 71
     3
 72
    11
 73
     7
 74
     0
 42
0.000000001
 43
0.00000001
 40
0.0
 40
0.0
 40
0.0
 40
0.0
 40
0.0037789442410311
 40
0.2992998364213125
 40
0.5919903299015837
 40
0.9999999999999999
 40
0.9999999999999999
 40
0.9999999999999999
 40
0.9999999999999999
 10
72.66610401653978
 20
85.43866295357321
 30
0.0
 10
72.66653909022993
 20
85.43871060659818
 30
0.0
 10
72.700997784508
 20
85.44248482015324
 30
0.0
 10
72.77065118445458
 20
85.45109228179399
 30
0.0
 10
72.89572597981447
 20
85.46833879122102
 30
0.0
 10
73.00340472729295
 20
85.47813473704471
 30
0.0
 10
73.06610482716296
 20
85.4838388039646
 30
0.0
  0
LINE
  5
364
330
1F
100
AcDbEntity
  8
0
  6
Continuous
 62
     7
370
    25
100
AcDbLine
 10
72.6661040165
 20
85.4386629536
 30
0.0
 11
72.6661040165
 21
86.7306517436
 31
0.0
  0
SPLINE
  5
365
330
1F
100
AcDbEntity
  8
0
  6
Continuous
 62
     7
370
    25
100
AcDbSpline
210
0.0
220
0.0
230
1.0
 70
     8
 71
     3
 72
    12
 73
     8
 74
     0
 42
0.000000001
 43
0.00000001
 40
0.0
 40
0.0
 40
0.0
 40
0.0
 40
0.2165390626657107
 40
0.4330901161374434
 40
0.648818990082698
 40
0.8627281020199413
 40
1.0
 40
1.0
 40
1.0
 40
1.0
 10
73.06610482716296
 20
85.03313977261159
 30
0.0
 10
73.06164832596826
 20
85.07873918829361
 30
0.0
 10
73.05273507680101
 20
85.16994054471589
 30
0.0
 10
72.98346369073019
 20
85.29153489149414
 30
0.0
 10
72.88156423512527
 20
85.3834477719867
 30
0.0
 10
72.76901755555242
 20
85.431880124163
 30
0.0
 10
72.69502622500596
 20
85.43675674756695
 30
0.0
 10
72.66610401653978
 20
85.4386629535732
 30
0.0
  0
SPLINE
  5
366
330
1F
100
AcDbEntity
  8
0
  6
Continuous
 62
     7
370
    25
100
AcDbSpline
210
0.0
220
0.0
230
1.0
 70
     8
 71
     3
 72
    13
 73
     9
 74
     0
 42
0.000000001
 43
0.00000001
 40
0.0
 40
0.0
 40
0.0
 40
0.0
 40
0.0088094291609142
 40
0.2207149683450593
 40
0.4335062823061775
 40
0.6480517048294706
 40
0.8640096548413636
 40
0.9999999999999999
 40
0.9999999999999999
 40
0.9999999999999999
 40
0.9999999999999999
 10
72.66610401653978
 20
92.00325179834937
 30
0.0
 10
72.6679575912085
 20
92.00326064351235
 30
0.0
 10
72.71439779372999
 20
92.00348225376983
 30
0.0
 10
72.80609103376604
 20
92.02080549418332
 30
0.0
 10
72.92445394776814
 20
92.08947353603011
 30
0.0
 10
73.01346199272146
 20
92.19370562653967
 30
0.0
 10
73.05968853816411
 20
92.30631444896697
 30
0.0
 10
73.06431658314317
 20
92.38021884184825
 30
0.0
 10
73.06610482716296
 20
92.40877497931096
 30
0.0
  0
LINE
  5
367
330
1F
100
AcDbEntity
  8
0
  6
Continuous
 62
     7
370
    25
100
AcDbLine
 10
72.6661040165
 20
85.4209573938
 30
0.0
 11
72.6661040165
 21
85.4386629536
 31
0.0
  0
LINE
  5
368
330
1F
100
AcDbEntity
  8
0
  6
Continuous
 62
     7
370
    25
100
AcDbLine
 10
72.6661040165
 20
92.0032517983
 30
0.0
 11
72.6661040165
 21
92.0209573581
 31
0.0
  0
LINE
  5
369
330
1F
100
AcDbEntity
  8
0
  6
Continuous
 62
     7
370
    25
100
AcDbLine
 10
142.0661045887
 20
90.1818173005
 30
0.0
 11
142.0661045887
 21
87.2600974514
 31
0.0
  0
LINE
  5
36A
330
1F
100
AcDbEntity
  8
0
  6
Continuous
 62
     7
370
    25
100
AcDbLine
 10
142.0661045887
 20
87.2600974514
 30
0.0
 11
142.0661045887
 21
83.1209586932
 31
0.0
  0
LINE
  5
36B
330
1F
100
AcDbEntity
  8
0
  6
Continuous
 62
     7
370
    25
100
AcDbLine
 10
142.0661045887
 20
94.3209560587
 30
0.0
 11
142.0661045887
 21
90.1818173005
 31
0.0
  0
LINE
  5
36C
330
1F
100
AcDbEntity
  8
0
  6
Continuous
 62
     7
370
    25
100
AcDbLine
 10
142.4661053994
 20
86.7279024794
 30
0.0
 11
142.4661053994
 21
85.4386629536
 31
0.0
  0
SPLINE
  5
36D
330
1F
100
AcDbEntity
  8
0
  6
Continuous
 62
     7
370
    25
100
AcDbSpline
210
0.0
220
0.0
230
1.0
 70
     8
 71
     3
 72
    10
 73
     6
 74
     0
 42
0.000000001
 43
0.00000001
 40
0.0
 40
0.0
 40
0.0
 40
0.0
 40
0.4082517227410928
 40
0.9962188138919076
 40
1.0
 40
1.0
 40
1.0
 40
1.0
 10
142.0661045887444
 20
85.4838388039646
 30
0.0
 10
142.1286280419251
 20
85.4780804349344
 30
0.0
 10
142.2811982257076
 20
85.46402882107539
 30
0.0
 10
142.3975774646094
 20
85.44616637044993
 30
0.0
 10
142.4656702960001
 20
85.43871059490316
 30
0.0
 10
142.4661053993675
 20
85.43866295357321
 30
0.0
  0
SPLINE
  5
36E
330
1F
100
AcDbEntity
  8
0
  6
Continuous
 62
     7
370
    25
100
AcDbSpline
210
0.0
220
0.0
230
1.0
 70
     8
 71
     3
 72
    11
 73
     7
 74
     0
 42
0.000000001
 43
0.00000001
 40
0.0
 40
0.0
 40
0.0
 40
0.0
 40
0.0037789442410311
 40
0.2992998364213125
 40
0.5919903299015837
 40
0.9999999999999999
 40
0.9999999999999999
 40
0.9999999999999999
 40
0.9999999999999999
 10
142.4661053993675
 20
92.00325179834937
 30
0.0
 10
142.4656703256774
 20
92.0032041453244
 30
0.0
 10
142.4312116313993
 20
91.99942993176946
 30
0.0
 10
142.3615582314527
 20
91.99082247012855
 30
0.0
 10
142.2364834360928
 20
91.97357596070158
 30
0.0
 10
142.1288046886144
 20
91.96378001487787
 30
0.0
 10
142.0661045887444
 20
91.95807594795798
 30
0.0
  0
LINE
  5
36F
330
1F
100
AcDbEntity
  8
0
  6
Continuous
 62
     7
370
    25
100
AcDbLine
 10
142.4661053994
 20
92.0032517983
 30
0.0
 11
142.4661053994
 21
90.727903135
 31
0.0
  0
SPLINE
  5
370
330
1F
100
AcDbEntity
  8
0
  6
Continuous
 62
     7
370
    25
100
AcDbSpline
210
0.0
220
0.0
230
1.0
 70
     8
 71
     3
 72
    12
 73
     8
 74
     0
 42
0.000000001
 43
0.00000001
 40
0.0
 40
0.0
 40
0.0
 40
0.0
 40
0.2165367993214868
 40
0.4330899699056773
 40
0.648818899497191
 40
0.8627280666112941
 40
0.9999999999999999
 40
0.9999999999999999
 40
0.9999999999999999
 40
0.9999999999999999
 10
142.0661045887444
 20
92.40877497931096
 30
0.0
 10
142.0705612470491
 20
92.36317612381482
 30
0.0
 10
142.0794749006042
 20
92.27197496532148
 30
0.0
 10
142.1487452127842
 20
92.15038005385506
 30
0.0
 10
142.2506452309249
 20
92.05846700663693
 30
0.0
 10
142.3631918529231
 20
92.0100346238021
 30
0.0
 10
142.4371831888128
 20
92.00515800324345
 30
0.0
 10
142.4661053993675
 20
92.00325179834937
 30
0.0
  0
SPLINE
  5
371
330
1F
100
AcDbEntity
  8
0
  6
Continuous
 62
     7
370
    25
100
AcDbSpline
210
0.0
220
0.0
230
1.0
 70
     8
 71
     3
 72
    13
 73
     9
 74
     0
 42
0.000000001
 43
0.00000001
 40
0.0
 40
0.0
 40
0.0
 40
0.0
 40
0.0088094291609142
 40
0.2207149683450593
 40
0.4335062823061775
 40
0.6480517048294706
 40
0.8640096548413636
 40
0.9999999999999999
 40
0.9999999999999999
 40
0.9999999999999999
 40
0.9999999999999999
 10
142.4661053993675
 20
85.43866295357321
 30
0.0
 10
142.4642518246989
 20
85.43865410841025
 30
0.0
 10
142.4178116221774
 20
85.43843249815262
 30
0.0
 10
142.3261183821413
 20
85.42110925773933
 30
0.0
 10
142.2077554681392
 20
85.35244121589244
 30
0.0
 10
142.1187474231859
 20
85.24820912538289
 30
0.0
 10
142.0725208777432
 20
85.13560030295561
 30
0.0
 10
142.0678928327642
 20
85.06169591007433
 30
0.0
 10
142.0661045887444
 20
85.03313977261159
 30
0.0
  0
LINE
  5
372
330
1F
100
AcDbEntity
  8
0
  6
Continuous
 62
     7
370
    25
100
AcDbLine
 10
142.4661053994
 20
92.0209573581
 30
0.0
 11
142.4661053994
 21
92.0032517983
 31
0.0
  0
LINE
  5
373
330
1F
100
AcDbEntity
  8
0
  6
Continuous
 62
     7
370
    25
100
AcDbLine
 10
142.4661053994
 20
85.4386629536
 30
0.0
 11
142.4661053994
 21
85.4209573938
 31
0.0
  0
CIRCLE
  5
374
330
1F
100
AcDbEntity
  8
0
  6
Continuous
 62
     7
370
    25
100
AcDbCircle
 10
124.466104708
 20
88.7209574058
 30
0.0
 40
4.459999999999994
  0
CIRCLE
  5
375
330
1F
100
AcDbEntity
  8
0
  6
Continuous
 62
     7
370
    25
100
AcDbCircle
 10
124.466104708
 20
88.7209574058
 30
0.0
 40
5.300000000000026
  0
CIRCLE
  5
376
330
1F
100
AcDbEntity
  8
0
  6
Continuous
 62
     7
370
    25
100
AcDbCircle
 10
124.466104708
 20
88.7209574058
 30
0.0
 40
3.760000000000005
  0
ARC
  5
377
330
1F
100
AcDbEntity
  8
0
  6
Continuous
 62
     7
370
    25
100
AcDbCircle
 10
119.4701063092
 20
91.0209574058
 30
0.0
 40
0.2000000000000053
100
AcDbArc
 50
270.0
 51
335.2801488171
  0
ARC
  5
378
330
1F
100
AcDbEntity
  8
0
  6
Continuous
 62
     7
370
    25
100
AcDbCircle
 10
129.4621031067
 20
86.4209574058
 30
0.0
 40
0.2000000000000113
100
AcDbArc
 50
90.0
 51
155.2801488171
  0
ARC
  5
379
330
1F
100
AcDbEntity
  8
0
  6
Continuous
 62
     7
370
    25
100
AcDbCircle
 10
119.4701063092
 20
86.4209574058
 30
0.0
 40
0.2000000000000113
100
AcDbArc
 50
24.7198511829
 51
90.0
  0
ARC
  5
37A
330
1F
100
AcDbEntity
  8
0
  6
Continuous
 62
     7
370
    25
100
AcDbCircle
 10
129.4621031067
 20
91.0209574058
 30
0.0
 40
0.2000000000000053
100
AcDbArc
 50
204.7198511829
 51
270.0
  0
ARC
  5
37B
330
1F
100
AcDbEntity
  8
0
  6
Continuous
 62
     7
370
    25
100
AcDbCircle
 10
133.9322950869
 20
87.2209574058
 30
0.0
 40
0.5999999999999923
100
AcDbArc
 50
270.0
 51
307.8636463617
  0
ARC
  5
37C
330
1F
100
AcDbEntity
  8
0
  6
Continuous
 62
     7
370
    25
100
AcDbCircle
 10
132.766104708
 20
88.7209574058
 30
0.0
 40
2.499999999999979
100
AcDbArc
 50
307.8636463617
 51
57.1401196211
  0
SPLINE
  5
37D
330
1F
100
AcDbEntity
  8
0
  6
Continuous
 62
     7
370
    25
100
AcDbSpline
210
0.0
220
0.0
230
1.0
 70
     8
 71
     3
 72
    13
 73
     9
 74
     0
 42
0.000000001
 43
0.00000001
 40
0.0
 40
0.0
 40
0.0
 40
0.0
 40
0.2028202639990586
 40
0.4055281836917217
 40
0.6115261559381441
 40
0.8255469124518638
 40
0.9970919891971732
 40
1.0
 40
1.0
 40
1.0
 40
1.0
 10
134.1225697376702
 20
90.82095790644263
 30
0.0
 10
134.1207353804787
 20
90.8147136775837
 30
0.0
 10
134.1170676821659
 20
90.8022286786108
 30
0.0
 10
134.088225790451
 20
90.70542065549839
 30
0.0
 10
134.0443253346488
 20
90.56216055823245
 30
0.0
 10
133.9904013304301
 20
90.39327546458317
 30
0.0
 10
133.9507755336383
 20
90.27475768451784
 30
0.0
 10
133.93259685598
 20
90.22183881107004
 30
0.0
 10
133.9322938301537
 20
90.22095669050786
 30
0.0
  0
LINE
  5
37E
330
1F
100
AcDbEntity
  8
0
  6
Continuous
 62
     7
370
    25
100
AcDbLine
 10
129.4621034243
 20
90.8209579064
 30
0.0
 11
134.1225697377
 21
90.8209579064
 31
0.0
  0
LINE
  5
37F
330
1F
100
AcDbEntity
  8
0
  6
Continuous
 62
     7
370
    25
100
AcDbLine
 10
119.4701059439
 20
86.6209568455
 30
0.0
 11
114.999914048
 21
86.6209568455
 31
0.0
  0
ARC
  5
380
330
1F
100
AcDbEntity
  8
0
  6
Continuous
 62
     7
370
    25
100
AcDbCircle
 10
114.999914329
 20
87.2209574058
 30
0.0
 40
0.5999999999999923
100
AcDbArc
 50
232.1363536383
 51
270.0
  0
LINE
  5
381
330
1F
100
AcDbEntity
  8
0
  6
Continuous
 62
     7
370
    25
100
AcDbLine
 10
133.9322938302
 20
86.6209568455
 30
0.0
 11
129.4621034243
 21
86.6209568455
 31
0.0
  0
ARC
  5
382
330
1F
100
AcDbEntity
  8
0
  6
Continuous
 62
     7
370
    25
100
AcDbCircle
 10
114.999914329
 20
90.2209574058
 30
0.0
 40
0.6000000000000036
100
AcDbArc
 50
90.0
 51
127.8636463617
  0
ARC
  5
383
330
1F
100
AcDbEntity
  8
0
  6
Continuous
 62
     7
370
    25
100
AcDbCircle
 10
116.166104708
 20
88.7209574058
 30
0.0
 40
2.499999999999996
100
AcDbArc
 50
127.8636463617
 51
232.1363536383
  0
LINE
  5
384
330
1F
100
AcDbEntity
  8
0
  6
Continuous
 62
     7
370
    25
100
AcDbLine
 10
114.999914048
 20
90.8209579064
 30
0.0
 11
119.4701059439
 21
90.8209579064
 31
0.0
  0
SPLINE
  5
385
330
1F
100
AcDbEntity
  8
0
  6
Continuous
 62
     7
370
    25
100
AcDbSpline
210
0.0
220
0.0
230
1.0
 70
     8
 71
     3
 72
     9
 73
     5
 74
     0
 42
0.000000001
 43
0.00000001
 40
0.0
 40
0.0
 40
0.0
 40
0.0
 40
0.9800879406463922
 40
1.0
 40
1.0
 40
1.0
 40
1.0
 10
134.0940489151452
 20
90.83910901089286
 30
0.0
 10
134.0783790350316
 20
90.85169961695065
 30
0.0
 10
134.0623907961566
 20
90.86454602137584
 30
0.0
 10
134.0504942670229
 20
90.88269122684522
 30
0.0
 10
134.0502573826286
 20
90.8830525352535
 30
0.0
  0
ARC
  5
386
330
1F
100
AcDbEntity
  8
0
  6
Continuous
 62
     7
370
    25
100
AcDbCircle
 10
124.466104708
 20
80.7209574058
 30
0.0
 40
14.0
100
AcDbArc
 50
45.6760576839
 51
134.3454126321
  0
ARC
  5
387
330
1F
100
AcDbEntity
  8
0
  6
Continuous
 62
     7
370
    25
100
AcDbCircle
 10
124.466104708
 20
96.7209574058
 30
0.0
 40
14.00000000000002
100
AcDbArc
 50
225.6545873679
 51
314.3454126321
  0
ARC
  5
388
330
1F
100
AcDbEntity
  8
0
  6
Continuous
 62
     7
370
    25
100
AcDbCircle
 10
114.5405557069
 20
86.5659843863
 30
0.0
 40
0.2000000000000147
100
AcDbArc
 50
45.6545873679
 51
54.9564935956
  0
ARC
  5
389
330
1F
100
AcDbEntity
  8
0
  6
Continuous
 62
     7
370
    25
100
AcDbCircle
 10
114.5405557069
 20
90.8759304253
 30
0.0
 40
0.2000000000000147
100
AcDbArc
 50
305.0435064044
 51
314.3454126321
  0
ARC
  5
38A
330
1F
100
AcDbEntity
  8
0
  6
Continuous
 62
     7
370
    25
100
AcDbCircle
 10
134.391653709
 20
86.5659843863
 30
0.0
 40
0.2000000000000264
100
AcDbArc
 50
125.0435064044
 51
134.3454126321
  0
ARC
  5
38B
330
1F
100
AcDbEntity
  8
0
  6
Continuous
 62
     7
370
    25
100
AcDbCircle
 10
134.3878476625
 20
90.8796490904
 30
0.0
 40
0.1999999999999909
100
AcDbArc
 50
225.6760576839
 51
233.0838550447
  0
CIRCLE
  5
38C
330
1F
100
AcDbEntity
  8
0
  6
Continuous
 62
     7
370
    25
100
AcDbCircle
 10
92.466104708
 20
88.7209574058
 30
0.0
 40
4.460000000000008
  0
CIRCLE
  5
38D
330
1F
100
AcDbEntity
  8
0
  6
Continuous
 62
     7
370
    25
100
AcDbCircle
 10
92.466104708
 20
88.7209574058
 30
0.0
 40
5.299999999999997
  0
CIRCLE
  5
38E
330
1F
100
AcDbEntity
  8
0
  6
Continuous
 62
     7
370
    25
100
AcDbCircle
 10
92.466104708
 20
88.7209574058
 30
0.0
 40
3.760000000000005
  0
ARC
  5
38F
330
1F
100
AcDbEntity
  8
0
  6
Continuous
 62
     7
370
    25
100
AcDbCircle
 10
97.4621031067
 20
86.4209574058
 30
0.0
 40
0.2000000000000028
100
AcDbArc
 50
90.0
 51
155.2801488171
  0
ARC
  5
390
330
1F
100
AcDbEntity
  8
0
  6
Continuous
 62
     7
370
    25
100
AcDbCircle
 10
87.4701063092
 20
91.0209574058
 30
0.0
 40
0.2000000000000053
100
AcDbArc
 50
270.0
 51
335.2801488171
  0
ARC
  5
391
330
1F
100
AcDbEntity
  8
0
  6
Continuous
 62
     7
370
    25
100
AcDbCircle
 10
97.4621031067
 20
91.0209574058
 30
0.0
 40
0.1999999999999924
100
AcDbArc
 50
204.7198511829
 51
270.0
  0
ARC
  5
392
330
1F
100
AcDbEntity
  8
0
  6
Continuous
 62
     7
370
    25
100
AcDbCircle
 10
87.4701063092
 20
86.4209574058
 30
0.0
 40
0.2000000000000113
100
AcDbArc
 50
24.7198511829
 51
90.0
  0
LINE
  5
393
330
1F
100
AcDbEntity
  8
0
  6
Continuous
 62
     7
370
    25
100
AcDbLine
 10
82.9999147632
 20
90.8209579064
 30
0.0
 11
87.4701066592
 21
90.8209579064
 31
0.0
  0
LINE
  5
394
330
1F
100
AcDbEntity
  8
0
  6
Continuous
 62
     7
370
    25
100
AcDbLine
 10
101.9322949179
 20
86.6209568455
 30
0.0
 11
97.4621033945
 21
86.6209568455
 31
0.0
  0
ARC
  5
395
330
1F
100
AcDbEntity
  8
0
  6
Continuous
 62
     7
370
    25
100
AcDbCircle
 10
82.999914329
 20
90.2209574058
 30
0.0
 40
0.5999999999999949
100
AcDbArc
 50
90.0
 51
127.8636463617
  0
ARC
  5
396
330
1F
100
AcDbEntity
  8
0
  6
Continuous
 62
     7
370
    25
100
AcDbCircle
 10
101.9322950869
 20
90.2209574058
 30
0.0
 40
0.5999999999999949
100
AcDbArc
 50
52.1363536383
 51
90.0
  0
SPLINE
  5
397
330
1F
100
AcDbEntity
  8
0
  6
Continuous
 62
     7
370
    25
100
AcDbSpline
210
0.0
220
0.0
230
1.0
 70
     8
 71
     3
 72
    13
 73
     9
 74
     0
 42
0.000000001
 43
0.00000001
 40
0.0
 40
0.0
 40
0.0
 40
0.0
 40
0.2028202974495563
 40
0.4055282505741886
 40
0.6115265945454508
 40
0.8255473863569296
 40
0.9970924913946201
 40
1.0
 40
1.0
 40
1.0
 40
1.0
 10
82.80963885569308
 20
86.62095684547995
 30
0.0
 10
82.8114733447633
 20
86.62720103602352
 30
0.0
 10
82.81514130676071
 20
86.63968595838695
 30
0.0
 10
82.84398122691692
 20
86.73649461240107
 30
0.0
 10
82.88788948870847
 20
86.87975256678672
 30
0.0
 10
82.94179358076545
 20
87.04864446966573
 30
0.0
 10
82.98146052585024
 20
87.1671479822532
 30
0.0
 10
82.99961223830573
 20
87.22007593940083
 30
0.0
 10
82.99991476320956
 20
87.22095806141469
 30
0.0
  0
LINE
  5
398
330
1F
100
AcDbEntity
  8
0
  6
Continuous
 62
     7
370
    25
100
AcDbLine
 10
87.4701066592
 20
86.6209568455
 30
0.0
 11
82.8096388557
 21
86.6209568455
 31
0.0
  0
LINE
  5
399
330
1F
100
AcDbEntity
  8
0
  6
Continuous
 62
     7
370
    25
100
AcDbLine
 10
97.4621033945
 20
90.8209579064
 30
0.0
 11
101.9322949179
 21
90.8209579064
 31
0.0
  0
ARC
  5
39A
330
1F
100
AcDbEntity
  8
0
  6
Continuous
 62
     7
370
    25
100
AcDbCircle
 10
84.166104708
 20
88.7209574058
 30
0.0
 40
2.499999999999992
100
AcDbArc
 50
127.8636463617
 51
237.1401196211
  0
ARC
  5
39B
330
1F
100
AcDbEntity
  8
0
  6
Continuous
 62
     7
370
    25
100
AcDbCircle
 10
101.9322950869
 20
87.2209574058
 30
0.0
 40
0.5999999999999949
100
AcDbArc
 50
270.0
 51
307.8636463617
  0
ARC
  5
39C
330
1F
100
AcDbEntity
  8
0
  6
Continuous
 62
     7
370
    25
100
AcDbCircle
 10
100.766104708
 20
88.7209574058
 30
0.0
 40
2.499999999999999
100
AcDbArc
 50
307.8636463617
 51
52.1363536383
  0
SPLINE
  5
39D
330
1F
100
AcDbEntity
  8
0
  6
Continuous
 62
     7
370
    25
100
AcDbSpline
210
0.0
220
0.0
230
1.0
 70
     8
 71
     3
 72
     9
 73
     5
 74
     0
 42
0.000000001
 43
0.00000001
 40
0.0
 40
0.0
 40
0.0
 40
0.0
 40
0.9800794180774839
 40
1.0
 40
1.0
 40
1.0
 40
1.0
 10
82.83816116833422
 20
86.60280574102971
 30
0.0
 10
82.85382082139176
 20
86.59021132340669
 30
0.0
 10
82.8697987643714
 20
86.5773609182347
 30
0.0
 10
82.8817153162037
 20
86.55922352411449
 30
0.0
 10
82.8819527008507
 20
86.55886221666906
 30
0.0
  0
ARC
  5
39E
330
1F
100
AcDbEntity
  8
0
  6
Continuous
 62
     7
370
    25
100
AcDbCircle
 10
92.466104708
 20
96.7209574058
 30
0.0
 40
14.00000000000001
100
AcDbArc
 50
225.6760576839
 51
314.3454126321
  0
ARC
  5
39F
330
1F
100
AcDbEntity
  8
0
  6
Continuous
 62
     7
370
    25
100
AcDbCircle
 10
92.466104708
 20
80.7209574058
 30
0.0
 40
14.00000000000001
100
AcDbArc
 50
45.6545873679
 51
134.3454126321
  0
ARC
  5
3A0
330
1F
100
AcDbEntity
  8
0
  6
Continuous
 62
     7
370
    25
100
AcDbCircle
 10
102.391653709
 20
86.5659843863
 30
0.0
 40
0.2000000000000066
100
AcDbArc
 50
125.0435064044
 51
134.3454126321
  0
ARC
  5
3A1
330
1F
100
AcDbEntity
  8
0
  6
Continuous
 62
     7
370
    25
100
AcDbCircle
 10
102.391653709
 20
90.8759304253
 30
0.0
 40
0.2000000000000066
100
AcDbArc
 50
225.6545873679
 51
234.9564935956
  0
ARC
  5
3A2
330
1F
100
AcDbEntity
  8
0
  6
Continuous
 62
     7
370
    25
100
AcDbCircle
 10
82.5405557069
 20
90.8759304253
 30
0.0
 40
0.2000000000000066
100
AcDbArc
 50
305.0435064044
 51
314.3454126321
  0
ARC
  5
3A3
330
1F
100
AcDbEntity
  8
0
  6
Continuous
 62
     7
370
    25
100
AcDbCircle
 10
82.5443617534
 20
86.5622657211
 30
0.0
 40
0.2000000000000029
100
AcDbArc
 50
45.6760576839
 51
53.0838550447
  0
LINE
  5
3A4
330
1F
100
AcDbEntity
  8
0
  6
Continuous
 62
     7
370
    25
100
AcDbLine
 10
76.7661048748
 20
70.7209574058
 30
0.0
 11
138.3661045411
 21
70.7209574058
 31
0.0
  0
LINE
  5
3A5
330
1F
100
AcDbEntity
  8
0
  6
Continuous
 62
     7
370
    25
100
AcDbLine
 10
76.7661048748
 20
71.1209574248
 30
0.0
 11
138.3661045411
 21
71.1209574248
 31
0.0
  0
LINE
  5
3A6
330
1F
100
AcDbEntity
  8
0
  6
Continuous
 62
     7
370
    25
100
AcDbLine
 10
73.9674611666
 20
70.7209574058
 30
0.0
 11
73.9674611666
 21
71.1209574248
 31
0.0
  0
LINE
  5
3A7
330
1F
100
AcDbEntity
  8
0
  6
Continuous
 62
     7
370
    25
100
AcDbLine
 10
76.7661048748
 20
70.7209574058
 30
0.0
 11
73.9674611666
 21
70.7209574058
 31
0.0
  0
LINE
  5
3A8
330
1F
100
AcDbEntity
  8
0
  6
Continuous
 62
     7
370
    25
100
AcDbLine
 10
73.9674611666
 20
71.1209574248
 30
0.0
 11
76.7661048748
 21
71.1209574248
 31
0.0
  0
LINE
  5
3A9
330
1F
100
AcDbEntity
  8
0
  6
Continuous
 62
     7
370
    25
100
AcDbLine
 10
141.1647482493
 20
70.7209574058
 30
0.0
 11
141.1647482493
 21
71.1209574248
 31
0.0
  0
LINE
  5
3AA
330
1F
100
AcDbEntity
  8
0
  6
Continuous
 62
     7
370
    25
100
AcDbLine
 10
141.1647482493
 20
70.7209574058
 30
0.0
 11
138.3661045411
 21
70.7209574058
 31
0.0
  0
LINE
  5
3AB
330
1F
100
AcDbEntity
  8
0
  6
Continuous
 62
     7
370
    25
100
AcDbLine
 10
138.3661045411
 20
71.1209574248
 30
0.0
 11
141.1647482493
 21
71.1209574248
 31
0.0
  0
LINE
  5
3AC
330
1F
100
AcDbEntity
  8
0
  6
Continuous
 62
     7
370
    25
100
AcDbLine
 10
83.3127154686
 20
78.5749295725
 30
0.0
 11
83.3127154686
 21
78.5724865272
 31
0.0
  0
SPLINE
  5
3AD
330
1F
100
AcDbEntity
  8
0
  6
Continuous
 62
     7
370
    25
100
AcDbSpline
210
0.0
220
0.0
230
1.0
 70
     8
 71
     3
 72
    15
 73
    11
 74
     0
 42
0.000000001
 43
0.00000001
 40
0.0
 40
0.0
 40
0.0
 40
0.0
 40
0.1122544903080602
 40
0.2278313141874824
 40
0.3464663639233467
 40
0.468536958932686
 40
0.5943895220308021
 40
0.724985248922661
 40
0.8599571288527077
 40
1.0
 40
1.0
 40
1.0
 40
1.0
 10
83.8084775893096
 20
78.8952197411869
 30
0.0
 10
83.79275958056597
 20
78.87947785979988
 30
0.0
 10
83.7608583659362
 20
78.84752819333796
 30
0.0
 10
83.7086743521335
 20
78.80284181353153
 30
0.0
 10
83.65266990774057
 20
78.75983790286136
 30
0.0
 10
83.59265496428195
 20
78.71888097182946
 30
0.0
 10
83.52858270782569
 20
78.679857303967
 30
0.0
 10
83.46051075396471
 20
78.64266797176161
 30
0.0
 10
83.38838033832415
 20
78.60715820965424
 30
0.0
 10
83.33824484682964
 20
78.58580368662841
 30
0.0
 10
83.3127148774452
 20
78.57492954731478
 30
0.0
  0
LINE
  5
3AE
330
1F
100
AcDbEntity
  8
0
  6
Continuous
 62
     7
370
    25
100
AcDbLine
 10
83.8084771016
 20
78.8952196016
 30
0.0
 11
83.8084771016
 21
78.8927765562
 31
0.0
  0
SPLINE
  5
3AF
330
1F
100
AcDbEntity
  8
0
  6
Continuous
 62
     7
370
    25
100
AcDbSpline
210
0.0
220
0.0
230
1.0
 70
     8
 71
     3
 72
    15
 73
    11
 74
     0
 42
0.000000001
 43
0.00000001
 40
0.0
 40
0.0
 40
0.0
 40
0.0
 40
0.1122544903080602
 40
0.2278313141874824
 40
0.3464663639233467
 40
0.468536958932686
 40
0.5943895220308021
 40
0.724985248922661
 40
0.8599571288527077
 40
1.0
 40
1.0
 40
1.0
 40
1.0
 10
83.8084775893096
 20
78.89277640428568
 30
0.0
 10
83.79275958056597
 20
78.87703452289865
 30
0.0
 10
83.7608583659362
 20
78.84508485643676
 30
0.0
 10
83.7086743521335
 20
78.8003984766303
 30
0.0
 10
83.65266990774057
 20
78.75739456596015
 30
0.0
 10
83.59265496428195
 20
78.71643763492825
 30
0.0
 10
83.52858270782569
 20
78.67741396706579
 30
0.0
 10
83.46051075396471
 20
78.64022463486039
 30
0.0
 10
83.38838033832415
 20
78.60471487275304
 30
0.0
 10
83.33824484682964
 20
78.58336034972719
 30
0.0
 10
83.3127148774452
 20
78.57248621041356
 30
0.0
  0
SPLINE
  5
3B0
330
1F
100
AcDbEntity
  8
0
  6
Continuous
 62
     7
370
    25
100
AcDbSpline
210
0.0
220
0.0
230
1.0
 70
     8
 71
     3
 72
    15
 73
    11
 74
     0
 42
0.000000001
 43
0.00000001
 40
0.0
 40
0.0
 40
0.0
 40
0.0
 40
0.1175175609944375
 40
0.2357133764367592
 40
0.3552848228027226
 40
0.4769357572092705
 40
0.6017566068333007
 40
0.730394258021457
 40
0.8627234622098481
 40
1.0
 40
1.0
 40
1.0
 40
1.0
 10
83.48813860625876
 20
79.94760180676677
 30
0.0
 10
83.49083754667969
 20
79.91325975154204
 30
0.0
 10
83.49625100449856
 20
79.84437743538179
 30
0.0
 10
83.5152661547955
 20
79.7418685389727
 30
0.0
 10
83.54181044515872
 20
79.63989730144988
 30
0.0
 10
83.57677376777224
 20
79.53840311259302
 30
0.0
 10
83.62019757818622
 20
79.43734560275347
 30
0.0
 10
83.6720826510278
 20
79.3368527154301
 30
0.0
 10
83.73202214622418
 20
79.23662143555698
 30
0.0
 10
83.77762873172283
 20
79.17210203767227
 30
0.0
 10
83.80085047066554
 20
79.13925036508948
 30
0.0
  0
SPLINE
  5
3B1
330
1F
100
AcDbEntity
  8
0
  6
Continuous
 62
     7
370
    25
100
AcDbSpline
210
0.0
220
0.0
230
1.0
 70
     8
 71
     3
 72
    15
 73
    11
 74
     0
 42
0.000000001
 43
0.00000001
 40
0.0
 40
0.0
 40
0.0
 40
0.0
 40
0.1169287601657851
 40
0.2349935981650714
 40
0.3553924049287305
 40
0.4785052158024166
 40
0.6039442449022551
 40
0.7326152411347512
 40
0.8648607103883583
 40
1.0
 40
1.0
 40
1.0
 40
1.0
 10
83.80085047066554
 20
79.13925036508948
 30
0.0
 10
83.8140389716242
 20
79.15681107737687
 30
0.0
 10
83.84054411279124
 20
79.19210312153186
 30
0.0
 10
83.87707134367687
 20
79.24802491619812
 30
0.0
 10
83.91078719594591
 20
79.30698083660425
 30
0.0
 10
83.94294939372185
 20
79.36838283276106
 30
0.0
 10
83.97179198965502
 20
79.43311518310284
 30
0.0
 10
83.99911526992857
 20
79.50033764270358
 30
0.0
 10
84.02366431441496
 20
79.57058463340088
 30
0.0
 10
84.03778268344685
 20
79.61877330928148
 30
0.0
 10
84.0449182672757
 20
79.64312841259202
 30
0.0
  0
LINE
  5
3B2
330
1F
100
AcDbEntity
  8
0
  6
Continuous
 62
     7
370
    25
100
AcDbLine
 10
84.0449182966
 20
79.6431282534
 30
0.0
 11
83.8847486951
 21
79.6431282534
 31
0.0
  0
LINE
  5
3B3
330
1F
100
AcDbEntity
  8
0
  6
Continuous
 62
     7
370
    25
100
AcDbLine
 10
83.8847486951
 20
79.6431282534
 30
0.0
 11
83.8542400577
 21
79.543426074
 31
0.0
  0
LINE
  5
3B4
330
1F
100
AcDbEntity
  8
0
  6
Continuous
 62
     7
370
    25
100
AcDbLine
 10
83.8542400577
 20
79.543426074
 30
0.0
 11
83.7016983607
 21
79.5891815795
 31
0.0
  0
SPLINE
  5
3B5
330
1F
100
AcDbEntity
  8
0
  6
Continuous
 62
     7
370
    25
100
AcDbSpline
210
0.0
220
0.0
230
1.0
 70
     8
 71
     3
 72
    11
 73
     7
 74
     0
 42
0.000000001
 43
0.00000001
 40
0.0
 40
0.0
 40
0.0
 40
0.0
 40
0.2330878704223509
 40
0.4774638020264426
 40
0.7331545842005797
 40
1.0
 40
1.0
 40
1.0
 40
1.0
 10
83.70169792829266
 20
79.58918182790985
 30
0.0
 10
83.71289017945193
 20
79.62836924275251
 30
0.0
 10
83.7358167040371
 20
79.70864185431512
 30
0.0
 10
83.76581223941815
 20
79.833296399766
 30
0.0
 10
83.79296953931711
 20
79.96462302338655
 30
0.0
 10
83.8082840118712
 20
80.05469066832771
 30
0.0
 10
83.81610470795367
 20
80.10068583240935
 30
0.0
  0
LINE
  5
3B6
330
1F
100
AcDbEntity
  8
0
  6
Continuous
 62
     7
370
    25
100
AcDbLine
 10
83.816105006
 20
80.1006855442
 30
0.0
 11
83.4881378987
 21
80.1006855442
 31
0.0
  0
LINE
  5
3B7
330
1F
100
AcDbEntity
  8
0
  6
Continuous
 62
     7
370
    25
100
AcDbLine
 10
83.4881378987
 20
80.1006855442
 30
0.0
 11
83.4881378987
 21
79.9476014449
 31
0.0
  0
SPLINE
  5
3B8
330
1F
100
AcDbEntity
  8
0
  6
Continuous
 62
     7
370
    25
100
AcDbSpline
210
0.0
220
0.0
230
1.0
 70
     8
 71
     3
 72
    23
 73
    19
 74
     0
 42
0.000000001
 43
0.00000001
 40
0.0
 40
0.0
 40
0.0
 40
0.0
 40
0.067520608192395
 40
0.1332321604425257
 40
0.1973993751688982
 40
0.2599531619310779
 40
0.3216372830924898
 40
0.3824410095268582
 40
0.4426201637566837
 40
0.5022071461625303
 40
0.5620741738246438
 40
0.6219782107029725
 40
0.6824964988582387
 40
0.7433622731223128
 40
0.8055713226572285
 40
0.8687875855246168
 40
0.9334922324973322
 40
0.9999999999999999
 40
0.9999999999999999
 40
0.9999999999999999
 40
0.9999999999999999
 10
83.46525725032656
 20
79.48241842995249
 30
0.0
 10
83.46389925006365
 20
79.45829803895865
 30
0.0
 10
83.46121963396195
 20
79.41070350613587
 30
0.0
 10
83.45304831345128
 20
79.34050842878302
 30
0.0
 10
83.44090658880764
 20
79.27270448222724
 30
0.0
 10
83.42502509160796
 20
79.20716015831364
 30
0.0
 10
83.40557900356053
 20
79.14383783695628
 30
0.0
 10
83.382376686068
 20
79.08269761301307
 30
0.0
 10
83.35556495020445
 20
79.02387382482083
 30
0.0
 10
83.32490172315455
 20
78.9673320100349
 30
0.0
 10
83.29034677338369
 20
78.91321441364067
 30
0.0
 10
83.25247717287824
 20
78.86094226422429
 30
0.0
 10
83.21059075135243
 20
78.81135353014658
 30
0.0
 10
83.16513829567774
 20
78.76387560760656
 30
0.0
 10
83.11594764711023
 20
78.71884493822168
 30
0.0
 10
83.063331597714
 20
78.6756708789062
 30
0.0
 10
83.00664040652845
 20
78.63525559701351
 30
0.0
 10
82.96680473109916
 20
78.61040398147884
 30
0.0
 10
82.94661318252994
 20
78.59780741830565
 30
0.0
  0
LINE
  5
3B9
330
1F
100
AcDbEntity
  8
0
  6
Continuous
 62
     7
370
    25
100
AcDbLine
 10
82.9466133096
 20
78.5978073253
 30
0.0
 11
82.847460983
 21
78.7503266706
 31
0.0
  0
SPLINE
  5
3BA
330
1F
100
AcDbEntity
  8
0
  6
Continuous
 62
     7
370
    25
100
AcDbSpline
210
0.0
220
0.0
230
1.0
 70
     8
 71
     3
 72
    23
 73
    19
 74
     0
 42
0.000000001
 43
0.00000001
 40
0.0
 40
0.0
 40
0.0
 40
0.0
 40
0.059037457230064
 40
0.116963743280029
 40
0.1740595613765741
 40
0.2310675135775109
 40
0.2876243020067392
 40
0.3448153798800754
 40
0.4022602469064129
 40
0.4609670326414569
 40
0.5210250169484067
 40
0.5826215331472394
 40
0.6460234593355594
 40
0.7116613982106698
 40
0.7795885362319862
 40
0.8502796276381128
 40
0.9235936918454054
 40
1.0
 40
1.0
 40
1.0
 40
1.0
 10
82.84746064015707
 20
78.75032655824475
 30
0.0
 10
82.8669386024641
 20
78.76143355826986
 30
0.0
 10
82.90552792337644
 20
78.78343850835579
 30
0.0
 10
82.95989222994906
 20
78.82117687590873
 30
0.0
 10
83.01041420350109
 20
78.86266277221625
 30
0.0
 10
83.05724865264337
 20
78.90752037221843
 30
0.0
 10
83.10059002115395
 20
78.95582295361211
 30
0.0
 10
83.1397291051545
 20
79.00780359030318
 30
0.0
 10
83.17519802050391
 20
79.06329458958325
 30
0.0
 10
83.20726540392276
 20
79.12207645994668
 30
0.0
 10
83.23510495419829
 20
79.18470224791454
 30
0.0
 10
83.25940206828952
 20
79.2506634172904
 30
0.0
 10
83.28011432368726
 20
79.32006119812492
 30
0.0
 10
83.29663108370345
 20
79.39303876450505
 30
0.0
 10
83.30949496058655
 20
79.46953108270807
 30
0.0
 10
83.31927160329556
 20
79.54942476178256
 30
0.0
 10
83.32444699300711
 20
79.63298552949061
 30
0.0
 10
83.3252827292057
 20
79.68981930301766
 30
0.0
 10
83.32570922772769
 20
79.7188230968581
 30
0.0
  0
LINE
  5
3BB
330
1F
100
AcDbEntity
  8
0
  6
Continuous
 62
     7
370
    25
100
AcDbLine
 10
83.3257092812
 20
79.7188231721
 30
0.0
 11
83.3257092812
 21
80.1006855442
 31
0.0
  0
LINE
  5
3BC
330
1F
100
AcDbEntity
  8
0
  6
Continuous
 62
     7
370
    25
100
AcDbLine
 10
83.3257092812
 20
80.1006855442
 30
0.0
 11
83.1906809189
 21
80.1006855442
 31
0.0
  0
LINE
  5
3BD
330
1F
100
AcDbEntity
  8
0
  6
Continuous
 62
     7
370
    25
100
AcDbLine
 10
83.1906809189
 20
80.1006855442
 30
0.0
 11
83.1906809189
 21
80.2450144662
 31
0.0
  0
LINE
  5
3BE
330
1F
100
AcDbEntity
  8
0
  6
Continuous
 62
     7
370
    25
100
AcDbLine
 10
83.1906809189
 20
80.2450144662
 30
0.0
 11
83.8771222808
 21
80.2450144662
 31
0.0
  0
LINE
  5
3BF
330
1F
100
AcDbEntity
  8
0
  6
Continuous
 62
     7
370
    25
100
AcDbLine
 10
83.8771222808
 20
80.2450144662
 30
0.0
 11
83.8923765995
 21
80.2755178883
 31
0.0
  0
LINE
  5
3C0
330
1F
100
AcDbEntity
  8
0
  6
Continuous
 62
     7
370
    25
100
AcDbLine
 10
83.8923765995
 20
80.2755178883
 30
0.0
 11
84.0220375636
 21
80.1992582156
 31
0.0
  0
LINE
  5
3C1
330
1F
100
AcDbEntity
  8
0
  6
Continuous
 62
     7
370
    25
100
AcDbLine
 10
84.0220375636
 20
80.1992582156
 30
0.0
 11
83.9915289261
 21
80.1535027101
 31
0.0
  0
LINE
  5
3C2
330
1F
100
AcDbEntity
  8
0
  6
Continuous
 62
     7
370
    25
100
AcDbLine
 10
83.9915289261
 20
80.1535027101
 30
0.0
 11
83.9152573326
 21
79.7874564304
 31
0.0
  0
LINE
  5
3C3
330
1F
100
AcDbEntity
  8
0
  6
Continuous
 62
     7
370
    25
100
AcDbLine
 10
83.9152573326
 20
79.7874564304
 30
0.0
 11
84.0830533483
 21
79.7874564304
 31
0.0
  0
LINE
  5
3C4
330
1F
100
AcDbEntity
  8
0
  6
Continuous
 62
     7
370
    25
100
AcDbLine
 10
84.0830533483
 20
79.7874564304
 30
0.0
 11
84.1135619857
 21
79.8179605975
 31
0.0
  0
LINE
  5
3C5
330
1F
100
AcDbEntity
  8
0
  6
Continuous
 62
     7
370
    25
100
AcDbLine
 10
84.1135619857
 20
79.8179605975
 30
0.0
 11
84.2584772685
 21
79.7264488413
 31
0.0
  0
LINE
  5
3C6
330
1F
100
AcDbEntity
  8
0
  6
Continuous
 62
     7
370
    25
100
AcDbLine
 10
84.2584772685
 20
79.7264488413
 30
0.0
 11
84.227968631
 21
79.6806933357
 31
0.0
  0
SPLINE
  5
3C7
330
1F
100
AcDbEntity
  8
0
  6
Continuous
 62
     7
370
    25
100
AcDbSpline
210
0.0
220
0.0
230
1.0
 70
     8
 71
     3
 72
    15
 73
    11
 74
     0
 42
0.000000001
 43
0.00000001
 40
0.0
 40
0.0
 40
0.0
 40
0.0
 40
0.1400803533298556
 40
0.2755184539549109
 40
0.4058584866356063
 40
0.5321262056425834
 40
0.6543010307409726
 40
0.7725630977186625
 40
0.8877118459702696
 40
0.9999999999999999
 40
0.9999999999999999
 40
0.9999999999999999
 40
0.9999999999999999
 10
84.22796911473333
 20
79.68069331187333
 30
0.0
 10
84.21884261538445
 20
79.6477496041165
 30
0.0
 10
84.20089206821022
 20
79.58295394067802
 30
0.0
 10
84.16949699767837
 20
79.48897875581393
 30
0.0
 10
84.13497806328665
 20
79.39972969251686
 30
0.0
 10
84.09751789440134
 20
79.31518872374272
 30
0.0
 10
84.05678122934329
 20
79.2354700050072
 30
0.0
 10
84.01330565284624
 20
79.16033978482105
 30
0.0
 10
83.96656704216103
 20
79.09000518569825
 30
0.0
 10
83.93221649928894
 20
79.04639289035381
 30
0.0
 10
83.91525725032655
 20
79.02486101013515
 30
0.0
  0
SPLINE
  5
3C8
330
1F
100
AcDbEntity
  8
0
  6
Continuous
 62
     7
370
    25
100
AcDbSpline
210
0.0
220
0.0
230
1.0
 70
     8
 71
     3
 72
    15
 73
    11
 74
     0
 42
0.000000001
 43
0.00000001
 40
0.0
 40
0.0
 40
0.0
 40
0.0
 40
0.0996056598744133
 40
0.2047612278559107
 40
0.3171768059196581
 40
0.4367423369603076
 40
0.5640650102145294
 40
0.700197179588466
 40
0.8455784941082279
 40
1.0
 40
1.0
 40
1.0
 40
1.0
 10
83.91525725032656
 20
79.02486101013514
 30
0.0
 10
83.92602895149807
 20
79.01339818178282
 30
0.0
 10
83.9481725401331
 20
78.9898338300072
 30
0.0
 10
83.98728937541318
 20
78.95842390273074
 30
0.0
 10
84.03107124325284
 20
78.9281806522904
 30
0.0
 10
84.08016408171443
 20
78.89973005482015
 30
0.0
 10
84.13433195461327
 20
78.87286968997822
 30
0.0
 10
84.19381353257454
 20
78.84784691075198
 30
0.0
 10
84.25849928012941
 20
78.82438464402222
 30
0.0
 10
84.30379227957843
 20
78.81073755662679
 30
0.0
 10
84.3271216571062
 20
78.80370825722343
 30
0.0
  0
LINE
  5
3C9
330
1F
100
AcDbEntity
  8
0
  6
Continuous
 62
     7
370
    25
100
AcDbLine
 10
84.3271209576
 20
78.8037085905
 30
0.0
 11
84.2661051729
 21
78.6130594089
 31
0.0
  0
SPLINE
  5
3CA
330
1F
100
AcDbEntity
  8
0
  6
Continuous
 62
     7
370
    25
100
AcDbSpline
210
0.0
220
0.0
230
1.0
 70
     8
 71
     3
 72
    15
 73
    11
 74
     0
 42
0.000000001
 43
0.00000001
 40
0.0
 40
0.0
 40
0.0
 40
0.0
 40
0.1519298021912425
 40
0.2959605118082205
 40
0.4320569543835685
 40
0.5595220142805266
 40
0.6802509916185285
 40
0.7932959107664691
 40
0.899610846448218
 40
1.0
 40
1.0
 40
1.0
 40
1.0
 10
84.26610470795367
 20
78.61305933229956
 30
0.0
 10
84.24087523071876
 20
78.62378379266947
 30
0.0
 10
84.1917280003044
 20
78.64467513020936
 30
0.0
 10
84.12144696515395
 20
78.6784416641164
 30
0.0
 10
84.05616741123254
 20
78.71234174182236
 30
0.0
 10
83.99627530153191
 20
78.74730781494429
 30
0.0
 10
83.94139820964303
 20
78.7825423470769
 30
0.0
 10
83.89218913948173
 20
78.81923448045733
 30
0.0
 10
83.84764157476506
 20
78.85599241720267
 30
0.0
 10
83.8212803436585
 20
78.88239628139613
 30
0.0
 10
83.80847758930959
 20
78.8952197411869
 30
0.0
  0
LINE
  5
3CB
330
1F
100
AcDbEntity
  8
0
  6
Continuous
 62
     7
370
    25
100
AcDbLine
 10
83.3127154686
 20
78.5749295725
 30
0.0
 11
83.2593246081
 21
78.7427002563
 31
0.0
  0
SPLINE
  5
3CC
330
1F
100
AcDbEntity
  8
0
  6
Continuous
 62
     7
370
    25
100
AcDbSpline
210
0.0
220
0.0
230
1.0
 70
     8
 71
     3
 72
    15
 73
    11
 74
     0
 42
0.000000001
 43
0.00000001
 40
0.0
 40
0.0
 40
0.0
 40
0.0
 40
0.1381703670475944
 40
0.2719400279635656
 40
0.4018201475115393
 40
0.5278565140211259
 40
0.6499364784239635
 40
0.7693262742042547
 40
0.886042233408524
 40
1.0
 40
1.0
 40
1.0
 40
1.0
 10
83.25932504693672
 20
78.7427006012478
 30
0.0
 10
83.28173503555823
 20
78.75170980670325
 30
0.0
 10
83.32584125791703
 20
78.7694412757283
 30
0.0
 10
83.38940558104065
 20
78.79937199137883
 30
0.0
 10
83.44997474096748
 20
78.83055070962735
 30
0.0
 10
83.50708298432563
 20
78.8638300691735
 30
0.0
 10
83.56069439860781
 20
78.8992713063619
 30
0.0
 10
83.61091867933733
 20
78.936660456893
 30
0.0
 10
83.65841737150484
 20
78.97531337867083
 30
0.0
 10
83.68738653859867
 20
79.00337299903228
 30
0.0
 10
83.70169792829266
 20
79.0172350531382
 30
0.0
  0
SPLINE
  5
3CD
330
1F
100
AcDbEntity
  8
0
  6
Continuous
 62
     7
370
    25
100
AcDbSpline
210
0.0
220
0.0
230
1.0
 70
     8
 71
     3
 72
    15
 73
    11
 74
     0
 42
0.000000001
 43
0.00000001
 40
0.0
 40
0.0
 40
0.0
 40
0.0
 40
0.1353923026820224
 40
0.2672166673234462
 40
0.3955744028918646
 40
0.521390126888473
 40
0.6440446990461136
 40
0.7645653651336881
 40
0.8830881791135972
 40
1.0
 40
1.0
 40
1.0
 40
1.0
 10
83.70169792829266
 20
79.0172350531382
 30
0.0
 10
83.68747440043232
 20
79.03620971967484
 30
0.0
 10
83.6594021715306
 20
79.07365902111263
 30
0.0
 10
83.62119101451623
 20
79.1314722945168
 30
0.0
 10
83.58583116683276
 20
79.18910161730219
 30
0.0
 10
83.55458370189211
 20
79.24725994698514
 30
0.0
 10
83.52678764946822
 20
79.30561636176431
 30
0.0
 10
83.50243356768948
 20
79.36410708267589
 30
0.0
 10
83.48156401550284
 20
79.42289698628895
 30
0.0
 10
83.47066798620428
 20
79.46266866307708
 30
0.0
 10
83.46525725032656
 20
79.48241842995249
 30
0.0
  0
LINE
  5
3CE
330
1F
100
AcDbEntity
  8
0
  6
Continuous
 62
     7
370
    25
100
AcDbLine
 10
83.2593246081
 20
78.7427002563
 30
0.0
 11
83.2593246081
 21
78.7402572109
 31
0.0
  0
LINE
  5
3CF
330
1F
100
AcDbEntity
  8
0
  6
Continuous
 62
     7
370
    25
100
AcDbLine
 10
83.3127154686
 20
78.5724865272
 30
0.0
 11
83.2593246081
 21
78.7402572109
 31
0.0
  0
LINE
  5
3D0
330
1F
100
AcDbEntity
  8
0
  6
Continuous
 62
     7
370
    25
100
AcDbLine
 10
82.847460983
 20
78.7503266706
 30
0.0
 11
82.847460983
 21
78.7478828802
 31
0.0
  0
LINE
  5
3D1
330
1F
100
AcDbEntity
  8
0
  6
Continuous
 62
     7
370
    25
100
AcDbLine
 10
82.9466133096
 20
78.5978073253
 30
0.0
 11
82.9466133096
 21
78.5953642799
 31
0.0
  0
LINE
  5
3D2
330
1F
100
AcDbEntity
  8
0
  6
Continuous
 62
     7
370
    25
100
AcDbLine
 10
82.9466133096
 20
78.5953642799
 30
0.0
 11
82.847460983
 21
78.7478828802
 31
0.0
  0
LINE
  5
3D3
330
1F
100
AcDbEntity
  8
0
  6
Continuous
 62
     7
370
    25
100
AcDbLine
 10
83.4652571657
 20
79.4824184849
 30
0.0
 11
83.4652571657
 21
79.4799754395
 31
0.0
  0
SPLINE
  5
3D4
330
1F
100
AcDbEntity
  8
0
  6
Continuous
 62
     7
370
    25
100
AcDbSpline
210
0.0
220
0.0
230
1.0
 70
     8
 71
     3
 72
    23
 73
    19
 74
     0
 42
0.000000001
 43
0.00000001
 40
0.0
 40
0.0
 40
0.0
 40
0.0
 40
0.067520608192395
 40
0.1332321604425257
 40
0.1973993751688982
 40
0.2599531619310779
 40
0.3216372830924898
 40
0.3824410095268582
 40
0.4426201637566837
 40
0.5022071461625303
 40
0.5620741738246438
 40
0.6219782107029725
 40
0.6824964988582387
 40
0.7433622731223128
 40
0.8055713226572285
 40
0.8687875855246168
 40
0.9334922324973322
 40
0.9999999999999999
 40
0.9999999999999999
 40
0.9999999999999999
 40
0.9999999999999999
 10
83.46525725032656
 20
79.47997509305127
 30
0.0
 10
83.46389925006365
 20
79.45585470205744
 30
0.0
 10
83.46121963396195
 20
79.40826016923465
 30
0.0
 10
83.45304831345128
 20
79.3380650918818
 30
0.0
 10
83.44090658880764
 20
79.27026114532602
 30
0.0
 10
83.42502509160796
 20
79.20471682141242
 30
0.0
 10
83.40557900356053
 20
79.14139450005506
 30
0.0
 10
83.382376686068
 20
79.08025427611184
 30
0.0
 10
83.35556495020445
 20
79.02143048791962
 30
0.0
 10
83.32490172315455
 20
78.96488867313367
 30
0.0
 10
83.29034677338369
 20
78.91077107673945
 30
0.0
 10
83.25247717287824
 20
78.85849892732308
 30
0.0
 10
83.21059075135243
 20
78.80891019324535
 30
0.0
 10
83.16513829567774
 20
78.76143227070534
 30
0.0
 10
83.11594764711023
 20
78.71640160132044
 30
0.0
 10
83.063331597714
 20
78.67322754200497
 30
0.0
 10
83.00664040652845
 20
78.63281226011229
 30
0.0
 10
82.96680473109916
 20
78.60796064457762
 30
0.0
 10
82.94661318252994
 20
78.59536408140443
 30
0.0
  0
LINE
  5
3D5
330
1F
100
AcDbEntity
  8
0
  6
Continuous
 62
     7
370
    25
100
AcDbLine
 10
84.2661051729
 20
78.6130594089
 30
0.0
 11
84.2661051729
 21
78.6106163635
 31
0.0
  0
SPLINE
  5
3D6
330
1F
100
AcDbEntity
  8
0
  6
Continuous
 62
     7
370
    25
100
AcDbSpline
210
0.0
220
0.0
230
1.0
 70
     8
 71
     3
 72
    15
 73
    11
 74
     0
 42
0.000000001
 43
0.00000001
 40
0.0
 40
0.0
 40
0.0
 40
0.0
 40
0.1519298021912425
 40
0.2959605118082205
 40
0.4320569543835685
 40
0.5595220142805266
 40
0.6802509916185285
 40
0.7932959107664691
 40
0.899610846448218
 40
1.0
 40
1.0
 40
1.0
 40
1.0
 10
84.26610470795367
 20
78.61061599539833
 30
0.0
 10
84.24087523071876
 20
78.62134045576823
 30
0.0
 10
84.1917280003044
 20
78.64223179330814
 30
0.0
 10
84.12144696515395
 20
78.67599832721517
 30
0.0
 10
84.05616741123254
 20
78.70989840492115
 30
0.0
 10
83.99627530153191
 20
78.74486447804307
 30
0.0
 10
83.94139820964303
 20
78.78009901017568
 30
0.0
 10
83.89218913948173
 20
78.8167911435561
 30
0.0
 10
83.84764157476506
 20
78.85354908030145
 30
0.0
 10
83.8212803436585
 20
78.8799529444949
 30
0.0
 10
83.80847758930959
 20
78.89277640428568
 30
0.0
  0
LINE
  5
3D7
330
1F
100
AcDbEntity
  8
0
  6
Continuous
 62
     7
370
    25
100
AcDbLine
 10
84.3271209576
 20
78.8037085905
 30
0.0
 11
84.3271209576
 21
78.8012648
 31
0.0
  0
LINE
  5
3D8
330
1F
100
AcDbEntity
  8
0
  6
Continuous
 62
     7
370
    25
100
AcDbLine
 10
84.3271209576
 20
78.8012648
 30
0.0
 11
84.2661051729
 21
78.6106163635
 31
0.0
  0
LINE
  5
3D9
330
1F
100
AcDbEntity
  8
0
  6
Continuous
 62
     7
370
    25
100
AcDbLine
 10
84.5330535152
 20
78.7808300926
 30
0.0
 11
84.5330535152
 21
78.7783870472
 31
0.0
  0
LINE
  5
3DA
330
1F
100
AcDbEntity
  8
0
  6
Continuous
 62
     7
370
    25
100
AcDbLine
 10
84.6245794275
 20
78.6130594089
 30
0.0
 11
84.5330535152
 21
78.7808300926
 31
0.0
  0
LINE
  5
3DB
330
1F
100
AcDbEntity
  8
0
  6
Continuous
 62
     7
370
    25
100
AcDbLine
 10
84.6245794275
 20
78.6130594089
 30
0.0
 11
84.6245794275
 21
78.6106163635
 31
0.0
  0
LINE
  5
3DC
330
1F
100
AcDbEntity
  8
0
  6
Continuous
 62
     7
370
    25
100
AcDbLine
 10
84.6245794275
 20
78.6106163635
 30
0.0
 11
84.5330535152
 21
78.7783870472
 31
0.0
  0
SPLINE
  5
3DD
330
1F
100
AcDbEntity
  8
0
  6
Continuous
 62
     7
370
    25
100
AcDbSpline
210
0.0
220
0.0
230
1.0
 70
     8
 71
     3
 72
    11
 73
     7
 74
     0
 42
0.000000001
 43
0.00000001
 40
0.0
 40
0.0
 40
0.0
 40
0.0
 40
0.2256032100470418
 40
0.4670225063011044
 40
0.7252068012491973
 40
1.0
 40
1.0
 40
1.0
 40
1.0
 10
84.53305386049604
 20
78.78083038623257
 30
0.0
 10
84.55593944961629
 20
78.79155440811655
 30
0.0
 10
84.6033150396484
 20
78.81375426767013
 30
0.0
 10
84.67491701873418
 20
78.85216167015763
 30
0.0
 10
84.7507457104278
 20
78.89428485383677
 30
0.0
 10
84.80188509377237
 20
78.92509193167845
 30
0.0
 10
84.82825160060904
 20
78.94097548316864
 30
0.0
  0
LINE
  5
3DE
330
1F
100
AcDbEntity
  8
0
  6
Continuous
 62
     7
370
    25
100
AcDbLine
 10
84.8282514789
 20
78.9409758522
 30
0.0
 11
84.8282514789
 21
79.401074536
 31
0.0
  0
LINE
  5
3DF
330
1F
100
AcDbEntity
  8
0
  6
Continuous
 62
     7
370
    25
100
AcDbLine
 10
84.8282514789
 20
79.401074536
 30
0.0
 11
84.5483078339
 21
79.401074536
 31
0.0
  0
LINE
  5
3E0
330
1F
100
AcDbEntity
  8
0
  6
Continuous
 62
     7
370
    25
100
AcDbLine
 10
84.5483078339
 20
79.401074536
 30
0.0
 11
84.5483078339
 21
79.5815559103
 31
0.0
  0
LINE
  5
3E1
330
1F
100
AcDbEntity
  8
0
  6
Continuous
 62
     7
370
    25
100
AcDbLine
 10
84.5483078339
 20
79.5815559103
 30
0.0
 11
84.9906815865
 21
79.5815559103
 31
0.0
  0
LINE
  5
3E2
330
1F
100
AcDbEntity
  8
0
  6
Continuous
 62
     7
370
    25
100
AcDbLine
 10
84.9906815865
 20
79.5815559103
 30
0.0
 11
84.9906815865
 21
78.9409758522
 31
0.0
  0
SPLINE
  5
3E3
330
1F
100
AcDbEntity
  8
0
  6
Continuous
 62
     7
370
    25
100
AcDbSpline
210
0.0
220
0.0
230
1.0
 70
     8
 71
     3
 72
    15
 73
    11
 74
     0
 42
0.000000001
 43
0.00000001
 40
0.0
 40
0.0
 40
0.0
 40
0.0
 40
0.0927205184294737
 40
0.1900426654195179
 40
0.2960396415772344
 40
0.4118287688157883
 40
0.5390239035058114
 40
0.6789552040343103
 40
0.8323791358377305
 40
1.0
 40
1.0
 40
1.0
 40
1.0
 10
84.99068097914011
 20
78.94097548316864
 30
0.0
 10
84.99903902127942
 20
78.93170257291382
 30
0.0
 10
85.01616990700728
 20
78.91269654694597
 30
0.0
 10
85.04884066126314
 20
78.88954663313724
 30
0.0
 10
85.08696704853303
 20
78.86978583093222
 30
0.0
 10
85.1311708602534
 20
78.8538232638577
 30
0.0
 10
85.18120250672149
 20
78.84163741537535
 30
0.0
 10
85.2370238312787
 20
78.83271622252214
 30
0.0
 10
85.29876937296162
 20
78.8273903209513
 30
0.0
 10
85.34189398121894
 20
78.8268619803818
 30
0.0
 10
85.36440979269943
 20
78.8265861282143
 30
0.0
  0
LINE
  5
3E4
330
1F
100
AcDbEntity
  8
0
  6
Continuous
 62
     7
370
    25
100
AcDbLine
 10
85.3644101598
 20
78.8265863432
 30
0.0
 11
86.2720369079
 21
78.8265863432
 31
0.0
  0
LINE
  5
3E5
330
1F
100
AcDbEntity
  8
0
  6
Continuous
 62
     7
370
    25
100
AcDbLine
 10
86.2720369079
 20
78.8265863432
 30
0.0
 11
86.2415282705
 21
78.646104969
 31
0.0
  0
LINE
  5
3E6
330
1F
100
AcDbEntity
  8
0
  6
Continuous
 62
     7
370
    25
100
AcDbLine
 10
86.2415282705
 20
78.646104969
 30
0.0
 11
85.3644101598
 21
78.646104969
 31
0.0
  0
SPLINE
  5
3E7
330
1F
100
AcDbEntity
  8
0
  6
Continuous
 62
     7
370
    25
100
AcDbSpline
210
0.0
220
0.0
230
1.0
 70
     8
 71
     3
 72
    15
 73
    11
 74
     0
 42
0.000000001
 43
0.00000001
 40
0.0
 40
0.0
 40
0.0
 40
0.0
 40
0.1447436740888948
 40
0.2807528478643904
 40
0.4098201638555548
 40
0.5323681759720313
 40
0.6511035928835375
 40
0.7675458012611487
 40
0.8830350363833409
 40
1.0
 40
1.0
 40
1.0
 40
1.0
 10
85.36440979269943
 20
78.64610514595302
 30
0.0
 10
85.33914602198799
 20
78.6466860774185
 30
0.0
 10
85.29014301291225
 20
78.64781288426772
 30
0.0
 10
85.21907974941163
 20
78.65694900516314
 30
0.0
 10
85.15300994196542
 20
78.67195817119732
 30
0.0
 10
85.09192150107427
 20
78.69352304423222
 30
0.0
 10
85.0358943724789
 20
78.72138010430501
 30
0.0
 10
84.98463465135447
 20
78.75505468692873
 30
0.0
 10
84.93851801323088
 20
78.79519372052512
 30
0.0
 10
84.91233178883735
 20
78.82622426947805
 30
0.0
 10
84.8991555554113
 20
78.84183804220822
 30
0.0
  0
SPLINE
  5
3E8
330
1F
100
AcDbEntity
  8
0
  6
Continuous
 62
     7
370
    25
100
AcDbSpline
210
0.0
220
0.0
230
1.0
 70
     8
 71
     3
 72
    11
 73
     7
 74
     0
 42
0.000000001
 43
0.00000001
 40
0.0
 40
0.0
 40
0.0
 40
0.0
 40
0.2716193648964742
 40
0.5280771645180985
 40
0.7712910727263808
 40
0.9999999999999999
 40
0.9999999999999999
 40
0.9999999999999999
 40
0.9999999999999999
 10
84.8991555554113
 20
78.84183804220822
 30
0.0
 10
84.87549098180781
 20
78.819725280536
 30
0.0
 10
84.82948277126357
 20
78.77673407301303
 30
0.0
 10
84.75966131610143
 20
78.71686362206063
 30
0.0
 10
84.69224518271982
 20
78.66206929748957
 30
0.0
 10
84.64666762774631
 20
78.62905777422037
 30
0.0
 10
84.62457928422485
 20
78.61305933229956
 30
0.0
  0
LINE
  5
3E9
330
1F
100
AcDbEntity
  8
0
  6
Continuous
 62
     7
370
    25
100
AcDbLine
 10
84.8991556742
 20
78.8418376817
 30
0.0
 11
84.8991556742
 21
78.8393946364
 31
0.0
  0
SPLINE
  5
3EA
330
1F
100
AcDbEntity
  8
0
  6
Continuous
 62
     7
370
    25
100
AcDbSpline
210
0.0
220
0.0
230
1.0
 70
     8
 71
     3
 72
    11
 73
     7
 74
     0
 42
0.000000001
 43
0.00000001
 40
0.0
 40
0.0
 40
0.0
 40
0.0
 40
0.2716193648964742
 40
0.5280771645180985
 40
0.7712910727263808
 40
0.9999999999999999
 40
0.9999999999999999
 40
0.9999999999999999
 40
0.9999999999999999
 10
84.8991555554113
 20
78.839394705307
 30
0.0
 10
84.87549098180781
 20
78.81728194363478
 30
0.0
 10
84.82948277126357
 20
78.77429073611181
 30
0.0
 10
84.75966131610143
 20
78.7144202851594
 30
0.0
 10
84.69224518271982
 20
78.65962596058834
 30
0.0
 10
84.64666762774631
 20
78.62661443731915
 30
0.0
 10
84.62457928422485
 20
78.61061599539833
 30
0.0
  0
SPLINE
  5
3EB
330
1F
100
AcDbEntity
  8
0
  6
Continuous
 62
     7
370
    25
100
AcDbSpline
210
0.0
220
0.0
230
1.0
 70
     8
 71
     3
 72
    15
 73
    11
 74
     0
 42
0.000000001
 43
0.00000001
 40
0.0
 40
0.0
 40
0.0
 40
0.0
 40
0.1750648012014863
 40
0.3081745028418131
 40
0.403966913698753
 40
0.4812097920158847
 40
0.5610885761264529
 40
0.6678700571599571
 40
0.812892317082053
 40
1.0
 40
1.0
 40
1.0
 40
1.0
 10
132.8533928435469
 20
80.13825073169066
 30
0.0
 10
132.8579460005692
 20
80.13765368736048
 30
0.0
 10
132.8659611292078
 20
80.1366026831702
 30
0.0
 10
132.876060856113
 20
80.13332228449879
 30
0.0
 10
132.8831031719484
 20
80.12918548058056
 30
0.0
 10
132.8866508188568
 20
80.12305144150164
 30
0.0
 10
132.8852437358258
 20
80.11584087121523
 30
0.0
 10
132.8800217837488
 20
80.10880775827982
 30
0.0
 10
132.8720226351665
 20
80.10052229473415
 30
0.0
 10
132.8649847839686
 20
80.09538763532788
 30
0.0
 10
132.861019962191
 20
80.09249498970892
 30
0.0
  0
LINE
  5
3EC
330
1F
100
AcDbEntity
  8
0
  6
Continuous
 62
     7
370
    25
100
AcDbLine
 10
132.8610195496
 20
80.092495121
 30
0.0
 11
132.8610195496
 21
79.6806933357
 31
0.0
  0
LINE
  5
3ED
330
1F
100
AcDbEntity
  8
0
  6
Continuous
 62
     7
370
    25
100
AcDbLine
 10
132.8610195496
 20
79.6806933357
 30
0.0
 11
133.3011342862
 21
79.6806933357
 31
0.0
  0
LINE
  5
3EE
330
1F
100
AcDbEntity
  8
0
  6
Continuous
 62
     7
370
    25
100
AcDbLine
 10
133.3011342862
 20
79.6806933357
 30
0.0
 11
133.3011342862
 21
80.2907699718
 31
0.0
  0
LINE
  5
3EF
330
1F
100
AcDbEntity
  8
0
  6
Continuous
 62
     7
370
    25
100
AcDbLine
 10
133.3011342862
 20
80.2907699718
 30
0.0
 11
133.4559364893
 21
80.2907699718
 31
0.0
  0
SPLINE
  5
3F0
330
1F
100
AcDbEntity
  8
0
  6
Continuous
 62
     7
370
    25
100
AcDbSpline
210
0.0
220
0.0
230
1.0
 70
     8
 71
     3
 72
    15
 73
    11
 74
     0
 42
0.000000001
 43
0.00000001
 40
0.0
 40
0.0
 40
0.0
 40
0.0
 40
0.1750648012015493
 40
0.3081745028418819
 40
0.4039669136988081
 40
0.481209792015921
 40
0.561088576126486
 40
0.667870057160039
 40
0.8128923170821163
 40
1.0
 40
1.0
 40
1.0
 40
1.0
 10
133.4559352164282
 20
80.29076987162976
 30
0.0
 10
133.4604883734506
 20
80.29017282729959
 30
0.0
 10
133.4685035020892
 20
80.28912182310933
 30
0.0
 10
133.4786032289944
 20
80.2858414244379
 30
0.0
 10
133.4856455448298
 20
80.28170462051966
 30
0.0
 10
133.4891931917382
 20
80.27557058144076
 30
0.0
 10
133.4877861087071
 20
80.26836001115434
 30
0.0
 10
133.4825641566302
 20
80.26132689821894
 30
0.0
 10
133.4745650080479
 20
80.25304143467325
 30
0.0
 10
133.4675271568499
 20
80.247906775267
 30
0.0
 10
133.4635623350723
 20
80.24501412964804
 30
0.0
  0
LINE
  5
3F1
330
1F
100
AcDbEntity
  8
0
  6
Continuous
 62
     7
370
    25
100
AcDbLine
 10
133.4635629036
 20
80.2450144662
 30
0.0
 11
133.4635629036
 21
79.6806933357
 31
0.0
  0
LINE
  5
3F2
330
1F
100
AcDbEntity
  8
0
  6
Continuous
 62
     7
370
    25
100
AcDbLine
 10
133.4635629036
 20
79.6806933357
 30
0.0
 11
133.8960482457
 21
79.6806933357
 31
0.0
  0
LINE
  5
3F3
330
1F
100
AcDbEntity
  8
0
  6
Continuous
 62
     7
370
    25
100
AcDbLine
 10
133.8960482457
 20
79.6806933357
 30
0.0
 11
133.8960482457
 21
80.1306249573
 31
0.0
  0
LINE
  5
3F4
330
1F
100
AcDbEntity
  8
0
  6
Continuous
 62
     7
370
    25
100
AcDbLine
 10
133.8960482457
 20
80.1306249573
 30
0.0
 11
134.0508504488
 21
80.1306249573
 31
0.0
  0
SPLINE
  5
3F5
330
1F
100
AcDbEntity
  8
0
  6
Continuous
 62
     7
370
    25
100
AcDbSpline
210
0.0
220
0.0
230
1.0
 70
     8
 71
     3
 72
    15
 73
    11
 74
     0
 42
0.000000001
 43
0.00000001
 40
0.0
 40
0.0
 40
0.0
 40
0.0
 40
0.175064801201547
 40
0.3081745028418703
 40
0.4039669136987344
 40
0.4812097920158936
 40
0.5610885761264388
 40
0.6678700571599886
 40
0.8128923170820871
 40
1.0
 40
1.0
 40
1.0
 40
1.0
 10
134.0508504706655
 20
80.13062477469371
 30
0.0
 10
134.0554036276879
 20
80.13002773036351
 30
0.0
 10
134.0634187563264
 20
80.12897672617325
 30
0.0
 10
134.0735184832317
 20
80.12569632750184
 30
0.0
 10
134.0805607990671
 20
80.12155952358358
 30
0.0
 10
134.0841084459755
 20
80.11542548450468
 30
0.0
 10
134.0827013629444
 20
80.10821491421827
 30
0.0
 10
134.0774794108675
 20
80.10118180128286
 30
0.0
 10
134.0694802622852
 20
80.09289633773719
 30
0.0
 10
134.0624424110872
 20
80.08776167833092
 30
0.0
 10
134.0584775893096
 20
80.08486903271198
 30
0.0
  0
LINE
  5
3F6
330
1F
100
AcDbEntity
  8
0
  6
Continuous
 62
     7
370
    25
100
AcDbLine
 10
134.0584768631
 20
80.0848687067
 30
0.0
 11
134.0584768631
 21
79.4671664013
 31
0.0
  0
LINE
  5
3F7
330
1F
100
AcDbEntity
  8
0
  6
Continuous
 62
     7
370
    25
100
AcDbLine
 10
134.0584768631
 20
79.4671664013
 30
0.0
 11
133.8960482457
 21
79.4671664013
 31
0.0
  0
LINE
  5
3F8
330
1F
100
AcDbEntity
  8
0
  6
Continuous
 62
     7
370
    25
100
AcDbLine
 10
133.8960482457
 20
79.4671664013
 30
0.0
 11
133.8960482457
 21
79.5363651588
 31
0.0
  0
LINE
  5
3F9
330
1F
100
AcDbEntity
  8
0
  6
Continuous
 62
     7
370
    25
100
AcDbLine
 10
133.8960482457
 20
79.5363651588
 30
0.0
 11
133.4635629036
 21
79.5363651588
 31
0.0
  0
LINE
  5
3FA
330
1F
100
AcDbEntity
  8
0
  6
Continuous
 62
     7
370
    25
100
AcDbLine
 10
133.4635629036
 20
79.5363651588
 30
0.0
 11
133.4635629036
 21
78.879967518
 31
0.0
  0
LINE
  5
3FB
330
1F
100
AcDbEntity
  8
0
  6
Continuous
 62
     7
370
    25
100
AcDbLine
 10
133.4635629036
 20
78.879967518
 30
0.0
 11
133.9570655205
 21
78.879967518
 31
0.0
  0
LINE
  5
3FC
330
1F
100
AcDbEntity
  8
0
  6
Continuous
 62
     7
370
    25
100
AcDbLine
 10
133.9570655205
 20
78.879967518
 30
0.0
 11
133.9570655205
 21
79.3451512231
 31
0.0
  0
LINE
  5
3FD
330
1F
100
AcDbEntity
  8
0
  6
Continuous
 62
     7
370
    25
100
AcDbLine
 10
133.9570655205
 20
79.3451512231
 30
0.0
 11
134.1118677237
 21
79.3451512231
 31
0.0
  0
SPLINE
  5
3FE
330
1F
100
AcDbEntity
  8
0
  6
Continuous
 62
     7
370
    25
100
AcDbSpline
210
0.0
220
0.0
230
1.0
 70
     8
 71
     3
 72
    15
 73
    11
 74
     0
 42
0.000000001
 43
0.00000001
 40
0.0
 40
0.0
 40
0.0
 40
0.0
 40
0.1750648012015543
 40
0.3081745028418855
 40
0.4039669136988144
 40
0.4812097920159296
 40
0.5610885761265241
 40
0.6678700571600272
 40
0.8128923170821216
 40
1.0
 40
1.0
 40
1.0
 40
1.0
 10
134.1118674198181
 20
79.34515120400728
 30
0.0
 10
134.1164205768404
 20
79.3445541596771
 30
0.0
 10
134.124435705479
 20
79.34350315548683
 30
0.0
 10
134.1345354323842
 20
79.34022275681542
 30
0.0
 10
134.1415777482196
 20
79.33608595289718
 30
0.0
 10
134.145125395128
 20
79.32995191381826
 30
0.0
 10
134.1437183120969
 20
79.32274134353186
 30
0.0
 10
134.13849636002
 20
79.31570823059644
 30
0.0
 10
134.1304972114377
 20
79.30742276705077
 30
0.0
 10
134.1234593602398
 20
79.3022881076445
 30
0.0
 10
134.1194945384621
 20
79.29939546202556
 30
0.0
  0
LINE
  5
3FF
330
1F
100
AcDbEntity
  8
0
  6
Continuous
 62
     7
370
    25
100
AcDbLine
 10
134.119494138
 20
79.2993957176
 30
0.0
 11
134.119494138
 21
78.6511892452
 31
0.0
  0
LINE
  5
400
330
1F
100
AcDbEntity
  8
0
  6
Continuous
 62
     7
370
    25
100
AcDbLine
 10
134.119494138
 20
78.6511892452
 30
0.0
 11
133.9570655205
 21
78.6511892452
 31
0.0
  0
LINE
  5
401
330
1F
100
AcDbEntity
  8
0
  6
Continuous
 62
     7
370
    25
100
AcDbLine
 10
133.9570655205
 20
78.6511892452
 30
0.0
 11
133.9570655205
 21
78.7356393411
 31
0.0
  0
LINE
  5
402
330
1F
100
AcDbEntity
  8
0
  6
Continuous
 62
     7
370
    25
100
AcDbLine
 10
133.9570655205
 20
78.7356393411
 30
0.0
 11
132.7847494462
 21
78.7356393411
 31
0.0
  0
LINE
  5
403
330
1F
100
AcDbEntity
  8
0
  6
Continuous
 62
     7
370
    25
100
AcDbLine
 10
132.7847494462
 20
78.7356393411
 30
0.0
 11
132.7847494462
 21
78.6283114924
 31
0.0
  0
LINE
  5
404
330
1F
100
AcDbEntity
  8
0
  6
Continuous
 62
     7
370
    25
100
AcDbLine
 10
132.7847494462
 20
78.6283114924
 30
0.0
 11
132.6223208287
 21
78.6283114924
 31
0.0
  0
LINE
  5
405
330
1F
100
AcDbEntity
  8
0
  6
Continuous
 62
     7
370
    25
100
AcDbLine
 10
132.6223208287
 20
78.6283114924
 30
0.0
 11
132.6223208287
 21
79.3527768924
 31
0.0
  0
LINE
  5
406
330
1F
100
AcDbEntity
  8
0
  6
Continuous
 62
     7
370
    25
100
AcDbLine
 10
132.6223208287
 20
79.3527768924
 30
0.0
 11
132.7771230319
 21
79.3527768924
 31
0.0
  0
SPLINE
  5
407
330
1F
100
AcDbEntity
  8
0
  6
Continuous
 62
     7
370
    25
100
AcDbSpline
210
0.0
220
0.0
230
1.0
 70
     8
 71
     3
 72
    15
 73
    11
 74
     0
 42
0.000000001
 43
0.00000001
 40
0.0
 40
0.0
 40
0.0
 40
0.0
 40
0.1750648012015595
 40
0.3081745028418862
 40
0.4039669136987679
 40
0.4812097920159326
 40
0.561088576126493
 40
0.6678700571600122
 40
0.8128923170821084
 40
1.0
 40
1.0
 40
1.0
 40
1.0
 10
132.7771216571062
 20
79.35277716100425
 30
0.0
 10
132.7816748141286
 20
79.35218011667405
 30
0.0
 10
132.7896899427671
 20
79.35112911248379
 30
0.0
 10
132.7997896696724
 20
79.34784871381238
 30
0.0
 10
132.8068319855078
 20
79.34371190989413
 30
0.0
 10
132.8103796324161
 20
79.33757787081524
 30
0.0
 10
132.8089725493851
 20
79.33036730052882
 30
0.0
 10
132.8037505973082
 20
79.3233341875934
 30
0.0
 10
132.7957514487258
 20
79.31504872404773
 30
0.0
 10
132.7887135975279
 20
79.30991406464146
 30
0.0
 10
132.7847487757503
 20
79.30702141902252
 30
0.0
  0
LINE
  5
408
330
1F
100
AcDbEntity
  8
0
  6
Continuous
 62
     7
370
    25
100
AcDbLine
 10
132.7847494462
 20
79.3070213868
 30
0.0
 11
132.7847494462
 21
78.879967518
 31
0.0
  0
LINE
  5
409
330
1F
100
AcDbEntity
  8
0
  6
Continuous
 62
     7
370
    25
100
AcDbLine
 10
132.7847494462
 20
78.879967518
 30
0.0
 11
133.3011342862
 21
78.879967518
 31
0.0
  0
LINE
  5
40A
330
1F
100
AcDbEntity
  8
0
  6
Continuous
 62
     7
370
    25
100
AcDbLine
 10
133.3011342862
 20
78.879967518
 30
0.0
 11
133.3011342862
 21
79.5363651588
 31
0.0
  0
LINE
  5
40B
330
1F
100
AcDbEntity
  8
0
  6
Continuous
 62
     7
370
    25
100
AcDbLine
 10
133.3011342862
 20
79.5363651588
 30
0.0
 11
132.8610195496
 21
79.5363651588
 31
0.0
  0
LINE
  5
40C
330
1F
100
AcDbEntity
  8
0
  6
Continuous
 62
     7
370
    25
100
AcDbLine
 10
132.8610195496
 20
79.5363651588
 30
0.0
 11
132.8610195496
 21
79.4519143178
 31
0.0
  0
LINE
  5
40D
330
1F
100
AcDbEntity
  8
0
  6
Continuous
 62
     7
370
    25
100
AcDbLine
 10
132.8610195496
 20
79.4519143178
 30
0.0
 11
132.6985909321
 21
79.4519143178
 31
0.0
  0
LINE
  5
40E
330
1F
100
AcDbEntity
  8
0
  6
Continuous
 62
     7
370
    25
100
AcDbLine
 10
132.6985909321
 20
79.4519143178
 30
0.0
 11
132.6985909321
 21
80.1382506265
 31
0.0
  0
LINE
  5
40F
330
1F
100
AcDbEntity
  8
0
  6
Continuous
 62
     7
370
    25
100
AcDbLine
 10
132.6985909321
 20
80.1382506265
 30
0.0
 11
132.8533931353
 21
80.1382506265
 31
0.0
  0
LINE
  5
410
330
1F
100
AcDbEntity
  8
0
  6
Continuous
 62
     7
370
    25
100
AcDbLine
 10
132.6223208287
 20
78.6283114924
 30
0.0
 11
132.6223208287
 21
78.625867702
 31
0.0
  0
LINE
  5
411
330
1F
100
AcDbEntity
  8
0
  6
Continuous
 62
     7
370
    25
100
AcDbLine
 10
132.7847494462
 20
78.6283114924
 30
0.0
 11
132.7847494462
 21
78.625867702
 31
0.0
  0
LINE
  5
412
330
1F
100
AcDbEntity
  8
0
  6
Continuous
 62
     7
370
    25
100
AcDbLine
 10
132.7847494462
 20
78.625867702
 30
0.0
 11
132.6223208287
 21
78.625867702
 31
0.0
  0
LINE
  5
413
330
1F
100
AcDbEntity
  8
0
  6
Continuous
 62
     7
370
    25
100
AcDbLine
 10
85.3644101598
 20
78.646104969
 30
0.0
 11
85.3644101598
 21
78.6436619236
 31
0.0
  0
LINE
  5
414
330
1F
100
AcDbEntity
  8
0
  6
Continuous
 62
     7
370
    25
100
AcDbLine
 10
86.2415282705
 20
78.646104969
 30
0.0
 11
86.2415282705
 21
78.6436619236
 31
0.0
  0
LINE
  5
415
330
1F
100
AcDbEntity
  8
0
  6
Continuous
 62
     7
370
    25
100
AcDbLine
 10
86.2415282705
 20
78.6436619236
 30
0.0
 11
85.3644101598
 21
78.6436619236
 31
0.0
  0
SPLINE
  5
416
330
1F
100
AcDbEntity
  8
0
  6
Continuous
 62
     7
370
    25
100
AcDbSpline
210
0.0
220
0.0
230
1.0
 70
     8
 71
     3
 72
    15
 73
    11
 74
     0
 42
0.000000001
 43
0.00000001
 40
0.0
 40
0.0
 40
0.0
 40
0.0
 40
0.1447436740888948
 40
0.2807528478643904
 40
0.4098201638555548
 40
0.5323681759720313
 40
0.6511035928835375
 40
0.7675458012611487
 40
0.8830350363833409
 40
1.0
 40
1.0
 40
1.0
 40
1.0
 10
85.36440979269943
 20
78.6436618090518
 30
0.0
 10
85.33914602198799
 20
78.64424274051729
 30
0.0
 10
85.29014301291225
 20
78.6453695473665
 30
0.0
 10
85.21907974941163
 20
78.65450566826193
 30
0.0
 10
85.15300994196542
 20
78.6695148342961
 30
0.0
 10
85.09192150107427
 20
78.691079707331
 30
0.0
 10
85.0358943724789
 20
78.71893676740379
 30
0.0
 10
84.98463465135447
 20
78.75261135002751
 30
0.0
 10
84.93851801323088
 20
78.79275038362393
 30
0.0
 10
84.91233178883735
 20
78.82378093257684
 30
0.0
 10
84.8991555554113
 20
78.839394705307
 30
0.0
  0
LINE
  5
417
330
1F
100
AcDbEntity
  8
0
  6
Continuous
 62
     7
370
    25
100
AcDbLine
 10
86.2720369079
 20
78.8265863432
 30
0.0
 11
86.2720369079
 21
78.8241425528
 31
0.0
  0
LINE
  5
418
330
1F
100
AcDbEntity
  8
0
  6
Continuous
 62
     7
370
    25
100
AcDbLine
 10
86.2720369079
 20
78.8241425528
 30
0.0
 11
86.2415282705
 21
78.6436619236
 31
0.0
  0
LINE
  5
419
330
1F
100
AcDbEntity
  8
0
  6
Continuous
 62
     7
370
    25
100
AcDbLine
 10
134.119494138
 20
78.6487454547
 30
0.0
 11
133.9570655205
 21
78.6487454547
 31
0.0
  0
LINE
  5
41A
330
1F
100
AcDbEntity
  8
0
  6
Continuous
 62
     7
370
    25
100
AcDbLine
 10
134.119494138
 20
78.6511892452
 30
0.0
 11
134.119494138
 21
78.6487454547
 31
0.0
  0
LINE
  5
41B
330
1F
100
AcDbEntity
  8
0
  6
Continuous
 62
     7
370
    25
100
AcDbLine
 10
133.9570655205
 20
78.6511892452
 30
0.0
 11
133.9570655205
 21
78.6487454547
 31
0.0
  0
LINE
  5
41C
330
1F
100
AcDbEntity
  8
0
  6
Continuous
 62
     7
370
    25
100
AcDbLine
 10
132.3118670561
 20
78.6975095048
 30
0.0
 11
130.9542401412
 21
78.6975095048
 31
0.0
  0
LINE
  5
41D
330
1F
100
AcDbEntity
  8
0
  6
Continuous
 62
     7
370
    25
100
AcDbLine
 10
132.3118670561
 20
78.6950664594
 30
0.0
 11
130.9542401412
 21
78.6950664594
 31
0.0
  0
LINE
  5
41E
330
1F
100
AcDbEntity
  8
0
  6
Continuous
 62
     7
370
    25
100
AcDbLine
 10
132.3118670561
 20
78.6975095048
 30
0.0
 11
132.3118670561
 21
78.6950664594
 31
0.0
  0
LINE
  5
41F
330
1F
100
AcDbEntity
  8
0
  6
Continuous
 62
     7
370
    25
100
AcDbLine
 10
130.9542401412
 20
78.6975095048
 30
0.0
 11
130.9542401412
 21
78.6950664594
 31
0.0
  0
LINE
  5
420
330
1F
100
AcDbEntity
  8
0
  6
Continuous
 62
     7
370
    25
100
AcDbLine
 10
131.6307945826
 20
80.2755178883
 30
0.0
 11
131.7855967858
 21
80.2755178883
 31
0.0
  0
SPLINE
  5
421
330
1F
100
AcDbEntity
  8
0
  6
Continuous
 62
     7
370
    25
100
AcDbSpline
210
0.0
220
0.0
230
1.0
 70
     8
 71
     3
 72
    15
 73
    11
 74
     0
 42
0.000000001
 43
0.00000001
 40
0.0
 40
0.0
 40
0.0
 40
0.0
 40
0.1750648012014892
 40
0.3081745028418549
 40
0.4039669136987555
 40
0.4812097920159024
 40
0.5610885761264578
 40
0.6678700571599958
 40
0.8128923170820914
 40
1.0
 40
1.0
 40
1.0
 40
1.0
 10
131.7855962333774
 20
80.27551795763587
 30
0.0
 10
131.7901493903997
 20
80.27492091330566
 30
0.0
 10
131.7981645190383
 20
80.2738699091154
 30
0.0
 10
131.8082642459435
 20
80.270589510444
 30
0.0
 10
131.8153065617789
 20
80.26645270652574
 30
0.0
 10
131.8188542086873
 20
80.26031866744684
 30
0.0
 10
131.8174471256562
 20
80.25310809716044
 30
0.0
 10
131.8122251735794
 20
80.24607498422502
 30
0.0
 10
131.804226024997
 20
80.23778952067934
 30
0.0
 10
131.7971881737991
 20
80.23265486127308
 30
0.0
 10
131.7932233520215
 20
80.22976221565413
 30
0.0
  0
LINE
  5
422
330
1F
100
AcDbEntity
  8
0
  6
Continuous
 62
     7
370
    25
100
AcDbLine
 10
131.7932232001
 20
80.2297623827
 30
0.0
 11
131.7932232001
 21
79.7569530084
 31
0.0
  0
LINE
  5
423
330
1F
100
AcDbEntity
  8
0
  6
Continuous
 62
     7
370
    25
100
AcDbLine
 10
131.7932232001
 20
79.7569530084
 30
0.0
 11
132.220342634
 21
79.7569530084
 31
0.0
  0
LINE
  5
424
330
1F
100
AcDbEntity
  8
0
  6
Continuous
 62
     7
370
    25
100
AcDbLine
 10
132.220342634
 20
79.7569530084
 30
0.0
 11
132.220342634
 21
79.6126248314
 31
0.0
  0
LINE
  5
425
330
1F
100
AcDbEntity
  8
0
  6
Continuous
 62
     7
370
    25
100
AcDbLine
 10
132.220342634
 20
79.6126248314
 30
0.0
 11
131.7932232001
 21
79.6126248314
 31
0.0
  0
LINE
  5
426
330
1F
100
AcDbEntity
  8
0
  6
Continuous
 62
     7
370
    25
100
AcDbLine
 10
131.7932232001
 20
79.6126248314
 30
0.0
 11
131.7932232001
 21
78.8418376817
 31
0.0
  0
LINE
  5
427
330
1F
100
AcDbEntity
  8
0
  6
Continuous
 62
     7
370
    25
100
AcDbLine
 10
131.7932232001
 20
78.8418376817
 30
0.0
 11
132.3118670561
 21
78.8418376817
 31
0.0
  0
LINE
  5
428
330
1F
100
AcDbEntity
  8
0
  6
Continuous
 62
     7
370
    25
100
AcDbLine
 10
130.9542401412
 20
78.8418376817
 30
0.0
 11
131.6307945826
 21
78.8418376817
 31
0.0
  0
LINE
  5
429
330
1F
100
AcDbEntity
  8
0
  6
Continuous
 62
     7
370
    25
100
AcDbLine
 10
131.6307945826
 20
78.8418376817
 30
0.0
 11
131.6307945826
 21
79.6126248314
 31
0.0
  0
LINE
  5
42A
330
1F
100
AcDbEntity
  8
0
  6
Continuous
 62
     7
370
    25
100
AcDbLine
 10
131.6307945826
 20
79.6126248314
 30
0.0
 11
131.2822057583
 21
79.6126248314
 31
0.0
  0
LINE
  5
42B
330
1F
100
AcDbEntity
  8
0
  6
Continuous
 62
     7
370
    25
100
AcDbLine
 10
131.2822057583
 20
79.6126248314
 30
0.0
 11
131.2822057583
 21
79.7569530084
 31
0.0
  0
LINE
  5
42C
330
1F
100
AcDbEntity
  8
0
  6
Continuous
 62
     7
370
    25
100
AcDbLine
 10
131.2822057583
 20
79.7569530084
 30
0.0
 11
131.6307945826
 21
79.7569530084
 31
0.0
  0
LINE
  5
42D
330
1F
100
AcDbEntity
  8
0
  6
Continuous
 62
     7
370
    25
100
AcDbLine
 10
131.6307945826
 20
79.7569530084
 30
0.0
 11
131.6307945826
 21
80.2755178883
 31
0.0
  0
LINE
  5
42E
330
1F
100
AcDbEntity
  8
0
  6
Continuous
 62
     7
370
    25
100
AcDbLine
 10
132.3118670561
 20
78.8418376817
 30
0.0
 11
132.3118670561
 21
78.6975095048
 31
0.0
  0
LINE
  5
42F
330
1F
100
AcDbEntity
  8
0
  6
Continuous
 62
     7
370
    25
100
AcDbLine
 10
130.9542401412
 20
78.6975095048
 30
0.0
 11
130.9542401412
 21
78.8418376817
 31
0.0
  0
LINE
  5
430
330
1F
100
AcDbEntity
  8
0
  6
Continuous
 62
     7
370
    25
100
AcDbLine
 10
133.9570655205
 20
78.7331962957
 30
0.0
 11
132.7847494462
 21
78.7331962957
 31
0.0
  0
SPLINE
  5
431
330
1F
100
AcDbEntity
  8
0
  6
Continuous
 62
     7
370
    25
100
AcDbSpline
210
0.0
220
0.0
230
1.0
 70
     8
 71
     3
 72
    23
 73
    19
 74
     0
 42
0.000000001
 43
0.00000001
 40
0.0
 40
0.0
 40
0.0
 40
0.0
 40
0.0707886064411247
 40
0.1402442596327636
 40
0.2079437561269591
 40
0.2744605752479274
 40
0.3396219865046965
 40
0.4035723116837491
 40
0.4663834360762359
 40
0.5281586238205109
 40
0.5889043525279778
 40
0.6489383130584488
 40
0.7085753832131805
 40
0.7673406099966075
 40
0.8257853151644744
 40
0.8841024791625737
 40
0.9419154465244176
 40
1.0
 40
1.0
 40
1.0
 40
1.0
 10
86.11186741981808
 20
78.95622739716255
 30
0.0
 10
86.09663183887561
 20
78.96894334727989
 30
0.0
 10
86.06644756379559
 20
78.994135805493
 30
0.0
 10
86.02301083710255
 20
79.03302791918875
 30
0.0
 10
85.98185833211697
 20
79.07262874090026
 30
0.0
 10
85.94335163594266
 20
79.11314645983656
 30
0.0
 10
85.90634624367932
 20
79.15363678268625
 30
0.0
 10
85.87227720097546
 20
79.19529991890779
 30
0.0
 10
85.84023761329198
 20
79.2373483182957
 30
0.0
 10
85.81071449264311
 20
79.28010748063306
 30
0.0
 10
85.7827296400506
 20
79.32296906987641
 30
0.0
 10
85.757631487265
 20
79.36690489092815
 30
0.0
 10
85.73480162897394
 20
79.41142609074848
 30
0.0
 10
85.7141837763824
 20
79.45651685439356
 30
0.0
 10
85.69528893319756
 20
79.50197140594128
 30
0.0
 10
85.67942378093042
 20
79.54828332070147
 30
0.0
 10
85.66529316056345
 20
79.59505282938528
 30
0.0
 10
85.65793033881035
 20
79.62670190631249
 30
0.0
 10
85.65424030117401
 20
79.64256352688855
 30
0.0
  0
SPLINE
  5
432
330
1F
100
AcDbEntity
  8
0
  6
Continuous
 62
     7
370
    25
100
AcDbSpline
210
0.0
220
0.0
230
1.0
 70
     8
 71
     3
 72
    23
 73
    19
 74
     0
 42
0.000000001
 43
0.00000001
 40
0.0
 40
0.0
 40
0.0
 40
0.0
 40
0.0639607387530563
 40
0.1274840798105228
 40
0.1901677961534538
 40
0.2526448960227353
 40
0.3144792211464672
 40
0.3759152824287744
 40
0.4375089902303572
 40
0.4985094228928231
 40
0.559989863116229
 40
0.6212917708891361
 40
0.6830345428399486
 40
0.7453205609858587
 40
0.8080268347022522
 40
0.8712688772723857
 40
0.935159296050267
 40
1.0
 40
1.0
 40
1.0
 40
1.0
 10
85.65424030117401
 20
79.64256352688855
 30
0.0
 10
85.64905198081222
 20
79.62433697265459
 30
0.0
 10
85.63871082059453
 20
79.58800850710006
 30
0.0
 10
85.62010421214158
 20
79.53481411126994
 30
0.0
 10
85.6001967190309
 20
79.48257239140055
 30
0.0
 10
85.57776085249793
 20
79.43190436235838
 30
0.0
 10
85.55382077055214
 20
79.38234910852276
 30
0.0
 10
85.52774999809412
 20
79.33416674066258
 30
0.0
 10
85.49958880356185
 20
79.28746470786483
 30
0.0
 10
85.46938375890326
 20
79.2420523716062
 30
0.0
 10
85.43771141200027
 20
79.197747751366
 30
0.0
 10
85.40357649135375
 20
79.15502501026593
 30
0.0
 10
85.36768323889993
 20
79.11346608843742
 30
0.0
 10
85.3298696623357
 20
79.07306615360346
 30
0.0
 10
85.28998930834443
 20
79.03406483256607
 30
0.0
 10
85.24813151231193
 20
78.99648370676827
 30
0.0
 10
85.20428449311812
 20
78.96023201677
 30
0.0
 10
85.17382151584935
 20
78.93728285480373
 30
0.0
 10
85.1584775893096
 20
78.92572356917472
 30
0.0
  0
LINE
  5
433
330
1F
100
AcDbEntity
  8
0
  6
Continuous
 62
     7
370
    25
100
AcDbLine
 10
85.1584776022
 20
78.9257237687
 30
0.0
 11
85.0516973712
 21
79.1011208667
 31
0.0
  0
SPLINE
  5
434
330
1F
100
AcDbEntity
  8
0
  6
Continuous
 62
     7
370
    25
100
AcDbSpline
210
0.0
220
0.0
230
1.0
 70
     8
 71
     3
 72
    23
 73
    19
 74
     0
 42
0.000000001
 43
0.00000001
 40
0.0
 40
0.0
 40
0.0
 40
0.0
 40
0.0686013099984581
 40
0.1355051097468985
 40
0.2007125535129883
 40
0.2642651908058442
 40
0.32672394216636
 40
0.3878148610606568
 40
0.4482843956677104
 40
0.5083751749736435
 40
0.5681143988993694
 40
0.6276773229093892
 40
0.6876436910561777
 40
0.7479552367177494
 40
0.8091623052560976
 40
0.8714255334291539
 40
0.9350548672498937
 40
0.9999999999999999
 40
0.9999999999999999
 40
0.9999999999999999
 40
0.9999999999999999
 10
85.05169792829264
 20
79.1011205801047
 30
0.0
 10
85.07305064755886
 20
79.11624325050133
 30
0.0
 10
85.11522772213118
 20
79.14611438724502
 30
0.0
 10
85.17481829116521
 20
79.19423308744419
 30
0.0
 10
85.23025252452747
 20
79.24422686106493
 30
0.0
 10
85.28157644176702
 20
79.29607717547047
 30
0.0
 10
85.32881195579839
 20
79.34961140037503
 30
0.0
 10
85.3716371764719
 20
79.40526401471053
 30
0.0
 10
85.41040668491388
 20
79.46271198489869
 30
0.0
 10
85.44533575992664
 20
79.52199469861199
 30
0.0
 10
85.47551658753153
 20
79.58345006808943
 30
0.0
 10
85.5015745136052
 20
79.6466903351042
 30
0.0
 10
85.5236838849043
 20
79.71166035190792
 30
0.0
 10
85.54139967046389
 20
79.77859849909564
 30
0.0
 10
85.55546385504219
 20
79.84730684915125
 30
0.0
 10
85.56447732424793
 20
79.91811984274902
 30
0.0
 10
85.57015892851763
 20
79.99071982989916
 30
0.0
 10
85.57028055865459
 20
80.03976141511893
 30
0.0
 10
85.57034199608925
 20
80.06453314738677
 30
0.0
  0
LINE
  5
435
330
1F
100
AcDbEntity
  8
0
  6
Continuous
 62
     7
370
    25
100
AcDbLine
 10
85.5703427174
 20
80.064533092
 30
0.0
 11
85.2194948771
 21
80.064533092
 31
0.0
  0
LINE
  5
436
330
1F
100
AcDbEntity
  8
0
  6
Continuous
 62
     7
370
    25
100
AcDbLine
 10
85.2194948771
 20
80.064533092
 30
0.0
 11
85.2194948771
 21
80.2450144662
 31
0.0
  0
LINE
  5
437
330
1F
100
AcDbEntity
  8
0
  6
Continuous
 62
     7
370
    25
100
AcDbLine
 10
85.2194948771
 20
80.2450144662
 30
0.0
 11
85.7228844144
 21
80.2450144662
 31
0.0
  0
SPLINE
  5
438
330
1F
100
AcDbEntity
  8
0
  6
Continuous
 62
     7
370
    25
100
AcDbSpline
210
0.0
220
0.0
230
1.0
 70
     8
 71
     3
 72
    23
 73
    19
 74
     0
 42
0.000000001
 43
0.00000001
 40
0.0
 40
0.0
 40
0.0
 40
0.0
 40
0.0735666833915973
 40
0.1445177453506526
 40
0.2132365714237011
 40
0.2795183143298369
 40
0.3438225441282022
 40
0.4063043111681313
 40
0.467333060214963
 40
0.5271331638973651
 40
0.5860013893732585
 40
0.6442487491502047
 40
0.7023215172384691
 40
0.7604334003523322
 40
0.8189090953434575
 40
0.8780673088932313
 40
0.938387622034893
 40
1.0
 40
1.0
 40
1.0
 40
1.0
 10
85.72288436897061
 20
80.24501412964803
 30
0.0
 10
85.72167790838778
 20
80.21319573135804
 30
0.0
 10
85.71930788223942
 20
80.15069021976575
 30
0.0
 10
85.72194342976749
 20
80.05840333651358
 30
0.0
 10
85.7280937741767
 20
79.96946834122406
 30
0.0
 10
85.7393587877152
 20
79.88389720191446
 30
0.0
 10
85.75559646471609
 20
79.80190305981358
 30
0.0
 10
85.77571392542981
 20
79.72310343429712
 30
0.0
 10
85.80097210465678
 20
79.64783764801363
 30
0.0
 10
85.83062354872867
 20
79.57588793708936
 30
0.0
 10
85.86488908854784
 20
79.50735438121745
 30
0.0
 10
85.90363273983733
 20
79.44210666123018
 30
0.0
 10
85.94730102824713
 20
79.38044390983893
 30
0.0
 10
85.9954454026172
 20
79.32209241796865
 30
0.0
 10
86.04815495784943
 20
79.26716594911515
 30
0.0
 10
86.10544691181775
 20
79.21562065468899
 30
0.0
 10
86.16733421569451
 20
79.16738594024575
 30
0.0
 10
86.21155608435788
 20
79.13856275616786
 30
0.0
 10
86.23390131812317
 20
79.12399845109557
 30
0.0
  0
LINE
  5
439
330
1F
100
AcDbEntity
  8
0
  6
Continuous
 62
     7
370
    25
100
AcDbLine
 10
86.2339018562
 20
79.1239986195
 30
0.0
 11
86.1118673065
 21
78.9562271907
 31
0.0
  0
LINE
  5
43A
330
1F
100
AcDbEntity
  8
0
  6
Continuous
 62
     7
370
    25
100
AcDbLine
 10
85.0516973712
 20
79.1011208667
 30
0.0
 11
85.0516973712
 21
79.0986770763
 31
0.0
  0
LINE
  5
43B
330
1F
100
AcDbEntity
  8
0
  6
Continuous
 62
     7
370
    25
100
AcDbLine
 10
85.1584776022
 20
78.9257237687
 30
0.0
 11
85.1584776022
 21
78.9232799782
 31
0.0
  0
LINE
  5
43C
330
1F
100
AcDbEntity
  8
0
  6
Continuous
 62
     7
370
    25
100
AcDbLine
 10
85.1584776022
 20
78.9232799782
 30
0.0
 11
85.0516973712
 21
79.0986770763
 31
0.0
  0
LINE
  5
43D
330
1F
100
AcDbEntity
  8
0
  6
Continuous
 62
     7
370
    25
100
AcDbLine
 10
85.6542407253
 20
79.6425634994
 30
0.0
 11
85.6542407253
 21
79.640120454
 31
0.0
  0
SPLINE
  5
43E
330
1F
100
AcDbEntity
  8
0
  6
Continuous
 62
     7
370
    25
100
AcDbSpline
210
0.0
220
0.0
230
1.0
 70
     8
 71
     3
 72
    23
 73
    19
 74
     0
 42
0.000000001
 43
0.00000001
 40
0.0
 40
0.0
 40
0.0
 40
0.0
 40
0.0639607387530563
 40
0.1274840798105228
 40
0.1901677961534538
 40
0.2526448960227353
 40
0.3144792211464672
 40
0.3759152824287744
 40
0.4375089902303572
 40
0.4985094228928231
 40
0.559989863116229
 40
0.6212917708891361
 40
0.6830345428399486
 40
0.7453205609858587
 40
0.8080268347022522
 40
0.8712688772723857
 40
0.935159296050267
 40
1.0
 40
1.0
 40
1.0
 40
1.0
 10
85.65424030117401
 20
79.64012018998733
 30
0.0
 10
85.64905198081222
 20
79.62189363575337
 30
0.0
 10
85.63871082059453
 20
79.58556517019883
 30
0.0
 10
85.62010421214158
 20
79.53237077436872
 30
0.0
 10
85.6001967190309
 20
79.48012905449933
 30
0.0
 10
85.57776085249793
 20
79.42946102545716
 30
0.0
 10
85.55382077055214
 20
79.37990577162155
 30
0.0
 10
85.52774999809412
 20
79.33172340376136
 30
0.0
 10
85.49958880356185
 20
79.2850213709636
 30
0.0
 10
85.46938375890326
 20
79.239609034705
 30
0.0
 10
85.43771141200027
 20
79.19530441446477
 30
0.0
 10
85.40357649135375
 20
79.15258167336471
 30
0.0
 10
85.36768323889993
 20
79.1110227515362
 30
0.0
 10
85.3298696623357
 20
79.07062281670224
 30
0.0
 10
85.28998930834443
 20
79.03162149566485
 30
0.0
 10
85.24813151231193
 20
78.99404036986705
 30
0.0
 10
85.20428449311812
 20
78.95778867986877
 30
0.0
 10
85.17382151584935
 20
78.9348395179025
 30
0.0
 10
85.1584775893096
 20
78.92328023227351
 30
0.0
  0
LINE
  5
43F
330
1F
100
AcDbEntity
  8
0
  6
Continuous
 62
     7
370
    25
100
AcDbLine
 10
130.6468962409
 20
78.9486015215
 30
0.0
 11
130.6468962409
 21
78.946157731
 31
0.0
  0
LINE
  5
440
330
1F
100
AcDbEntity
  8
0
  6
Continuous
 62
     7
370
    25
100
AcDbLine
 10
130.8093248584
 20
78.9486015215
 30
0.0
 11
130.6468962409
 21
78.9486015215
 31
0.0
  0
LINE
  5
441
330
1F
100
AcDbEntity
  8
0
  6
Continuous
 62
     7
370
    25
100
AcDbLine
 10
130.8093248584
 20
78.9486015215
 30
0.0
 11
130.8093248584
 21
78.946157731
 31
0.0
  0
LINE
  5
442
330
1F
100
AcDbEntity
  8
0
  6
Continuous
 62
     7
370
    25
100
AcDbLine
 10
130.8093248584
 20
78.946157731
 30
0.0
 11
130.6468962409
 21
78.946157731
 31
0.0
  0
LINE
  5
443
330
1F
100
AcDbEntity
  8
0
  6
Continuous
 62
     7
370
    25
100
AcDbLine
 10
131.0435055473
 20
79.9634182825
 30
0.0
 11
130.8093248584
 21
79.9634182825
 31
0.0
  0
LINE
  5
444
330
1F
100
AcDbEntity
  8
0
  6
Continuous
 62
     7
370
    25
100
AcDbLine
 10
130.8093248584
 20
79.9634182825
 30
0.0
 11
130.8093248584
 21
79.2765172197
 31
0.0
  0
LINE
  5
445
330
1F
100
AcDbEntity
  8
0
  6
Continuous
 62
     7
370
    25
100
AcDbLine
 10
130.8093248584
 20
79.2765172197
 30
0.0
 11
131.0435055473
 21
79.2765172197
 31
0.0
  0
LINE
  5
446
330
1F
100
AcDbEntity
  8
0
  6
Continuous
 62
     7
370
    25
100
AcDbLine
 10
131.0435055473
 20
79.2765172197
 30
0.0
 11
131.0435055473
 21
79.9634182825
 31
0.0
  0
LINE
  5
447
330
1F
100
AcDbEntity
  8
0
  6
Continuous
 62
     7
370
    25
100
AcDbLine
 10
131.2059356549
 20
79.0477389469
 30
0.0
 11
131.0435055473
 21
79.0477389469
 31
0.0
  0
LINE
  5
448
330
1F
100
AcDbEntity
  8
0
  6
Continuous
 62
     7
370
    25
100
AcDbLine
 10
131.0435055473
 20
79.0477389469
 30
0.0
 11
131.0435055473
 21
79.1321890428
 31
0.0
  0
LINE
  5
449
330
1F
100
AcDbEntity
  8
0
  6
Continuous
 62
     7
370
    25
100
AcDbLine
 10
131.0435055473
 20
79.1321890428
 30
0.0
 11
130.8093248584
 21
79.1321890428
 31
0.0
  0
LINE
  5
44A
330
1F
100
AcDbEntity
  8
0
  6
Continuous
 62
     7
370
    25
100
AcDbLine
 10
130.6468962409
 20
78.9486015215
 30
0.0
 11
130.6468962409
 21
80.1077472045
 31
0.0
  0
LINE
  5
44B
330
1F
100
AcDbEntity
  8
0
  6
Continuous
 62
     7
370
    25
100
AcDbLine
 10
130.6468962409
 20
80.1077472045
 30
0.0
 11
131.2059356549
 21
80.1077472045
 31
0.0
  0
LINE
  5
44C
330
1F
100
AcDbEntity
  8
0
  6
Continuous
 62
     7
370
    25
100
AcDbLine
 10
131.2059356549
 20
80.1077472045
 30
0.0
 11
131.2059356549
 21
79.0477389469
 31
0.0
  0
LINE
  5
44D
330
1F
100
AcDbEntity
  8
0
  6
Continuous
 62
     7
370
    25
100
AcDbLine
 10
130.8093248584
 20
79.1321890428
 30
0.0
 11
130.8093248584
 21
78.9486015215
 31
0.0
  0
LINE
  5
44E
330
1F
100
AcDbEntity
  8
0
  6
Continuous
 62
     7
370
    25
100
AcDbLine
 10
86.1118673065
 20
78.9562271907
 30
0.0
 11
86.1118673065
 21
78.9537841453
 31
0.0
  0
SPLINE
  5
44F
330
1F
100
AcDbEntity
  8
0
  6
Continuous
 62
     7
370
    25
100
AcDbSpline
210
0.0
220
0.0
230
1.0
 70
     8
 71
     3
 72
    23
 73
    19
 74
     0
 42
0.000000001
 43
0.00000001
 40
0.0
 40
0.0
 40
0.0
 40
0.0
 40
0.0707886064411247
 40
0.1402442596327636
 40
0.2079437561269591
 40
0.2744605752479274
 40
0.3396219865046965
 40
0.4035723116837491
 40
0.4663834360762359
 40
0.5281586238205109
 40
0.5889043525279778
 40
0.6489383130584488
 40
0.7085753832131805
 40
0.7673406099966075
 40
0.8257853151644744
 40
0.8841024791625737
 40
0.9419154465244176
 40
1.0
 40
1.0
 40
1.0
 40
1.0
 10
86.11186741981808
 20
78.95378406026134
 30
0.0
 10
86.09663183887561
 20
78.96650001037867
 30
0.0
 10
86.06644756379559
 20
78.99169246859178
 30
0.0
 10
86.02301083710255
 20
79.03058458228753
 30
0.0
 10
85.98185833211697
 20
79.07018540399905
 30
0.0
 10
85.94335163594266
 20
79.11070312293533
 30
0.0
 10
85.90634624367932
 20
79.15119344578503
 30
0.0
 10
85.87227720097546
 20
79.19285658200657
 30
0.0
 10
85.84023761329198
 20
79.2349049813945
 30
0.0
 10
85.81071449264311
 20
79.27766414373184
 30
0.0
 10
85.7827296400506
 20
79.32052573297518
 30
0.0
 10
85.757631487265
 20
79.36446155402693
 30
0.0
 10
85.73480162897394
 20
79.40898275384725
 30
0.0
 10
85.7141837763824
 20
79.45407351749235
 30
0.0
 10
85.69528893319756
 20
79.49952806904005
 30
0.0
 10
85.67942378093042
 20
79.54583998380026
 30
0.0
 10
85.66529316056345
 20
79.59260949248406
 30
0.0
 10
85.65793033881035
 20
79.62425856941125
 30
0.0
 10
85.65424030117401
 20
79.64012018998733
 30
0.0
  0
LINE
  5
450
330
1F
100
AcDbEntity
  8
0
  6
Continuous
 62
     7
370
    25
100
AcDbLine
 10
86.2339018562
 20
79.1239986195
 30
0.0
 11
86.2339018562
 21
79.1215548291
 31
0.0
  0
LINE
  5
451
330
1F
100
AcDbEntity
  8
0
  6
Continuous
 62
     7
370
    25
100
AcDbLine
 10
86.2339018562
 20
79.1215548291
 30
0.0
 11
86.1118673065
 21
78.9537841453
 31
0.0
  0
LINE
  5
452
330
1F
100
AcDbEntity
  8
0
  6
Continuous
 62
     7
370
    25
100
AcDbLine
 10
82.9672350266
 20
79.253639467
 30
0.0
 11
82.9672350266
 21
79.9634182825
 31
0.0
  0
LINE
  5
453
330
1F
100
AcDbEntity
  8
0
  6
Continuous
 62
     7
370
    25
100
AcDbLine
 10
82.9672350266
 20
79.9634182825
 30
0.0
 11
82.7788172939
 21
79.9634182825
 31
0.0
  0
LINE
  5
454
330
1F
100
AcDbEntity
  8
0
  6
Continuous
 62
     7
370
    25
100
AcDbLine
 10
82.7788172939
 20
79.9634182825
 30
0.0
 11
82.7788172939
 21
79.253639467
 31
0.0
  0
LINE
  5
455
330
1F
100
AcDbEntity
  8
0
  6
Continuous
 62
     7
370
    25
100
AcDbLine
 10
82.7788172939
 20
79.253639467
 30
0.0
 11
82.9672350266
 21
79.253639467
 31
0.0
  0
LINE
  5
456
330
1F
100
AcDbEntity
  8
0
  6
Continuous
 62
     7
370
    25
100
AcDbLine
 10
82.7788172939
 20
78.9714792742
 30
0.0
 11
82.6163871863
 21
78.9714792742
 31
0.0
  0
LINE
  5
457
330
1F
100
AcDbEntity
  8
0
  6
Continuous
 62
     7
370
    25
100
AcDbLine
 10
82.6163871863
 20
78.9714792742
 30
0.0
 11
82.6163871863
 21
80.1077472045
 31
0.0
  0
LINE
  5
458
330
1F
100
AcDbEntity
  8
0
  6
Continuous
 62
     7
370
    25
100
AcDbLine
 10
82.6163871863
 20
80.1077472045
 30
0.0
 11
83.1296636441
 21
80.1077472045
 31
0.0
  0
LINE
  5
459
330
1F
100
AcDbEntity
  8
0
  6
Continuous
 62
     7
370
    25
100
AcDbLine
 10
83.1296636441
 20
80.1077472045
 30
0.0
 11
83.1296636441
 21
79.10931129
 31
0.0
  0
LINE
  5
45A
330
1F
100
AcDbEntity
  8
0
  6
Continuous
 62
     7
370
    25
100
AcDbLine
 10
83.1296636441
 20
79.10931129
 30
0.0
 11
82.7788172939
 21
79.10931129
 31
0.0
  0
LINE
  5
45B
330
1F
100
AcDbEntity
  8
0
  6
Continuous
 62
     7
370
    25
100
AcDbLine
 10
82.7788172939
 20
79.10931129
 30
0.0
 11
82.7788172939
 21
78.9714792742
 31
0.0
  0
LINE
  5
45C
330
1F
100
AcDbEntity
  8
0
  6
Continuous
 62
     7
370
    25
100
AcDbLine
 10
82.6163871863
 20
78.9714792742
 30
0.0
 11
82.6163871863
 21
78.9690362289
 31
0.0
  0
LINE
  5
45D
330
1F
100
AcDbEntity
  8
0
  6
Continuous
 62
     7
370
    25
100
AcDbLine
 10
82.7788172939
 20
78.9714792742
 30
0.0
 11
82.7788172939
 21
78.9690362289
 31
0.0
  0
LINE
  5
45E
330
1F
100
AcDbEntity
  8
0
  6
Continuous
 62
     7
370
    25
100
AcDbLine
 10
82.7788172939
 20
78.9690362289
 30
0.0
 11
82.6163871863
 21
78.9690362289
 31
0.0
  0
SPLINE
  5
45F
330
1F
100
AcDbEntity
  8
0
  6
Continuous
 62
     7
370
    25
100
AcDbSpline
210
0.0
220
0.0
230
1.0
 70
     8
 71
     3
 72
    15
 73
    11
 74
     0
 42
0.000000001
 43
0.00000001
 40
0.0
 40
0.0
 40
0.0
 40
0.0
 40
0.1353923026820224
 40
0.2672166673234462
 40
0.3955744028918646
 40
0.521390126888473
 40
0.6440446990461136
 40
0.7645653651336881
 40
0.8830881791135972
 40
1.0
 40
1.0
 40
1.0
 40
1.0
 10
83.70169792829266
 20
79.01479171623697
 30
0.0
 10
83.68747440043232
 20
79.03376638277362
 30
0.0
 10
83.6594021715306
 20
79.07121568421141
 30
0.0
 10
83.62119101451623
 20
79.12902895761559
 30
0.0
 10
83.58583116683276
 20
79.18665828040096
 30
0.0
 10
83.55458370189211
 20
79.24481661008393
 30
0.0
 10
83.52678764946822
 20
79.30317302486309
 30
0.0
 10
83.50243356768948
 20
79.36166374577466
 30
0.0
 10
83.48156401550284
 20
79.42045364938771
 30
0.0
 10
83.47066798620428
 20
79.46022532617586
 30
0.0
 10
83.46525725032656
 20
79.47997509305127
 30
0.0
  0
LINE
  5
460
330
1F
100
AcDbEntity
  8
0
  6
Continuous
 62
     7
370
    25
100
AcDbLine
 10
84.227968631
 20
79.6806933357
 30
0.0
 11
84.227968631
 21
79.6782502904
 31
0.0
  0
SPLINE
  5
461
330
1F
100
AcDbEntity
  8
0
  6
Continuous
 62
     7
370
    25
100
AcDbSpline
210
0.0
220
0.0
230
1.0
 70
     8
 71
     3
 72
    15
 73
    11
 74
     0
 42
0.000000001
 43
0.00000001
 40
0.0
 40
0.0
 40
0.0
 40
0.0
 40
0.1400803533298556
 40
0.2755184539549109
 40
0.4058584866356063
 40
0.5321262056425834
 40
0.6543010307409726
 40
0.7725630977186625
 40
0.8877118459702696
 40
0.9999999999999999
 40
0.9999999999999999
 40
0.9999999999999999
 40
0.9999999999999999
 10
84.22796911473333
 20
79.6782499749721
 30
0.0
 10
84.21884261538445
 20
79.64530626721528
 30
0.0
 10
84.20089206821022
 20
79.5805106037768
 30
0.0
 10
84.16949699767837
 20
79.48653541891271
 30
0.0
 10
84.13497806328665
 20
79.39728635561563
 30
0.0
 10
84.09751789440134
 20
79.31274538684151
 30
0.0
 10
84.05678122934329
 20
79.23302666810598
 30
0.0
 10
84.01330565284624
 20
79.15789644791982
 30
0.0
 10
83.96656704216103
 20
79.08756184879702
 30
0.0
 10
83.93221649928894
 20
79.04394955345259
 30
0.0
 10
83.91525725032655
 20
79.02241767323392
 30
0.0
  0
LINE
  5
462
330
1F
100
AcDbEntity
  8
0
  6
Continuous
 62
     7
370
    25
100
AcDbLine
 10
131.2059356549
 20
79.0477389469
 30
0.0
 11
131.2059356549
 21
79.0452959015
 31
0.0
  0
LINE
  5
463
330
1F
100
AcDbEntity
  8
0
  6
Continuous
 62
     7
370
    25
100
AcDbLine
 10
131.2059356549
 20
79.0452959015
 30
0.0
 11
131.0435055473
 21
79.0452959015
 31
0.0
  0
LINE
  5
464
330
1F
100
AcDbEntity
  8
0
  6
Continuous
 62
     7
370
    25
100
AcDbLine
 10
131.0435055473
 20
79.0477389469
 30
0.0
 11
131.0435055473
 21
79.0452959015
 31
0.0
  0
LINE
  5
465
330
1F
100
AcDbEntity
  8
0
  6
Continuous
 62
     7
370
    25
100
AcDbLine
 10
83.1296636441
 20
79.1068682446
 30
0.0
 11
82.7788172939
 21
79.1068682446
 31
0.0
  0
LINE
  5
466
330
1F
100
AcDbEntity
  8
0
  6
Continuous
 62
     7
370
    25
100
AcDbLine
 10
83.1296636441
 20
79.10931129
 30
0.0
 11
83.1296636441
 21
79.1068682446
 31
0.0
  0
LINE
  5
467
330
1F
100
AcDbEntity
  8
0
  6
Continuous
 62
     7
370
    25
100
AcDbLine
 10
85.7228844144
 20
80.2450144662
 30
0.0
 11
85.7228844144
 21
80.2425706758
 31
0.0
  0
LINE
  5
468
330
1F
100
AcDbEntity
  8
0
  6
Continuous
 62
     7
370
    25
100
AcDbLine
 10
85.7228844144
 20
80.2425706758
 30
0.0
 11
85.7277898767
 21
80.1416615023
 31
0.0
  0
LINE
  5
469
330
1F
100
AcDbEntity
  8
0
  6
Continuous
 62
     7
370
    25
100
AcDbLine
 10
131.0435055473
 20
79.1297459974
 30
0.0
 11
130.8093248584
 21
79.1297459974
 31
0.0
  0
ELLIPSE
  5
46A
330
1F
100
AcDbEntity
  8
0
  6
Continuous
 62
     7
370
    25
100
AcDbEllipse
 10
76.006104708
 20
27.5570240234
 30
0.0
 11
-2.700411160455999
 21
-154.7064517697993
 31
0.0
210
0.0
220
0.0
230
1.0
 40
0.0174497492
 41
4.416824347678832
 42
4.427241852742124
  0
LINE
  5
46B
330
1F
100
AcDbEntity
  8
0
  6
Continuous
 62
     7
370
    25
100
AcDbLine
 10
74.0909768918
 20
72.5458286702
 30
0.0
 11
74.3122501948
 21
85.2227019145
 31
0.0
  0
LINE
  5
46C
330
1F
100
AcDbEntity
  8
0
  6
Continuous
 62
     7
370
    25
100
AcDbLine
 10
131.6307945826
 20
79.610181041
 30
0.0
 11
131.2822057583
 21
79.610181041
 31
0.0
  0
LINE
  5
46D
330
1F
100
AcDbEntity
  8
0
  6
Continuous
 62
     7
370
    25
100
AcDbLine
 10
132.220342634
 20
79.610181041
 30
0.0
 11
131.7932232001
 21
79.610181041
 31
0.0
  0
SPLINE
  5
46E
330
1F
100
AcDbEntity
  8
0
  6
Continuous
 62
     7
370
    25
100
AcDbSpline
210
0.0
220
0.0
230
1.0
 70
     8
 71
     3
 72
    11
 73
     7
 74
     0
 42
0.000000001
 43
0.00000001
 40
0.0
 40
0.0
 40
0.0
 40
0.0
 40
0.1562046210782469
 40
0.3132362106789043
 40
0.56001855944185
 40
0.9999999999999999
 40
0.9999999999999999
 40
0.9999999999999999
 40
0.9999999999999999
 10
131.8181960561249
 20
80.25629241009328
 30
0.0
 10
131.8178430945497
 20
80.25424857248294
 30
0.0
 10
131.8171353027727
 20
80.25015007690777
 30
0.0
 10
131.8125767949898
 20
80.24421300342723
 30
0.0
 10
131.8051678465507
 20
80.23607691545725
 30
0.0
 10
131.797887451254
 20
80.23073861975199
 30
0.0
 10
131.7932232000801
 20
80.22731859226798
 30
0.0
  0
LINE
  5
46F
330
1F
100
AcDbEntity
  8
0
  6
Continuous
 62
     7
370
    25
100
AcDbLine
 10
85.0745795944
 20
79.9985403194
 30
0.0
 11
84.9372907259
 21
79.8612730577
 31
0.0
  0
SPLINE
  5
470
330
1F
100
AcDbEntity
  8
0
  6
Continuous
 62
     7
370
    25
100
AcDbSpline
210
0.0
220
0.0
230
1.0
 70
     8
 71
     3
 72
    11
 73
     7
 74
     0
 42
0.000000001
 43
0.00000001
 40
0.0
 40
0.0
 40
0.0
 40
0.0
 40
0.2650561949598959
 40
0.5193653351157876
 40
0.7639599284119554
 40
1.0
 40
1.0
 40
1.0
 40
1.0
 10
84.93729114863163
 20
79.86127294289905
 30
0.0
 10
84.91448852304407
 20
79.88954650102312
 30
0.0
 10
84.86980783455233
 20
79.94494722837547
 30
0.0
 10
84.79796475360949
 20
80.021157490363
 30
0.0
 10
84.72476547992156
 20
80.0904560869465
 30
0.0
 10
84.67292133938852
 20
80.13109936308854
 30
0.0
 10
84.64746064015706
 20
80.15105930878336
 30
0.0
  0
LINE
  5
471
330
1F
100
AcDbEntity
  8
0
  6
Continuous
 62
     7
370
    25
100
AcDbLine
 10
84.8282514789
 20
79.3986314907
 30
0.0
 11
84.5483078339
 21
79.3986314907
 31
0.0
  0
LINE
  5
472
330
1F
100
AcDbEntity
  8
0
  6
Continuous
 62
     7
370
    25
100
AcDbLine
 10
85.5703427174
 20
80.0620900466
 30
0.0
 11
85.2194948771
 21
80.0620900466
 31
0.0
  0
LINE
  5
473
330
1F
100
AcDbEntity
  8
0
  6
Continuous
 62
     7
370
    25
100
AcDbLine
 10
84.2584772685
 20
79.7240057959
 30
0.0
 11
84.227968631
 21
79.6782502904
 31
0.0
  0
LINE
  5
474
330
1F
100
AcDbEntity
  8
0
  6
Continuous
 62
     7
370
    25
100
AcDbLine
 10
83.9915289261
 20
80.1510596647
 30
0.0
 11
83.9157669523
 21
79.7874564304
 31
0.0
  0
LINE
  5
475
330
1F
100
AcDbEntity
  8
0
  6
Continuous
 62
     7
370
    25
100
AcDbLine
 10
84.0220375636
 20
80.1968151702
 30
0.0
 11
83.9915289261
 21
80.1510596647
 31
0.0
  0
LINE
  5
476
330
1F
100
AcDbEntity
  8
0
  6
Continuous
 62
     7
370
    25
100
AcDbLine
 10
83.3257092812
 20
80.0982424988
 30
0.0
 11
83.1906809189
 21
80.0982424988
 31
0.0
  0
LINE
  5
477
330
1F
100
AcDbEntity
  8
0
  6
Continuous
 62
     7
370
    25
100
AcDbLine
 10
132.8610195496
 20
79.4494712724
 30
0.0
 11
132.6985909321
 21
79.4494712724
 31
0.0
  0
LINE
  5
478
330
1F
100
AcDbEntity
  8
0
  6
Continuous
 62
     7
370
    25
100
AcDbLine
 10
133.3011342862
 20
79.5339213683
 30
0.0
 11
132.8610195496
 21
79.5339213683
 31
0.0
  0
SPLINE
  5
479
330
1F
100
AcDbEntity
  8
0
  6
Continuous
 62
     7
370
    25
100
AcDbSpline
210
0.0
220
0.0
230
1.0
 70
     8
 71
     3
 72
    11
 73
     7
 74
     0
 42
0.000000001
 43
0.00000001
 40
0.0
 40
0.0
 40
0.0
 40
0.0
 40
0.1562263521949825
 40
0.3132390000660206
 40
0.5600246090902326
 40
1.0
 40
1.0
 40
1.0
 40
1.0
 10
132.8097208120796
 20
79.33355215926741
 30
0.0
 10
132.8093677973159
 20
79.33150812872017
 30
0.0
 10
132.808659991046
 20
79.32740977990946
 30
0.0
 10
132.8041034530121
 20
79.32147140063245
 30
0.0
 10
132.7966939098716
 20
79.31333619923966
 30
0.0
 10
132.7894135984207
 20
79.3079981670014
 30
0.0
 10
132.784749446151
 20
79.30457834144208
 30
0.0
  0
SPLINE
  5
47A
330
1F
100
AcDbEntity
  8
0
  6
Continuous
 62
     7
370
    25
100
AcDbSpline
210
0.0
220
0.0
230
1.0
 70
     8
 71
     3
 72
    11
 73
     7
 74
     0
 42
0.000000001
 43
0.00000001
 40
0.0
 40
0.0
 40
0.0
 40
0.0
 40
0.156207880438468
 40
0.3132228506658993
 40
0.5600093788043279
 40
1.0
 40
1.0
 40
1.0
 40
1.0
 10
134.1444655039284
 20
79.3259257449684
 30
0.0
 10
134.1441124402056
 20
79.32388197108538
 30
0.0
 10
134.1434044885619
 20
79.31978386361503
 30
0.0
 10
134.1388481964642
 20
79.31384577716913
 30
0.0
 10
134.1314384016341
 20
79.30571044200421
 30
0.0
 10
134.1241582436954
 20
79.30037203241702
 30
0.0
 10
134.1194941379998
 20
79.29695192714307
 30
0.0
  0
LINE
  5
47B
330
1F
100
AcDbEntity
  8
0
  6
Continuous
 62
     7
370
    25
100
AcDbLine
 10
133.8960482457
 20
79.5339213683
 30
0.0
 11
133.4635629036
 21
79.5339213683
 31
0.0
  0
LINE
  5
47C
330
1F
100
AcDbEntity
  8
0
  6
Continuous
 62
     7
370
    25
100
AcDbLine
 10
134.0584768631
 20
79.464723356
 30
0.0
 11
133.8960482457
 21
79.464723356
 31
0.0
  0
SPLINE
  5
47D
330
1F
100
AcDbEntity
  8
0
  6
Continuous
 62
     7
370
    25
100
AcDbSpline
210
0.0
220
0.0
230
1.0
 70
     8
 71
     3
 72
    11
 73
     7
 74
     0
 42
0.000000001
 43
0.00000001
 40
0.0
 40
0.0
 40
0.0
 40
0.0
 40
0.1562248524047579
 40
0.3132355720112521
 40
0.5600181502736352
 40
1.0
 40
1.0
 40
1.0
 40
1.0
 10
134.0834512093041
 20
80.1113994791088
 30
0.0
 10
134.0830969404431
 20
80.10935576390929
 30
0.0
 10
134.0823866206214
 20
80.10525805288769
 30
0.0
 10
134.0778312212521
 20
80.09931936908382
 30
0.0
 10
134.0704209704596
 20
80.09118426932564
 30
0.0
 10
134.0631409037834
 20
80.08584579999939
 30
0.0
 10
134.0584768631432
 20
80.08242566128347
 30
0.0
  0
SPLINE
  5
47E
330
1F
100
AcDbEntity
  8
0
  6
Continuous
 62
     7
370
    25
100
AcDbSpline
210
0.0
220
0.0
230
1.0
 70
     8
 71
     3
 72
    11
 73
     7
 74
     0
 42
0.000000001
 43
0.00000001
 40
0.0
 40
0.0
 40
0.0
 40
0.0
 40
0.156208978886246
 40
0.3132226522566325
 40
0.5600098731158444
 40
1.0
 40
1.0
 40
1.0
 40
1.0
 10
133.4885342695687
 20
80.27154449363324
 30
0.0
 10
133.4881812122128
 20
80.2695007271899
 30
0.0
 10
133.4874732787625
 20
80.26540266605062
 30
0.0
 10
133.4829169254253
 20
80.25946447170489
 30
0.0
 10
133.4755072022875
 20
80.25132923373285
 30
0.0
 10
133.4682270189928
 20
80.24599079495361
 30
0.0
 10
133.46356290364
 20
80.24257067580794
 30
0.0
  0
SPLINE
  5
47F
330
1F
100
AcDbEntity
  8
0
  6
Continuous
 62
     7
370
    25
100
AcDbSpline
210
0.0
220
0.0
230
1.0
 70
     8
 71
     3
 72
    11
 73
     7
 74
     0
 42
0.000000001
 43
0.00000001
 40
0.0
 40
0.0
 40
0.0
 40
0.0
 40
0.1562079039449329
 40
0.3132217773417241
 40
0.5600093125936856
 40
1.0
 40
1.0
 40
1.0
 40
1.0
 10
132.8859909155343
 20
80.11902514834975
 30
0.0
 10
132.8856378552597
 20
80.1169813784365
 30
0.0
 10
132.8849299130628
 20
80.11288329358592
 30
0.0
 10
132.8803735719583
 20
80.10694513238819
 30
0.0
 10
132.8729638479303
 20
80.09880988505488
 30
0.0
 10
132.8656836648323
 20
80.09347144834462
 30
0.0
 10
132.8610195496056
 20
80.09005133052442
 30
0.0
  0
ELLIPSE
  5
480
330
1F
100
AcDbEntity
  8
0
  6
Continuous
 62
     7
370
    25
100
AcDbEllipse
 10
139.126104708
 20
27.5570240234
 30
0.0
 11
2.700411160456013
 21
-154.7064517697992
 31
0.0
210
0.0
220
0.0
230
1.0
 40
0.0174497492
 41
1.855943454437527
 42
1.866360959500819
  0
LINE
  5
481
330
1F
100
AcDbEntity
  8
0
  6
Continuous
 62
     7
370
    25
100
AcDbLine
 10
140.8199592211
 20
85.2227019145
 30
0.0
 11
141.0412325242
 21
72.5458286702
 31
0.0
  0
LINE
  5
482
330
1F
100
AcDbEntity
  8
0
  6
Continuous
 62
     7
370
    25
100
AcDbLine
 10
84.5483078339
 20
79.401074536
 30
0.0
 11
84.5483078339
 21
79.3986314907
 31
0.0
  0
LINE
  5
483
330
1F
100
AcDbEntity
  8
0
  6
Continuous
 62
     7
370
    25
100
AcDbLine
 10
132.8610195496
 20
79.4519143178
 30
0.0
 11
132.8610195496
 21
79.4494712724
 31
0.0
  0
LINE
  5
484
330
1F
100
AcDbEntity
  8
0
  6
Continuous
 62
     7
370
    25
100
AcDbLine
 10
132.6985909321
 20
79.4519143178
 30
0.0
 11
132.6985909321
 21
79.4494712724
 31
0.0
  0
LINE
  5
485
330
1F
100
AcDbEntity
  8
0
  6
Continuous
 62
     7
370
    25
100
AcDbLine
 10
133.8960482457
 20
79.4671664013
 30
0.0
 11
133.8960482457
 21
79.464723356
 31
0.0
  0
LINE
  5
486
330
1F
100
AcDbEntity
  8
0
  6
Continuous
 62
     7
370
    25
100
AcDbLine
 10
134.0584768631
 20
79.4671664013
 30
0.0
 11
134.0584768631
 21
79.464723356
 31
0.0
  0
LINE
  5
487
330
1F
100
AcDbEntity
  8
0
  6
Continuous
 62
     7
370
    25
100
AcDbLine
 10
83.7016983607
 20
79.5891815795
 30
0.0
 11
83.7016983607
 21
79.5867385342
 31
0.0
  0
LINE
  5
488
330
1F
100
AcDbEntity
  8
0
  6
Continuous
 62
     7
370
    25
100
AcDbLine
 10
83.8542400577
 20
79.543426074
 30
0.0
 11
83.8542400577
 21
79.5409830286
 31
0.0
  0
LINE
  5
489
330
1F
100
AcDbEntity
  8
0
  6
Continuous
 62
     7
370
    25
100
AcDbLine
 10
83.8542400577
 20
79.5409830286
 30
0.0
 11
83.7016983607
 21
79.5867385342
 31
0.0
  0
LINE
  5
48A
330
1F
100
AcDbEntity
  8
0
  6
Continuous
 62
     7
370
    25
100
AcDbLine
 10
83.8847486951
 20
79.6431282534
 30
0.0
 11
83.8847486951
 21
79.640685208
 31
0.0
  0
LINE
  5
48B
330
1F
100
AcDbEntity
  8
0
  6
Continuous
 62
     7
370
    25
100
AcDbLine
 10
83.8847486951
 20
79.640685208
 30
0.0
 11
83.8542400577
 21
79.5409830286
 31
0.0
  0
LINE
  5
48C
330
1F
100
AcDbEntity
  8
0
  6
Continuous
 62
     7
370
    25
100
AcDbLine
 10
131.2822057583
 20
79.6126248314
 30
0.0
 11
131.2822057583
 21
79.610181041
 31
0.0
  0
LINE
  5
48D
330
1F
100
AcDbEntity
  8
0
  6
Continuous
 62
     7
370
    25
100
AcDbLine
 10
132.220342634
 20
79.6126248314
 30
0.0
 11
132.220342634
 21
79.610181041
 31
0.0
  0
LINE
  5
48E
330
1F
100
AcDbEntity
  8
0
  6
Continuous
 62
     7
370
    25
100
AcDbLine
 10
84.0449182966
 20
79.640685208
 30
0.0
 11
83.8847486951
 21
79.640685208
 31
0.0
  0
LINE
  5
48F
330
1F
100
AcDbEntity
  8
0
  6
Continuous
 62
     7
370
    25
100
AcDbLine
 10
84.2584772685
 20
79.7264488413
 30
0.0
 11
84.2584772685
 21
79.7240057959
 31
0.0
  0
LINE
  5
490
330
1F
100
AcDbEntity
  8
0
  6
Continuous
 62
     7
370
    25
100
AcDbLine
 10
83.9915289261
 20
80.1535027101
 30
0.0
 11
83.9915289261
 21
80.1510596647
 31
0.0
  0
LINE
  5
491
330
1F
100
AcDbEntity
  8
0
  6
Continuous
 62
     7
370
    25
100
AcDbLine
 10
84.6474601605
 20
80.1535027101
 30
0.0
 11
84.6474601605
 21
80.1510596647
 31
0.0
  0
SPLINE
  5
492
330
1F
100
AcDbEntity
  8
0
  6
Continuous
 62
     7
370
    25
100
AcDbSpline
210
0.0
220
0.0
230
1.0
 70
     8
 71
     3
 72
    11
 73
     7
 74
     0
 42
0.000000001
 43
0.00000001
 40
0.0
 40
0.0
 40
0.0
 40
0.0
 40
0.2650561949598959
 40
0.5193653351157876
 40
0.7639599284119554
 40
1.0
 40
1.0
 40
1.0
 40
1.0
 10
84.93729114863163
 20
79.86371627980027
 30
0.0
 10
84.91448852304407
 20
79.89198983792434
 30
0.0
 10
84.86980783455233
 20
79.94739056527669
 30
0.0
 10
84.79796475360949
 20
80.02360082726422
 30
0.0
 10
84.72476547992156
 20
80.09289942384773
 30
0.0
 10
84.67292133938852
 20
80.13354269998976
 30
0.0
 10
84.64746064015706
 20
80.15350264568458
 30
0.0
  0
LINE
  5
493
330
1F
100
AcDbEntity
  8
0
  6
Continuous
 62
     7
370
    25
100
AcDbLine
 10
84.9372907259
 20
79.863716103
 30
0.0
 11
84.9372907259
 21
79.8612730577
 31
0.0
  0
LINE
  5
494
330
1F
100
AcDbEntity
  8
0
  6
Continuous
 62
     7
370
    25
100
AcDbLine
 10
85.0745795944
 20
80.0009833648
 30
0.0
 11
84.9372907259
 21
79.863716103
 31
0.0
  0
LINE
  5
495
330
1F
100
AcDbEntity
  8
0
  6
Continuous
 62
     7
370
    25
100
AcDbLine
 10
85.0745795944
 20
80.0009833648
 30
0.0
 11
85.0745795944
 21
79.9985403194
 31
0.0
  0
SPLINE
  5
496
330
1F
100
AcDbEntity
  8
0
  6
Continuous
 62
     7
370
    25
100
AcDbSpline
210
0.0
220
0.0
230
1.0
 70
     8
 71
     3
 72
    15
 73
    11
 74
     0
 42
0.000000001
 43
0.00000001
 40
0.0
 40
0.0
 40
0.0
 40
0.0
 40
0.1063405890778697
 40
0.2174580268583999
 40
0.3339091249224205
 40
0.4557615867076004
 40
0.5828359307909725
 40
0.7157832325717092
 40
0.85483268211228
 40
1.0
 40
1.0
 40
1.0
 40
1.0
 10
84.7771216571062
 20
80.28314391463282
 30
0.0
 10
84.7893882679879
 20
80.27521696551696
 30
0.0
 10
84.81447250930823
 20
80.25900698653633
 30
0.0
 10
84.85068348222278
 20
80.23084655184095
 30
0.0
 10
84.88791938426422
 20
80.20059260355437
 30
0.0
 10
84.9247039583904
 20
80.16645509462565
 30
0.0
 10
84.96209979193742
 20
80.1297166630925
 30
0.0
 10
84.99975166758436
 20
80.08989857988148
 30
0.0
 10
85.0371662873756
 20
80.04652917676015
 30
0.0
 10
85.0619305983688
 20
80.01638170779509
 30
0.0
 10
85.07457928422485
 20
80.00098350574545
 30
0.0
  0
LINE
  5
497
330
1F
100
AcDbEntity
  8
0
  6
Continuous
 62
     7
370
    25
100
AcDbLine
 10
84.6474601605
 20
80.1535027101
 30
0.0
 11
84.7771211245
 21
80.2831435575
 31
0.0
  0
LINE
  5
498
330
1F
100
AcDbEntity
  8
0
  6
Continuous
 62
     7
370
    25
100
AcDbLine
 10
82.9672350266
 20
79.9609752371
 30
0.0
 11
82.7788172939
 21
79.9609752371
 31
0.0
  0
LINE
  5
499
330
1F
100
AcDbEntity
  8
0
  6
Continuous
 62
     7
370
    25
100
AcDbLine
 10
131.0435055473
 20
79.9609752371
 30
0.0
 11
130.8093248584
 21
79.9609752371
 31
0.0
  0
LINE
  5
49A
330
1F
100
AcDbEntity
  8
0
  6
Continuous
 62
     7
370
    25
100
AcDbLine
 10
85.2194948771
 20
80.064533092
 30
0.0
 11
85.2194948771
 21
80.0620900466
 31
0.0
  0
LINE
  5
49B
330
1F
100
AcDbEntity
  8
0
  6
Continuous
 62
     7
370
    25
100
AcDbLine
 10
83.816105006
 20
80.0982424988
 30
0.0
 11
83.4881378987
 21
80.0982424988
 31
0.0
  0
LINE
  5
49C
330
1F
100
AcDbEntity
  8
0
  6
Continuous
 62
     7
370
    25
100
AcDbLine
 10
83.1906809189
 20
80.1006855442
 30
0.0
 11
83.1906809189
 21
80.0982424988
 31
0.0
  0
LINE
  5
49D
330
1F
100
AcDbEntity
  8
0
  6
Continuous
 62
     7
370
    25
100
AcDbLine
 10
84.0220375636
 20
80.1992582156
 30
0.0
 11
84.0220375636
 21
80.1968151702
 31
0.0
  0
ARC
  5
49E
330
1F
100
AcDbEntity
  8
0
  6
Continuous
 62
     7
370
    25
100
AcDbCircle
 10
124.466104708
 20
96.7209574058
 30
0.0
 40
15.00000000000001
100
AcDbArc
 50
229.6045172904
 51
310.3954827096
  0
ARC
  5
49F
330
1F
100
AcDbEntity
  8
0
  6
Continuous
 62
     7
370
    25
100
AcDbCircle
 10
92.466104708
 20
96.7209574058
 30
0.0
 40
15.00000000000001
100
AcDbArc
 50
229.6045172904
 51
310.3954827096
  0
ARC
  5
4A0
330
1F
100
AcDbEntity
  8
0
  6
Continuous
 62
     7
370
    25
100
AcDbCircle
 10
74.4122363562
 20
85.2209574058
 30
0.0
 40
0.1000000000000085
100
AcDbArc
 50
90.0
 51
179.0
  0
LINE
  5
4A1
330
1F
100
AcDbEntity
  8
0
  6
Continuous
 62
     7
370
    25
100
AcDbLine
 10
81.2660856822
 20
85.3209571912
 30
0.0
 11
82.6804010847
 21
85.3209571912
 31
0.0
  0
ARC
  5
4A2
330
1F
100
AcDbEntity
  8
0
  6
Continuous
 62
     7
370
    25
100
AcDbCircle
 10
114.6804008498
 20
85.2209574058
 30
0.0
 40
0.1000000000000085
100
AcDbArc
 50
49.6045172904
 51
90.0
  0
LINE
  5
4A3
330
1F
100
AcDbEntity
  8
0
  6
Continuous
 62
     7
370
    25
100
AcDbLine
 10
102.2518085965
 20
85.3209571912
 30
0.0
 11
103.6660867461
 21
85.3209571912
 31
0.0
  0
LINE
  5
4A4
330
1F
100
AcDbEntity
  8
0
  6
Continuous
 62
     7
370
    25
100
AcDbLine
 10
107.866086736
 20
85.3209571912
 30
0.0
 11
109.0660866999
 21
85.3209571912
 31
0.0
  0
LINE
  5
4A5
330
1F
100
AcDbEntity
  8
0
  6
Continuous
 62
     7
370
    25
100
AcDbLine
 10
113.2660868295
 20
85.3209571912
 30
0.0
 11
114.6804011145
 21
85.3209571912
 31
0.0
  0
ARC
  5
4A6
330
1F
100
AcDbEntity
  8
0
  6
Continuous
 62
     7
370
    25
100
AcDbCircle
 10
102.2518085661
 20
85.2209574058
 30
0.0
 40
0.1000000000000085
100
AcDbArc
 50
90.0
 51
130.3954827096
  0
ARC
  5
4A7
330
1F
100
AcDbEntity
  8
0
  6
Continuous
 62
     7
370
    25
100
AcDbCircle
 10
82.6804008498
 20
85.2209574058
 30
0.0
 40
0.1000000000000085
100
AcDbArc
 50
49.6045172904
 51
90.0
  0
LINE
  5
4A8
330
1F
100
AcDbEntity
  8
0
  6
Continuous
 62
     7
370
    25
100
AcDbLine
 10
134.2518075087
 20
85.3209571912
 30
0.0
 11
135.6660856583
 21
85.3209571912
 31
0.0
  0
ARC
  5
4A9
330
1F
100
AcDbEntity
  8
0
  6
Continuous
 62
     7
370
    25
100
AcDbCircle
 10
134.2518085661
 20
85.2209574058
 30
0.0
 40
0.1000000000000085
100
AcDbArc
 50
90.0
 51
130.3954827096
  0
ARC
  5
4AA
330
1F
100
AcDbEntity
  8
0
  6
Continuous
 62
     7
370
    25
100
AcDbCircle
 10
140.7199730597
 20
85.2209574058
 30
0.0
 40
0.1000000000000085
100
AcDbArc
 50
1.0
 51
90.0
  0
ARC
  5
4AB
330
1F
100
AcDbEntity
  8
0
  6
Continuous
 62
     7
370
    25
100
AcDbCircle
 10
92.466104708
 20
96.7209574058
 30
0.0
 40
15.00000000000001
100
AcDbArc
 50
310.3954827096
 51
313.8859834266
  0
ARC
  5
4AC
330
1F
100
AcDbEntity
  8
0
  6
Continuous
 62
     7
370
    25
100
AcDbCircle
 10
124.466104708
 20
96.7209574058
 30
0.0
 40
15.00000000000001
100
AcDbArc
 50
310.3954827096
 51
313.8859834266
  0
ARC
  5
4AD
330
1F
100
AcDbEntity
  8
0
  6
Continuous
 62
     7
370
    25
100
AcDbCircle
 10
124.466104708
 20
96.7209574058
 30
0.0
 40
15.00000000000001
100
AcDbArc
 50
226.1140165734
 51
229.6045172904
  0
ARC
  5
4AE
330
1F
100
AcDbEntity
  8
0
  6
Continuous
 62
     7
370
    25
100
AcDbCircle
 10
92.466104708
 20
96.7209574058
 30
0.0
 40
15.00000000000001
100
AcDbArc
 50
226.1140165734
 51
229.6045172904
  0
ARC
  5
4AF
330
1F
100
AcDbEntity
  8
0
  6
Continuous
 62
     7
370
    25
100
AcDbCircle
 10
108.466104708
 20
88.0209574058
 30
0.0
 40
0.6399999998573401
100
AcDbArc
 50
270.0
 51
339.6312416306
  0
ARC
  5
4B0
330
1F
100
AcDbEntity
  8
0
  6
Continuous
 62
     7
370
    25
100
AcDbCircle
 10
108.466104708
 20
88.0209574058
 30
0.0
 40
0.6399999998573557
100
AcDbArc
 50
20.3687583694
 51
159.640489831
  0
ARC
  5
4B1
330
1F
100
AcDbEntity
  8
0
  6
Continuous
 62
     7
370
    25
100
AcDbCircle
 10
108.466104708
 20
88.0209574058
 30
0.0
 40
0.6399999998573507
100
AcDbArc
 50
200.359510169
 51
270.0
  0
ARC
  5
4B2
330
1F
100
AcDbEntity
  8
0
  6
Continuous
 62
     7
370
    25
100
AcDbCircle
 10
84.7713012667
 20
88.7209574058
 30
0.0
 40
3.899999999999993
100
AcDbArc
 50
206.0027562528
 51
226.1140165734
  0
ARC
  5
4B3
330
1F
100
AcDbEntity
  8
0
  6
Continuous
 62
     7
370
    25
100
AcDbCircle
 10
100.1609081492
 20
88.7209574058
 30
0.0
 40
3.900000000000003
100
AcDbArc
 50
313.8859834266
 51
333.996039157
  0
ARC
  5
4B4
330
1F
100
AcDbEntity
  8
0
  6
Continuous
 62
     7
370
    25
100
AcDbCircle
 10
116.7713012667
 20
88.7209574058
 30
0.0
 40
3.899999999999995
100
AcDbArc
 50
206.0027562528
 51
226.1140165734
  0
ARC
  5
4B5
330
1F
100
AcDbEntity
  8
0
  6
Continuous
 62
     7
370
    25
100
AcDbCircle
 10
132.1609081492
 20
88.7209574058
 30
0.0
 40
3.900000000000003
100
AcDbArc
 50
313.8859834266
 51
333.996039157
  0
CIRCLE
  5
4B6
330
1F
100
AcDbEntity
  8
0
  6
Continuous
 62
     7
370
    25
100
AcDbCircle
 10
108.466104708
 20
88.0209574058
 30
0.0
 40
0.4400000000000119
  0
LINE
  5
4B7
330
1F
100
AcDbEntity
  8
0
  6
Continuous
 62
     7
370
    25
100
AcDbLine
 10
141.4661033728
 20
72.120957449
 30
0.0
 11
141.4661033728
 21
70.7209574058
 31
0.0
  0
LINE
  5
4B8
330
1F
100
AcDbEntity
  8
0
  6
Continuous
 62
     7
370
    25
100
AcDbLine
 10
140.9220589974
 20
72.6650046184
 30
0.0
 11
141.4661033728
 21
72.120957449
 31
0.0
  0
LINE
  5
4B9
330
1F
100
AcDbEntity
  8
0
  6
Continuous
 62
     7
370
    25
100
AcDbLine
 10
141.1647482493
 20
70.7209574058
 30
0.0
 11
141.4661033728
 21
70.7209574058
 31
0.0
  0
LINE
  5
4BA
330
1F
100
AcDbEntity
  8
0
  6
Continuous
 62
     7
370
    25
100
AcDbLine
 10
73.6661060431
 20
72.120957449
 30
0.0
 11
73.6661060431
 21
70.7209574058
 31
0.0
  0
LINE
  5
4BB
330
1F
100
AcDbEntity
  8
0
  6
Continuous
 62
     7
370
    25
100
AcDbLine
 10
74.2101504185
 20
72.6650046184
 30
0.0
 11
73.6661060431
 21
72.120957449
 31
0.0
  0
LINE
  5
4BC
330
1F
100
AcDbEntity
  8
0
  6
Continuous
 62
     7
370
    25
100
AcDbLine
 10
73.9674611666
 20
70.7209574058
 30
0.0
 11
73.6661060431
 21
70.7209574058
 31
0.0
  0
CIRCLE
  5
4BD
330
1F
100
AcDbEntity
  8
0
  6
Continuous
 62
     7
370
    25
100
AcDbCircle
 10
92.466104708
 20
88.7209574058
 30
0.0
 40
3.400000000000048
  0
CIRCLE
  5
4BE
330
1F
100
AcDbEntity
  8
0
  6
Continuous
 62
     7
370
    25
100
AcDbCircle
 10
92.466104708
 20
88.7209574058
 30
0.0
 40
3.199999999999989
  0
CIRCLE
  5
4BF
330
1F
100
AcDbEntity
  8
0
  6
Continuous
 62
     7
370
    25
100
AcDbCircle
 10
124.466104708
 20
88.7209574058
 30
0.0
 40
3.400000000000034
  0
CIRCLE
  5
4C0
330
1F
100
AcDbEntity
  8
0
  6
Continuous
 62
     7
370
    25
100
AcDbCircle
 10
124.466104708
 20
88.7209574058
 30
0.0
 40
3.199999999999989
  0
LINE
  5
4C1
330
1F
100
AcDbEntity
  8
0
  6
Continuous
 62
     7
370
    25
100
AcDbLine
 10
141.069860635
 20
78.9276616647
 30
0.0
 11
140.929882107
 21
78.9252186193
 31
0.0
  0
LINE
  5
4C2
330
1F
100
AcDbEntity
  8
0
  6
Continuous
 62
     7
370
    25
100
AcDbLine
 10
141.069860635
 20
78.9276616647
 30
0.0
 11
141.0496278384
 21
80.0868073477
 31
0.0
  0
LINE
  5
4C3
330
1F
100
AcDbEntity
  8
0
  6
Continuous
 62
     7
370
    25
100
AcDbLine
 10
141.0496278384
 20
80.0868073477
 30
0.0
 11
140.9096493103
 21
80.0843635573
 31
0.0
  0
LINE
  5
4C4
330
1F
100
AcDbEntity
  8
0
  6
Continuous
 62
     7
370
    25
100
AcDbLine
 10
74.0570707896
 20
78.6251651122
 30
0.0
 11
74.1970493176
 21
78.6227220668
 31
0.0
  0
LINE
  5
4C5
330
1F
100
AcDbEntity
  8
0
  6
Continuous
 62
     7
370
    25
100
AcDbLine
 10
74.060220895
 20
78.8056464865
 30
0.0
 11
74.0570707896
 21
78.6251651122
 31
0.0
  0
LINE
  5
4C6
330
1F
100
AcDbEntity
  8
0
  6
Continuous
 62
     7
370
    25
100
AcDbLine
 10
74.060220895
 20
78.8056464865
 30
0.0
 11
74.2001994231
 21
78.8032034411
 31
0.0
  0
LINE
  5
4C7
330
1F
100
AcDbEntity
  8
0
  6
Continuous
 62
     7
370
    25
100
AcDbLine
 10
74.0654124596
 20
79.1030587627
 30
0.0
 11
74.2053909876
 21
79.1006157174
 31
0.0
  0
LINE
  5
4C8
330
1F
100
AcDbEntity
  8
0
  6
Continuous
 62
     7
370
    25
100
AcDbLine
 10
74.0849776843
 20
80.2240746095
 30
0.0
 11
74.2249562123
 21
80.221630819
 31
0.0
  0
SPLINE
  5
4C9
330
1F
100
AcDbEntity
  8
0
  6
Continuous
 62
     7
370
    25
100
AcDbSpline
210
0.0
220
0.0
230
1.0
 70
    24
 71
     3
 72
    23
 73
    19
 74
     0
 42
0.000000001
 43
0.00000001
 40
0.0
 40
0.0
 40
0.0
 40
0.0
 40
0.0735666833915972
 40
0.1445177453506525
 40
0.2132365714237009
 40
0.2795183143298364
 40
0.3438225441282017
 40
0.4063043111681307
 40
0.4673330602149639
 40
0.5271331638973641
 40
0.5860013893732575
 40
0.6442487491502036
 40
0.7023215172384691
 40
0.7604334003523322
 40
0.8189090953434559
 40
0.8780673088932296
 40
0.9383876220348912
 40
1.0
 40
1.0
 40
1.0
 40
1.0
 10
74.0849788807631
 20
80.22407443162655
 30
0.0
 10
74.08442348855506
 20
80.19225603333655
 30
0.0
 10
74.08333245079184
 20
80.12975052174426
 30
0.0
 10
74.08172157725262
 20
80.0374636384921
 30
0.0
 10
74.08016921113547
 20
79.94852864320256
 30
0.0
 10
74.07867556134282
 20
79.86295750389297
 30
0.0
 10
74.07724434826874
 20
79.78096336179209
 30
0.0
 10
74.07586889568901
 20
79.70216373627564
 30
0.0
 10
74.07455512650257
 20
79.62689794999213
 30
0.0
 10
74.07329923962683
 20
79.55494823906788
 30
0.0
 10
74.0721029819593
 20
79.48641468319596
 30
0.0
 10
74.07096407877052
 20
79.42116696320869
 30
0.0
 10
74.06988775144133
 20
79.35950421181745
 30
0.0
 10
74.06886922236208
 20
79.30115271994715
 30
0.0
 10
74.06791047728197
 20
79.24622625109366
 30
0.0
 10
74.067010750821
 20
79.19468095666748
 30
0.0
 10
74.0661688107486
 20
79.14644624222424
 30
0.0
 10
74.06566570019909
 20
79.11762305814638
 30
0.0
 10
74.06541147930842
 20
79.10305875307408
 30
0.0
  0
LINE
  5
4CA
330
1F
100
AcDbEntity
  8
0
  6
Continuous
 62
     7
370
    25
100
AcDbLine
 10
74.0624828913
 20
78.9352873339
 30
0.0
 11
74.2024614193
 21
78.9328442885
 31
0.0
  0
LINE
  5
4CB
330
1F
100
AcDbEntity
  8
0
  6
Continuous
 62
     7
370
    25
100
AcDbLine
 10
74.0654124596
 20
79.1030587627
 30
0.0
 11
74.0624828913
 21
78.9352873339
 31
0.0
  0
LINE
  5
4CC
330
1F
100
AcDbEntity
  8
0
  6
Continuous
 62
     7
370
    25
100
AcDbLine
 10
141.0742415764
 20
78.676570393
 30
0.0
 11
141.0717232802
 21
78.82089857
 31
0.0
  0
LINE
  5
4CD
330
1F
100
AcDbEntity
  8
0
  6
Continuous
 62
     7
370
    25
100
AcDbLine
 10
141.0742415764
 20
78.676570393
 30
0.0
 11
140.9342630484
 21
78.6741266026
 31
0.0
  0
LINE
  5
4CE
330
1F
100
AcDbEntity
  8
0
  6
Continuous
 62
     7
370
    25
100
AcDbLine
 10
141.0717232802
 20
78.82089857
 30
0.0
 11
140.9317447522
 21
78.8184547796
 31
0.0
  0
LINE
  5
4CF
330
1F
100
AcDbEntity
  8
0
  6
Continuous
 62
     7
370
    25
100
AcDbLine
 10
140.997330723
 20
75.0609574838
 30
0.0
 11
141.2661059477
 21
75.0609574838
 31
0.0
  0
LINE
  5
4D0
330
1F
100
AcDbEntity
  8
0
  6
Continuous
 62
     7
370
    25
100
AcDbLine
 10
141.2661059477
 20
75.0609574838
 30
0.0
 11
141.2661059477
 21
74.2609573527
 31
0.0
  0
LINE
  5
4D1
330
1F
100
AcDbEntity
  8
0
  6
Continuous
 62
     7
370
    25
100
AcDbLine
 10
141.2661059477
 20
74.2609573527
 30
0.0
 11
141.2661059477
 21
72.3209574818
 31
0.0
  0
LINE
  5
4D2
330
1F
100
AcDbEntity
  8
0
  6
Continuous
 62
     7
370
    25
100
AcDbLine
 10
73.8661034682
 20
75.0609574838
 30
0.0
 11
74.1348786929
 21
75.0609574838
 31
0.0
  0
LINE
  5
4D3
330
1F
100
AcDbEntity
  8
0
  6
Continuous
 62
     7
370
    25
100
AcDbLine
 10
73.8661034682
 20
74.2609573527
 30
0.0
 11
73.8661034682
 21
75.0609574838
 31
0.0
  0
LINE
  5
4D4
330
1F
100
AcDbEntity
  8
0
  6
Continuous
 62
     7
370
    25
100
AcDbLine
 10
73.8661034682
 20
74.2609573527
 30
0.0
 11
73.8661034682
 21
72.3209574818
 31
0.0
  0
LINE
  5
4D5
330
1F
100
AcDbEntity
  8
0
  6
Continuous
 62
     7
370
    25
100
AcDbLine
 10
74.0619494297
 20
78.9047839119
 30
0.0
 11
74.2019279578
 21
78.9023408665
 31
0.0
  0
SPLINE
  5
4D6
330
1F
100
AcDbEntity
  8
0
  6
Continuous
 62
     7
370
    25
100
AcDbSpline
210
0.0
220
0.0
230
1.0
 70
    24
 71
     3
 72
    15
 73
    11
 74
     0
 42
0.000000001
 43
0.00000001
 40
0.0
 40
0.0
 40
0.0
 40
0.0
 40
0.0927205184294737
 40
0.1900426654195179
 40
0.2960396415772344
 40
0.4118287688157883
 40
0.5390239035058114
 40
0.6789552040343103
 40
0.8323791358377305
 40
1.0
 40
1.0
 40
1.0
 40
1.0
 10
74.0622168015199
 20
78.92003578514715
 30
0.0
 10
74.06205494226933
 20
78.91076287489233
 30
0.0
 10
74.06172319085202
 20
78.89175684892447
 30
0.0
 10
74.06131910760344
 20
78.86860693511575
 30
0.0
 10
74.06097418151789
 20
78.84884613291072
 30
0.0
 10
74.0606955538732
 20
78.8328835658362
 30
0.0
 10
74.06048284909672
 20
78.82069771735385
 30
0.0
 10
74.06032712909621
 20
78.81177652450066
 30
0.0
 10
74.06023416513851
 20
78.80645062292979
 30
0.0
 10
74.06022494291958
 20
78.8059222823603
 30
0.0
 10
74.06022012790206
 20
78.80564643019282
 30
0.0
  0
LINE
  5
4D7
330
1F
100
AcDbEntity
  8
0
  6
Continuous
 62
     7
370
    25
100
AcDbLine
 10
141.0717232802
 20
78.82089857
 30
0.0
 11
141.069860635
 21
78.9276616647
 31
0.0
  0
LINE
  5
4D8
330
1F
100
AcDbEntity
  8
0
  6
Continuous
 62
     7
370
    25
100
AcDbLine
 10
141.0466982701
 20
80.2545780315
 30
0.0
 11
140.9067197421
 21
80.2521349861
 31
0.0
  0
LINE
  5
4D9
330
1F
100
AcDbEntity
  8
0
  6
Continuous
 62
     7
370
    25
100
AcDbLine
 10
141.0496278384
 20
80.0868073477
 30
0.0
 11
141.0466982701
 21
80.2545780315
 31
0.0
  0
LINE
  5
4DA
330
1F
100
AcDbEntity
  8
0
  6
Continuous
 62
     7
370
    25
100
AcDbLine
 10
74.0856452563
 20
80.2622044458
 30
0.0
 11
74.2256237843
 21
80.2597606554
 31
0.0
  0
LINE
  5
4DB
330
1F
100
AcDbEntity
  8
0
  6
Continuous
 62
     7
370
    25
100
AcDbLine
 10
74.0564926245
 20
78.5921195521
 30
0.0
 11
74.1964711525
 21
78.5896765067
 31
0.0
  0
LINE
  5
4DC
330
1F
100
AcDbEntity
  8
0
  6
Continuous
 62
     7
370
    25
100
AcDbLine
 10
74.0568740942
 20
78.613946773
 30
0.0
 11
74.0564926245
 21
78.5921195521
 31
0.0
  0
LINE
  5
4DD
330
1F
100
AcDbEntity
  8
0
  6
Continuous
 62
     7
370
    25
100
AcDbLine
 10
141.0754515507
 20
78.6073716356
 30
0.0
 11
141.0742415764
 21
78.676570393
 31
0.0
  0
LINE
  5
4DE
330
1F
100
AcDbEntity
  8
0
  6
Continuous
 62
     7
370
    25
100
AcDbLine
 10
141.0754515507
 20
78.6073716356
 30
0.0
 11
140.9354700425
 21
78.6049278452
 31
0.0
  0
LINE
  5
4DF
330
1F
100
AcDbEntity
  8
0
  6
Continuous
 62
     7
370
    25
100
AcDbLine
 10
74.0558280327
 20
78.5539897158
 30
0.0
 11
74.1958065608
 21
78.5515466704
 31
0.0
  0
LINE
  5
4E0
330
1F
100
AcDbEntity
  8
0
  6
Continuous
 62
     7
370
    25
100
AcDbLine
 10
141.0464330294
 20
80.269830115
 30
0.0
 11
140.9064545014
 21
80.2673870697
 31
0.0
  0
LINE
  5
4E1
330
1F
100
AcDbEntity
  8
0
  6
Continuous
 62
     7
370
    25
100
AcDbLine
 10
141.0466982701
 20
80.2545780315
 30
0.0
 11
141.0464330294
 21
80.269830115
 31
0.0
  0
LINE
  5
4E2
330
1F
100
AcDbEntity
  8
0
  6
Continuous
 62
     7
370
    25
100
AcDbLine
 10
73.8661034682
 20
75.0609574838
 30
0.0
 11
73.8661034682
 21
75.1209573819
 31
0.0
  0
LINE
  5
4E3
330
1F
100
AcDbEntity
  8
0
  6
Continuous
 62
     7
370
    25
100
AcDbLine
 10
74.1533799746
 20
76.1209575458
 30
0.0
 11
73.8661034682
 21
76.1209575458
 31
0.0
  0
LINE
  5
4E4
330
1F
100
AcDbEntity
  8
0
  6
Continuous
 62
     7
370
    25
100
AcDbLine
 10
73.8661034682
 20
75.1209573819
 30
0.0
 11
73.8661034682
 21
76.1209575458
 31
0.0
  0
LINE
  5
4E5
330
1F
100
AcDbEntity
  8
0
  6
Continuous
 62
     7
370
    25
100
AcDbLine
 10
140.9788294413
 20
76.1209575458
 30
0.0
 11
141.2661059477
 21
76.1209575458
 31
0.0
  0
LINE
  5
4E6
330
1F
100
AcDbEntity
  8
0
  6
Continuous
 62
     7
370
    25
100
AcDbLine
 10
141.2661059477
 20
76.1209575458
 30
0.0
 11
141.2661059477
 21
75.1209573819
 31
0.0
  0
LINE
  5
4E7
330
1F
100
AcDbEntity
  8
0
  6
Continuous
 62
     7
370
    25
100
AcDbLine
 10
141.2661059477
 20
75.1209573819
 30
0.0
 11
141.2661059477
 21
75.0609574838
 31
0.0
  0
INSERT
  5
4FA
330
1F
100
AcDbEntity
  8
SLD-0
 62
    70
100
AcDbBlockReference
  2
SW_CENTERMARKSYMBOL_3
 10
92.466104708
 20
88.7209574058
 30
0.0
  0
ENDSEC
  0
SECTION
  2
OBJECTS
  0
DICTIONARY
  5
C
330
0
100
AcDbDictionary
281
     1
  3
ACAD_GROUP
350
D
  3
ACAD_LAYOUT
350
1A
  3
ACAD_MLINESTYLE
350
17
  3
ACAD_PLOTSETTINGS
350
19
  3
ACAD_PLOTSTYLENAME
350
E
  3
ACAD_SCALELIST
350
47
  0
DICTIONARY
  5
D
102
{ACAD_REACTORS
330
C
102
}
330
C
100
AcDbDictionary
281
     1
  0
DICTIONARY
  5
1A
102
{ACAD_REACTORS
330
C
102
}
330
C
100
AcDbDictionary
281
     1
  3
Layout1
350
1E
  3
Layout2
350
26
  3
Model
350
22
  0
DICTIONARY
  5
17
102
{ACAD_REACTORS
330
C
102
}
330
C
100
AcDbDictionary
281
     1
  3
Standard
350
18
  0
DICTIONARY
  5
19
102
{ACAD_REACTORS
330
C
102
}
330
C
100
AcDbDictionary
281
     1
  0
ACDBDICTIONARYWDFLT
  5
E
102
{ACAD_REACTORS
330
C
102
}
330
C
100
AcDbDictionary
281
     1
  3
Normal
350
F
100
AcDbDictionaryWithDefault
340
F
  0
DICTIONARY
  5
47
102
{ACAD_REACTORS
330
C
102
}
330
C
100
AcDbDictionary
281
     1
  3
A0
350
48
  3
A1
350
49
  3
A2
350
4A
  3
A3
350
4B
  3
A4
350
4C
  3
A5
350
4D
  3
A6
350
4E
  3
A7
350
4F
  3
A8
350
50
  3
A9
350
51
  3
B0
350
52
  3
B1
350
53
  3
B2
350
54
  3
B3
350
55
  3
B4
350
56
  3
B5
350
57
  3
B6
350
58
  3
B7
350
59
  3
B8
350
5A
  3
B9
350
5B
  3
C0
350
5C
  3
C1
350
5D
  3
C2
350
5E
  3
C3
350
5F
  3
C4
350
60
  3
C5
350
61
  3
C6
350
62
  3
C7
350
63
  3
C8
350
64
  3
C9
350
65
  3
D0
350
66
  3
D1
350
67
  3
D2
350
68
  0
LAYOUT
  5
1E
102
{ACAD_REACTORS
330
1A
102
}
330
1A
100
AcDbPlotSettings
  1

  2
none_device
  4

  6

 40
0.0
 41
0.0
 42
0.0
 43
0.0
 44
0.0
 45
0.0
 46
0.0
 47
0.0
 48
0.0
 49
0.0
140
0.0
141
0.0
142
1.0
143
1.0
 70
   688
 72
     1
 73
     0
 74
     5
  7

 75
    16
147
1.0
148
0.0
149
0.0
100
AcDbLayout
  1
Layout1
 70
     1
 71
     1
 10
0.0
 20
0.0
 11
420.0
 21
297.0
 12
0.0
 22
0.0
 32
0.0
 14
1.0000000000E+20
 24
1.0000000000E+20
 34
1.0000000000E+20
 15
-1.0000000000E+20
 25
-1.0000000000E+20
 35
-1.0000000000E+20
146
0.0
 13
0.0
 23
0.0
 33
0.0
 16
1.0
 26
0.0
 36
0.0
 17
0.0
 27
1.0
 37
0.0
 76
     0
330
1B
  0
LAYOUT
  5
26
102
{ACAD_REACTORS
330
1A
102
}
330
1A
100
AcDbPlotSettings
  1

  2
none_device
  4

  6

 40
0.0
 41
0.0
 42
0.0
 43
0.0
 44
0.0
 45
0.0
 46
0.0
 47
0.0
 48
0.0
 49
0.0
140
0.0
141
0.0
142
1.0
143
1.0
 70
   688
 72
     1
 73
     0
 74
     5
  7

 75
    16
147
1.0
148
0.0
149
0.0
100
AcDbLayout
  1
Layout2
 70
     1
 71
     2
 10
0.0
 20
0.0
 11
0.0
 21
0.0
 12
0.0
 22
0.0
 32
0.0
 14
0.0
 24
0.0
 34
0.0
 15
0.0
 25
0.0
 35
0.0
146
0.0
 13
0.0
 23
0.0
 33
0.0
 16
1.0
 26
0.0
 36
0.0
 17
0.0
 27
1.0
 37
0.0
 76
     0
330
23
  0
LAYOUT
  5
22
102
{ACAD_REACTORS
330
1A
102
}
330
1A
100
AcDbPlotSettings
  1

  2
none_device
  4
Letter_(8.50_x_11.00_Inches)
  6

 40
6.35
 41
6.35
 42
6.35000508
 43
6.35000508
 44
215.9
 45
279.4
 46
0.0
 47
0.0
 48
0.0
 49
0.0
140
0.0
141
0.0
142
1.0
143
1.0
 70
  1712
 72
     1
 73
     0
 74
     0
  7

 75
     0
147
1.0
148
0.0
149
0.0
100
AcDbLayout
  1
Model
 70
     1
 71
     0
 10
0.0
 20
0.0
 11
210.0
 21
297.0
 12
0.0
 22
0.0
 32
0.0
 14
0.0
 24
0.0
 34
0.0
 15
210.0
 25
297.0
 35
0.0
146
0.0
 13
0.0
 23
0.0
 33
0.0
 16
1.0
 26
0.0
 36
0.0
 17
0.0
 27
1.0
 37
0.0
 76
     0
330
1F
331
29
  0
MLINESTYLE
  5
18
102
{ACAD_REACTORS
330
17
102
}
330
17
100
AcDbMlineStyle
  2
Standard
 70
     0
  3

 62
   256
 51
90.0
 52
90.0
 71
     2
 49
0.5
 62
   256
  6
BYLAYER
 49
-0.5
 62
   256
  6
BYLAYER
  0
ACDBPLACEHOLDER
  5
F
102
{ACAD_REACTORS
330
E
102
}
330
E
  0
SCALE
  5
48
102
{ACAD_REACTORS
330
47
102
}
330
47
100
AcDbScale
 70
     0
300
1:1
140
1.0
141
1.0
290
     1
  0
SCALE
  5
49
102
{ACAD_REACTORS
330
47
102
}
330
47
100
AcDbScale
 70
     0
300
1:2
140
1.0
141
2.0
290
     0
  0
SCALE
  5
4A
102
{ACAD_REACTORS
330
47
102
}
330
47
100
AcDbScale
 70
     0
300
1:4
140
1.0
141
4.0
290
     0
  0
SCALE
  5
4B
102
{ACAD_REACTORS
330
47
102
}
330
47
100
AcDbScale
 70
     0
300
1:5
140
1.0
141
5.0
290
     0
  0
SCALE
  5
4C
102
{ACAD_REACTORS
330
47
102
}
330
47
100
AcDbScale
 70
     0
300
1:8
140
1.0
141
8.0
290
     0
  0
SCALE
  5
4D
102
{ACAD_REACTORS
330
47
102
}
330
47
100
AcDbScale
 70
     0
300
1:10
140
1.0
141
10.0
290
     0
  0
SCALE
  5
4E
102
{ACAD_REACTORS
330
47
102
}
330
47
100
AcDbScale
 70
     0
300
1:16
140
1.0
141
16.0
290
     0
  0
SCALE
  5
4F
102
{ACAD_REACTORS
330
47
102
}
330
47
100
AcDbScale
 70
     0
300
1:20
140
1.0
141
20.0
290
     0
  0
SCALE
  5
50
102
{ACAD_REACTORS
330
47
102
}
330
47
100
AcDbScale
 70
     0
300
1:30
140
1.0
141
30.0
290
     0
  0
SCALE
  5
51
102
{ACAD_REACTORS
330
47
102
}
330
47
100
AcDbScale
 70
     0
300
1:40
140
1.0
141
40.0
290
     0
  0
SCALE
  5
52
102
{ACAD_REACTORS
330
47
102
}
330
47
100
AcDbScale
 70
     0
300
1:50
140
1.0
141
50.0
290
     0
  0
SCALE
  5
53
102
{ACAD_REACTORS
330
47
102
}
330
47
100
AcDbScale
 70
     0
300
1:100
140
1.0
141
100.0
290
     0
  0
SCALE
  5
54
102
{ACAD_REACTORS
330
47
102
}
330
47
100
AcDbScale
 70
     0
300
2:1
140
2.0
141
1.0
290
     0
  0
SCALE
  5
55
102
{ACAD_REACTORS
330
47
102
}
330
47
100
AcDbScale
 70
     0
300
4:1
140
4.0
141
1.0
290
     0
  0
SCALE
  5
56
102
{ACAD_REACTORS
330
47
102
}
330
47
100
AcDbScale
 70
     0
300
8:1
140
8.0
141
1.0
290
     0
  0
SCALE
  5
57
102
{ACAD_REACTORS
330
47
102
}
330
47
100
AcDbScale
 70
     0
300
10:1
140
10.0
141
1.0
290
     0
  0
SCALE
  5
58
102
{ACAD_REACTORS
330
47
102
}
330
47
100
AcDbScale
 70
     0
300
100:1
140
100.0
141
1.0
290
     0
  0
SCALE
  5
59
102
{ACAD_REACTORS
330
47
102
}
330
47
100
AcDbScale
 70
     0
300
1/128" = 1'-0"
140
0.0078125
141
12.0
290
     0
  0
SCALE
  5
5A
102
{ACAD_REACTORS
330
47
102
}
330
47
100
AcDbScale
 70
     0
300
1/64" = 1'-0"
140
0.015625
141
12.0
290
     0
  0
SCALE
  5
5B
102
{ACAD_REACTORS
330
47
102
}
330
47
100
AcDbScale
 70
     0
300
1/32" = 1'-0"
140
0.03125
141
12.0
290
     0
  0
SCALE
  5
5C
102
{ACAD_REACTORS
330
47
102
}
330
47
100
AcDbScale
 70
     0
300
1/16" = 1'-0"
140
0.0625
141
12.0
290
     0
  0
SCALE
  5
5D
102
{ACAD_REACTORS
330
47
102
}
330
47
100
AcDbScale
 70
     0
300
3/32" = 1'-0"
140
0.09375
141
12.0
290
     0
  0
SCALE
  5
5E
102
{ACAD_REACTORS
330
47
102
}
330
47
100
AcDbScale
 70
     0
300
1/8" = 1'-0"
140
0.125
141
12.0
290
     0
  0
SCALE
  5
5F
102
{ACAD_REACTORS
330
47
102
}
330
47
100
AcDbScale
 70
     0
300
3/16" = 1'-0"
140
0.1875
141
12.0
290
     0
  0
SCALE
  5
60
102
{ACAD_REACTORS
330
47
102
}
330
47
100
AcDbScale
 70
     0
300
1/4" = 1'-0"
140
0.25
141
12.0
290
     0
  0
SCALE
  5
61
102
{ACAD_REACTORS
330
47
102
}
330
47
100
AcDbScale
 70
     0
300
3/8" = 1'-0"
140
0.375
141
12.0
290
     0
  0
SCALE
  5
62
102
{ACAD_REACTORS
330
47
102
}
330
47
100
AcDbScale
 70
     0
300
1/2" = 1'-0"
140
0.5
141
12.0
290
     0
  0
SCALE
  5
63
102
{ACAD_REACTORS
330
47
102
}
330
47
100
AcDbScale
 70
     0
300
3/4" = 1'-0"
140
0.75
141
12.0
290
     0
  0
SCALE
  5
64
102
{ACAD_REACTORS
330
47
102
}
330
47
100
AcDbScale
 70
     0
300
1" = 1'-0"
140
1.0
141
12.0
290
     0
  0
SCALE
  5
65
102
{ACAD_REACTORS
330
47
102
}
330
47
100
AcDbScale
 70
     0
300
1-1/2" = 1'-0"
140
1.5
141
12.0
290
     0
  0
SCALE
  5
66
102
{ACAD_REACTORS
330
47
102
}
330
47
100
AcDbScale
 70
     0
300
3" = 1'-0"
140
3.0
141
12.0
290
     0
  0
SCALE
  5
67
102
{ACAD_REACTORS
330
47
102
}
330
47
100
AcDbScale
 70
     0
300
6" = 1'-0"
140
6.0
141
12.0
290
     0
  0
SCALE
  5
68
102
{ACAD_REACTORS
330
47
102
}
330
47
100
AcDbScale
 70
     0
300
1'-0" = 1'-0"
140
12.0
141
12.0
290
     0
  0
ENDSEC
  0
EOF
