  0
SECTION
  2
HEADER
  9
$ACADVER
  1
AC1015
  9
$ACADMAINTVER
 70
     6
  9
$DWGCODEPAGE
  3
DOS932
  9
$INSBASE
 10
0.0
 20
0.0
 30
0.0
  9
$EXTMIN
 10
0.0
 20
0.0
 30
0.0
  9
$EXTMAX
 10
1117.6
 20
863.6
 30
0.0
  9
$LIMMIN
 10
0.0
 20
0.0
  9
$LIMMAX
 10
1117.6
 20
863.6
  9
$ORTHOMODE
 70
     0
  9
$REGENMODE
 70
     1
  9
$FILLMODE
 70
     1
  9
$QTEXTMODE
 70
     0
  9
$MIRRTEXT
 70
     1
  9
$LTSCALE
 40
1.0
  9
$ATTMODE
 70
     1
  9
$TEXTSIZE
 40
3.5
  9
$TRACEWID
 40
1.0
  9
$TEXTSTYLE
  7
Standard
  9
$CLAYER
  8
0
  9
$CELTYPE
  6
ByLayer
  9
$CECOLOR
 62
   256
  9
$CELTSCALE
 40
1.0
  9
$DISPSILH
 70
     0
  9
$DIMSCALE
 40
1.0
  9
$DIMASZ
 40
6.0
  9
$DIMEXO
 40
1.0
  9
$DIMDLI
 40
3.75
  9
$DIMRND
 40
0.0
  9
$DIMDLE
 40
0.0
  9
$DIMEXE
 40
1.0
  9
$DIMTP
 40
0.0
  9
$DIMTM
 40
0.0
  9
$DIMTXT
 40
3.5
  9
$DIMCEN
 40
2.5
  9
$DIMTSZ
 40
0.0
  9
$DIMTOL
 70
     0
  9
$DIMLIM
 70
     0
  9
$DIMTIH
 70
     1
  9
$DIMTOH
 70
     1
  9
$DIMSE1
 70
     0
  9
$DIMSE2
 70
     0
  9
$DIMTAD
 70
     1
  9
$DIMZIN
 70
     1
  9
$DIMBLK
  1

  9
$DIMASO
 70
     1
  9
$DIMSHO
 70
     1
  9
$DIMPOST
  1

  9
$DIMAPOST
  1

  9
$DIMALT
 70
     0
  9
$DIMALTD
 70
     3
  9
$DIMALTF
 40
0.0393700787
  9
$DIMLFAC
 40
1.0
  9
$DIMTOFL
 70
     1
  9
$DIMTVP
 40
0.0
  9
$DIMTIX
 70
     0
  9
$DIMSOXD
 70
     0
  9
$DIMSAH
 70
     0
  9
$DIMBLK1
  1

  9
$DIMBLK2
  1

  9
$DIMSTYLE
  2
ISO-25
  9
$DIMCLRD
 70
     0
  9
$DIMCLRE
 70
     0
  9
$DIMCLRT
 70
     0
  9
$DIMTFAC
 40
1.0
  9
$DIMGAP
 40
1.524
  9
$DIMJUST
 70
     0
  9
$DIMSD1
 70
     0
  9
$DIMSD2
 70
     0
  9
$DIMTOLJ
 70
     0
  9
$DIMTZIN
 70
     1
  9
$DIMALTZ
 70
     0
  9
$DIMALTTZ
 70
     0
  9
$DIMUPT
 70
     0
  9
$DIMDEC
 70
     3
  9
$DIMTDEC
 70
     3
  9
$DIMALTU
 70
     2
  9
$DIMALTTD
 70
     3
  9
$DIMTXSTY
  7
Standard
  9
$DIMAUNIT
 70
     0
  9
$DIMADEC
 70
     0
  9
$DIMALTRND
 40
0.0
  9
$DIMAZIN
 70
     0
  9
$DIMDSEP
 70
    44
  9
$DIMATFIT
 70
     3
  9
$DIMFRAC
 70
     0
  9
$DIMLDRBLK
  1

  9
$DIMLUNIT
 70
     2
  9
$DIMLWD
 70
    -2
  9
$DIMLWE
 70
    -2
  9
$DIMTMOVE
 70
     0
  9
$LUNITS
 70
     2
  9
$LUPREC
 70
     3
  9
$SKETCHINC
 40
1.0
  9
$FILLETRAD
 40
10.0
  9
$AUNITS
 70
     0
  9
$AUPREC
 70
     0
  9
$MENU
  1
.
  9
$ELEVATION
 40
0.0
  9
$PELEVATION
 40
0.0
  9
$THICKNESS
 40
0.0
  9
$LIMCHECK
 70
     0
  9
$CHAMFERA
 40
10.0
  9
$CHAMFERB
 40
10.0
  9
$CHAMFERC
 40
20.0
  9
$CHAMFERD
 40
0.0
  9
$SKPOLY
 70
     0
  9
$TDCREATE
 40
2456273.573883276
  9
$TDUCREATE
 40
2456273.198883276
  9
$TDUPDATE
 40
2456273.573883287
  9
$TDUUPDATE
 40
2456273.198883287
  9
$TDINDWG
 40
0.0000000116
  9
$TDUSRTIMER
 40
0.0000000116
  9
$USRTIMER
 70
     1
  9
$ANGBASE
 50
0.0
  9
$ANGDIR
 70
     0
  9
$PDMODE
 70
     0
  9
$PDSIZE
 40
-1.0
  9
$PLINEWID
 40
0.0
  9
$SPLFRAME
 70
     0
  9
$SPLINETYPE
 70
     6
  9
$SPLINESEGS
 70
     8
  9
$HANDSEED
  5
168
  9
$SURFTAB1
 70
     6
  9
$SURFTAB2
 70
     6
  9
$SURFTYPE
 70
     6
  9
$SURFU
 70
     6
  9
$SURFV
 70
     6
  9
$UCSBASE
  2

  9
$UCSNAME
  2

  9
$UCSORG
 10
0.0
 20
0.0
 30
0.0
  9
$UCSXDIR
 10
1.0
 20
0.0
 30
0.0
  9
$UCSYDIR
 10
0.0
 20
1.0
 30
0.0
  9
$UCSORTHOREF
  2

  9
$UCSORTHOVIEW
 70
     0
  9
$UCSORGTOP
 10
0.0
 20
0.0
 30
0.0
  9
$UCSORGBOTTOM
 10
0.0
 20
0.0
 30
0.0
  9
$UCSORGLEFT
 10
0.0
 20
0.0
 30
0.0
  9
$UCSORGRIGHT
 10
0.0
 20
0.0
 30
0.0
  9
$UCSORGFRONT
 10
0.0
 20
0.0
 30
0.0
  9
$UCSORGBACK
 10
0.0
 20
0.0
 30
0.0
  9
$PUCSBASE
  2

  9
$PUCSNAME
  2

  9
$PUCSORG
 10
0.0
 20
0.0
 30
0.0
  9
$PUCSXDIR
 10
1.0
 20
0.0
 30
0.0
  9
$PUCSYDIR
 10
0.0
 20
1.0
 30
0.0
  9
$PUCSORTHOREF
  2

  9
$PUCSORTHOVIEW
 70
     0
  9
$PUCSORGTOP
 10
0.0
 20
0.0
 30
0.0
  9
$PUCSORGBOTTOM
 10
0.0
 20
0.0
 30
0.0
  9
$PUCSORGLEFT
 10
0.0
 20
0.0
 30
0.0
  9
$PUCSORGRIGHT
 10
0.0
 20
0.0
 30
0.0
  9
$PUCSORGFRONT
 10
0.0
 20
0.0
 30
0.0
  9
$PUCSORGBACK
 10
0.0
 20
0.0
 30
0.0
  9
$USERI1
 70
     0
  9
$USERI2
 70
     0
  9
$USERI3
 70
     0
  9
$USERI4
 70
     0
  9
$USERI5
 70
     0
  9
$USERR1
 40
0.0
  9
$USERR2
 40
0.0
  9
$USERR3
 40
0.0
  9
$USERR4
 40
0.0
  9
$USERR5
 40
0.0
  9
$WORLDVIEW
 70
     1
  9
$SHADEDGE
 70
     3
  9
$SHADEDIF
 70
    70
  9
$TILEMODE
 70
     1
  9
$MAXACTVP
 70
    64
  9
$PINSBASE
 10
0.0
 20
0.0
 30
0.0
  9
$PLIMCHECK
 70
     0
  9
$PEXTMIN
 10
1.0000000000E+20
 20
1.0000000000E+20
 30
1.0000000000E+20
  9
$PEXTMAX
 10
-1.0000000000E+20
 20
-1.0000000000E+20
 30
-1.0000000000E+20
  9
$PLIMMIN
 10
0.0
 20
0.0
  9
$PLIMMAX
 10
420.0
 20
297.0
  9
$UNITMODE
 70
     0
  9
$VISRETAIN
 70
     1
  9
$PLINEGEN
 70
     0
  9
$PSLTSCALE
 70
     1
  9
$TREEDEPTH
 70
  3020
  9
$CMLSTYLE
  2
Standard
  9
$CMLJUST
 70
     0
  9
$CMLSCALE
 40
20.0
  9
$PROXYGRAPHICS
 70
     1
  9
$MEASUREMENT
 70
     1
  9
$CELWEIGHT
370
    -1
  9
$ENDCAPS
280
     0
  9
$JOINSTYLE
280
     0
  9
$LWDISPLAY
290
     1
  9
$INSUNITS
 70
     4
  9
$HYPERLINKBASE
  1

  9
$STYLESHEET
  1

  9
$XEDIT
290
     1
  9
$CEPSNTYPE
380
     0
  9
$PSTYLEMODE
290
     1
  9
$FINGERPRINTGUID
  2
{6A9A2294-2695-4109-B195-FEBB5F12D18C}
  9
$VERSIONGUID
  2
{FAEB1C32-E019-11D5-929B-00C0DF256EC4}
  9
$EXTNAMES
290
     1
  9
$PSVPSCALE
 40
0.0
  9
$OLESTARTUP
290
     0
  0
ENDSEC
  0
SECTION
  2
CLASSES
  0
CLASS
  1
ACDBDICTIONARYWDFLT
  2
AcDbDictionaryWithDefault
  3
ObjectDBX Classes
 90
        0
280
     0
281
     0
  0
CLASS
  1
VISUALSTYLE
  2
AcDbVisualStyle
  3
ObjectDBX Classes
 90
     4095
280
     0
281
     0
  0
CLASS
  1
MATERIAL
  2
AcDbMaterial
  3
ObjectDBX Classes
 90
     1153
280
     0
281
     0
  0
CLASS
  1
ACDBPLACEHOLDER
  2
AcDbPlaceHolder
  3
ObjectDBX Classes
 90
        0
280
     0
281
     0
  0
CLASS
  1
LAYOUT
  2
AcDbLayout
  3
ObjectDBX Classes
 90
        0
280
     0
281
     0
  0
ENDSEC
  0
SECTION
  2
TABLES
  0
TABLE
  2
VPORT
  5
8
330
0
100
AcDbSymbolTable
 70
     1
  0
VPORT
  5
29
330
8
100
AcDbSymbolTableRecord
100
AcDbViewportTableRecord
  2
*Active
 70
     0
 10
0.0
 20
0.0
 11
1.0
 21
1.0
 12
558.8
 22
431.8
 13
0.0
 23
0.0
 14
10.0
 24
10.0
 15
10.0
 25
10.0
 16
0.0
 26
0.0
 36
1.0
 17
0.0
 27
0.0
 37
0.0
 40
863.6
 41
1.2941176471
 42
50.0
 43
0.0
 44
0.0
 50
0.0
 51
0.0
 71
     0
 72
  2000
 73
     1
 74
     3
 75
     0
 76
     0
 77
     0
 78
     0
281
     0
 65
     1
110
0.0
120
0.0
130
0.0
111
1.0
121
0.0
131
0.0
112
0.0
122
1.0
132
0.0
 79
     0
146
0.0
  0
ENDTAB
  0
TABLE
  2
LTYPE
  5
5
330
0
100
AcDbSymbolTable
 70
     6
  0
LTYPE
  5
14
330
5
100
AcDbSymbolTableRecord
100
AcDbLinetypeTableRecord
  2
ByBlock
 70
     0
  3

 72
    65
 73
     0
 40
0.0
  0
LTYPE
  5
15
330
5
100
AcDbSymbolTableRecord
100
AcDbLinetypeTableRecord
  2
ByLayer
 70
     0
  3

 72
    65
 73
     0
 40
0.0
  0
LTYPE
  5
16
330
5
100
AcDbSymbolTableRecord
100
AcDbLinetypeTableRecord
  2
Continuous
 70
     0
  3
Solid line
 72
    65
 73
     0
 40
0.0
  0
LTYPE
  5
3F
330
5
100
AcDbSymbolTableRecord
100
AcDbLinetypeTableRecord
  2
HIDDEN
 70
     0
  3
Hidden __ __ __ __ __ __ __ __ __ __ __ __ __ __
 72
    65
 73
     2
 40
1.905
 49
1.27
 74
     0
 49
-0.635
 74
     0
  0
LTYPE
  5
40
330
5
100
AcDbSymbolTableRecord
100
AcDbLinetypeTableRecord
  2
PHANTOM
 70
     0
  3
Phantom ______  __  __  ______  __  __  ______
 72
    65
 73
     6
 40
12.7
 49
6.35
 74
     0
 49
-1.27
 74
     0
 49
1.27
 74
     0
 49
-1.27
 74
     0
 49
1.27
 74
     0
 49
-1.27
 74
     0
  0
LTYPE
  5
41
330
5
100
AcDbSymbolTableRecord
100
AcDbLinetypeTableRecord
  2
CENTER
 70
     0
  3
Center ____ _ ____ _ ____ _ ____ _ ____ _ ____
 72
    65
 73
     4
 40
10.16
 49
6.35
 74
     0
 49
-1.27
 74
     0
 49
1.27
 74
     0
 49
-1.27
 74
     0
  0
LTYPE
  5
42
330
5
100
AcDbSymbolTableRecord
100
AcDbLinetypeTableRecord
  2
CENTERX2
 70
     0
  3
Center (2x) ________  __  ________  __  _____
 72
    65
 73
     4
 40
20.32
 49
12.7
 74
     0
 49
-2.54
 74
     0
 49
2.54
 74
     0
 49
-2.54
 74
     0
  0
LTYPE
  5
43
330
5
100
AcDbSymbolTableRecord
100
AcDbLinetypeTableRecord
  2
DOT2
 70
     0
  3
Dot (.5x) ........................................
 72
    65
 73
     2
 40
0.635
 49
0.0
 74
     0
 49
-0.635
 74
     0
  0
ENDTAB
  0
TABLE
  2
LAYER
  5
2
330
0
100
AcDbSymbolTable
 70
     3
  0
LAYER
  5
10
330
2
100
AcDbSymbolTableRecord
100
AcDbLayerTableRecord
  2
0
 70
     0
 62
     7
  6
Continuous
370
    -3
390
F
  0
LAYER
  5
44
330
2
100
AcDbSymbolTableRecord
100
AcDbLayerTableRecord
  2
SLD-0
 70
     0
 62
     3
  6
Continuous
370
    -3
390
F
  0
LAYER
  5
45
330
2
100
AcDbSymbolTableRecord
100
AcDbLayerTableRecord
  2
1
 70
     0
 62
  -179
  6
Continuous
370
    -3
390
F
  0
ENDTAB
  0
TABLE
  2
STYLE
  5
3
330
0
100
AcDbSymbolTable
 70
     1
  0
STYLE
  5
11
330
3
100
AcDbSymbolTableRecord
100
AcDbTextStyleTableRecord
  2
Standard
 70
     0
 40
0.0
 41
1.0
 50
0.0
 71
     0
 42
2.5
  3
txt
  4
bigfont
  0
ENDTAB
  0
TABLE
  2
VIEW
  5
6
330
0
100
AcDbSymbolTable
 70
     0
  0
ENDTAB
  0
TABLE
  2
UCS
  5
7
330
0
100
AcDbSymbolTable
 70
     0
  0
ENDTAB
  0
TABLE
  2
APPID
  5
9
330
0
100
AcDbSymbolTable
 70
     1
  0
APPID
  5
12
330
9
100
AcDbSymbolTableRecord
100
AcDbRegAppTableRecord
  2
ACAD
 70
     0
  0
ENDTAB
  0
TABLE
  2
DIMSTYLE
  5
A
330
0
100
AcDbSymbolTable
 70
     1
100
AcDbDimStyleTable
  0
DIMSTYLE
105
27
330
A
100
AcDbSymbolTableRecord
100
AcDbDimStyleTableRecord
  2
ISO-25
 70
     0
 41
2.5
 42
0.625
 43
3.75
 44
1.25
 73
     0
 74
     0
 77
     1
 78
     8
140
2.5
141
2.5
143
0.0393700787
147
0.625
171
     3
172
     1
178
     0
271
     2
272
     2
274
     3
278
    44
283
     0
284
     8
340
11
  0
ENDTAB
  0
TABLE
  2
BLOCK_RECORD
  5
1
330
0
100
AcDbSymbolTable
 70
     1
  0
BLOCK_RECORD
  5
1F
330
1
100
AcDbSymbolTableRecord
100
AcDbBlockTableRecord
  2
*Model_Space
340
22
  0
BLOCK_RECORD
  5
1B
330
1
100
AcDbSymbolTableRecord
100
AcDbBlockTableRecord
  2
*Paper_Space
340
1E
  0
BLOCK_RECORD
  5
23
330
1
100
AcDbSymbolTableRecord
100
AcDbBlockTableRecord
  2
*Paper_Space0
340
26
  0
ENDTAB
  0
ENDSEC
  0
SECTION
  2
BLOCKS
  0
BLOCK
  5
20
330
1F
100
AcDbEntity
  8
0
100
AcDbBlockBegin
  2
*Model_Space
 70
     0
 10
0.0
 20
0.0
 30
0.0
  3
*Model_Space
  1

  0
ENDBLK
  5
21
330
1F
100
AcDbEntity
  8
0
100
AcDbBlockEnd
  0
BLOCK
  5
1C
330
1B
100
AcDbEntity
 67
     1
  8
0
100
AcDbBlockBegin
  2
*Paper_Space
 70
     0
 10
0.0
 20
0.0
 30
0.0
  3
*Paper_Space
  1

  0
ENDBLK
  5
1D
330
1B
100
AcDbEntity
 67
     1
  8
0
100
AcDbBlockEnd
  0
BLOCK
  5
24
330
23
100
AcDbEntity
  8
0
100
AcDbBlockBegin
  2
*Paper_Space0
 70
     0
 10
0.0
 20
0.0
 30
0.0
  3
*Paper_Space0
  1

  0
ENDBLK
  5
25
330
23
100
AcDbEntity
  8
0
100
AcDbBlockEnd
  0
ENDSEC
  0
SECTION
  2
ENTITIES
  0
LINE
  5
46
330
1F
100
AcDbEntity
  8
SLD-0
  6
Continuous
 62
     3
100
AcDbLine
 10
526.5454290907
 20
453.8358245621
 30
0.0
 11
526.5454290907
 21
563.7358245621
 31
0.0
  0
LINE
  5
47
330
1F
100
AcDbEntity
  8
SLD-0
  6
HIDDEN
 62
     3
100
AcDbLine
 10
502.0454290907
 20
217.0166867959
 30
0.0
 11
493.5454290907
 21
217.0166867959
 31
0.0
  0
LINE
  5
48
330
1F
100
AcDbEntity
  8
SLD-0
  6
HIDDEN
 62
     3
100
AcDbLine
 10
502.0454290907
 20
218.5166867959
 30
0.0
 11
493.5454290907
 21
218.5166867959
 31
0.0
  0
LINE
  5
49
330
1F
100
AcDbEntity
  8
SLD-0
  6
HIDDEN
 62
     3
100
AcDbLine
 10
502.0454290907
 20
232.5166867959
 30
0.0
 11
493.5454290907
 21
232.5166867959
 31
0.0
  0
LINE
  5
4A
330
1F
100
AcDbEntity
  8
SLD-0
  6
HIDDEN
 62
     3
100
AcDbLine
 10
502.0454290907
 20
234.0166867959
 30
0.0
 11
493.5454290907
 21
234.0166867959
 31
0.0
  0
LINE
  5
4B
330
1F
100
AcDbEntity
  8
SLD-0
  6
CENTERX2
 62
     4
100
AcDbLine
 10
564.5454290907
 20
417.3704176843
 30
0.0
 11
564.5454290907
 21
709.8505710909
 31
0.0
  0
LINE
  5
4C
330
1F
100
AcDbEntity
  8
SLD-0
  6
Continuous
 62
     3
100
AcDbLine
 10
581.5454290907
 20
465.8358245621
 30
0.0
 11
581.5454290907
 21
469.8358245621
 31
0.0
  0
LINE
  5
4D
330
1F
100
AcDbEntity
  8
SLD-0
  6
Continuous
 62
     3
100
AcDbLine
 10
581.5454290907
 20
469.8358245621
 30
0.0
 11
589.5454290907
 21
477.8358245621
 31
0.0
  0
LINE
  5
4E
330
1F
100
AcDbEntity
  8
SLD-0
  6
Continuous
 62
     3
100
AcDbLine
 10
589.5454290907
 20
477.8358245621
 30
0.0
 11
594.5454290907
 21
477.8358245621
 31
0.0
  0
LINE
  5
4F
330
1F
100
AcDbEntity
  8
SLD-0
  6
Continuous
 62
     3
100
AcDbLine
 10
581.5454290907
 20
465.8358245621
 30
0.0
 11
594.5454290907
 21
465.8358245621
 31
0.0
  0
LINE
  5
50
330
1F
100
AcDbEntity
  8
SLD-0
  6
Continuous
 62
     3
100
AcDbLine
 10
547.5454290907
 20
469.8358245621
 30
0.0
 11
539.5454290907
 21
477.8358245621
 31
0.0
  0
LINE
  5
51
330
1F
100
AcDbEntity
  8
SLD-0
  6
Continuous
 62
     3
100
AcDbLine
 10
539.5454290907
 20
477.8358245621
 30
0.0
 11
534.5454290907
 21
477.8358245621
 31
0.0
  0
LINE
  5
52
330
1F
100
AcDbEntity
  8
SLD-0
  6
Continuous
 62
     3
100
AcDbLine
 10
547.5454290907
 20
465.8358245621
 30
0.0
 11
534.5454290907
 21
465.8358245621
 31
0.0
  0
LINE
  5
53
330
1F
100
AcDbEntity
  8
SLD-0
  6
Continuous
 62
     3
100
AcDbLine
 10
547.5454290907
 20
465.8358245621
 30
0.0
 11
547.5454290907
 21
469.8358245621
 31
0.0
  0
LINE
  5
54
330
1F
100
AcDbEntity
  8
SLD-0
  6
CENTERX2
 62
     4
100
AcDbLine
 10
508.0595934952
 20
282.0025223914
 30
0.0
 11
522.6497430633
 21
267.4123728234
 31
0.0
  0
LINE
  5
55
330
1F
100
AcDbEntity
  8
SLD-0
  6
CENTERX2
 62
     4
100
AcDbLine
 10
524.4596165813
 20
185.4308742865
 30
0.0
 11
509.2230679818
 21
170.194325687
 31
0.0
  0
LINE
  5
56
330
1F
100
AcDbEntity
  8
SLD-0
  6
CENTERX2
 62
     4
100
AcDbLine
 10
604.6312416001
 20
265.6024993053
 30
0.0
 11
619.8677901997
 21
280.8390479049
 31
0.0
  0
LINE
  5
57
330
1F
100
AcDbEntity
  8
SLD-0
  6
Continuous
 62
     3
100
AcDbLine
 10
495.5454290907
 20
210.5166867959
 30
0.0
 11
499.0454290907
 21
210.5166867959
 31
0.0
  0
LINE
  5
58
330
1F
100
AcDbEntity
  8
SLD-0
  6
Continuous
 62
     3
100
AcDbLine
 10
495.5454290907
 20
240.5166867959
 30
0.0
 11
499.0454290907
 21
240.5166867959
 31
0.0
  0
LINE
  5
59
330
1F
100
AcDbEntity
  8
SLD-0
  6
Continuous
 62
     3
100
AcDbLine
 10
493.5454290907
 20
212.5166867959
 30
0.0
 11
493.5454290907
 21
238.5166867959
 31
0.0
  0
LINE
  5
5A
330
1F
100
AcDbEntity
  8
SLD-0
  6
Continuous
 62
     3
100
AcDbLine
 10
523.0876192113
 20
163.0166867959
 30
0.0
 11
606.0032389702
 21
163.0166867959
 31
0.0
  0
LINE
  5
5B
330
1F
100
AcDbEntity
  8
SLD-0
  6
Continuous
 62
     3
100
AcDbLine
 10
523.0876192113
 20
288.0166867959
 30
0.0
 11
606.0032389702
 21
288.0166867959
 31
0.0
  0
LINE
  5
5C
330
1F
100
AcDbEntity
  8
SLD-0
  6
Continuous
 62
     3
100
AcDbLine
 10
502.0454290907
 20
184.0588769165
 30
0.0
 11
502.0454290907
 21
266.9744966754
 31
0.0
  0
LINE
  5
5D
330
1F
100
AcDbEntity
  8
SLD-0
  6
Continuous
 62
     3
100
AcDbLine
 10
627.0454290907
 20
184.0588769165
 30
0.0
 11
627.0454290907
 21
266.9744966754
 31
0.0
  0
LINE
  5
5E
330
1F
100
AcDbEntity
  8
SLD-0
  6
CENTERX2
 62
     4
100
AcDbLine
 10
578.8491428063
 20
278.8988731192
 30
0.0
 11
574.7034826508
 21
263.4270587883
 31
0.0
  0
LINE
  5
5F
330
1F
100
AcDbEntity
  8
SLD-0
  6
CENTERX2
 62
     4
100
AcDbLine
 10
603.6239016985
 20
186.4382141882
 30
0.0
 11
592.297747523
 21
197.7643683637
 31
0.0
  0
LINE
  5
60
330
1F
100
AcDbEntity
  8
SLD-0
  6
CENTERX2
 62
     4
100
AcDbLine
 10
511.1632427675
 20
211.2129730804
 30
0.0
 11
526.6350570984
 21
215.3586332358
 31
0.0
  0
LINE
  5
61
330
1F
100
AcDbEntity
  8
SLD-0
  6
Continuous
 62
     3
100
AcDbLine
 10
546.0454290907
 20
448.8358245621
 30
0.0
 11
546.0454290907
 21
451.8358245621
 31
0.0
  0
LINE
  5
62
330
1F
100
AcDbEntity
  8
SLD-0
  6
Continuous
 62
     3
100
AcDbLine
 10
546.0454290907
 20
451.8358245621
 30
0.0
 11
541.0454290907
 21
451.8358245621
 31
0.0
  0
LINE
  5
63
330
1F
100
AcDbEntity
  8
SLD-0
  6
Continuous
 62
     3
100
AcDbLine
 10
541.0454290907
 20
449.8358245621
 30
0.0
 11
541.0454290907
 21
451.8358245621
 31
0.0
  0
LINE
  5
64
330
1F
100
AcDbEntity
  8
SLD-0
  6
Continuous
 62
     3
100
AcDbLine
 10
552.7927378973
 20
422.5358245621
 30
0.0
 11
564.5454290907
 21
422.5358245621
 31
0.0
  0
LINE
  5
65
330
1F
100
AcDbEntity
  8
SLD-0
  6
Continuous
 62
     3
100
AcDbLine
 10
552.7927378973
 20
422.5358245621
 30
0.0
 11
548.7927378973
 21
426.5358245621
 31
0.0
  0
LINE
  5
66
330
1F
100
AcDbEntity
  8
SLD-0
  6
Continuous
 62
     3
100
AcDbLine
 10
534.5454290907
 20
453.8358245621
 30
0.0
 11
534.5454290907
 21
563.7358245621
 31
0.0
  0
LINE
  5
67
330
1F
100
AcDbEntity
  8
SLD-0
  6
Continuous
 62
     3
100
AcDbLine
 10
523.0797532449
 20
422.0358245621
 30
0.0
 11
516.0797532449
 21
422.0358245621
 31
0.0
  0
LINE
  5
68
330
1F
100
AcDbEntity
  8
SLD-0
  6
Continuous
 62
     3
100
AcDbLine
 10
516.0797532449
 20
422.0358245621
 30
0.0
 11
516.0797532449
 21
426.5358245621
 31
0.0
  0
LINE
  5
69
330
1F
100
AcDbEntity
  8
SLD-0
  6
Continuous
 62
     3
100
AcDbLine
 10
523.0797532449
 20
422.0358245621
 30
0.0
 11
523.0797532449
 21
426.5358245621
 31
0.0
  0
LINE
  5
6A
330
1F
100
AcDbEntity
  8
SLD-0
  6
CENTERX2
 62
     4
100
AcDbLine
 10
519.5797532449
 20
419.870150211
 30
0.0
 11
519.5797532449
 21
430.940778237
 31
0.0
  0
LINE
  5
6B
330
1F
100
AcDbEntity
  8
SLD-0
  6
Continuous
 62
     3
100
AcDbLine
 10
564.5454290907
 20
448.8358245621
 30
0.0
 11
517.5454290907
 21
448.8358245621
 31
0.0
  0
LINE
  5
6C
330
1F
100
AcDbEntity
  8
SLD-0
  6
Continuous
 62
     3
100
AcDbLine
 10
512.5454290907
 20
426.5358245621
 30
0.0
 11
512.5454290907
 21
443.8358245621
 31
0.0
  0
LINE
  5
6D
330
1F
100
AcDbEntity
  8
SLD-0
  6
Continuous
 62
     3
100
AcDbLine
 10
512.5454290907
 20
443.8358245621
 30
0.0
 11
512.5454290907
 21
567.7358245621
 31
0.0
  0
LINE
  5
6E
330
1F
100
AcDbEntity
  8
SLD-0
  6
Continuous
 62
     3
100
AcDbLine
 10
564.5454290907
 20
436.8358245621
 30
0.0
 11
514.5454290907
 21
436.8358245621
 31
0.0
  0
LINE
  5
6F
330
1F
100
AcDbEntity
  8
SLD-0
  6
Continuous
 62
     3
100
AcDbLine
 10
564.5454290907
 20
428.8358245621
 30
0.0
 11
512.5454290907
 21
428.8358245621
 31
0.0
  0
LINE
  5
70
330
1F
100
AcDbEntity
  8
SLD-0
  6
Continuous
 62
     3
100
AcDbLine
 10
564.5454290907
 20
426.5358245621
 30
0.0
 11
512.5454290907
 21
426.5358245621
 31
0.0
  0
LINE
  5
71
330
1F
100
AcDbEntity
  8
SLD-0
  6
Continuous
 62
     3
100
AcDbLine
 10
616.5454290907
 20
443.8358245621
 30
0.0
 11
616.5454290907
 21
567.7358245621
 31
0.0
  0
LINE
  5
72
330
1F
100
AcDbEntity
  8
SLD-0
  6
Continuous
 62
     3
100
AcDbLine
 10
618.0454290907
 20
568.7358245621
 30
0.0
 11
618.0454290907
 21
571.7358245621
 31
0.0
  0
LINE
  5
73
330
1F
100
AcDbEntity
  8
SLD-0
  6
Continuous
 62
     3
100
AcDbLine
 10
564.5454290907
 20
578.7358245621
 30
0.0
 11
626.0454290907
 21
578.7358245621
 31
0.0
  0
LINE
  5
74
330
1F
100
AcDbEntity
  8
SLD-0
  6
Continuous
 62
     3
100
AcDbLine
 10
564.5454290907
 20
571.7358245621
 30
0.0
 11
627.0454290907
 21
571.7358245621
 31
0.0
  0
LINE
  5
75
330
1F
100
AcDbEntity
  8
SLD-0
  6
Continuous
 62
     3
100
AcDbLine
 10
627.0454290907
 20
571.7358245621
 30
0.0
 11
627.0454290907
 21
577.7358245621
 31
0.0
  0
LINE
  5
76
330
1F
100
AcDbEntity
  8
SLD-0
  6
Continuous
 62
     3
100
AcDbLine
 10
625.5454290907
 20
578.7358245621
 30
0.0
 11
625.5454290907
 21
620.7358245621
 31
0.0
  0
LINE
  5
77
330
1F
100
AcDbEntity
  8
SLD-0
  6
Continuous
 62
     3
100
AcDbLine
 10
592.2913957831
 20
620.7358245621
 30
0.0
 11
625.5454290907
 21
620.7358245621
 31
0.0
  0
LINE
  5
78
330
1F
100
AcDbEntity
  8
SLD-0
  6
HIDDEN
 62
     3
100
AcDbLine
 10
503.5454290907
 20
578.2358245621
 30
0.0
 11
493.5454290907
 21
578.2358245621
 31
0.0
  0
LINE
  5
79
330
1F
100
AcDbEntity
  8
SLD-0
  6
HIDDEN
 62
     3
100
AcDbLine
 10
503.5454290907
 20
579.7358245621
 30
0.0
 11
493.5454290907
 21
579.7358245621
 31
0.0
  0
LINE
  5
7A
330
1F
100
AcDbEntity
  8
SLD-0
  6
HIDDEN
 62
     3
100
AcDbLine
 10
503.5454290907
 20
593.7358245621
 30
0.0
 11
493.5454290907
 21
593.7358245621
 31
0.0
  0
LINE
  5
7B
330
1F
100
AcDbEntity
  8
SLD-0
  6
HIDDEN
 62
     3
100
AcDbLine
 10
503.5454290907
 20
595.2358245621
 30
0.0
 11
493.5454290907
 21
595.2358245621
 31
0.0
  0
LINE
  5
7C
330
1F
100
AcDbEntity
  8
SLD-0
  6
CENTERX2
 62
     4
100
AcDbLine
 10
516.6482341506
 20
586.7358245621
 30
0.0
 11
488.4832158128
 21
586.7358245621
 31
0.0
  0
LINE
  5
7D
330
1F
100
AcDbEntity
  8
SLD-0
  6
Continuous
 62
     3
100
AcDbLine
 10
502.0454290907
 20
573.7358245621
 30
0.0
 11
495.5454290907
 21
573.7358245621
 31
0.0
  0
LINE
  5
7E
330
1F
100
AcDbEntity
  8
SLD-0
  6
Continuous
 62
     3
100
AcDbLine
 10
503.5454290907
 20
578.7358245621
 30
0.0
 11
503.5454290907
 21
620.7358245621
 31
0.0
  0
LINE
  5
7F
330
1F
100
AcDbEntity
  8
SLD-0
  6
Continuous
 62
     3
100
AcDbLine
 10
503.5454290907
 20
601.7358245621
 30
0.0
 11
495.5454290907
 21
601.7358245621
 31
0.0
  0
LINE
  5
80
330
1F
100
AcDbEntity
  8
SLD-0
  6
Continuous
 62
     3
100
AcDbLine
 10
511.0454290907
 20
568.7358245621
 30
0.0
 11
511.0454290907
 21
571.7358245621
 31
0.0
  0
LINE
  5
81
330
1F
100
AcDbEntity
  8
SLD-0
  6
Continuous
 62
     3
100
AcDbLine
 10
502.0454290907
 20
571.7358245621
 30
0.0
 11
502.0454290907
 21
577.7358245621
 31
0.0
  0
LINE
  5
82
330
1F
100
AcDbEntity
  8
SLD-0
  6
Continuous
 62
     3
100
AcDbLine
 10
564.5454290907
 20
578.7358245621
 30
0.0
 11
503.0454290907
 21
578.7358245621
 31
0.0
  0
LINE
  5
83
330
1F
100
AcDbEntity
  8
SLD-0
  6
Continuous
 62
     3
100
AcDbLine
 10
493.5454290907
 20
575.7358245621
 30
0.0
 11
493.5454290907
 21
599.7358245621
 31
0.0
  0
LINE
  5
84
330
1F
100
AcDbEntity
  8
SLD-0
  6
Continuous
 62
     3
100
AcDbLine
 10
558.2208737704
 20
615.7358245621
 30
0.0
 11
544.5454290907
 21
615.7358245621
 31
0.0
  0
LINE
  5
85
330
1F
100
AcDbEntity
  8
SLD-0
  6
Continuous
 62
     3
100
AcDbLine
 10
570.8699844111
 20
615.7358245621
 30
0.0
 11
584.5454290907
 21
615.7358245621
 31
0.0
  0
LINE
  5
86
330
1F
100
AcDbEntity
  8
SLD-0
  6
CENTERX2
 62
     4
100
AcDbLine
 10
546.8327073363
 20
306.8166867959
 30
0.0
 11
582.7365935056
 21
306.8166867959
 31
0.0
  0
LINE
  5
87
330
1F
100
AcDbEntity
  8
SLD-0
  6
Continuous
 62
     3
100
AcDbLine
 10
568.9454290907
 20
323.8166867959
 30
0.0
 11
587.8454290907
 21
323.8166867959
 31
0.0
  0
LINE
  5
88
330
1F
100
AcDbEntity
  8
SLD-0
  6
Continuous
 62
     3
100
AcDbLine
 10
570.35490411
 20
326.0166867959
 30
0.0
 11
589.5454290907
 21
326.0166867959
 31
0.0
  0
LINE
  5
89
330
1F
100
AcDbEntity
  8
SLD-0
  6
Continuous
 62
     3
100
AcDbLine
 10
541.2454290907
 20
323.8166867959
 30
0.0
 11
560.1454290907
 21
323.8166867959
 31
0.0
  0
LINE
  5
8A
330
1F
100
AcDbEntity
  8
SLD-0
  6
Continuous
 62
     3
100
AcDbLine
 10
539.5454290907
 20
326.3166867959
 30
0.0
 11
559.0354381651
 21
326.3166867959
 31
0.0
  0
LINE
  5
8B
330
1F
100
AcDbEntity
  8
SLD-0
  6
Continuous
 62
     3
100
AcDbLine
 10
592.5454290907
 20
288.0166867959
 30
0.0
 11
592.5454290907
 21
323.3166867959
 31
0.0
  0
LINE
  5
8C
330
1F
100
AcDbEntity
  8
SLD-0
  6
Continuous
 62
     3
100
AcDbLine
 10
536.5454290907
 20
288.0166867959
 30
0.0
 11
536.5454290907
 21
323.3166867959
 31
0.0
  0
LINE
  5
8D
330
1F
100
AcDbEntity
  8
SLD-0
  6
Continuous
 62
     3
100
AcDbLine
 10
539.2454290907
 20
288.0166867959
 30
0.0
 11
539.2454290907
 21
321.8166867959
 31
0.0
  0
LINE
  5
8E
330
1F
100
AcDbEntity
  8
SLD-0
  6
Continuous
 62
     3
100
AcDbLine
 10
589.8454290907
 20
288.0166867959
 30
0.0
 11
589.8454290907
 21
321.8166867959
 31
0.0
  0
LINE
  5
8F
330
1F
100
AcDbEntity
  8
SLD-0
  6
Continuous
 62
     3
100
AcDbLine
 10
617.8944930351
 20
676.5877379684
 30
0.0
 11
614.8524485063
 21
679.3643373357
 31
0.0
  0
LINE
  5
90
330
1F
100
AcDbEntity
  8
SLD-0
  6
Continuous
 62
     3
100
AcDbLine
 10
619.7833001815
 20
679.3614753453
 30
0.0
 11
623.293335231
 21
676.5905999588
 31
0.0
  0
LINE
  5
91
330
1F
100
AcDbEntity
  8
SLD-0
  6
Continuous
 62
     3
100
AcDbLine
 10
616.8157741814
 20
688.7170717971
 30
0.0
 11
617.402916241
 21
688.7170717971
 31
0.0
  0
LINE
  5
92
330
1F
100
AcDbEntity
  8
SLD-0
  6
Continuous
 62
     3
100
AcDbLine
 10
619.402916241
 20
680.1463803961
 30
0.0
 11
619.402916241
 21
686.7170717971
 31
0.0
  0
LINE
  5
93
330
1F
100
AcDbEntity
  8
SLD-0
  6
Continuous
 62
     3
100
AcDbLine
 10
616.8157741814
 20
688.7170717971
 30
0.0
 11
616.8157741814
 21
677.5723291071
 31
0.0
  0
LINE
  5
94
330
1F
100
AcDbEntity
  8
SLD-0
  6
Continuous
 62
     3
100
AcDbLine
 10
623.6737191715
 20
620.7358245621
 30
0.0
 11
623.6737191715
 21
675.805694908
 31
0.0
  0
LINE
  5
95
330
1F
100
AcDbEntity
  8
SLD-0
  6
Continuous
 62
     3
100
AcDbLine
 10
534.3444525659
 20
620.7358245621
 30
0.0
 11
534.3444525659
 21
688.7170717971
 31
0.0
  0
LINE
  5
96
330
1F
100
AcDbEntity
  8
SLD-0
  6
Continuous
 62
     3
100
AcDbLine
 10
533.6369468572
 20
688.7170717971
 30
0.0
 11
534.3444525659
 21
688.7170717971
 31
0.0
  0
LINE
  5
97
330
1F
100
AcDbEntity
  8
SLD-0
  6
Continuous
 62
     3
100
AcDbLine
 10
525.6793745309
 20
700.0790797799
 30
0.0
 11
525.6793745309
 21
620.7358245621
 31
0.0
  0
LINE
  5
98
330
1F
100
AcDbEntity
  8
SLD-0
  6
Continuous
 62
     3
100
AcDbLine
 10
518.9596749168
 20
699.5813242529
 30
0.0
 11
518.9596749168
 21
620.7358245621
 31
0.0
  0
LINE
  5
99
330
1F
100
AcDbEntity
  8
SLD-0
  6
Continuous
 62
     3
100
AcDbLine
 10
521.7881020415
 20
699.7908373733
 30
0.0
 11
521.7881020415
 21
620.7358245621
 31
0.0
  0
LINE
  5
9A
330
1F
100
AcDbEntity
  8
SLD-0
  6
Continuous
 62
     3
100
AcDbLine
 10
529.7107121683
 20
620.7358245621
 30
0.0
 11
529.7107121683
 21
676.0632516561
 31
0.0
  0
LINE
  5
9B
330
1F
100
AcDbEntity
  8
SLD-0
  6
Continuous
 62
     3
100
AcDbLine
 10
531.6369468572
 20
680.5402422299
 30
0.0
 11
531.6369468572
 21
686.7170717971
 31
0.0
  0
LINE
  5
9C
330
1F
100
AcDbEntity
  8
SLD-0
  6
Continuous
 62
     3
100
AcDbLine
 10
531.5388837453
 20
680.1083743684
 30
0.0
 11
529.8087752801
 21
676.4951195176
 31
0.0
  0
LINE
  5
9D
330
1F
100
AcDbEntity
  8
SLD-0
  6
Continuous
 62
     3
100
AcDbLine
 10
597.5519744361
 20
680.1083743684
 30
0.0
 11
599.2820829014
 21
676.4951195176
 31
0.0
  0
LINE
  5
9E
330
1F
100
AcDbEntity
  8
SLD-0
  6
Continuous
 62
     3
100
AcDbLine
 10
614.5265961022
 20
680.1029339909
 30
0.0
 11
614.5265961022
 21
686.7170717971
 31
0.0
  0
LINE
  5
9F
330
1F
100
AcDbEntity
  8
SLD-0
  6
Continuous
 62
     3
100
AcDbLine
 10
612.5265961022
 20
688.7170717971
 30
0.0
 11
611.7976551031
 21
688.7170717971
 31
0.0
  0
LINE
  5
A0
330
1F
100
AcDbEntity
  8
SLD-0
  6
Continuous
 62
     3
100
AcDbLine
 10
611.7976551031
 20
688.7170717971
 30
0.0
 11
611.7976551031
 21
620.7358245621
 31
0.0
  0
LINE
  5
A1
330
1F
100
AcDbEntity
  8
SLD-0
  6
Continuous
 62
     3
100
AcDbLine
 10
618.2203454392
 20
675.8491413132
 30
0.0
 11
618.2203454392
 21
620.7358245621
 31
0.0
  0
LINE
  5
A2
330
1F
100
AcDbEntity
  8
SLD-0
  6
Continuous
 62
     3
100
AcDbLine
 10
603.4114836506
 20
700.0790797799
 30
0.0
 11
603.4114836506
 21
620.7358245621
 31
0.0
  0
LINE
  5
A3
330
1F
100
AcDbEntity
  8
SLD-0
  6
Continuous
 62
     3
100
AcDbLine
 10
607.3027561399
 20
699.7908373733
 30
0.0
 11
607.3027561399
 21
620.7358245621
 31
0.0
  0
LINE
  5
A4
330
1F
100
AcDbEntity
  8
SLD-0
  6
Continuous
 62
     3
100
AcDbLine
 10
610.1311832647
 20
699.5813242529
 30
0.0
 11
610.1311832647
 21
620.7358245621
 31
0.0
  0
LINE
  5
A5
330
1F
100
AcDbEntity
  8
SLD-0
  6
Continuous
 62
     3
100
AcDbLine
 10
597.4539113243
 20
680.5402422299
 30
0.0
 11
597.4539113243
 21
686.7170717971
 31
0.0
  0
LINE
  5
A6
330
1F
100
AcDbEntity
  8
SLD-0
  6
Continuous
 62
     3
100
AcDbLine
 10
595.4539113243
 20
688.7170717971
 30
0.0
 11
594.7464056156
 21
688.7170717971
 31
0.0
  0
LINE
  5
A7
330
1F
100
AcDbEntity
  8
SLD-0
  6
Continuous
 62
     3
100
AcDbLine
 10
599.3801460132
 20
620.7358245621
 30
0.0
 11
599.3801460132
 21
676.0632516561
 31
0.0
  0
LINE
  5
A8
330
1F
100
AcDbEntity
  8
SLD-0
  6
Continuous
 62
     3
100
AcDbLine
 10
594.7464056156
 20
620.7358245621
 30
0.0
 11
594.7464056156
 21
688.7170717971
 31
0.0
  0
LINE
  5
A9
330
1F
100
AcDbEntity
  8
SLD-0
  6
Continuous
 62
     3
100
AcDbLine
 10
571.9616275778
 20
614.7358245621
 30
0.0
 11
584.5454290907
 21
614.7358245621
 31
0.0
  0
LINE
  5
AA
330
1F
100
AcDbEntity
  8
SLD-0
  6
Continuous
 62
     3
100
AcDbLine
 10
539.5454290907
 20
620.7358245621
 30
0.0
 11
539.5454290907
 21
686.7358245621
 31
0.0
  0
LINE
  5
AB
330
1F
100
AcDbEntity
  8
SLD-0
  6
Continuous
 62
     3
100
AcDbLine
 10
544.5454290907
 20
691.7358245621
 30
0.0
 11
584.5454290907
 21
691.7358245621
 31
0.0
  0
LINE
  5
AC
330
1F
100
AcDbEntity
  8
SLD-0
  6
Continuous
 62
     3
100
AcDbLine
 10
589.5454290907
 20
620.7358245621
 30
0.0
 11
589.5454290907
 21
686.7358245621
 31
0.0
  0
LINE
  5
AD
330
1F
100
AcDbEntity
  8
SLD-0
  6
Continuous
 62
     3
100
AcDbLine
 10
544.5454290907
 20
694.7358245621
 30
0.0
 11
584.5454290907
 21
694.7358245621
 31
0.0
  0
LINE
  5
AE
330
1F
100
AcDbEntity
  8
SLD-0
  6
Continuous
 62
     3
100
AcDbLine
 10
536.5454290907
 20
622.7358245621
 30
0.0
 11
536.5454290907
 21
686.7358245621
 31
0.0
  0
LINE
  5
AF
330
1F
100
AcDbEntity
  8
SLD-0
  6
Continuous
 62
     3
100
AcDbLine
 10
592.5454290907
 20
622.7358245621
 30
0.0
 11
592.5454290907
 21
686.7358245621
 31
0.0
  0
LINE
  5
B0
330
1F
100
AcDbEntity
  8
SLD-0
  6
Continuous
 62
     3
100
AcDbLine
 10
544.5454290907
 20
614.7358245621
 30
0.0
 11
557.1292306036
 21
614.7358245621
 31
0.0
  0
LINE
  5
B1
330
1F
100
AcDbEntity
  8
SLD-0
  6
Continuous
 62
     3
100
AcDbLine
 10
624.0454290907
 20
679.4471494275
 30
0.0
 11
628.0613468823
 21
677.1285582095
 31
0.0
  0
LINE
  5
B2
330
1F
100
AcDbEntity
  8
SLD-0
  6
Continuous
 62
     3
100
AcDbLine
 10
623.5454290907
 20
680.3131748313
 30
0.0
 11
623.5454290907
 21
686.7358245621
 31
0.0
  0
LINE
  5
B3
330
1F
100
AcDbEntity
  8
SLD-0
  6
Continuous
 62
     3
100
AcDbLine
 10
505.5454290907
 20
680.3131748313
 30
0.0
 11
505.5454290907
 21
686.7358245621
 31
0.0
  0
LINE
  5
B4
330
1F
100
AcDbEntity
  8
SLD-0
  6
Continuous
 62
     3
100
AcDbLine
 10
507.4961606167
 20
696.929313846
 30
0.0
 11
504.9417112604
 21
635.2661707816
 31
0.0
  0
LINE
  5
B5
330
1F
100
AcDbEntity
  8
SLD-0
  6
Continuous
 62
     3
100
AcDbLine
 10
564.5454290907
 20
702.7358245621
 30
0.0
 11
535.5454290907
 21
702.7358245621
 31
0.0
  0
LINE
  5
B6
330
1F
100
AcDbEntity
  8
SLD-0
  6
Continuous
 62
     3
100
AcDbLine
 10
534.5454290907
 20
701.6644902192
 30
0.0
 11
534.5454290907
 21
701.7358245621
 31
0.0
  0
LINE
  5
B7
330
1F
100
AcDbEntity
  8
SLD-0
  6
Continuous
 62
     3
100
AcDbLine
 10
564.5454290907
 20
700.7358245621
 30
0.0
 11
533.9163470026
 21
700.7358245621
 31
0.0
  0
LINE
  5
B8
330
1F
100
AcDbEntity
  8
SLD-0
  6
Continuous
 62
     3
100
AcDbLine
 10
509.3476738586
 20
698.8693241745
 30
0.0
 11
533.6193007762
 21
700.6672224647
 31
0.0
  0
LINE
  5
B9
330
1F
100
AcDbEntity
  8
SLD-0
  6
Continuous
 62
     3
100
AcDbLine
 10
619.7431843228
 20
698.8693241745
 30
0.0
 11
595.4715574052
 21
700.6672224647
 31
0.0
  0
LINE
  5
BA
330
1F
100
AcDbEntity
  8
SLD-0
  6
Continuous
 62
     3
100
AcDbLine
 10
594.5454290907
 20
701.6644902192
 30
0.0
 11
594.5454290907
 21
701.7358245621
 31
0.0
  0
LINE
  5
BB
330
1F
100
AcDbEntity
  8
SLD-0
  6
Continuous
 62
     3
100
AcDbLine
 10
564.5454290907
 20
700.7358245621
 30
0.0
 11
595.1745111789
 21
700.7358245621
 31
0.0
  0
LINE
  5
BC
330
1F
100
AcDbEntity
  8
SLD-0
  6
Continuous
 62
     3
100
AcDbLine
 10
564.5454290907
 20
702.7358245621
 30
0.0
 11
593.5454290907
 21
702.7358245621
 31
0.0
  0
LINE
  5
BD
330
1F
100
AcDbEntity
  8
SLD-0
  6
Continuous
 62
     3
100
AcDbLine
 10
602.5454290907
 20
453.8358245621
 30
0.0
 11
602.5454290907
 21
563.7358245621
 31
0.0
  0
LINE
  5
BE
330
1F
100
AcDbEntity
  8
SLD-0
  6
Continuous
 62
     3
100
AcDbLine
 10
594.5454290907
 20
453.8358245621
 30
0.0
 11
594.5454290907
 21
563.7358245621
 31
0.0
  0
LINE
  5
BF
330
1F
100
AcDbEntity
  8
SLD-0
  6
CENTERX2
 62
     4
100
AcDbLine
 10
483.0777969399
 20
225.5166867959
 30
0.0
 11
634.2560194083
 21
225.5166867959
 31
0.0
  0
LINE
  5
C0
330
1F
100
AcDbEntity
  8
SLD-0
  6
CENTERX2
 62
     4
100
AcDbLine
 10
609.5111049366
 20
419.870150211
 30
0.0
 11
609.5111049366
 21
430.940778237
 31
0.0
  0
LINE
  5
C1
330
1F
100
AcDbEntity
  8
SLD-0
  6
Continuous
 62
     3
100
AcDbLine
 10
606.0111049366
 20
422.0358245621
 30
0.0
 11
606.0111049366
 21
426.5358245621
 31
0.0
  0
LINE
  5
C2
330
1F
100
AcDbEntity
  8
SLD-0
  6
Continuous
 62
     3
100
AcDbLine
 10
613.0111049366
 20
422.0358245621
 30
0.0
 11
613.0111049366
 21
426.5358245621
 31
0.0
  0
LINE
  5
C3
330
1F
100
AcDbEntity
  8
SLD-0
  6
Continuous
 62
     3
100
AcDbLine
 10
606.0111049366
 20
422.0358245621
 30
0.0
 11
613.0111049366
 21
422.0358245621
 31
0.0
  0
LINE
  5
C4
330
1F
100
AcDbEntity
  8
SLD-0
  6
CENTERX2
 62
     4
100
AcDbLine
 10
556.0777230065
 20
585.7358245621
 30
0.0
 11
573.9703177914
 21
585.7358245621
 31
0.0
  0
LINE
  5
C5
330
1F
100
AcDbEntity
  8
SLD-0
  6
Continuous
 62
     3
100
AcDbLine
 10
625.5454290907
 20
598.7358245621
 30
0.0
 11
632.4527441007
 21
598.7358245621
 31
0.0
  0
LINE
  5
C6
330
1F
100
AcDbEntity
  8
SLD-0
  6
Continuous
 62
     3
100
AcDbLine
 10
512.2496989115
 20
598.7358245621
 30
0.0
 11
496.6381140808
 21
598.7358245621
 31
0.0
  0
LINE
  5
C7
330
1F
100
AcDbEntity
  8
SLD-0
  6
Continuous
 62
     3
100
AcDbLine
 10
634.4527441007
 20
623.7358245621
 30
0.0
 11
630.7929884119
 21
627.9928369955
 31
0.0
  0
LINE
  5
C8
330
1F
100
AcDbEntity
  8
SLD-0
  6
Continuous
 62
     3
100
AcDbLine
 10
634.4527441007
 20
623.7358245621
 30
0.0
 11
634.4527441007
 21
600.7358245621
 31
0.0
  0
LINE
  5
C9
330
1F
100
AcDbEntity
  8
SLD-0
  6
Continuous
 62
     3
100
AcDbLine
 10
504.9417112604
 20
635.2661707816
 30
0.0
 11
495.1467943953
 21
624.3050684912
 31
0.0
  0
LINE
  5
CA
330
1F
100
AcDbEntity
  8
SLD-0
  6
Continuous
 62
     3
100
AcDbLine
 10
512.2496989115
 20
635.7358245621
 30
0.0
 11
502.0350961779
 21
624.3050684912
 31
0.0
  0
LINE
  5
CB
330
1F
100
AcDbEntity
  8
SLD-0
  6
Continuous
 62
     3
100
AcDbLine
 10
494.6381140808
 20
622.9724148993
 30
0.0
 11
494.6381140808
 21
600.7358245621
 31
0.0
  0
LINE
  5
CC
330
1F
100
AcDbEntity
  8
SLD-0
  6
Continuous
 62
     3
100
AcDbLine
 10
501.5264158633
 20
622.9724148993
 30
0.0
 11
501.5264158633
 21
598.7358245621
 31
0.0
  0
LINE
  5
CD
330
1F
100
AcDbEntity
  8
SLD-0
  6
Continuous
 62
     3
100
AcDbLine
 10
512.2496989115
 20
612.1852800853
 30
0.0
 11
512.2496989115
 21
598.7358245621
 31
0.0
  0
LINE
  5
CE
330
1F
100
AcDbEntity
  8
SLD-0
  6
Continuous
 62
     3
100
AcDbLine
 10
501.6778473126
 20
623.7358245621
 30
0.0
 11
494.78954553
 21
623.7358245621
 31
0.0
  0
LINE
  5
CF
330
1F
100
AcDbEntity
  8
SLD-0
  6
CENTERX2
 62
     4
100
AcDbLine
 10
621.0312646862
 20
169.0308512004
 30
0.0
 11
606.4411151182
 21
183.6210007685
 31
0.0
  0
LINE
  5
D0
330
1F
100
AcDbEntity
  8
SLD-0
  6
CENTERX2
 62
     4
100
AcDbLine
 10
564.5454290907
 20
153.7903032661
 30
0.0
 11
564.5454290907
 21
331.5534063118
 31
0.0
  0
LINE
  5
D1
330
1F
100
AcDbEntity
  8
SLD-0
  6
Continuous
 62
     3
100
AcDbLine
 10
616.5454290907
 20
426.5358245621
 30
0.0
 11
616.5454290907
 21
443.8358245621
 31
0.0
  0
LINE
  5
D2
330
1F
100
AcDbEntity
  8
SLD-0
  6
Continuous
 62
     3
100
AcDbLine
 10
564.5454290907
 20
428.8358245621
 30
0.0
 11
616.5454290907
 21
428.8358245621
 31
0.0
  0
LINE
  5
D3
330
1F
100
AcDbEntity
  8
SLD-0
  6
Continuous
 62
     3
100
AcDbLine
 10
564.5454290907
 20
568.7358245621
 30
0.0
 11
618.0454290907
 21
568.7358245621
 31
0.0
  0
LINE
  5
D4
330
1F
100
AcDbEntity
  8
SLD-0
  6
Continuous
 62
     3
100
AcDbLine
 10
564.5454290907
 20
568.7358245621
 30
0.0
 11
511.0454290907
 21
568.7358245621
 31
0.0
  0
LINE
  5
D5
330
1F
100
AcDbEntity
  8
SLD-0
  6
Continuous
 62
     3
100
AcDbLine
 10
564.5454290907
 20
571.7358245621
 30
0.0
 11
502.0454290907
 21
571.7358245621
 31
0.0
  0
LINE
  5
D6
330
1F
100
AcDbEntity
  8
SLD-0
  6
Continuous
 62
     3
100
AcDbLine
 10
556.2954290907
 20
560.7358245621
 30
0.0
 11
556.2954290907
 21
561.7358245621
 31
0.0
  0
LINE
  5
D7
330
1F
100
AcDbEntity
  8
SLD-0
  6
Continuous
 62
     3
100
AcDbLine
 10
556.0454290907
 20
566.7358245621
 30
0.0
 11
556.0454290907
 21
568.7358245621
 31
0.0
  0
LINE
  5
D8
330
1F
100
AcDbEntity
  8
SLD-0
  6
Continuous
 62
     3
100
AcDbLine
 10
556.0454290907
 20
566.7358245621
 30
0.0
 11
564.5454290907
 21
566.7358245621
 31
0.0
  0
LINE
  5
D9
330
1F
100
AcDbEntity
  8
SLD-0
  6
Continuous
 62
     3
100
AcDbLine
 10
553.0454290907
 20
561.7358245621
 30
0.0
 11
553.0454290907
 21
564.2358245621
 31
0.0
  0
LINE
  5
DA
330
1F
100
AcDbEntity
  8
SLD-0
  6
Continuous
 62
     3
100
AcDbLine
 10
553.0454290907
 20
561.7358245621
 30
0.0
 11
564.5454290907
 21
561.7358245621
 31
0.0
  0
LINE
  5
DB
330
1F
100
AcDbEntity
  8
SLD-0
  6
Continuous
 62
     3
100
AcDbLine
 10
549.5454290907
 20
564.2358245621
 30
0.0
 11
549.5454290907
 21
565.7358245621
 31
0.0
  0
LINE
  5
DC
330
1F
100
AcDbEntity
  8
SLD-0
  6
Continuous
 62
     3
100
AcDbLine
 10
549.5454290907
 20
564.2358245621
 30
0.0
 11
564.5454290907
 21
564.2358245621
 31
0.0
  0
LINE
  5
DD
330
1F
100
AcDbEntity
  8
SLD-0
  6
Continuous
 62
     3
100
AcDbLine
 10
549.5454290907
 20
565.7358245621
 30
0.0
 11
564.5454290907
 21
565.7358245621
 31
0.0
  0
LINE
  5
DE
330
1F
100
AcDbEntity
  8
SLD-0
  6
Continuous
 62
     3
100
AcDbLine
 10
556.2954290907
 20
565.7358245621
 30
0.0
 11
556.2954290907
 21
566.7358245621
 31
0.0
  0
LINE
  5
DF
330
1F
100
AcDbEntity
  8
SLD-0
  6
Continuous
 62
     3
100
AcDbLine
 10
560.5454290907
 20
611.7358245621
 30
0.0
 11
494.6381140808
 21
611.7358245621
 31
0.0
  0
LINE
  5
E0
330
1F
100
AcDbEntity
  8
SLD-0
  6
Continuous
 62
     3
100
AcDbLine
 10
536.7994623983
 20
620.7358245621
 30
0.0
 11
503.5454290907
 21
620.7358245621
 31
0.0
  0
LINE
  5
E1
330
1F
100
AcDbEntity
  8
SLD-0
  6
Continuous
 62
     3
100
AcDbLine
 10
500.5298974115
 20
676.2903190547
 30
0.0
 11
498.2932357056
 21
627.8261259466
 31
0.0
  0
LINE
  5
E2
330
1F
100
AcDbEntity
  8
SLD-0
  6
Continuous
 62
     3
100
AcDbLine
 10
505.0454290907
 20
679.4471494275
 30
0.0
 11
501.0295112992
 21
677.1285582095
 31
0.0
  0
LINE
  5
E3
330
1F
100
AcDbEntity
  8
SLD-0
  6
Continuous
 62
     3
100
AcDbLine
 10
576.2981202842
 20
422.5358245621
 30
0.0
 11
580.2981202842
 21
426.5358245621
 31
0.0
  0
LINE
  5
E4
330
1F
100
AcDbEntity
  8
SLD-0
  6
Continuous
 62
     3
100
AcDbLine
 10
576.2981202842
 20
422.5358245621
 30
0.0
 11
564.5454290907
 21
422.5358245621
 31
0.0
  0
LINE
  5
E5
330
1F
100
AcDbEntity
  8
SLD-0
  6
Continuous
 62
     3
100
AcDbLine
 10
564.5454290907
 20
426.5358245621
 30
0.0
 11
616.5454290907
 21
426.5358245621
 31
0.0
  0
LINE
  5
E6
330
1F
100
AcDbEntity
  8
SLD-0
  6
Continuous
 62
     3
100
AcDbLine
 10
572.7954290907
 20
565.7358245621
 30
0.0
 11
572.7954290907
 21
566.7358245621
 31
0.0
  0
LINE
  5
E7
330
1F
100
AcDbEntity
  8
SLD-0
  6
Continuous
 62
     3
100
AcDbLine
 10
579.5454290907
 20
565.7358245621
 30
0.0
 11
564.5454290907
 21
565.7358245621
 31
0.0
  0
LINE
  5
E8
330
1F
100
AcDbEntity
  8
SLD-0
  6
Continuous
 62
     3
100
AcDbLine
 10
579.5454290907
 20
564.2358245621
 30
0.0
 11
564.5454290907
 21
564.2358245621
 31
0.0
  0
LINE
  5
E9
330
1F
100
AcDbEntity
  8
SLD-0
  6
Continuous
 62
     3
100
AcDbLine
 10
579.5454290907
 20
564.2358245621
 30
0.0
 11
579.5454290907
 21
565.7358245621
 31
0.0
  0
LINE
  5
EA
330
1F
100
AcDbEntity
  8
SLD-0
  6
Continuous
 62
     3
100
AcDbLine
 10
576.0454290907
 20
561.7358245621
 30
0.0
 11
564.5454290907
 21
561.7358245621
 31
0.0
  0
LINE
  5
EB
330
1F
100
AcDbEntity
  8
SLD-0
  6
Continuous
 62
     3
100
AcDbLine
 10
576.0454290907
 20
561.7358245621
 30
0.0
 11
576.0454290907
 21
564.2358245621
 31
0.0
  0
LINE
  5
EC
330
1F
100
AcDbEntity
  8
SLD-0
  6
Continuous
 62
     3
100
AcDbLine
 10
628.5609607699
 20
676.2903190547
 30
0.0
 11
631.0288677123
 21
619.5070487666
 31
0.0
  0
LINE
  5
ED
330
1F
100
AcDbEntity
  8
SLD-0
  6
Continuous
 62
     3
100
AcDbLine
 10
623.5454290907
 20
679.7358245621
 30
0.0
 11
628.0613468823
 21
677.1285582095
 31
0.0
  0
LINE
  5
EE
330
1F
100
AcDbEntity
  8
SLD-0
  6
Continuous
 62
     3
100
AcDbLine
 10
623.5454290907
 20
679.7358245621
 30
0.0
 11
623.5454290907
 21
680.7358245621
 31
0.0
  0
LINE
  5
EF
330
1F
100
AcDbEntity
  8
SLD-0
  6
Continuous
 62
     3
100
AcDbLine
 10
625.5454290907
 20
615.7358245621
 30
0.0
 11
630.5292538246
 21
618.6132371138
 31
0.0
  0
LINE
  5
F0
330
1F
100
AcDbEntity
  8
SLD-0
  6
Continuous
 62
     3
100
AcDbLine
 10
588.0454290907
 20
449.8358245621
 30
0.0
 11
588.0454290907
 21
451.8358245621
 31
0.0
  0
LINE
  5
F1
330
1F
100
AcDbEntity
  8
SLD-0
  6
Continuous
 62
     3
100
AcDbLine
 10
583.0454290907
 20
451.8358245621
 30
0.0
 11
588.0454290907
 21
451.8358245621
 31
0.0
  0
LINE
  5
F2
330
1F
100
AcDbEntity
  8
SLD-0
  6
Continuous
 62
     3
100
AcDbLine
 10
583.0454290907
 20
448.8358245621
 30
0.0
 11
583.0454290907
 21
451.8358245621
 31
0.0
  0
LINE
  5
F3
330
1F
100
AcDbEntity
  8
SLD-0
  6
Continuous
 62
     3
100
AcDbLine
 10
573.0454290907
 20
560.7358245621
 30
0.0
 11
564.5454290907
 21
560.7358245621
 31
0.0
  0
LINE
  5
F4
330
1F
100
AcDbEntity
  8
SLD-0
  6
Continuous
 62
     3
100
AcDbLine
 10
573.0454290907
 20
566.7358245621
 30
0.0
 11
564.5454290907
 21
566.7358245621
 31
0.0
  0
LINE
  5
F5
330
1F
100
AcDbEntity
  8
SLD-0
  6
Continuous
 62
     3
100
AcDbLine
 10
573.0454290907
 20
566.7358245621
 30
0.0
 11
573.0454290907
 21
568.7358245621
 31
0.0
  0
LINE
  5
F6
330
1F
100
AcDbEntity
  8
SLD-0
  6
Continuous
 62
     3
100
AcDbLine
 10
572.7954290907
 20
560.7358245621
 30
0.0
 11
572.7954290907
 21
561.7358245621
 31
0.0
  0
LINE
  5
F7
330
1F
100
AcDbEntity
  8
SLD-0
  6
Continuous
 62
     3
100
AcDbLine
 10
573.0454290907
 20
448.8358245621
 30
0.0
 11
573.0454290907
 21
560.7358245621
 31
0.0
  0
LINE
  5
F8
330
1F
100
AcDbEntity
  8
SLD-0
  6
Continuous
 62
     3
100
AcDbLine
 10
564.5454290907
 20
448.8358245621
 30
0.0
 11
611.5454290907
 21
448.8358245621
 31
0.0
  0
LINE
  5
F9
330
1F
100
AcDbEntity
  8
SLD-0
  6
Continuous
 62
     3
100
AcDbLine
 10
556.0454290907
 20
448.8358245621
 30
0.0
 11
556.0454290907
 21
560.7358245621
 31
0.0
  0
LINE
  5
FA
330
1F
100
AcDbEntity
  8
SLD-0
  6
Continuous
 62
     3
100
AcDbLine
 10
556.0454290907
 20
560.7358245621
 30
0.0
 11
564.5454290907
 21
560.7358245621
 31
0.0
  0
LINE
  5
FB
330
1F
100
AcDbEntity
  8
SLD-0
  6
Continuous
 62
     3
100
AcDbLine
 10
564.5454290907
 20
436.8358245621
 30
0.0
 11
614.5454290907
 21
436.8358245621
 31
0.0
  0
LINE
  5
FC
330
1F
100
AcDbEntity
  8
SLD-0
  6
Continuous
 62
     3
100
AcDbLine
 10
506.5454290907
 20
611.7358245621
 30
0.0
 11
503.5454290907
 21
611.7358245621
 31
0.0
  0
LINE
  5
FD
330
1F
100
AcDbEntity
  8
SLD-0
  6
Continuous
 62
     3
100
AcDbLine
 10
621.5946975648
 20
696.929313846
 30
0.0
 11
622.1242192699
 21
677.5135179909
 31
0.0
  0
LINE
  5
FE
330
1F
100
AcDbEntity
  8
SLD-0
  6
Continuous
 62
     3
100
AcDbLine
 10
592.2913957831
 20
620.7358245621
 30
0.0
 11
625.5454290907
 21
620.7358245621
 31
0.0
  0
LINE
  5
FF
330
1F
100
AcDbEntity
  8
SLD-0
  6
Continuous
 62
     3
100
AcDbLine
 10
568.5454290907
 20
611.7358245621
 30
0.0
 11
634.4527441007
 21
611.7358245621
 31
0.0
  0
LINE
  5
100
330
1F
100
AcDbEntity
  8
SLD-0
  6
Continuous
 62
     3
100
AcDbLine
 10
625.5454290907
 20
620.7358245621
 30
0.0
 11
625.5454290907
 21
579.7358245621
 31
0.0
  0
ARC
  5
101
330
1F
100
AcDbEntity
  8
SLD-0
  6
CENTERX2
 62
     4
100
AcDbCircle
 10
564.5454290907
 20
225.5166867959
 30
0.0
 40
67.00000000000006
100
AcDbArc
 50
215.4061132962
 51
235.779531204
  0
ARC
  5
102
330
1F
100
AcDbEntity
  8
SLD-0
  6
CENTERX2
 62
     4
100
AcDbCircle
 10
564.5454290907
 20
225.5166867959
 30
0.0
 40
67.0
100
AcDbArc
 50
36.54487461
 51
53.9676606712
  0
ARC
  5
103
330
1F
100
AcDbEntity
  8
SLD-0
  6
CENTERX2
 62
     4
100
AcDbCircle
 10
564.5454290907
 20
225.5166867959
 30
0.0
 40
66.0
100
AcDbArc
 50
125.0064309227
 51
146.0425298097
  0
ARC
  5
104
330
1F
100
AcDbEntity
  8
SLD-0
  6
CENTERX2
 62
     4
100
AcDbCircle
 10
564.5454290907
 20
225.5166867959
 30
0.0
 40
66.00000000000001
100
AcDbArc
 50
305.0684532352
 51
330.3544415217
  0
ARC
  5
105
330
1F
100
AcDbEntity
  8
SLD-0
  6
Continuous
 62
     3
100
AcDbCircle
 10
564.5454290907
 20
225.5166867959
 30
0.0
 40
42.50000000000001
100
AcDbArc
 50
90.4588217101
 51
90.0
  0
ARC
  5
106
330
1F
100
AcDbEntity
  8
SLD-0
  6
Continuous
 62
     3
100
AcDbCircle
 10
564.5454290907
 20
225.5166867959
 30
0.0
 40
29.50000000000003
100
AcDbArc
 50
90.6822126441
 51
90.0
  0
CIRCLE
  5
107
330
1F
100
AcDbEntity
  8
SLD-0
  6
Continuous
 62
     3
100
AcDbCircle
 10
517.8763815324
 20
272.1857343542
 30
0.0
 40
3.499999999999886
  0
CIRCLE
  5
108
330
1F
100
AcDbEntity
  8
SLD-0
  6
Continuous
 62
     3
100
AcDbCircle
 10
517.1692747512
 20
178.1405324564
 30
0.0
 40
3.499999999999886
  0
CIRCLE
  5
109
330
1F
100
AcDbEntity
  8
SLD-0
  6
Continuous
 62
     3
100
AcDbCircle
 10
611.9215834302
 20
272.8928411354
 30
0.0
 40
3.5
  0
CIRCLE
  5
10A
330
1F
100
AcDbEntity
  8
SLD-0
  6
Continuous
 62
     3
100
AcDbCircle
 10
611.214476649
 20
178.8476392376
 30
0.0
 40
3.5
  0
ARC
  5
10B
330
1F
100
AcDbEntity
  8
SLD-0
  6
Continuous
 62
     3
100
AcDbCircle
 10
499.0454290907
 20
207.5166867959
 30
0.0
 40
3.000000000000057
100
AcDbArc
 50
0.0
 51
90.0
  0
ARC
  5
10C
330
1F
100
AcDbEntity
  8
SLD-0
  6
Continuous
 62
     3
100
AcDbCircle
 10
499.0454290907
 20
243.5166867959
 30
0.0
 40
3.000000000000057
100
AcDbArc
 50
270.0
 51
0.0
  0
ARC
  5
10D
330
1F
100
AcDbEntity
  8
SLD-0
  6
Continuous
 62
     3
100
AcDbCircle
 10
495.5454290907
 20
212.5166867959
 30
0.0
 40
2.0
100
AcDbArc
 50
180.0
 51
270.0
  0
ARC
  5
10E
330
1F
100
AcDbEntity
  8
SLD-0
  6
Continuous
 62
     3
100
AcDbCircle
 10
495.5454290907
 20
238.5166867959
 30
0.0
 40
2.0
100
AcDbArc
 50
90.0
 51
180.0
  0
ARC
  5
10F
330
1F
100
AcDbEntity
  8
SLD-0
  6
Continuous
 62
     3
100
AcDbCircle
 10
564.5454290907
 20
225.5166867959
 30
0.0
 40
75.00000000000003
100
AcDbArc
 50
303.5573097619
 51
326.4426902381
  0
ARC
  5
110
330
1F
100
AcDbEntity
  8
SLD-0
  6
Continuous
 62
     3
100
AcDbCircle
 10
564.5454290907
 20
225.5166867959
 30
0.0
 40
74.99999999999997
100
AcDbArc
 50
213.5573097619
 51
236.4426902381
  0
ARC
  5
111
330
1F
100
AcDbEntity
  8
SLD-0
  6
Continuous
 62
     3
100
AcDbCircle
 10
564.5454290907
 20
225.5166867959
 30
0.0
 40
74.99999999999997
100
AcDbArc
 50
123.5573097619
 51
146.4426902381
  0
ARC
  5
112
330
1F
100
AcDbEntity
  8
SLD-0
  6
Continuous
 62
     3
100
AcDbCircle
 10
564.5454290907
 20
225.5166867959
 30
0.0
 40
74.99999999999999
100
AcDbArc
 50
33.5573097619
 51
56.4426902381
  0
CIRCLE
  5
113
330
1F
100
AcDbEntity
  8
SLD-0
  6
Continuous
 62
     3
100
AcDbCircle
 10
576.8393337331
 20
271.3981635447
 30
0.0
 40
4.0
  0
ARC
  5
114
330
1F
100
AcDbEntity
  8
SLD-0
  6
CENTERX2
 62
     4
100
AcDbCircle
 10
564.5454290907
 20
225.5166867959
 30
0.0
 40
47.49999999999996
100
AcDbArc
 50
66.3062191016
 51
84.7073571511
  0
CIRCLE
  5
115
330
1F
100
AcDbEntity
  8
SLD-0
  6
Continuous
 62
     3
100
AcDbCircle
 10
598.1330011971
 20
191.9291146896
 30
0.0
 40
4.0
  0
ARC
  5
116
330
1F
100
AcDbEntity
  8
SLD-0
  6
CENTERX2
 62
     4
100
AcDbCircle
 10
564.5454290907
 20
225.5166867959
 30
0.0
 40
47.49999999999994
100
AcDbArc
 50
306.3062191016
 51
324.7073571511
  0
CIRCLE
  5
117
330
1F
100
AcDbEntity
  8
SLD-0
  6
Continuous
 62
     3
100
AcDbCircle
 10
518.663952342
 20
213.2227821536
 30
0.0
 40
4.0
  0
ARC
  5
118
330
1F
100
AcDbEntity
  8
SLD-0
  6
CENTERX2
 62
     4
100
AcDbCircle
 10
564.5454290907
 20
225.5166867959
 30
0.0
 40
47.50000000000008
100
AcDbArc
 50
186.3062191016
 51
204.7073571511
  0
CIRCLE
  5
119
330
1F
100
AcDbEntity
  8
SLD-0
  6
Continuous
 62
     3
100
AcDbCircle
 10
564.5454290907
 20
225.5166867959
 30
0.0
 40
53.5
  0
CIRCLE
  5
11A
330
1F
100
AcDbEntity
  8
SLD-0
  6
Continuous
 62
     3
100
AcDbCircle
 10
564.5454290907
 20
225.5166867959
 30
0.0
 40
52.00000000000011
  0
ARC
  5
11B
330
1F
100
AcDbEntity
  8
SLD-0
  6
Continuous
 62
     3
100
AcDbCircle
 10
539.5454290907
 20
563.7358245621
 30
0.0
 40
5.0
100
AcDbArc
 50
90.0
 51
180.0
  0
ARC
  5
11C
330
1F
100
AcDbEntity
  8
SLD-0
  6
Continuous
 62
     3
100
AcDbCircle
 10
521.5454290907
 20
563.7358245621
 30
0.0
 40
5.000000000000114
100
AcDbArc
 50
0.0
 51
90.0
  0
ARC
  5
11D
330
1F
100
AcDbEntity
  8
SLD-0
  6
Continuous
 62
     3
100
AcDbCircle
 10
511.5454290907
 20
567.7358245621
 30
0.0
 40
1.0
100
AcDbArc
 50
0.0
 51
90.0
  0
ARC
  5
11E
330
1F
100
AcDbEntity
  8
SLD-0
  6
Continuous
 62
     3
100
AcDbCircle
 10
540.0454290907
 20
449.8358245621
 30
0.0
 40
1.000000000000057
100
AcDbArc
 50
270.0
 51
0.0
  0
ARC
  5
11F
330
1F
100
AcDbEntity
  8
SLD-0
  6
Continuous
 62
     3
100
AcDbCircle
 10
521.5454290907
 20
453.8358245621
 30
0.0
 40
5.000000000000057
100
AcDbArc
 50
270.0
 51
0.0
  0
ARC
  5
120
330
1F
100
AcDbEntity
  8
SLD-0
  6
Continuous
 62
     3
100
AcDbCircle
 10
539.5454290907
 20
453.8358245621
 30
0.0
 40
5.000000000000057
100
AcDbArc
 50
180.0
 51
270.0
  0
ARC
  5
121
330
1F
100
AcDbEntity
  8
SLD-0
  6
Continuous
 62
     3
100
AcDbCircle
 10
517.5454290907
 20
443.8358245621
 30
0.0
 40
5.0
100
AcDbArc
 50
90.0
 51
180.0
  0
ARC
  5
122
330
1F
100
AcDbEntity
  8
SLD-0
  6
Continuous
 62
     3
100
AcDbCircle
 10
514.5454290907
 20
434.8358245621
 30
0.0
 40
2.0
100
AcDbArc
 50
90.0
 51
180.0
  0
ARC
  5
123
330
1F
100
AcDbEntity
  8
SLD-0
  6
Continuous
 62
     3
100
AcDbCircle
 10
611.5454290907
 20
443.8358245621
 30
0.0
 40
5.0
100
AcDbArc
 50
0.0
 51
90.0
  0
ARC
  5
124
330
1F
100
AcDbEntity
  8
SLD-0
  6
Continuous
 62
     3
100
AcDbCircle
 10
617.5454290907
 20
567.7358245621
 30
0.0
 40
1.0
100
AcDbArc
 50
90.0
 51
180.0
  0
ARC
  5
125
330
1F
100
AcDbEntity
  8
SLD-0
  6
Continuous
 62
     3
100
AcDbCircle
 10
626.0454290907
 20
577.7358245621
 30
0.0
 40
1.000000000000114
100
AcDbArc
 50
360.0
 51
90.0
  0
ARC
  5
126
330
1F
100
AcDbEntity
  8
SLD-0
  6
Continuous
 62
     3
100
AcDbCircle
 10
495.5454290907
 20
599.7358245621
 30
0.0
 40
2.0
100
AcDbArc
 50
90.0
 51
180.0
  0
ARC
  5
127
330
1F
100
AcDbEntity
  8
SLD-0
  6
Continuous
 62
     3
100
AcDbCircle
 10
495.5454290907
 20
575.7358245621
 30
0.0
 40
2.000000000000227
100
AcDbArc
 50
180.0
 51
270.0
  0
ARC
  5
128
330
1F
100
AcDbEntity
  8
SLD-0
  6
Continuous
 62
     3
100
AcDbCircle
 10
503.0454290907
 20
577.7358245621
 30
0.0
 40
1.0
100
AcDbArc
 50
90.0
 51
180.0
  0
ARC
  5
129
330
1F
100
AcDbEntity
  8
SLD-0
  6
Continuous
 62
     3
100
AcDbCircle
 10
558.2208737704
 20
617.7358245621
 30
0.0
 40
2.0
100
AcDbArc
 50
270.0
 51
334.6230664748
  0
ARC
  5
12A
330
1F
100
AcDbEntity
  8
SLD-0
  6
Continuous
 62
     3
100
AcDbCircle
 10
570.8699844111
 20
617.7358245621
 30
0.0
 40
2.000000000000114
100
AcDbArc
 50
205.3769335252
 51
270.0
  0
ARC
  5
12B
330
1F
100
AcDbEntity
  8
SLD-0
  6
Continuous
 62
     3
100
AcDbCircle
 10
560.1454290907
 20
326.8166867959
 30
0.0
 40
3.0
100
AcDbArc
 50
270.0
 51
323.1301023542
  0
ARC
  5
12C
330
1F
100
AcDbEntity
  8
SLD-0
  6
Continuous
 62
     3
100
AcDbCircle
 10
568.9454290907
 20
326.8166867959
 30
0.0
 40
2.999999999999954
100
AcDbArc
 50
216.8698976458
 51
270.0
  0
ARC
  5
12D
330
1F
100
AcDbEntity
  8
SLD-0
  6
Continuous
 62
     3
100
AcDbCircle
 10
564.5454290907
 20
323.5166867959
 30
0.0
 40
2.500000000000091
100
AcDbArc
 50
36.8698976458
 51
143.1301023542
  0
ARC
  5
12E
330
1F
100
AcDbEntity
  8
SLD-0
  6
Continuous
 62
     3
100
AcDbCircle
 10
559.0354381651
 20
329.3166867959
 30
0.0
 40
3.0
100
AcDbArc
 50
270.0
 51
313.5311521674
  0
ARC
  5
12F
330
1F
100
AcDbEntity
  8
SLD-0
  6
Continuous
 62
     3
100
AcDbCircle
 10
570.35490411
 20
329.0166867959
 30
0.0
 40
2.999999999999886
100
AcDbArc
 50
223.4325365578
 51
270.0
  0
ARC
  5
130
330
1F
100
AcDbEntity
  8
SLD-0
  6
Continuous
 62
     3
100
AcDbCircle
 10
564.5454290907
 20
323.5166867959
 30
0.0
 40
5.000000000000155
100
AcDbArc
 50
43.4325365578
 51
133.5311521674
  0
ARC
  5
131
330
1F
100
AcDbEntity
  8
SLD-0
  6
Continuous
 62
     3
100
AcDbCircle
 10
539.5454290907
 20
323.3166867959
 30
0.0
 40
3.0
100
AcDbArc
 50
90.0
 51
180.0
  0
ARC
  5
132
330
1F
100
AcDbEntity
  8
SLD-0
  6
Continuous
 62
     3
100
AcDbCircle
 10
589.5454290907
 20
323.3166867959
 30
0.0
 40
3.0
100
AcDbArc
 50
0.0
 51
90.0
  0
ARC
  5
133
330
1F
100
AcDbEntity
  8
SLD-0
  6
Continuous
 62
     3
100
AcDbCircle
 10
541.2454290907
 20
321.8166867959
 30
0.0
 40
2.0
100
AcDbArc
 50
90.0
 51
180.0
  0
ARC
  5
134
330
1F
100
AcDbEntity
  8
SLD-0
  6
Continuous
 62
     3
100
AcDbCircle
 10
587.8454290907
 20
321.8166867959
 30
0.0
 40
2.0
100
AcDbArc
 50
0.0
 51
90.0
  0
CIRCLE
  5
135
330
1F
100
AcDbEntity
  8
SLD-0
  6
Continuous
 62
     3
100
AcDbCircle
 10
564.5454290907
 20
306.8166867959
 30
0.0
 40
11.00000000000011
  0
ARC
  5
136
330
1F
100
AcDbEntity
  8
SLD-0
  6
Continuous
 62
     3
100
AcDbCircle
 10
622.6737191715
 20
675.805694908
 30
0.0
 40
1.000000000000034
100
AcDbArc
 50
0.0
 51
51.7118974767
  0
ARC
  5
137
330
1F
100
AcDbEntity
  8
SLD-0
  6
Continuous
 62
     3
100
AcDbCircle
 10
620.402916241
 20
680.1463803961
 30
0.0
 40
1.000000000000212
100
AcDbArc
 50
180.0
 51
231.7118974767
  0
ARC
  5
138
330
1F
100
AcDbEntity
  8
SLD-0
  6
Continuous
 62
     3
100
AcDbCircle
 10
617.2203454392
 20
675.8491413132
 30
0.0
 40
1.0
100
AcDbArc
 50
0.0
 51
47.6120089394
  0
ARC
  5
139
330
1F
100
AcDbEntity
  8
SLD-0
  6
Continuous
 62
     3
100
AcDbCircle
 10
615.5265961022
 20
680.1029339909
 30
0.0
 40
1.000000000000195
100
AcDbArc
 50
180.0
 51
227.6120089394
  0
ARC
  5
13A
330
1F
100
AcDbEntity
  8
SLD-0
  6
Continuous
 62
     3
100
AcDbCircle
 10
617.402916241
 20
686.7170717971
 30
0.0
 40
2.0
100
AcDbArc
 50
0.0
 51
90.0
  0
ARC
  5
13B
330
1F
100
AcDbEntity
  8
SLD-0
  6
Continuous
 62
     3
100
AcDbCircle
 10
533.6369468572
 20
686.7170717971
 30
0.0
 40
1.999999999999886
100
AcDbArc
 50
90.0
 51
180.0
  0
ARC
  5
13C
330
1F
100
AcDbEntity
  8
SLD-0
  6
Continuous
 62
     3
100
AcDbCircle
 10
530.7107121683
 20
676.0632516561
 30
0.0
 40
1.0
100
AcDbArc
 50
154.4138421521
 51
180.0
  0
ARC
  5
13D
330
1F
100
AcDbEntity
  8
SLD-0
  6
Continuous
 62
     3
100
AcDbCircle
 10
530.6369468572
 20
680.5402422299
 30
0.0
 40
1.000000000000278
100
AcDbArc
 50
334.4138421521
 51
0.0
  0
ARC
  5
13E
330
1F
100
AcDbEntity
  8
SLD-0
  6
Continuous
 62
     3
100
AcDbCircle
 10
598.4539113243
 20
680.5402422299
 30
0.0
 40
1.000000000000073
100
AcDbArc
 50
180.0
 51
205.5861578479
  0
ARC
  5
13F
330
1F
100
AcDbEntity
  8
SLD-0
  6
Continuous
 62
     3
100
AcDbCircle
 10
598.3801460132
 20
676.0632516561
 30
0.0
 40
1.0
100
AcDbArc
 50
0.0
 51
25.5861578479
  0
ARC
  5
140
330
1F
100
AcDbEntity
  8
SLD-0
  6
Continuous
 62
     3
100
AcDbCircle
 10
612.5265961022
 20
686.7170717971
 30
0.0
 40
2.000000000000114
100
AcDbArc
 50
0.0
 51
90.0
  0
ARC
  5
141
330
1F
100
AcDbEntity
  8
SLD-0
  6
Continuous
 62
     3
100
AcDbCircle
 10
595.4539113243
 20
686.7170717971
 30
0.0
 40
2.0
100
AcDbArc
 50
0.0
 51
90.0
  0
ARC
  5
142
330
1F
100
AcDbEntity
  8
SLD-0
  6
Continuous
 62
     3
100
AcDbCircle
 10
544.5454290907
 20
620.7358245621
 30
0.0
 40
5.0
100
AcDbArc
 50
180.0
 51
270.0
  0
ARC
  5
143
330
1F
100
AcDbEntity
  8
SLD-0
  6
Continuous
 62
     3
100
AcDbCircle
 10
584.5454290907
 20
620.7358245621
 30
0.0
 40
5.0
100
AcDbArc
 50
270.0
 51
0.0
  0
ARC
  5
144
330
1F
100
AcDbEntity
  8
SLD-0
  6
Continuous
 62
     3
100
AcDbCircle
 10
564.5454290907
 20
614.7358245621
 30
0.0
 40
4.999999999999968
100
AcDbArc
 50
202.024312837
 51
337.975687163
  0
ARC
  5
145
330
1F
100
AcDbEntity
  8
SLD-0
  6
Continuous
 62
     3
100
AcDbCircle
 10
557.1292306036
 20
611.7358245621
 30
0.0
 40
3.000000000000065
100
AcDbArc
 50
22.024312837
 51
90.0
  0
ARC
  5
146
330
1F
100
AcDbEntity
  8
SLD-0
  6
Continuous
 62
     3
100
AcDbCircle
 10
571.9616275778
 20
611.7358245621
 30
0.0
 40
3.000000000000065
100
AcDbArc
 50
90.0
 51
157.975687163
  0
ARC
  5
147
330
1F
100
AcDbEntity
  8
SLD-0
  6
Continuous
 62
     3
100
AcDbCircle
 10
564.5454290907
 20
614.7358245621
 30
0.0
 40
5.000000000000056
100
AcDbArc
 50
25.3769335252
 51
154.6230664748
  0
ARC
  5
148
330
1F
100
AcDbEntity
  8
SLD-0
  6
Continuous
 62
     3
100
AcDbCircle
 10
544.5454290907
 20
686.7358245621
 30
0.0
 40
5.0
100
AcDbArc
 50
90.0
 51
180.0
  0
ARC
  5
149
330
1F
100
AcDbEntity
  8
SLD-0
  6
Continuous
 62
     3
100
AcDbCircle
 10
584.5454290907
 20
686.7358245621
 30
0.0
 40
5.0
100
AcDbArc
 50
0.0
 51
90.0
  0
ARC
  5
14A
330
1F
100
AcDbEntity
  8
SLD-0
  6
Continuous
 62
     3
100
AcDbCircle
 10
584.5454290907
 20
622.7358245621
 30
0.0
 40
8.0
100
AcDbArc
 50
270.0
 51
0.0
  0
ARC
  5
14B
330
1F
100
AcDbEntity
  8
SLD-0
  6
Continuous
 62
     3
100
AcDbCircle
 10
544.5454290907
 20
622.7358245621
 30
0.0
 40
8.000000000000227
100
AcDbArc
 50
180.0
 51
270.0
  0
ARC
  5
14C
330
1F
100
AcDbEntity
  8
SLD-0
  6
Continuous
 62
     3
100
AcDbCircle
 10
544.5454290907
 20
686.7358245621
 30
0.0
 40
8.0
100
AcDbArc
 50
90.0
 51
180.0
  0
ARC
  5
14D
330
1F
100
AcDbEntity
  8
SLD-0
  6
Continuous
 62
     3
100
AcDbCircle
 10
584.5454290907
 20
686.7358245621
 30
0.0
 40
8.0
100
AcDbArc
 50
0.0
 51
90.0
  0
ARC
  5
14E
330
1F
100
AcDbEntity
  8
SLD-0
  6
Continuous
 62
     3
100
AcDbCircle
 10
624.5454290907
 20
680.3131748313
 30
0.0
 40
1.000000000000082
100
AcDbArc
 50
180.0
 51
240.0
  0
ARC
  5
14F
330
1F
100
AcDbEntity
  8
SLD-0
  6
Continuous
 62
     3
100
AcDbCircle
 10
621.5454290907
 20
686.7358245621
 30
0.0
 40
2.0
100
AcDbArc
 50
0.0
 51
82.1477301709
  0
ARC
  5
150
330
1F
100
AcDbEntity
  8
SLD-0
  6
Continuous
 62
     3
100
AcDbCircle
 10
507.5454290907
 20
686.7358245621
 30
0.0
 40
2.0
100
AcDbArc
 50
101.2530107603
 51
180.0
  0
ARC
  5
151
330
1F
100
AcDbEntity
  8
SLD-0
  6
Continuous
 62
     3
100
AcDbCircle
 10
504.5454290907
 20
680.3131748313
 30
0.0
 40
1.000000000000114
100
AcDbArc
 50
300.0
 51
0.0
  0
ARC
  5
152
330
1F
100
AcDbEntity
  8
SLD-0
  6
Continuous
 62
     3
100
AcDbCircle
 10
535.5454290907
 20
701.7358245621
 30
0.0
 40
1.0
100
AcDbArc
 50
90.0
 51
180.0
  0
ARC
  5
153
330
1F
100
AcDbEntity
  8
SLD-0
  6
Continuous
 62
     3
100
AcDbCircle
 10
533.5454290907
 20
701.6644902192
 30
0.0
 40
1.000000000000034
100
AcDbArc
 50
274.2363947991
 51
0.0
  0
ARC
  5
154
330
1F
100
AcDbEntity
  8
SLD-0
  6
Continuous
 62
     3
100
AcDbCircle
 10
509.4954172297
 20
696.8747886656
 30
0.0
 40
2.000000000000157
100
AcDbArc
 50
94.2363947991
 51
178.4377750832
  0
ARC
  5
155
330
1F
100
AcDbEntity
  8
SLD-0
  6
Continuous
 62
     3
100
AcDbCircle
 10
619.5954409518
 20
696.8747886656
 30
0.0
 40
2.000000000000068
100
AcDbArc
 50
1.5622249168
 51
85.7636052009
  0
ARC
  5
156
330
1F
100
AcDbEntity
  8
SLD-0
  6
Continuous
 62
     3
100
AcDbCircle
 10
595.5454290907
 20
701.6644902192
 30
0.0
 40
1.0
100
AcDbArc
 50
180.0
 51
265.7636052009
  0
ARC
  5
157
330
1F
100
AcDbEntity
  8
SLD-0
  6
Continuous
 62
     3
100
AcDbCircle
 10
593.5454290907
 20
701.7358245621
 30
0.0
 40
1.0
100
AcDbArc
 50
0.0
 51
90.0
  0
CIRCLE
  5
158
330
1F
100
AcDbEntity
  8
SLD-0
  6
HIDDEN
 62
     3
100
AcDbCircle
 10
564.5454290907
 20
585.7358245621
 30
0.0
 40
4.0
  0
ARC
  5
159
330
1F
100
AcDbEntity
  8
SLD-0
  6
Continuous
 62
     3
100
AcDbCircle
 10
632.4527441007
 20
600.7358245621
 30
0.0
 40
2.0
100
AcDbArc
 50
270.0
 51
0.0
  0
ARC
  5
15A
330
1F
100
AcDbEntity
  8
SLD-0
  6
Continuous
 62
     3
100
AcDbCircle
 10
503.5264158633
 20
622.9724148993
 30
0.0
 40
2.000000000000277
100
AcDbArc
 50
138.2158057644
 51
180.0
  0
ARC
  5
15B
330
1F
100
AcDbEntity
  8
SLD-0
  6
Continuous
 62
     3
100
AcDbCircle
 10
496.6381140808
 20
622.9724148993
 30
0.0
 40
1.999999999999886
100
AcDbArc
 50
138.2158057644
 51
180.0
  0
ARC
  5
15C
330
1F
100
AcDbEntity
  8
SLD-0
  6
Continuous
 62
     3
100
AcDbCircle
 10
496.6381140808
 20
600.7358245621
 30
0.0
 40
2.0
100
AcDbArc
 50
180.0
 51
270.0
  0
CIRCLE
  5
15D
330
1F
100
AcDbEntity
  8
SLD-0
  6
Continuous
 62
     3
100
AcDbCircle
 10
564.5454290907
 20
225.5166867959
 30
0.0
 40
12.5
  0
ARC
  5
15E
330
1F
100
AcDbEntity
  8
SLD-0
  6
Continuous
 62
     3
100
AcDbCircle
 10
614.5454290907
 20
434.8358245621
 30
0.0
 40
2.0
100
AcDbArc
 50
0.0
 51
90.0
  0
ARC
  5
15F
330
1F
100
AcDbEntity
  8
SLD-0
  6
Continuous
 62
     3
100
AcDbCircle
 10
607.5454290907
 20
453.8358245621
 30
0.0
 40
5.000000000000057
100
AcDbArc
 50
180.0
 51
270.0
  0
ARC
  5
160
330
1F
100
AcDbEntity
  8
SLD-0
  6
Continuous
 62
     3
100
AcDbCircle
 10
589.5454290907
 20
453.8358245621
 30
0.0
 40
5.000000000000057
100
AcDbArc
 50
270.0
 51
0.0
  0
ARC
  5
161
330
1F
100
AcDbEntity
  8
SLD-0
  6
Continuous
 62
     3
100
AcDbCircle
 10
607.5454290907
 20
563.7358245621
 30
0.0
 40
5.0
100
AcDbArc
 50
90.0
 51
180.0
  0
ARC
  5
162
330
1F
100
AcDbEntity
  8
SLD-0
  6
Continuous
 62
     3
100
AcDbCircle
 10
589.5454290907
 20
563.7358245621
 30
0.0
 40
5.0
100
AcDbArc
 50
0.0
 51
90.0
  0
ARC
  5
163
330
1F
100
AcDbEntity
  8
SLD-0
  6
Continuous
 62
     3
100
AcDbCircle
 10
501.5295112992
 20
676.2625328057
 30
0.0
 40
1.000000000000085
100
AcDbArc
 50
120.0
 51
178.4077602722
  0
ARC
  5
164
330
1F
100
AcDbEntity
  8
SLD-0
  6
Continuous
 62
     3
100
AcDbCircle
 10
630.0292538246
 20
619.4792625176
 30
0.0
 40
1.000000000000082
100
AcDbArc
 50
300.0
 51
1.5922397278
  0
ARC
  5
165
330
1F
100
AcDbEntity
  8
SLD-0
  6
Continuous
 62
     3
100
AcDbCircle
 10
627.5613468823
 20
676.2625328057
 30
0.0
 40
1.000000000000085
100
AcDbArc
 50
1.5922397278
 51
60.0
  0
ARC
  5
166
330
1F
100
AcDbEntity
  8
SLD-0
  6
Continuous
 62
     3
100
AcDbCircle
 10
589.0454290907
 20
449.8358245621
 30
0.0
 40
1.000000000000057
100
AcDbArc
 50
180.0
 51
270.0
  0
POINT
  5
167
330
1F
100
AcDbEntity
  8
SLD-0
100
AcDbPoint
 10
623.5454290907
 20
679.7358245621
 30
0.0
  0
ENDSEC
  0
SECTION
  2
OBJECTS
  0
DICTIONARY
  5
C
330
0
100
AcDbDictionary
281
     1
  3
ACAD_GROUP
350
D
  3
ACAD_LAYOUT
350
1A
  3
ACAD_MLINESTYLE
350
17
  3
ACAD_PLOTSETTINGS
350
19
  3
ACAD_PLOTSTYLENAME
350
E
  0
DICTIONARY
  5
D
102
{ACAD_REACTORS
330
C
102
}
330
C
100
AcDbDictionary
281
     1
  0
DICTIONARY
  5
1A
102
{ACAD_REACTORS
330
C
102
}
330
C
100
AcDbDictionary
281
     1
  3
Layout1
350
1E
  3
Layout2
350
26
  3
Model
350
22
  0
DICTIONARY
  5
17
102
{ACAD_REACTORS
330
C
102
}
330
C
100
AcDbDictionary
281
     1
  3
Standard
350
18
  0
DICTIONARY
  5
19
102
{ACAD_REACTORS
330
C
102
}
330
C
100
AcDbDictionary
281
     1
  0
ACDBDICTIONARYWDFLT
  5
E
102
{ACAD_REACTORS
330
C
102
}
330
C
100
AcDbDictionary
281
     1
  3
Normal
350
F
100
AcDbDictionaryWithDefault
340
F
  0
LAYOUT
  5
1E
102
{ACAD_REACTORS
330
1A
102
}
330
1A
100
AcDbPlotSettings
  1

  2
none_device
  4

  6

 40
0.0
 41
0.0
 42
0.0
 43
0.0
 44
0.0
 45
0.0
 46
0.0
 47
0.0
 48
0.0
 49
0.0
140
0.0
141
0.0
142
1.0
143
1.0
 70
   688
 72
     0
 73
     0
 74
     5
  7

 75
    16
147
1.0
148
0.0
149
0.0
100
AcDbLayout
  1
Layout1
 70
     1
 71
     1
 10
0.0
 20
0.0
 11
420.0
 21
297.0
 12
0.0
 22
0.0
 32
0.0
 14
1.0000000000E+20
 24
1.0000000000E+20
 34
1.0000000000E+20
 15
-1.0000000000E+20
 25
-1.0000000000E+20
 35
-1.0000000000E+20
146
0.0
 13
0.0
 23
0.0
 33
0.0
 16
1.0
 26
0.0
 36
0.0
 17
0.0
 27
1.0
 37
0.0
 76
     0
330
1B
  0
LAYOUT
  5
26
102
{ACAD_REACTORS
330
1A
102
}
330
1A
100
AcDbPlotSettings
  1

  2
none_device
  4

  6

 40
0.0
 41
0.0
 42
0.0
 43
0.0
 44
0.0
 45
0.0
 46
0.0
 47
0.0
 48
0.0
 49
0.0
140
0.0
141
0.0
142
1.0
143
1.0
 70
   688
 72
     0
 73
     0
 74
     5
  7

 75
    16
147
1.0
148
0.0
149
0.0
100
AcDbLayout
  1
Layout2
 70
     1
 71
     2
 10
0.0
 20
0.0
 11
0.0
 21
0.0
 12
0.0
 22
0.0
 32
0.0
 14
0.0
 24
0.0
 34
0.0
 15
0.0
 25
0.0
 35
0.0
146
0.0
 13
0.0
 23
0.0
 33
0.0
 16
1.0
 26
0.0
 36
0.0
 17
0.0
 27
1.0
 37
0.0
 76
     0
330
23
  0
LAYOUT
  5
22
102
{ACAD_REACTORS
330
1A
102
}
330
1A
100
AcDbPlotSettings
  1

  2
none_device
  4

  6

 40
0.0
 41
0.0
 42
0.0
 43
0.0
 44
0.0
 45
0.0
 46
0.0
 47
0.0
 48
0.0
 49
0.0
140
0.0
141
0.0
142
1.0
143
1.0
 70
  1712
 72
     0
 73
     0
 74
     0
  7

 75
     0
147
1.0
148
0.0
149
0.0
100
AcDbLayout
  1
Model
 70
     1
 71
     0
 10
0.0
 20
0.0
 11
1117.6
 21
863.6
 12
0.0
 22
0.0
 32
0.0
 14
0.0
 24
0.0
 34
0.0
 15
1117.6
 25
863.6
 35
0.0
146
0.0
 13
0.0
 23
0.0
 33
0.0
 16
1.0
 26
0.0
 36
0.0
 17
0.0
 27
1.0
 37
0.0
 76
     0
330
1F
331
29
  0
MLINESTYLE
  5
18
102
{ACAD_REACTORS
330
17
102
}
330
17
100
AcDbMlineStyle
  2
Standard
 70
     0
  3

 62
   256
 51
90.0
 52
90.0
 71
     2
 49
0.5
 62
   256
  6
BYLAYER
 49
-0.5
 62
   256
  6
BYLAYER
  0
ACDBPLACEHOLDER
  5
F
102
{ACAD_REACTORS
330
E
102
}
330
E
  0
ENDSEC
  0
EOF
