  0
SECTION
  2
HEADER
  9
$ACADVER
  1
AC1018
  9
$ACADMAINTVER
 70
    39
  9
$DWGCODEPAGE
  3
ANSI_932
  9
$LASTSAVEDBY
  1
fottrem
  9
$INSBASE
 10
0.0
 20
0.0
 30
0.0
  9
$EXTMIN
 10
-108.7870551001708
 20
-267.6705787287744
 30
0.0
  9
$EXTMAX
 10
87.15030044671266
 20
328.4658040956556
 30
0.0
  9
$LIMMIN
 10
0.0
 20
0.0
  9
$LIMMAX
 10
12.0
 20
9.0
  9
$ORTHOMODE
 70
     0
  9
$REGENMODE
 70
     1
  9
$FILLMODE
 70
     1
  9
$QTEXTMODE
 70
     0
  9
$MIRRTEXT
 70
     1
  9
$LTSCALE
 40
1.0
  9
$ATTMODE
 70
     1
  9
$TEXTSIZE
 40
2.799999952316284
  9
$TRACEWID
 40
0.05
  9
$TEXTSTYLE
  7
STANDARD1
  9
$CLAYER
  8
0
  9
$CELTYPE
  6
ByBlock
  9
$CECOLOR
 62
   256
  9
$CELTSCALE
 40
1.0
  9
$DISPSILH
 70
     0
  9
$DIMSCALE
 40
1.0
  9
$DIMASZ
 40
1.931851648807023
  9
$DIMEXO
 40
1.0
  9
$DIMDLI
 40
0.38
  9
$DIMRND
 40
0.0
  9
$DIMDLE
 40
0.0
  9
$DIMEXE
 40
2.0
  9
$DIMTP
 40
0.0
  9
$DIMTM
 40
0.0
  9
$DIMTXT
 40
3.200000047683716
  9
$DIMCEN
 40
0.09
  9
$DIMTSZ
 40
0.0
  9
$DIMTOL
 70
     0
  9
$DIMLIM
 70
     0
  9
$DIMTIH
 70
     1
  9
$DIMTOH
 70
     1
  9
$DIMSE1
 70
     0
  9
$DIMSE2
 70
     0
  9
$DIMTAD
 70
     1
  9
$DIMZIN
 70
     0
  9
$DIMBLK
  1

  9
$DIMASO
 70
     1
  9
$DIMSHO
 70
     1
  9
$DIMPOST
  1

  9
$DIMAPOST
  1

  9
$DIMALT
 70
     0
  9
$DIMALTD
 70
     2
  9
$DIMALTF
 40
25.4
  9
$DIMLFAC
 40
1.0
  9
$DIMTOFL
 70
     0
  9
$DIMTVP
 40
0.0
  9
$DIMTIX
 70
     0
  9
$DIMSOXD
 70
     0
  9
$DIMSAH
 70
     0
  9
$DIMBLK1
  1

  9
$DIMBLK2
  1

  9
$DIMSTYLE
  2
Standard
  9
$DIMCLRD
 70
     0
  9
$DIMCLRE
 70
     0
  9
$DIMCLRT
 70
     0
  9
$DIMTFAC
 40
0.714285731315613
  9
$DIMGAP
 40
0.09
  9
$DIMJUST
 70
     0
  9
$DIMSD1
 70
     0
  9
$DIMSD2
 70
     0
  9
$DIMTOLJ
 70
     1
  9
$DIMTZIN
 70
     0
  9
$DIMALTZ
 70
     0
  9
$DIMALTTZ
 70
     0
  9
$DIMUPT
 70
     0
  9
$DIMDEC
 70
     4
  9
$DIMTDEC
 70
     4
  9
$DIMALTU
 70
     2
  9
$DIMALTTD
 70
     2
  9
$DIMTXSTY
  7
Standard
  9
$DIMAUNIT
 70
     0
  9
$DIMADEC
 70
     0
  9
$DIMALTRND
 40
0.0
  9
$DIMAZIN
 70
     0
  9
$DIMDSEP
 70
    46
  9
$DIMATFIT
 70
     3
  9
$DIMFRAC
 70
     0
  9
$DIMLDRBLK
  1

  9
$DIMLUNIT
 70
     2
  9
$DIMLWD
 70
    -2
  9
$DIMLWE
 70
    -2
  9
$DIMTMOVE
 70
     0
  9
$LUNITS
 70
     2
  9
$LUPREC
 70
     3
  9
$SKETCHINC
 40
0.1
  9
$FILLETRAD
 40
0.5
  9
$AUNITS
 70
     0
  9
$AUPREC
 70
     0
  9
$MENU
  1
.
  9
$ELEVATION
 40
0.0
  9
$PELEVATION
 40
0.0
  9
$THICKNESS
 40
0.0
  9
$LIMCHECK
 70
     0
  9
$CHAMFERA
 40
0.5
  9
$CHAMFERB
 40
0.5
  9
$CHAMFERC
 40
1.0
  9
$CHAMFERD
 40
0.0
  9
$SKPOLY
 70
     0
  9
$TDCREATE
 40
2453354.092125822
  9
$TDUCREATE
 40
2453353.717125822
  9
$TDUPDATE
 40
2456118.582071945
  9
$TDUUPDATE
 40
2456118.207071945
  9
$TDINDWG
 40
0.0425463079
  9
$TDUSRTIMER
 40
0.0425463079
  9
$USRTIMER
 70
     1
  9
$ANGBASE
 50
0.0
  9
$ANGDIR
 70
     0
  9
$PDMODE
 70
     0
  9
$PDSIZE
 40
0.0
  9
$PLINEWID
 40
0.0
  9
$SPLFRAME
 70
     0
  9
$SPLINETYPE
 70
     6
  9
$SPLINESEGS
 70
     8
  9
$HANDSEED
  5
17F
  9
$SURFTAB1
 70
     6
  9
$SURFTAB2
 70
     6
  9
$SURFTYPE
 70
     6
  9
$SURFU
 70
     6
  9
$SURFV
 70
     6
  9
$UCSBASE
  2

  9
$UCSNAME
  2

  9
$UCSORG
 10
0.0
 20
0.0
 30
0.0
  9
$UCSXDIR
 10
1.0
 20
0.0
 30
0.0
  9
$UCSYDIR
 10
0.0
 20
1.0
 30
0.0
  9
$UCSORTHOREF
  2

  9
$UCSORTHOVIEW
 70
     0
  9
$UCSORGTOP
 10
0.0
 20
0.0
 30
0.0
  9
$UCSORGBOTTOM
 10
0.0
 20
0.0
 30
0.0
  9
$UCSORGLEFT
 10
0.0
 20
0.0
 30
0.0
  9
$UCSORGRIGHT
 10
0.0
 20
0.0
 30
0.0
  9
$UCSORGFRONT
 10
0.0
 20
0.0
 30
0.0
  9
$UCSORGBACK
 10
0.0
 20
0.0
 30
0.0
  9
$PUCSBASE
  2

  9
$PUCSNAME
  2

  9
$PUCSORG
 10
0.0
 20
0.0
 30
0.0
  9
$PUCSXDIR
 10
1.0
 20
0.0
 30
0.0
  9
$PUCSYDIR
 10
0.0
 20
1.0
 30
0.0
  9
$PUCSORTHOREF
  2

  9
$PUCSORTHOVIEW
 70
     0
  9
$PUCSORGTOP
 10
0.0
 20
0.0
 30
0.0
  9
$PUCSORGBOTTOM
 10
0.0
 20
0.0
 30
0.0
  9
$PUCSORGLEFT
 10
0.0
 20
0.0
 30
0.0
  9
$PUCSORGRIGHT
 10
0.0
 20
0.0
 30
0.0
  9
$PUCSORGFRONT
 10
0.0
 20
0.0
 30
0.0
  9
$PUCSORGBACK
 10
0.0
 20
0.0
 30
0.0
  9
$USERI1
 70
     0
  9
$USERI2
 70
     0
  9
$USERI3
 70
     0
  9
$USERI4
 70
     0
  9
$USERI5
 70
     0
  9
$USERR1
 40
0.0
  9
$USERR2
 40
0.0
  9
$USERR3
 40
0.0
  9
$USERR4
 40
0.0
  9
$USERR5
 40
0.0
  9
$WORLDVIEW
 70
     1
  9
$SHADEDGE
 70
     3
  9
$SHADEDIF
 70
    70
  9
$TILEMODE
 70
     1
  9
$MAXACTVP
 70
    64
  9
$PINSBASE
 10
0.0
 20
0.0
 30
0.0
  9
$PLIMCHECK
 70
     0
  9
$PEXTMIN
 10
1.000000000000000E+20
 20
1.000000000000000E+20
 30
1.000000000000000E+20
  9
$PEXTMAX
 10
-1.000000000000000E+20
 20
-1.000000000000000E+20
 30
-1.000000000000000E+20
  9
$PLIMMIN
 10
0.0
 20
0.0
  9
$PLIMMAX
 10
12.0
 20
9.0
  9
$UNITMODE
 70
     0
  9
$VISRETAIN
 70
     1
  9
$PLINEGEN
 70
     0
  9
$PSLTSCALE
 70
     1
  9
$TREEDEPTH
 70
  3020
  9
$CMLSTYLE
  2
Standard
  9
$CMLJUST
 70
     0
  9
$CMLSCALE
 40
1.0
  9
$PROXYGRAPHICS
 70
     1
  9
$MEASUREMENT
 70
     0
  9
$CELWEIGHT
370
    -1
  9
$ENDCAPS
280
     0
  9
$JOINSTYLE
280
     0
  9
$LWDISPLAY
290
     0
  9
$INSUNITS
 70
     0
  9
$HYPERLINKBASE
  1

  9
$STYLESHEET
  1

  9
$XEDIT
290
     0
  9
$CEPSNTYPE
380
     0
  9
$PSTYLEMODE
290
     1
  9
$FINGERPRINTGUID
  2
{120F9B27-872C-412C-957F-18423BB70E42}
  9
$VERSIONGUID
  2
{FAEB1C32-E019-11D5-929B-00C0DF256EC4}
  9
$EXTNAMES
290
     1
  9
$PSVPSCALE
 40
0.0
  9
$OLESTARTUP
290
     0
  9
$SORTENTS
280
   127
  9
$INDEXCTL
280
     0
  9
$HIDETEXT
280
     1
  9
$XCLIPFRAME
290
     0
  9
$HALOGAP
280
     0
  9
$OBSCOLOR
 70
   257
  9
$OBSLTYPE
280
     0
  9
$INTERSECTIONDISPLAY
280
     0
  9
$INTERSECTIONCOLOR
 70
   257
  9
$DIMASSOC
280
     2
  9
$PROJECTNAME
  1

  0
ENDSEC
  0
SECTION
  2
CLASSES
  0
CLASS
  1
ACDBDICTIONARYWDFLT
  2
AcDbDictionaryWithDefault
  3
ObjectDBX Classes
 90
        0
 91
        3
280
     0
281
     0
  0
CLASS
  1
ACDBPLACEHOLDER
  2
AcDbPlaceHolder
  3
ObjectDBX Classes
 90
        0
 91
        1
280
     0
281
     0
  0
CLASS
  1
LAYOUT
  2
AcDbLayout
  3
ObjectDBX Classes
 90
        0
 91
        1
280
     0
281
     0
  0
CLASS
  1
DICTIONARYVAR
  2
AcDbDictionaryVar
  3
ObjectDBX Classes
 90
        0
 91
        3
280
     0
281
     0
  0
CLASS
  1
TABLESTYLE
  2
AcDbTableStyle
  3
ObjectDBX Classes
 90
     2047
 91
        3
280
     0
281
     0
  0
ENDSEC
  0
SECTION
  2
TABLES
  0
TABLE
  2
VPORT
  5
8
330
0
100
AcDbSymbolTable
 70
     2
  0
VPORT
  5
97
330
8
100
AcDbSymbolTableRecord
100
AcDbViewportTableRecord
  2
*Active
 70
     0
 10
0.0
 20
0.0
 11
1.0
 21
1.0
 12
-10.81837732672909
 22
30.39761268344057
 13
0.0
 23
0.0
 14
0.5
 24
0.5
 15
0.5
 25
0.5
 16
0.0
 26
0.0
 36
1.0
 17
0.0
 27
0.0
 37
0.0
 40
608.0591104809187
 41
1.972972972850329
 42
50.0
 43
0.0
 44
0.0
 50
0.0
 51
0.0
 71
    16
 72
   100
 73
     1
 74
     1
 75
     0
 76
     0
 77
     0
 78
     0
281
     0
 65
     0
110
0.0
120
0.0
130
0.0
111
1.0
121
0.0
131
0.0
112
0.0
122
1.0
132
0.0
 79
     0
146
0.0
  0
ENDTAB
  0
TABLE
  2
LTYPE
  5
5
330
0
100
AcDbSymbolTable
 70
     4
  0
LTYPE
  5
14
330
5
100
AcDbSymbolTableRecord
100
AcDbLinetypeTableRecord
  2
ByBlock
 70
     0
  3

 72
    65
 73
     0
 40
0.0
  0
LTYPE
  5
15
330
5
100
AcDbSymbolTableRecord
100
AcDbLinetypeTableRecord
  2
ByLayer
 70
     0
  3

 72
    65
 73
     0
 40
0.0
  0
LTYPE
  5
16
330
5
100
AcDbSymbolTableRecord
100
AcDbLinetypeTableRecord
  2
Continuous
 70
     0
  3
Solid line
 72
    65
 73
     0
 40
0.0
  0
LTYPE
  5
16E
330
5
100
AcDbSymbolTableRecord
100
AcDbLinetypeTableRecord
  2
DASHED
 70
     0
  3
-- -- -- -- -- -- -- -- -- -- -- -- -- -- --
 72
    65
 73
     2
 40
0.75
 49
0.5
 74
     4
 75
     0
340
0
 46
1.0
 50
0.0
 44
0.0
 45
0.0
 49
-0.25
 74
     4
 75
     0
340
0
 46
1.0
 50
0.0
 44
0.0
 45
0.0
  0
LTYPE
  5
16F
330
5
100
AcDbSymbolTableRecord
100
AcDbLinetypeTableRecord
  2
DASHDOT
 70
     0
  3
__ . __ . __ . __ . __ . __ . __ . __ . __ . __
 72
    65
 73
     4
 40
1.0
 49
0.5
 74
     4
 75
     0
340
0
 46
1.0
 50
0.0
 44
0.0
 45
0.0
 49
-0.25
 74
     4
 75
     0
340
0
 46
1.0
 50
0.0
 44
0.0
 45
0.0
 49
0.0
 74
     4
 75
     0
340
0
 46
1.0
 50
0.0
 44
0.0
 45
0.0
 49
-0.25
 74
     4
 75
     0
340
0
 46
1.0
 50
0.0
 44
0.0
 45
0.0
  0
LTYPE
  5
170
330
5
100
AcDbSymbolTableRecord
100
AcDbLinetypeTableRecord
  2
DIVIDE
 70
     0
  3
__ . . __ . . __ . . __ . . __ . . __ . . __
 72
    65
 73
     6
 40
1.25
 49
0.5
 74
     4
 75
     0
340
0
 46
1.0
 50
0.0
 44
0.0
 45
0.0
 49
-0.25
 74
     4
 75
     0
340
0
 46
1.0
 50
0.0
 44
0.0
 45
0.0
 49
0.0
 74
     4
 75
     0
340
0
 46
1.0
 50
0.0
 44
0.0
 45
0.0
 49
-0.25
 74
     4
 75
     0
340
0
 46
1.0
 50
0.0
 44
0.0
 45
0.0
 49
0.0
 74
     4
 75
     0
340
0
 46
1.0
 50
0.0
 44
0.0
 45
0.0
 49
-0.25
 74
     4
 75
     0
340
0
 46
1.0
 50
0.0
 44
0.0
 45
0.0
  0
ENDTAB
  0
TABLE
  2
LAYER
  5
2
330
0
100
AcDbSymbolTable
 70
     4
  0
LAYER
  5
10
330
2
100
AcDbSymbolTableRecord
100
AcDbLayerTableRecord
  2
0
 70
     0
 62
     3
  6
Continuous
370
    -3
390
F
  0
LAYER
  5
25
330
2
100
AcDbSymbolTableRecord
100
AcDbLayerTableRecord
  2
1
 70
     0
 62
    -7
  6
Continuous
370
    -3
390
F
  0
LAYER
  5
26
330
2
100
AcDbSymbolTableRecord
100
AcDbLayerTableRecord
  2
2
 70
     0
 62
    -1
  6
Continuous
370
    -3
390
F
  0
LAYER
  5
171
330
2
100
AcDbSymbolTableRecord
100
AcDbLayerTableRecord
  2
3
 70
     0
 62
    -4
  6
Continuous
370
    -3
390
F
  0
ENDTAB
  0
TABLE
  2
STYLE
  5
3
330
0
100
AcDbSymbolTable
 70
     5
  0
STYLE
  5
11
330
3
100
AcDbSymbolTableRecord
100
AcDbTextStyleTableRecord
  2
Standard
 70
     0
 40
0.0
 41
1.0
 50
0.0
 71
     0
 42
0.2
  3
txt
  4

  0
STYLE
  5
28
330
3
100
AcDbSymbolTableRecord
100
AcDbTextStyleTableRecord
  2
STANDARD1
 70
     0
 40
0.0
 41
1.0
 50
0.0
 71
     0
 42
2.799999952316284
  3
MONOTXT
  4
BIGFONT
  0
STYLE
  5
29
330
3
100
AcDbSymbolTableRecord
100
AcDbTextStyleTableRecord
  2
STANDARD2
 70
     4
 40
0.0
 41
1.0
 50
0.0
 71
     0
 42
2.799999952316284
  3
MONOTXT
  4
BIGFONT
  0
STYLE
  5
2A
330
3
100
AcDbSymbolTableRecord
100
AcDbTextStyleTableRecord
  2
STANDARD3
 70
     0
 40
0.0
 41
1.0
 50
0.0
 71
     0
 42
2.799999952316284
  3
MONOTXT
  4

  0
STYLE
  5
2B
330
3
100
AcDbSymbolTableRecord
100
AcDbTextStyleTableRecord
  2
STANDARD4
 70
     4
 40
0.0
 41
1.0
 50
0.0
 71
     0
 42
2.799999952316284
  3
MONOTXT
  4

  0
ENDTAB
  0
TABLE
  2
VIEW
  5
6
330
0
100
AcDbSymbolTable
 70
     0
  0
ENDTAB
  0
TABLE
  2
UCS
  5
7
330
0
100
AcDbSymbolTable
 70
     0
  0
ENDTAB
  0
TABLE
  2
APPID
  5
9
330
0
100
AcDbSymbolTable
 70
     1
  0
APPID
  5
12
330
9
100
AcDbSymbolTableRecord
100
AcDbRegAppTableRecord
  2
ACAD
 70
     0
  0
ENDTAB
  0
TABLE
  2
DIMSTYLE
  5
A
330
0
100
AcDbSymbolTable
 70
     1
100
AcDbDimStyleTable
  0
DIMSTYLE
105
27
330
A
100
AcDbSymbolTableRecord
100
AcDbDimStyleTableRecord
  2
Standard
 70
     0
340
11
  0
ENDTAB
  0
TABLE
  2
BLOCK_RECORD
  5
1
330
0
100
AcDbSymbolTable
 70
     0
  0
BLOCK_RECORD
  5
1F
330
1
100
AcDbSymbolTableRecord
100
AcDbBlockTableRecord
  2
*Model_Space
340
22
  0
BLOCK_RECORD
  5
73
330
1
100
AcDbSymbolTableRecord
100
AcDbBlockTableRecord
  2
*Paper_Space
340
74
  0
ENDTAB
  0
ENDSEC
  0
SECTION
  2
BLOCKS
  0
BLOCK
  5
20
330
1F
100
AcDbEntity
  8
0
100
AcDbBlockBegin
  2
*Model_Space
 70
     0
 71
     0
 10
0.0
 20
0.0
 30
0.0
  3
*Model_Space
  1

  0
ENDBLK
  5
21
330
1F
100
AcDbEntity
  8
0
100
AcDbBlockEnd
  0
BLOCK
  5
75
330
73
100
AcDbEntity
 67
     1
  8
0
100
AcDbBlockBegin
  2
*Paper_Space
 70
     0
 71
     0
 10
0.0
 20
0.0
 30
0.0
  3
*Paper_Space
  1

  0
ENDBLK
  5
76
330
73
100
AcDbEntity
 67
     1
  8
0
100
AcDbBlockEnd
  0
ENDSEC
  0
SECTION
  2
ENTITIES
  0
LINE
  5
2D
330
1F
100
AcDbEntity
  8
0
  6
DASHDOT
 62
     4
100
AcDbLine
 10
4.888957724067723
 20
-267.6705787287744
 30
0.0
 11
4.888957724067723
 21
-77.60247216832494
 31
0.0
  0
ARC
  5
2E
330
1F
100
AcDbEntity
  8
0
  6
Continuous
 62
     3
100
AcDbCircle
 10
4.888957724067723
 20
-183.6391916841587
 30
0.0
 40
90.0
100
AcDbArc
 50
218.9424412689814
 51
231.0575587310186
  0
ARC
  5
2F
330
1F
100
AcDbEntity
  8
0
  6
Continuous
 62
     3
100
AcDbCircle
 10
4.888957724067723
 20
-183.6391916841587
 30
0.0
 40
90.0
100
AcDbArc
 50
308.9424412689814
 51
321.0575587310186
  0
ARC
  5
30
330
1F
100
AcDbEntity
  8
0
  6
Continuous
 62
     3
100
AcDbCircle
 10
4.888957724067723
 20
-183.6391916841587
 30
0.0
 40
90.0
100
AcDbArc
 50
38.94244126898138
 51
51.05755873101864
  0
ARC
  5
31
330
1F
100
AcDbEntity
  8
0
  6
Continuous
 62
     3
100
AcDbCircle
 10
4.888957724067723
 20
-183.6391916841587
 30
0.0
 40
90.0
100
AcDbArc
 50
128.9424412689814
 51
141.0575587310186
  0
ARC
  5
32
330
1F
100
AcDbEntity
  8
0
  6
Continuous
 62
     3
100
AcDbCircle
 10
4.888957724067723
 20
-183.6391916841587
 30
0.0
 40
42.5
100
AcDbArc
 50
90.0
 51
180.0
  0
ARC
  5
33
330
1F
100
AcDbEntity
  8
0
  6
Continuous
 62
     3
100
AcDbCircle
 10
4.888957724067723
 20
-184.8242059852422
 30
0.0
 40
29.5
100
AcDbArc
 50
90.0
 51
177.6978104652469
  0
LINE
  5
34
330
1F
100
AcDbEntity
  8
0
  6
DASHED
 62
     3
100
AcDbLine
 10
-12.11104227593228
 20
14.67994608199874
 30
0.0
 11
-12.11104227593228
 21
15.67994608199876
 31
0.0
  0
LINE
  5
35
330
1F
100
AcDbEntity
  8
0
  6
DASHED
 62
     3
100
AcDbLine
 10
21.88895772406772
 20
14.67994608199874
 30
0.0
 11
21.88895772406772
 21
15.67994608199876
 31
0.0
  0
LINE
  5
36
330
1F
100
AcDbEntity
  8
0
  6
Continuous
 62
     3
100
AcDbLine
 10
-30.61104227593228
 20
-0.320053918001207
 30
0.0
 11
-30.61104227593228
 21
139.5799460819988
 31
0.0
  0
LINE
  5
37
330
1F
100
AcDbEntity
  8
0
  6
Continuous
 62
     3
100
AcDbLine
 10
40.38895772406772
 20
-0.320053918001207
 30
0.0
 11
40.38895772406772
 21
139.5799460819988
 31
0.0
  0
LINE
  5
38
330
1F
100
AcDbEntity
  8
0
  6
Continuous
 62
     3
100
AcDbLine
 10
13.38895772406724
 20
-5.320053918001236
 30
0.0
 11
13.38895772406756
 21
136.5799460819988
 31
0.0
  0
LINE
  5
39
330
1F
100
AcDbEntity
  8
0
  6
Continuous
 62
     3
100
AcDbLine
 10
-3.611042275932277
 20
-5.320053918001221
 30
0.0
 11
-3.611042275932277
 21
136.5799460819988
 31
0.0
  0
LINE
  5
3A
330
1F
100
AcDbEntity
  8
0
  6
DASHED
 62
     3
100
AcDbLine
 10
-46.38138736659539
 20
291.5799460819987
 30
0.0
 11
-46.38138736659539
 21
251.5799460819987
 31
0.0
  0
LINE
  5
3B
330
1F
100
AcDbEntity
  8
0
  6
DASHED
 62
     3
100
AcDbLine
 10
-12.43806488986138
 20
251.5799460819987
 30
0.0
 11
-46.38138736659539
 21
251.5799460819987
 31
0.0
  0
LINE
  5
3C
330
1F
100
AcDbEntity
  8
0
  6
DASHED
 62
     3
100
AcDbLine
 10
-12.43806488986138
 20
291.5799460819987
 30
0.0
 11
-46.38138736659539
 21
291.5799460819987
 31
0.0
  0
LINE
  5
3D
330
1F
100
AcDbEntity
  8
0
  6
DASHED
 62
     3
100
AcDbLine
 10
-12.43806488986138
 20
291.5799460819987
 30
0.0
 11
-12.43806488986138
 21
251.5799460819987
 31
0.0
  0
LINE
  5
3E
330
1F
100
AcDbEntity
  8
0
  6
DASHDOT
 62
     4
100
AcDbLine
 10
-12.82376403034209
 20
-103.6391916841587
 30
0.0
 11
23.08012213892664
 21
-103.6391916841587
 31
0.0
  0
ARC
  5
3F
330
1F
100
AcDbEntity
  8
0
  6
Continuous
 62
     3
100
AcDbCircle
 10
0.488957724067177
 20
-83.6391916841587
 30
0.0
 40
3.0
100
AcDbArc
 50
270.0
 51
323.1301023541673
  0
ARC
  5
40
330
1F
100
AcDbEntity
  8
0
  6
Continuous
 62
     3
100
AcDbCircle
 10
9.288957724068496
 20
-83.6391916841587
 30
0.0
 40
2.999999999999954
100
AcDbArc
 50
216.8698976458327
 51
270.0
  0
ARC
  5
41
330
1F
100
AcDbEntity
  8
0
  6
Continuous
 62
     3
100
AcDbCircle
 10
4.888957724067723
 20
-86.93919168415778
 30
0.0
 40
2.500000000000108
100
AcDbArc
 50
36.86989764582995
 51
143.1301023541669
  0
ARC
  5
42
330
1F
100
AcDbEntity
  8
0
  6
Continuous
 62
     3
100
AcDbCircle
 10
-0.621033201515502
 20
-81.13919168415867
 30
0.0
 40
3.000000000000028
100
AcDbArc
 50
270.0
 51
313.5311521673797
  0
ARC
  5
43
330
1F
100
AcDbEntity
  8
0
  6
Continuous
 62
     3
100
AcDbCircle
 10
10.69843274337973
 20
-81.43919168415869
 30
0.0
 40
2.999999999999901
100
AcDbArc
 50
223.4325365577826
 51
270.0
  0
ARC
  5
44
330
1F
100
AcDbEntity
  8
0
  6
Continuous
 62
     3
100
AcDbCircle
 10
4.888957724067723
 20
-86.93919168415778
 30
0.0
 40
5.000000000000111
100
AcDbArc
 50
43.4325365577796
 51
133.5311521673823
  0
LINE
  5
45
330
1F
100
AcDbEntity
  8
0
  6
Continuous
 62
     3
100
AcDbLine
 10
9.288957724068496
 20
-86.6391916841587
 30
0.0
 11
28.18895772406768
 21
-86.6391916841587
 31
0.0
  0
LINE
  5
46
330
1F
100
AcDbEntity
  8
0
  6
Continuous
 62
     3
100
AcDbLine
 10
10.69843274337882
 20
-84.43919168415869
 30
0.0
 11
29.88895772406772
 21
-84.43919168415869
 31
0.0
  0
ARC
  5
47
330
1F
100
AcDbEntity
  8
0
  6
Continuous
 62
     3
100
AcDbCircle
 10
-20.11104227593228
 20
-87.1391916841587
 30
0.0
 40
3.0
100
AcDbArc
 50
90.0
 51
180.0
  0
ARC
  5
48
330
1F
100
AcDbEntity
  8
0
  6
Continuous
 62
     3
100
AcDbCircle
 10
29.88895772406772
 20
-87.13919168415867
 30
0.0
 40
3.0
100
AcDbArc
 50
0.0
 51
90.0
  0
ARC
  5
49
330
1F
100
AcDbEntity
  8
0
  6
Continuous
 62
     3
100
AcDbCircle
 10
-18.41104227593223
 20
-88.6391916841587
 30
0.0
 40
2.0
100
AcDbArc
 50
90.0
 51
180.0
  0
ARC
  5
4A
330
1F
100
AcDbEntity
  8
0
  6
Continuous
 62
     3
100
AcDbCircle
 10
28.18895772406768
 20
-88.6391916841587
 30
0.0
 40
2.0
100
AcDbArc
 50
0.0
 51
90.0
  0
LINE
  5
4B
330
1F
100
AcDbEntity
  8
0
  6
Continuous
 62
     3
100
AcDbLine
 10
-18.41104227593223
 20
-86.6391916841587
 30
0.0
 11
0.488957724067177
 21
-86.6391916841587
 31
0.0
  0
LINE
  5
4C
330
1F
100
AcDbEntity
  8
0
  6
Continuous
 62
     3
100
AcDbLine
 10
-20.11104227593228
 20
-84.1391916841587
 30
0.0
 11
-0.621033201515502
 21
-84.1391916841587
 31
0.0
  0
LINE
  5
4D
330
1F
100
AcDbEntity
  8
0
  6
Continuous
 62
     3
100
AcDbLine
 10
32.88895772406772
 20
-113.6391916841587
 30
0.0
 11
32.88895772406772
 21
-87.13919168415867
 31
0.0
  0
LINE
  5
4E
330
1F
100
AcDbEntity
  8
0
  6
Continuous
 62
     3
100
AcDbLine
 10
-23.11104227593228
 20
-113.6391916841587
 30
0.0
 11
-23.11104227593228
 21
-87.1391916841587
 31
0.0
  0
LINE
  5
4F
330
1F
100
AcDbEntity
  8
0
  6
Continuous
 62
     3
100
AcDbLine
 10
-20.41104227593223
 20
-113.6391916841587
 30
0.0
 11
-20.41104227593223
 21
-88.6391916841587
 31
0.0
  0
LINE
  5
50
330
1F
100
AcDbEntity
  8
0
  6
Continuous
 62
     3
100
AcDbLine
 10
30.18895772406768
 20
-113.6391916841587
 30
0.0
 11
30.18895772406768
 21
-88.6391916841587
 31
0.0
  0
ARC
  5
51
330
1F
100
AcDbEntity
  8
0
  6
Continuous
 62
     3
100
AcDbCircle
 10
4.888957724067723
 20
-103.6391916841587
 30
0.0
 40
11.00000000000004
100
AcDbArc
 50
294.6199773286576
 51
245.3800226713435
  0
ARC
  5
52
330
1F
100
AcDbEntity
  8
0
  6
Continuous
 62
     3
100
AcDbCircle
 10
63.01724780479026
 20
291.6498164278866
 30
0.0
 40
1.0
100
AcDbArc
 50
0.0
 51
51.7118974767335
  0
ARC
  5
53
330
1F
100
AcDbEntity
  8
0
  6
Continuous
 62
     3
100
AcDbCircle
 10
60.74644487436785
 20
295.9905019160562
 30
0.0
 40
1.0
100
AcDbArc
 50
180.0
 51
231.7118974767457
  0
ARC
  5
54
330
1F
100
AcDbEntity
  8
0
  6
Continuous
 62
     3
100
AcDbCircle
 10
57.56387407257512
 20
291.6932628331401
 30
0.0
 40
1.0
100
AcDbArc
 50
0.0
 51
47.61200893942406
  0
ARC
  5
55
330
1F
100
AcDbEntity
  8
0
  6
Continuous
 62
     3
100
AcDbCircle
 10
55.87012473551999
 20
295.9470555108026
 30
0.0
 40
1.0
100
AcDbArc
 50
180.0
 51
227.6120089394315
  0
LINE
  5
56
330
1F
100
AcDbEntity
  8
0
  6
Continuous
 62
     3
100
AcDbLine
 10
58.23802166840846
 20
292.4318594883128
 30
0.0
 11
55.19597713968687
 21
295.2084588556299
 31
0.0
  0
LINE
  5
57
330
1F
100
AcDbEntity
  8
0
  6
Continuous
 62
     3
100
AcDbLine
 10
60.1268288148583
 20
295.2055968652395
 30
0.0
 11
63.63686386430004
 21
292.4347214787033
 31
0.0
  0
ARC
  5
58
330
1F
100
AcDbEntity
  8
0
  6
Continuous
 62
     3
100
AcDbCircle
 10
57.74644487436785
 20
302.5611933170478
 30
0.0
 40
2.0
100
AcDbArc
 50
0.0
 51
90.0
  0
LINE
  5
172
330
1F
100
AcDbEntity
  8
0
  6
Continuous
 62
     3
100
AcDbLine
 10
57.15930281473129
 20
304.5611933170478
 30
0.0
 11
57.74644487436785
 21
304.5611933170478
 31
0.0
  0
LINE
  5
173
330
1F
100
AcDbEntity
  8
0
  6
Continuous
 62
     3
100
AcDbLine
 10
59.74644487436785
 20
295.9905019160562
 30
0.0
 11
59.74644487436785
 21
302.5611933170478
 31
0.0
  0
LINE
  5
5B
330
1F
100
AcDbEntity
  8
0
  6
Continuous
 62
     3
100
AcDbLine
 10
57.15930281473129
 20
304.5611933170478
 30
0.0
 11
57.15930281473129
 21
293.4164506270531
 31
0.0
  0
LINE
  5
5C
330
1F
100
AcDbEntity
  8
0
  6
Continuous
 62
     3
100
AcDbLine
 10
64.01724780479026
 20
204.5799460819988
 30
0.0
 11
64.01724780479026
 21
291.6498164278866
 31
0.0
  0
LINE
  5
5D
330
1F
100
AcDbEntity
  8
0
  6
Continuous
 62
     3
100
AcDbLine
 10
-19.57834819305867
 20
231.9434426469958
 30
0.0
 11
-19.57834819305867
 21
204.5799460819988
 31
0.0
  0
LINE
  5
174
330
1F
100
AcDbEntity
  8
0
  6
Continuous
 62
     3
100
AcDbLine
 10
-15.99676125767701
 20
230.6291283954098
 30
0.0
 11
-15.99676125767701
 21
204.5799460819988
 31
0.0
  0
LINE
  5
5F
330
1F
100
AcDbEntity
  8
0
  6
Continuous
 62
     3
100
AcDbLine
 10
-25.31201880077606
 20
204.5799460819988
 30
0.0
 11
-25.31201880077606
 21
304.5611933170478
 31
0.0
  0
LINE
  5
60
330
1F
100
AcDbEntity
  8
0
  6
Continuous
 62
     3
100
AcDbLine
 10
-26.01952450948988
 20
304.5611933170478
 30
0.0
 11
-25.31201880077606
 21
304.5611933170478
 31
0.0
  0
ARC
  5
61
330
1F
100
AcDbEntity
  8
0
  6
Continuous
 62
     3
100
AcDbCircle
 10
-26.01952450948988
 20
302.5611933170479
 30
0.0
 40
1.999999999999886
100
AcDbArc
 50
90.0
 51
180.0
  0
LINE
  5
62
330
1F
100
AcDbEntity
  8
0
  6
Continuous
 62
     3
100
AcDbLine
 10
-33.97709683580524
 20
315.9232012997861
 30
0.0
 11
-33.97709683580524
 21
204.5799460819988
 31
0.0
  0
LINE
  5
63
330
1F
100
AcDbEntity
  8
0
  6
Continuous
 62
     3
100
AcDbLine
 10
-40.69679644988082
 20
315.4254457728175
 30
0.0
 11
-40.69679644988082
 21
204.5799460819988
 31
0.0
  0
LINE
  5
64
330
1F
100
AcDbEntity
  8
0
  6
Continuous
 62
     3
100
AcDbLine
 10
-37.86836932513461
 20
315.6349588931689
 30
0.0
 11
-37.86836932513461
 21
204.5799460819988
 31
0.0
  0
LINE
  5
65
330
1F
100
AcDbEntity
  8
0
  6
Continuous
 62
     3
100
AcDbLine
 10
-29.94575919838303
 20
204.5799460819988
 30
0.0
 11
-29.94575919838303
 21
291.907373176006
 31
0.0
  0
ARC
  5
66
330
1F
100
AcDbEntity
  8
0
  6
Continuous
 62
     3
100
AcDbCircle
 10
-28.94575919838303
 20
291.907373176006
 30
0.0
 40
0.999999999999897
100
AcDbArc
 50
154.4138421521131
 51
180.0
  0
LINE
  5
67
330
1F
100
AcDbEntity
  8
0
  6
Continuous
 62
     3
100
AcDbLine
 10
-28.01952450948988
 20
296.384363749766
 30
0.0
 11
-28.01952450948988
 21
302.5611933170479
 31
0.0
  0
LINE
  5
68
330
1F
100
AcDbEntity
  8
0
  6
Continuous
 62
     3
100
AcDbLine
 10
-28.11758762131967
 20
295.9524958883106
 30
0.0
 11
-29.84769608655301
 21
292.3392410374614
 31
0.0
  0
ARC
  5
69
330
1F
100
AcDbEntity
  8
0
  6
Continuous
 62
     3
100
AcDbCircle
 10
-29.01952450948988
 20
296.384363749766
 30
0.0
 40
1.000000000000102
100
AcDbArc
 50
334.4138421521187
 51
0.0
  0
ARC
  5
6A
330
1F
100
AcDbEntity
  8
0
  6
Continuous
 62
     3
100
AcDbCircle
 10
38.79743995762533
 20
296.384363749766
 30
0.0
 40
1.0
100
AcDbArc
 50
180.0
 51
205.5861578478813
  0
ARC
  5
175
330
1F
100
AcDbEntity
  8
0
  6
Continuous
 62
     3
100
AcDbCircle
 10
38.72367464651848
 20
291.907373176006
 30
0.0
 40
1.0
100
AcDbArc
 50
0.0
 51
25.58615784788131
  0
LINE
  5
176
330
1F
100
AcDbEntity
  8
0
  6
Continuous
 62
     3
100
AcDbLine
 10
37.89550306945512
 20
295.9524958883106
 30
0.0
 11
39.62561153468869
 21
292.3392410374614
 31
0.0
  0
ARC
  5
6D
330
1F
100
AcDbEntity
  8
0
  6
Continuous
 62
     3
100
AcDbCircle
 10
52.87012473551999
 20
302.5611933170478
 30
0.0
 40
2.0
100
AcDbArc
 50
0.0
 51
90.0
  0
LINE
  5
6E
330
1F
100
AcDbEntity
  8
0
  6
Continuous
 62
     3
100
AcDbLine
 10
54.87012473551999
 20
295.9470555108026
 30
0.0
 11
54.87012473551999
 21
302.5611933170478
 31
0.0
  0
LINE
  5
6F
330
1F
100
AcDbEntity
  8
0
  6
Continuous
 62
     3
100
AcDbLine
 10
52.87012473551999
 20
304.5611933170478
 30
0.0
 11
52.14118373640804
 21
304.5611933170478
 31
0.0
  0
LINE
  5
70
330
1F
100
AcDbEntity
  8
0
  6
Continuous
 62
     3
100
AcDbLine
 10
52.14118373640804
 20
304.5611933170478
 30
0.0
 11
52.14118373640804
 21
204.5799460819988
 31
0.0
  0
LINE
  5
71
330
1F
100
AcDbEntity
  8
0
  6
Continuous
 62
     3
100
AcDbLine
 10
58.56387407257512
 20
291.6932628331401
 30
0.0
 11
58.56387407257512
 21
204.5799460819988
 31
0.0
  0
LINE
  5
72
330
1F
100
AcDbEntity
  8
0
  6
Continuous
 62
     3
100
AcDbLine
 10
43.75501228394069
 20
315.9232012997861
 30
0.0
 11
43.75501228394069
 21
204.5799460819988
 31
0.0
  0
LINE
  5
177
330
1F
100
AcDbEntity
  8
0
  6
Continuous
 62
     3
100
AcDbLine
 10
47.64628477327005
 20
315.6349588931689
 30
0.0
 11
47.64628477327005
 21
204.5799460819988
 31
0.0
  0
LINE
  5
178
330
1F
100
AcDbEntity
  8
0
  6
Continuous
 62
     3
100
AcDbLine
 10
50.47471189801627
 20
315.4254457728175
 30
0.0
 11
50.47471189801627
 21
204.5799460819988
 31
0.0
  0
ARC
  5
179
330
1F
100
AcDbEntity
  8
0
  6
Continuous
 62
     3
100
AcDbCircle
 10
35.79743995762533
 20
302.5611933170479
 30
0.0
 40
2.0
100
AcDbArc
 50
0.0
 51
90.0
  0
LINE
  5
17A
330
1F
100
AcDbEntity
  8
0
  6
Continuous
 62
     3
100
AcDbLine
 10
37.79743995762533
 20
296.384363749766
 30
0.0
 11
37.79743995762533
 21
302.5611933170479
 31
0.0
  0
LINE
  5
77
330
1F
100
AcDbEntity
  8
0
  6
Continuous
 62
     3
100
AcDbLine
 10
35.79743995762533
 20
304.5611933170478
 30
0.0
 11
35.0899342489115
 21
304.5611933170478
 31
0.0
  0
LINE
  5
78
330
1F
100
AcDbEntity
  8
0
  6
Continuous
 62
     3
100
AcDbLine
 10
25.77467670581245
 20
230.6291283954098
 30
0.0
 11
25.77467670581245
 21
204.5799460819988
 31
0.0
  0
LINE
  5
79
330
1F
100
AcDbEntity
  8
0
  6
Continuous
 62
     3
100
AcDbLine
 10
29.35626364119412
 20
231.9434426469958
 30
0.0
 11
29.35626364119412
 21
204.5799460819988
 31
0.0
  0
LINE
  5
7A
330
1F
100
AcDbEntity
  8
0
  6
Continuous
 62
     3
100
AcDbLine
 10
39.72367464651848
 20
204.5799460819988
 30
0.0
 11
39.72367464651848
 21
291.907373176006
 31
0.0
  0
LINE
  5
7B
330
1F
100
AcDbEntity
  8
0
  6
Continuous
 62
     3
100
AcDbLine
 10
35.0899342489115
 20
204.5799460819988
 30
0.0
 11
35.0899342489115
 21
304.5611933170478
 31
0.0
  0
ARC
  5
7C
330
1F
100
AcDbEntity
  8
0
  6
Continuous
 62
     3
100
AcDbCircle
 10
-15.11104227593205
 20
236.5799460819989
 30
0.0
 40
5.0
100
AcDbArc
 50
180.0
 51
270.0
  0
ARC
  5
7D
330
1F
100
AcDbEntity
  8
0
  6
Continuous
 62
     3
100
AcDbCircle
 10
24.88895772406772
 20
236.5799460819989
 30
0.0
 40
5.0
100
AcDbArc
 50
270.0
 51
0.0
  0
ARC
  5
7E
330
1F
100
AcDbEntity
  8
0
  6
Continuous
 62
     3
100
AcDbCircle
 10
4.888957724067723
 20
230.5799460819989
 30
0.0
 40
4.999999999999968
100
AcDbArc
 50
202.0243128370423
 51
337.9756871629577
  0
ARC
  5
7F
330
1F
100
AcDbEntity
  8
0
  6
Continuous
 62
     3
100
AcDbCircle
 10
-2.527240763027976
 20
227.5799460819989
 30
0.0
 40
3.000000000000065
100
AcDbArc
 50
22.02431283704166
 51
90.0
  0
ARC
  5
80
330
1F
100
AcDbEntity
  8
0
  6
Continuous
 62
     3
100
AcDbCircle
 10
12.30515621116342
 20
227.5799460819989
 30
0.0
 40
3.0
100
AcDbArc
 50
90.0
 51
157.9756871629584
  0
LINE
  5
81
330
1F
100
AcDbEntity
  8
0
  6
Continuous
 62
     3
100
AcDbLine
 10
12.30515621116342
 20
230.5799460819989
 30
0.0
 11
24.88895772406772
 21
230.5799460819989
 31
0.0
  0
ARC
  5
82
330
1F
100
AcDbEntity
  8
0
  6
Continuous
 62
     3
100
AcDbCircle
 10
4.888957724067723
 20
230.5799460819989
 30
0.0
 40
5.0
100
AcDbArc
 50
0.0
 51
180.0
  0
LINE
  5
83
330
1F
100
AcDbEntity
  8
0
  6
Continuous
 62
     3
100
AcDbLine
 10
-20.11104227593228
 20
236.5799460819989
 30
0.0
 11
-20.11104227593228
 21
302.5799460819988
 31
0.0
  0
ARC
  5
84
330
1F
100
AcDbEntity
  8
0
  6
Continuous
 62
     3
100
AcDbCircle
 10
-15.11104227593228
 20
302.5799460819988
 30
0.0
 40
5.0
100
AcDbArc
 50
90.0
 51
180.0
  0
LINE
  5
85
330
1F
100
AcDbEntity
  8
0
  6
Continuous
 62
     3
100
AcDbLine
 10
-15.11104227593228
 20
307.5799460819988
 30
0.0
 11
24.88895772406772
 21
307.5799460819988
 31
0.0
  0
LINE
  5
86
330
1F
100
AcDbEntity
  8
0
  6
Continuous
 62
     3
100
AcDbLine
 10
29.88895772406772
 20
236.5799460819989
 30
0.0
 11
29.88895772406772
 21
302.5799460819988
 31
0.0
  0
ARC
  5
87
330
1F
100
AcDbEntity
  8
0
  6
Continuous
 62
     3
100
AcDbCircle
 10
24.88895772406772
 20
302.5799460819988
 30
0.0
 40
5.0
100
AcDbArc
 50
0.0
 51
90.0
  0
ARC
  5
88
330
1F
100
AcDbEntity
  8
0
  6
Continuous
 62
     3
100
AcDbCircle
 10
24.88895772406772
 20
238.5799460819989
 30
0.0
 40
8.0
100
AcDbArc
 50
270.0
 51
0.0
  0
ARC
  5
89
330
1F
100
AcDbEntity
  8
0
  6
Continuous
 62
     3
100
AcDbCircle
 10
-15.11104227593205
 20
238.5799460819989
 30
0.0
 40
8.000000000000227
100
AcDbArc
 50
180.0
 51
270.0
  0
ARC
  5
8A
330
1F
100
AcDbEntity
  8
0
  6
Continuous
 62
     3
100
AcDbCircle
 10
-15.11104227593228
 20
302.5799460819988
 30
0.0
 40
8.0
100
AcDbArc
 50
90.0
 51
180.0
  0
ARC
  5
8B
330
1F
100
AcDbEntity
  8
0
  6
Continuous
 62
     3
100
AcDbCircle
 10
24.88895772406772
 20
302.5799460819988
 30
0.0
 40
8.0
100
AcDbArc
 50
0.0
 51
90.0
  0
LINE
  5
8C
330
1F
100
AcDbEntity
  8
0
  6
Continuous
 62
     3
100
AcDbLine
 10
-15.11104227593228
 20
310.5799460819988
 30
0.0
 11
24.88895772406772
 21
310.5799460819988
 31
0.0
  0
LINE
  5
8D
330
1F
100
AcDbEntity
  8
0
  6
Continuous
 62
     3
100
AcDbLine
 10
-23.11104227593228
 20
238.5799460819989
 30
0.0
 11
-23.11104227593228
 21
302.5799460819988
 31
0.0
  0
LINE
  5
8E
330
1F
100
AcDbEntity
  8
0
  6
Continuous
 62
     3
100
AcDbLine
 10
32.88895772406772
 20
238.5799460819989
 30
0.0
 11
32.88895772406772
 21
302.5799460819988
 31
0.0
  0
LINE
  5
8F
330
1F
100
AcDbEntity
  8
0
  6
Continuous
 62
     3
100
AcDbLine
 10
-15.11104227593205
 20
230.5799460819989
 30
0.0
 11
-2.527240763027976
 21
230.5799460819989
 31
0.0
  0
POINT
  5
90
330
1F
100
AcDbEntity
  8
0
  6
Continuous
 62
     3
100
AcDbPoint
 10
63.88895772406772
 20
304.5799460819988
 30
0.0
  0
POINT
  5
91
330
1F
100
AcDbEntity
  8
0
  6
Continuous
 62
     3
100
AcDbPoint
 10
63.88895772406772
 20
295.5799460819987
 30
0.0
  0
LINE
  5
17B
330
1F
100
AcDbEntity
  8
0
  6
Continuous
 62
     3
100
AcDbLine
 10
64.38895772406772
 20
295.2912709474039
 30
0.0
 11
68.40487551564433
 21
292.9726797293937
 31
0.0
  0
ARC
  5
17C
330
1F
100
AcDbEntity
  8
0
  6
Continuous
 62
     3
100
AcDbCircle
 10
64.88895772406772
 20
296.1572963511884
 30
0.0
 40
1.0
100
AcDbArc
 50
180.0
 51
240.0000000000011
  0
LINE
  5
94
330
1F
100
AcDbEntity
  8
0
  6
Continuous
 62
     3
100
AcDbLine
 10
63.88895772406772
 20
296.1572963511884
 30
0.0
 11
63.88895772406772
 21
302.5799460819988
 31
0.0
  0
ARC
  5
95
330
1F
100
AcDbEntity
  8
0
  6
Continuous
 62
     3
100
AcDbCircle
 10
61.88895772406772
 20
302.5799460819988
 30
0.0
 40
2.0
100
AcDbArc
 50
0.0
 51
82.14773017087705
  0
ARC
  5
96
330
1F
100
AcDbEntity
  8
0
  6
Continuous
 62
     3
100
AcDbCircle
 10
-52.11104227593205
 20
302.5799460819988
 30
0.0
 40
2.000000000000056
100
AcDbArc
 50
97.85226982912896
 51
180.0
  0
ARC
  5
17D
330
1F
100
AcDbEntity
  8
0
  6
Continuous
 62
     3
100
AcDbCircle
 10
-55.11104227593205
 20
296.1572963511884
 30
0.0
 40
1.000000000000033
100
AcDbArc
 50
299.9999999999989
 51
0.0
  0
POINT
  5
17E
330
1F
100
AcDbEntity
  8
0
  6
Continuous
 62
     3
100
AcDbPoint
 10
-54.11104227593228
 20
295.5799460819988
 30
0.0
  0
POINT
  5
99
330
1F
100
AcDbEntity
  8
0
  6
Continuous
 62
     3
100
AcDbPoint
 10
-54.11104227593228
 20
304.5799460819988
 30
0.0
  0
LINE
  5
9A
330
1F
100
AcDbEntity
  8
0
  6
Continuous
 62
     3
100
AcDbLine
 10
-54.11104227593205
 20
296.1572963511884
 30
0.0
 11
-54.11104227593205
 21
302.5799460819988
 31
0.0
  0
LINE
  5
9B
330
1F
100
AcDbEntity
  8
0
  6
Continuous
 62
     3
100
AcDbLine
 10
-52.16031075000819
 20
312.7734353658787
 30
0.0
 11
-54.71476010630818
 21
219.1102923015449
 31
0.0
  0
POINT
  5
9C
330
1F
100
AcDbEntity
  8
0
  6
Continuous
 62
     3
100
AcDbPoint
 10
-25.11104227593228
 20
316.5799460819987
 30
0.0
  0
POINT
  5
9D
330
1F
100
AcDbEntity
  8
0
  6
Continuous
 62
     3
100
AcDbPoint
 10
-25.11104227593228
 20
318.5799460819987
 30
0.0
  0
LINE
  5
9E
330
1F
100
AcDbEntity
  8
0
  6
Continuous
 62
     3
100
AcDbLine
 10
4.888957724067723
 20
318.5799460819987
 30
0.0
 11
-24.11104227593228
 21
318.5799460819987
 31
0.0
  0
ARC
  5
9F
330
1F
100
AcDbEntity
  8
0
  6
Continuous
 62
     3
100
AcDbCircle
 10
-24.11104227593228
 20
317.5799460819987
 30
0.0
 40
1.0
100
AcDbArc
 50
90.0
 51
180.0
  0
LINE
  5
A0
330
1F
100
AcDbEntity
  8
0
  6
Continuous
 62
     3
100
AcDbLine
 10
-25.11104227593228
 20
317.5086117390863
 30
0.0
 11
-25.11104227593228
 21
317.5799460819987
 31
0.0
  0
ARC
  5
A1
330
1F
100
AcDbEntity
  8
0
  6
Continuous
 62
     3
100
AcDbCircle
 10
-26.11104227593228
 20
317.5086117390863
 30
0.0
 40
1.000000000000034
100
AcDbArc
 50
274.2363947990588
 51
0.0
  0
LINE
  5
A2
330
1F
100
AcDbEntity
  8
0
  6
Continuous
 62
     3
100
AcDbLine
 10
4.888957724067723
 20
316.5799460819987
 30
0.0
 11
-25.74012436406178
 21
316.5799460819987
 31
0.0
  0
POINT
  5
A3
330
1F
100
AcDbEntity
  8
0
  6
Continuous
 62
     3
100
AcDbPoint
 10
-52.11104227593228
 20
314.5799460819987
 30
0.0
  0
LINE
  5
A4
330
1F
100
AcDbEntity
  8
0
  6
Continuous
 62
     3
100
AcDbLine
 10
-50.30879750801796
 20
314.7134456944368
 30
0.0
 11
-26.03717059041696
 21
316.5113439846295
 31
0.0
  0
ARC
  5
A5
330
1F
100
AcDbEntity
  8
0
  6
Continuous
 62
     3
100
AcDbCircle
 10
-50.16105413698733
 20
312.7189101855236
 30
0.0
 40
1.999999999999785
100
AcDbArc
 50
94.23639479905947
 51
178.4377750831584
  0
ARC
  5
A6
330
1F
100
AcDbEntity
  8
0
  6
Continuous
 62
     3
100
AcDbCircle
 10
59.938969585123
 20
312.7189101855236
 30
0.0
 40
2.0000000000001
100
AcDbArc
 50
1.562224916841569
 51
85.76360520094056
  0
ARC
  5
A7
330
1F
100
AcDbEntity
  8
0
  6
Continuous
 62
     3
100
AcDbCircle
 10
35.88895772406772
 20
317.5086117390863
 30
0.0
 40
1.0
100
AcDbArc
 50
180.0
 51
265.7636052009412
  0
ARC
  5
A8
330
1F
100
AcDbEntity
  8
0
  6
Continuous
 62
     3
100
AcDbCircle
 10
33.88895772406772
 20
317.5799460819987
 30
0.0
 40
1.0
100
AcDbArc
 50
0.0
 51
90.0
  0
POINT
  5
A9
330
1F
100
AcDbEntity
  8
0
  6
Continuous
 62
     3
100
AcDbPoint
 10
34.88895772406772
 20
318.5799460819987
 30
0.0
  0
POINT
  5
AA
330
1F
100
AcDbEntity
  8
0
  6
Continuous
 62
     3
100
AcDbPoint
 10
34.88895772406772
 20
316.5799460819987
 30
0.0
  0
POINT
  5
AB
330
1F
100
AcDbEntity
  8
0
  6
Continuous
 62
     3
100
AcDbPoint
 10
61.88895772406772
 20
314.5799460819987
 30
0.0
  0
LINE
  5
AC
330
1F
100
AcDbEntity
  8
0
  6
Continuous
 62
     3
100
AcDbLine
 10
60.08671295615363
 20
314.7134456944368
 30
0.0
 11
35.81508603855241
 21
316.5113439846295
 31
0.0
  0
LINE
  5
AD
330
1F
100
AcDbEntity
  8
0
  6
Continuous
 62
     3
100
AcDbLine
 10
34.88895772406772
 20
317.5086117390863
 30
0.0
 11
34.88895772406772
 21
317.5799460819987
 31
0.0
  0
LINE
  5
AE
330
1F
100
AcDbEntity
  8
0
  6
Continuous
 62
     3
100
AcDbLine
 10
4.888957724067723
 20
316.5799460819987
 30
0.0
 11
35.51803981219723
 21
316.5799460819987
 31
0.0
  0
LINE
  5
AF
330
1F
100
AcDbEntity
  8
0
  6
Continuous
 62
     3
100
AcDbLine
 10
4.888957724067723
 20
318.5799460819987
 30
0.0
 11
33.88895772406772
 21
318.5799460819987
 31
0.0
  0
POINT
  5
B0
330
1F
100
AcDbEntity
  8
0
  6
DASHED
 62
     3
100
AcDbPoint
 10
-108.7870551001708
 20
117.3216957241396
 30
0.0
  0
ARC
  5
B1
330
1F
100
AcDbEntity
  8
0
  6
Continuous
 62
     3
100
AcDbCircle
 10
4.888957724067723
 20
-184.8242059852422
 30
0.0
 40
29.50000000000001
100
AcDbArc
 50
177.6978104652469
 51
90.0
  0
ARC
  5
B2
330
1F
100
AcDbEntity
  8
0
  6
Continuous
 62
     3
100
AcDbCircle
 10
4.888957724067723
 20
-183.6391916841587
 30
0.0
 40
42.49999999999994
100
AcDbArc
 50
155.9677341208142
 51
90.0
  0
POINT
  5
B3
330
1F
100
AcDbEntity
  8
0
  6
DASHED
 62
     3
100
AcDbPoint
 10
-30.11104227593228
 20
117.5799460819988
 30
0.0
  0
LINE
  5
B4
330
1F
100
AcDbEntity
  8
0
  6
DASHED
 62
     3
100
AcDbLine
 10
-61.18663589114431
 20
158.5799460819988
 30
0.0
 11
-75.11104227593205
 21
158.5799460819988
 31
0.0
  0
LINE
  5
B5
330
1F
100
AcDbEntity
  8
0
  6
DASHED
 62
     3
100
AcDbLine
 10
-61.18663589114431
 20
176.5799460819988
 30
0.0
 11
-75.11104227593205
 21
176.5799460819989
 31
0.0
  0
LINE
  5
B6
330
1F
100
AcDbEntity
  8
0
  6
DASHDOT
 62
     4
100
AcDbLine
 10
-82.9507936063385
 20
-183.6391916841587
 30
0.0
 11
87.15030044671266
 21
-183.6391916841587
 31
0.0
  0
LINE
  5
B7
330
1F
100
AcDbEntity
  8
0
  6
DASHED
 62
     3
100
AcDbLine
 10
-75.11104227593228
 20
-174.6391916841587
 30
0.0
 11
-65.11104227593228
 21
-174.6391916841587
 31
0.0
  0
LINE
  5
B8
330
1F
100
AcDbEntity
  8
0
  6
DASHED
 62
     3
100
AcDbLine
 10
-75.11104227593228
 20
-192.6391916841587
 30
0.0
 11
-65.11104227593228
 21
-192.6391916841587
 31
0.0
  0
LINE
  5
B9
330
1F
100
AcDbEntity
  8
0
  6
DASHED
 62
     3
100
AcDbLine
 10
-75.11104227593228
 20
-193.6391916841587
 30
0.0
 11
-65.11104227593228
 21
-193.6391916841587
 31
0.0
  0
LINE
  5
BA
330
1F
100
AcDbEntity
  8
0
  6
DASHED
 62
     3
100
AcDbLine
 10
-75.11104227593228
 20
-173.6391916841587
 30
0.0
 11
-65.11104227593228
 21
-173.6391916841587
 31
0.0
  0
LINE
  5
BB
330
1F
100
AcDbEntity
  8
0
  6
Continuous
 62
     3
100
AcDbLine
 10
-47.07671812178819
 20
-32.1200539180012
 30
0.0
 11
-47.07671812178819
 21
-27.6200539180012
 31
0.0
  0
LINE
  5
BC
330
1F
100
AcDbEntity
  8
0
  6
Continuous
 62
     3
100
AcDbLine
 10
-54.07671812178819
 20
-32.1200539180012
 30
0.0
 11
-47.07671812178819
 21
-32.1200539180012
 31
0.0
  0
LINE
  5
BD
330
1F
100
AcDbEntity
  8
0
  6
Continuous
 62
     3
100
AcDbLine
 10
-54.07671812178819
 20
-32.1200539180012
 30
0.0
 11
-54.07671812178819
 21
-27.6200539180012
 31
0.0
  0
LINE
  5
BE
330
1F
100
AcDbEntity
  8
0
  6
DASHDOT
 62
     4
100
AcDbLine
 10
-50.57671812178819
 20
-34.2857282691246
 30
0.0
 11
-50.57671812178819
 21
-23.21510024311269
 31
0.0
  0
LINE
  5
BF
330
1F
100
AcDbEntity
  8
0
  6
DASHDOT
 62
     4
100
AcDbLine
 10
60.35463356992386
 20
-34.2857282691246
 30
0.0
 11
60.35463356992386
 21
-23.21510024311269
 31
0.0
  0
LINE
  5
C0
330
1F
100
AcDbEntity
  8
0
  6
Continuous
 62
     3
100
AcDbLine
 10
56.85463356992386
 20
-32.1200539180012
 30
0.0
 11
56.85463356992386
 21
-27.62005391800122
 31
0.0
  0
LINE
  5
C1
330
1F
100
AcDbEntity
  8
0
  6
Continuous
 62
     3
100
AcDbLine
 10
63.85463356992386
 20
-32.12005391800122
 30
0.0
 11
63.85463356992386
 21
-27.62005391800122
 31
0.0
  0
LINE
  5
C2
330
1F
100
AcDbEntity
  8
0
  6
Continuous
 62
     3
100
AcDbLine
 10
56.85463356992386
 20
-32.1200539180012
 30
0.0
 11
63.85463356992386
 21
-32.12005391800122
 31
0.0
  0
CIRCLE
  5
C3
330
1F
100
AcDbEntity
  8
0
  6
DASHED
 62
     3
100
AcDbCircle
 10
4.888957724067723
 20
163.5799460819988
 30
0.0
 40
4.0
  0
LINE
  5
C4
330
1F
100
AcDbEntity
  8
0
  6
DASHDOT
 62
     4
100
AcDbLine
 10
-3.578748360170494
 20
163.5799460819988
 30
0.0
 11
14.31384642471107
 21
163.5799460819988
 31
0.0
  0
ARC
  5
C5
330
1F
100
AcDbEntity
  8
0
  6
Continuous
 62
     3
100
AcDbCircle
 10
72.79627273404276
 20
184.5799460819988
 30
0.0
 40
2.0
100
AcDbArc
 50
270.0
 51
0.0
  0
LINE
  5
C6
330
1F
100
AcDbEntity
  8
0
  6
Continuous
 62
     3
100
AcDbLine
 10
65.88895772406772
 20
182.5799460819988
 30
0.0
 11
72.79627273404276
 21
182.5799460819988
 31
0.0
  0
ARC
  5
C7
330
1F
100
AcDbEntity
  8
0
  6
Continuous
 62
     3
100
AcDbCircle
 10
-56.1300555033356
 20
206.8165364192259
 30
0.0
 40
2.000000000000116
100
AcDbArc
 50
138.2158057643625
 51
180.0
  0
ARC
  5
C8
330
1F
100
AcDbEntity
  8
0
  6
Continuous
 62
     3
100
AcDbCircle
 10
-63.01835728590731
 20
206.816536419226
 30
0.0
 40
1.999999999999909
100
AcDbArc
 50
138.2158057643594
 51
180.0
  0
ARC
  5
C9
330
1F
100
AcDbEntity
  8
0
  6
Continuous
 62
     3
100
AcDbCircle
 10
-63.01835728590731
 20
184.5799460819988
 30
0.0
 40
2.0
100
AcDbArc
 50
180.0
 51
270.0
  0
LINE
  5
CA
330
1F
100
AcDbEntity
  8
0
  6
Continuous
 62
     3
100
AcDbLine
 10
-47.40677245520033
 20
182.5799460819988
 30
0.0
 11
-63.01835728590731
 21
182.5799460819988
 31
0.0
  0
LINE
  5
CB
330
1F
100
AcDbEntity
  8
0
  6
Continuous
 62
     3
100
AcDbLine
 10
-13.11104227593228
 20
195.5799460819988
 30
0.0
 11
-13.11104227593228
 21
230.5799460819989
 31
0.0
  0
LINE
  5
CC
330
1F
100
AcDbEntity
  8
0
  6
Continuous
 62
     3
100
AcDbLine
 10
22.88895772406772
 20
195.5799460819988
 30
0.0
 11
22.88895772406772
 21
230.5799460819989
 31
0.0
  0
LINE
  5
CD
330
1F
100
AcDbEntity
  8
0
  6
Continuous
 62
     3
100
AcDbLine
 10
74.79627273404276
 20
207.5799460819988
 30
0.0
 11
71.13651704523522
 21
211.8369585154206
 31
0.0
  0
LINE
  5
CE
330
1F
100
AcDbEntity
  8
0
  6
Continuous
 62
     3
100
AcDbLine
 10
74.79627273404276
 20
207.5799460819988
 30
0.0
 11
74.79627273404276
 21
184.5799460819988
 31
0.0
  0
LINE
  5
CF
330
1F
100
AcDbEntity
  8
0
  6
Continuous
 62
     3
100
AcDbLine
 10
-54.7147601063084
 20
219.1102923015446
 30
0.0
 11
-64.50967697133638
 21
208.1491900110688
 31
0.0
  0
LINE
  5
D0
330
1F
100
AcDbEntity
  8
0
  6
Continuous
 62
     3
100
AcDbLine
 10
-47.40677245520033
 20
219.5799460819988
 30
0.0
 11
-57.62137518876489
 21
208.1491900110687
 31
0.0
  0
LINE
  5
D1
330
1F
100
AcDbEntity
  8
0
  6
Continuous
 62
     3
100
AcDbLine
 10
-65.01835728590731
 20
206.816536419226
 30
0.0
 11
-65.01835728590731
 21
184.5799460819988
 31
0.0
  0
LINE
  5
D2
330
1F
100
AcDbEntity
  8
0
  6
Continuous
 62
     3
100
AcDbLine
 10
-58.1300555033356
 20
206.8165364192259
 30
0.0
 11
-58.1300555033356
 21
182.5799460819988
 31
0.0
  0
LINE
  5
D3
330
1F
100
AcDbEntity
  8
0
  6
Continuous
 62
     3
100
AcDbLine
 10
-47.40677245520033
 20
228.0294016051718
 30
0.0
 11
-47.40677245520033
 21
182.5799460819988
 31
0.0
  0
LINE
  5
D4
330
1F
100
AcDbEntity
  8
0
  6
Continuous
 62
     3
100
AcDbLine
 10
-57.97862405407568
 20
207.5799460819988
 30
0.0
 11
-64.8669258366474
 21
207.5799460819988
 31
0.0
  0
CIRCLE
  5
D5
330
1F
100
AcDbEntity
  8
0
  6
Continuous
 62
     3
100
AcDbCircle
 10
4.888957724067723
 20
-183.6391916841587
 30
0.0
 40
12.5
  0
CIRCLE
  5
D6
330
1F
100
AcDbEntity
  8
0
  6
Continuous
 62
     3
100
AcDbCircle
 10
-12.06860114985079
 20
-128.1735158383026
 30
0.0
 40
2.75
  0
CIRCLE
  5
D7
330
1F
100
AcDbEntity
  8
0
  6
Continuous
 62
     3
100
AcDbCircle
 10
-50.57671812178819
 20
-200.5967505580775
 30
0.0
 40
2.75
  0
CIRCLE
  5
D8
330
1F
100
AcDbEntity
  8
0
  6
Continuous
 62
     3
100
AcDbCircle
 10
21.84651659798669
 20
-239.1048675300148
 30
0.0
 40
2.75
  0
CIRCLE
  5
D9
330
1F
100
AcDbEntity
  8
0
  6
Continuous
 62
     3
100
AcDbCircle
 10
60.35463356992386
 20
-166.68163281024
 30
0.0
 40
2.75
  0
ARC
  5
DA
330
1F
100
AcDbEntity
  8
0
  6
DASHDOT
 62
     4
100
AcDbCircle
 10
4.888957724067723
 20
-183.6391916841587
 30
0.0
 40
58.00000000000004
100
AcDbArc
 50
191.1935359482655
 51
201.0973829750862
  0
LINE
  5
DB
330
1F
100
AcDbEntity
  8
0
  6
DASHDOT
 62
     4
100
AcDbLine
 10
-56.20808275800619
 20
-202.3184315058505
 30
0.0
 11
-45.64954680176402
 21
-199.0903631127428
 31
0.0
  0
LINE
  5
DC
330
1F
100
AcDbEntity
  8
0
  6
DASHDOT
 62
     4
100
AcDbLine
 10
23.69351742633125
 20
-245.1461350257483
 30
0.0
 11
19.67220300591134
 21
-231.9930082239697
 31
0.0
  0
ARC
  5
DD
330
1F
100
AcDbEntity
  8
0
  6
DASHDOT
 62
     4
100
AcDbCircle
 10
4.888957724067723
 20
-183.6391916841587
 30
0.0
 40
58.0
100
AcDbArc
 50
282.9641755178013
 51
292.0761484320089
  0
ARC
  5
DE
330
1F
100
AcDbEntity
  8
0
  6
DASHDOT
 62
     4
100
AcDbCircle
 10
4.888957724067723
 20
-183.6391916841587
 30
0.0
 40
57.99999999999995
100
AcDbArc
 50
12.47330241557759
 51
23.02425937060849
  0
LINE
  5
DF
330
1F
100
AcDbEntity
  8
0
  6
DASHDOT
 62
     4
100
AcDbLine
 10
56.46663023604947
 20
-167.8703147190189
 30
0.0
 11
65.85198269683588
 21
-165.000924515453
 31
0.0
  0
ARC
  5
E0
330
1F
100
AcDbEntity
  8
0
  6
DASHDOT
 62
     4
100
AcDbCircle
 10
4.888957724067723
 20
-183.6391916841587
 30
0.0
 40
58.00000000000001
100
AcDbArc
 50
103.8042412807567
 51
110.2550416871554
  0
LINE
  5
E1
330
1F
100
AcDbEntity
  8
0
  6
DASHDOT
 62
     4
100
AcDbLine
 10
-10.89034353561942
 20
-132.0274228410606
 30
0.0
 11
-13.63054335056108
 21
-123.0646331011884
 31
0.0
  0
ARC
  5
E2
330
1F
100
AcDbEntity
  8
0
  6
DASHDOT
 62
     4
100
AcDbCircle
 10
4.888957724067723
 20
-183.6391916841587
 30
0.0
 40
80.00000000000006
100
AcDbArc
 50
307.2099990364398
 51
325.119526025526
  0
LINE
  5
E3
330
1F
100
AcDbEntity
  8
0
  6
DASHDOT
 62
     4
100
AcDbLine
 10
-43.31653061033103
 20
-135.4337033497597
 30
0.0
 11
-65.43401506969076
 21
-113.3162188903999
 31
0.0
  0
CIRCLE
  5
E4
330
1F
100
AcDbEntity
  8
0
  6
Continuous
 62
     3
100
AcDbCircle
 10
4.888957724067723
 20
-183.6391916841587
 30
0.0
 40
62.5
  0
CIRCLE
  5
E5
330
1F
100
AcDbEntity
  8
0
  6
Continuous
 62
     3
100
AcDbCircle
 10
61.45750021899175
 20
-240.2077341790824
 30
0.0
 40
5.0
  0
CIRCLE
  5
E6
330
1F
100
AcDbEntity
  8
0
  6
Continuous
 62
     3
100
AcDbCircle
 10
-51.67958477085585
 20
-127.0706491892348
 30
0.0
 40
5.0
  0
LINE
  5
E7
330
1F
100
AcDbEntity
  8
0
  6
DASHDOT
 62
     4
100
AcDbLine
 10
75.32542868509972
 20
-254.0756626451905
 30
0.0
 11
53.5634861857543
 21
-232.3137201458451
 31
0.0
  0
ARC
  5
E8
330
1F
100
AcDbEntity
  8
0
  6
DASHDOT
 62
     4
100
AcDbCircle
 10
4.888957724067723
 20
-183.6391916841587
 30
0.0
 40
80.00000000000004
100
AcDbArc
 50
125.5620864298493
 51
141.9086983993793
  0
ARC
  5
E9
330
1F
100
AcDbEntity
  8
0
  6
Continuous
 62
     3
100
AcDbCircle
 10
-73.11104227593205
 20
-201.6391916841587
 30
0.0
 40
2.000000000000227
100
AcDbArc
 50
180.0
 51
270.0
  0
ARC
  5
EA
330
1F
100
AcDbEntity
  8
0
  6
Continuous
 62
     3
100
AcDbCircle
 10
-73.11104227593228
 20
-165.6391916841587
 30
0.0
 40
2.0
100
AcDbArc
 50
90.0
 51
180.0
  0
LINE
  5
EB
330
1F
100
AcDbEntity
  8
0
  6
Continuous
 62
     3
100
AcDbLine
 10
-73.11104227593205
 20
-203.6391916841587
 30
0.0
 11
-65.11104227593228
 21
-203.6391916841587
 31
0.0
  0
LINE
  5
EC
330
1F
100
AcDbEntity
  8
0
  6
Continuous
 62
     3
100
AcDbLine
 10
-73.11104227593228
 20
-163.6391916841587
 30
0.0
 11
-65.11104227593228
 21
-163.6391916841587
 31
0.0
  0
LINE
  5
ED
330
1F
100
AcDbEntity
  8
0
  6
Continuous
 62
     3
100
AcDbLine
 10
-75.11104227593228
 20
-201.6391916841587
 30
0.0
 11
-75.11104227593228
 21
-165.6391916841587
 31
0.0
  0
LINE
  5
EE
330
1F
100
AcDbEntity
  8
0
  6
Continuous
 62
     3
100
AcDbLine
 10
61.45750021899152
 20
-253.6391916841587
 30
0.0
 11
-51.67958477085607
 21
-253.6391916841587
 31
0.0
  0
LINE
  5
EF
330
1F
100
AcDbEntity
  8
0
  6
Continuous
 62
     3
100
AcDbLine
 10
-51.67958477085604
 20
-113.6391916841587
 30
0.0
 11
61.45750021899148
 21
-113.6391916841587
 31
0.0
  0
LINE
  5
F0
330
1F
100
AcDbEntity
  8
0
  6
Continuous
 62
     3
100
AcDbLine
 10
-65.11104227593228
 20
-240.2077341790825
 30
0.0
 11
-65.11104227593228
 21
-127.0706491892349
 31
0.0
  0
LINE
  5
F1
330
1F
100
AcDbEntity
  8
0
  6
Continuous
 62
     3
100
AcDbLine
 10
74.88895772406772
 20
-240.2077341790825
 30
0.0
 11
74.88895772406772
 21
-127.0706491892349
 31
0.0
  0
ARC
  5
F2
330
1F
100
AcDbEntity
  8
0
  6
Continuous
 62
     3
100
AcDbCircle
 10
-49.61104227593228
 20
-13.32005391800121
 30
0.0
 40
8.000000000000028
100
AcDbArc
 50
90.0
 51
179.9999999999999
  0
LINE
  5
F3
330
1F
100
AcDbEntity
  8
0
  6
DASHDOT
 62
     4
100
AcDbLine
 10
4.888957724067723
 20
-48.67168658349507
 30
0.0
 11
4.888957724067723
 21
328.4658040956556
 31
0.0
  0
LINE
  5
F4
330
1F
100
AcDbEntity
  8
0
  6
Continuous
 62
     3
100
AcDbLine
 10
-57.61104227593228
 20
-27.6200539180012
 30
0.0
 11
-57.61104227593228
 21
-19.32005391800121
 31
0.0
  0
ARC
  5
F5
330
1F
100
AcDbEntity
  8
0
  6
Continuous
 62
     3
100
AcDbCircle
 10
-55.61104227593205
 20
-19.32005391800121
 30
0.0
 40
2.000000000000014
100
AcDbArc
 50
90.0
 51
180.0
  0
LINE
  5
F6
330
1F
100
AcDbEntity
  8
0
  6
Continuous
 62
     3
100
AcDbLine
 10
-6.863733469390354
 20
-31.6200539180012
 30
0.0
 11
4.888957724067723
 21
-31.6200539180012
 31
0.0
  0
LINE
  5
F7
330
1F
100
AcDbEntity
  8
0
  6
Continuous
 62
     3
100
AcDbLine
 10
-6.863733469390354
 20
-31.6200539180012
 30
0.0
 11
-10.86373346939035
 21
-27.6200539180012
 31
0.0
  0
LINE
  5
F8
330
1F
100
AcDbEntity
  8
0
  6
Continuous
 62
     3
100
AcDbLine
 10
4.888957724067723
 20
-27.6200539180012
 30
0.0
 11
-57.61104227593228
 21
-27.6200539180012
 31
0.0
  0
LINE
  5
F9
330
1F
100
AcDbEntity
  8
0
  6
Continuous
 62
     3
100
AcDbLine
 10
4.888957724067723
 20
-25.32005391800119
 30
0.0
 11
-57.61104227593205
 21
-25.32005391800118
 31
0.0
  0
LINE
  5
FA
330
1F
100
AcDbEntity
  8
0
  6
Continuous
 62
     3
100
AcDbLine
 10
4.888957724067723
 20
-17.32005391800119
 30
0.0
 11
-55.61104227593205
 21
-17.32005391800119
 31
0.0
  0
ARC
  5
FB
330
1F
100
AcDbEntity
  8
0
  6
Continuous
 62
     3
100
AcDbCircle
 10
-43.61104227593228
 20
-0.320053918001207
 30
0.0
 40
5.0
100
AcDbArc
 50
270.0
 51
0.0
  0
ARC
  5
FC
330
1F
100
AcDbEntity
  8
0
  6
Continuous
 62
     3
100
AcDbCircle
 10
-24.11104227593228
 20
-4.320053918001179
 30
0.0
 40
1.0
100
AcDbArc
 50
180.0
 51
270.0
  0
ARC
  5
FD
330
1F
100
AcDbEntity
  8
0
  6
Continuous
 62
     3
100
AcDbCircle
 10
-25.61104227593228
 20
-0.320053918001207
 30
0.0
 40
5.0
100
AcDbArc
 50
180.0
 51
270.0
  0
LINE
  5
FE
330
1F
100
AcDbEntity
  8
0
  6
Continuous
 62
     3
100
AcDbLine
 10
-13.61104227593228
 20
-5.320053918001236
 30
0.0
 11
-13.61104227593228
 21
-2.320053918001236
 31
0.0
  0
LINE
  5
FF
330
1F
100
AcDbEntity
  8
0
  6
Continuous
 62
     3
100
AcDbLine
 10
-13.61104227593228
 20
-2.320053918001236
 30
0.0
 11
-18.61104227593228
 21
-2.320053918001179
 31
0.0
  0
LINE
  5
100
330
1F
100
AcDbEntity
  8
0
  6
Continuous
 62
     3
100
AcDbLine
 10
-18.61104227593228
 20
-4.320053918001236
 30
0.0
 11
-18.61104227593228
 21
-2.320053918001179
 31
0.0
  0
ARC
  5
101
330
1F
100
AcDbEntity
  8
0
  6
Continuous
 62
     3
100
AcDbCircle
 10
-19.61104227593228
 20
-4.320053918001236
 30
0.0
 40
1.0
100
AcDbArc
 50
270.0
 51
0.0
  0
LINE
  5
102
330
1F
100
AcDbEntity
  8
0
  6
Continuous
 62
     3
100
AcDbLine
 10
4.888957724067723
 20
-5.320053918001236
 30
0.0
 11
-49.61104227593228
 21
-5.320053918001179
 31
0.0
  0
LINE
  5
103
330
1F
100
AcDbEntity
  8
0
  6
Continuous
 62
     3
100
AcDbLine
 10
-25.11104227593228
 20
-4.320053918001179
 30
0.0
 11
-25.11104227593228
 21
6.679946081998764
 31
0.0
  0
LINE
  5
104
330
1F
100
AcDbEntity
  8
0
  6
Continuous
 62
     3
100
AcDbLine
 10
-12.11104227593228
 20
12.67994608199876
 30
0.0
 11
-12.11104227593228
 21
14.67994608199874
 31
0.0
  0
LINE
  5
105
330
1F
100
AcDbEntity
  8
0
  6
Continuous
 62
     3
100
AcDbLine
 10
-13.11104227593228
 20
11.67994608199876
 30
0.0
 11
-20.11104227593228
 21
11.67994608199876
 31
0.0
  0
ARC
  5
106
330
1F
100
AcDbEntity
  8
0
  6
Continuous
 62
     3
100
AcDbCircle
 10
-13.11104227593228
 20
12.67994608199876
 30
0.0
 40
1.0
100
AcDbArc
 50
270.0
 51
0.0
  0
ARC
  5
107
330
1F
100
AcDbEntity
  8
0
  6
Continuous
 62
     3
100
AcDbCircle
 10
-20.11104227593228
 20
6.679946081998764
 30
0.0
 40
5.0
100
AcDbArc
 50
90.0
 51
180.0
  0
LINE
  5
108
330
1F
100
AcDbEntity
  8
0
  6
Continuous
 62
     3
100
AcDbLine
 10
-12.11104227593228
 20
15.67994608199876
 30
0.0
 11
-20.11104227593228
 21
23.67994608199876
 31
0.0
  0
LINE
  5
109
330
1F
100
AcDbEntity
  8
0
  6
Continuous
 62
     3
100
AcDbLine
 10
-20.11104227593228
 20
23.67994608199876
 30
0.0
 11
-30.61104227593228
 21
23.67994608199876
 31
0.0
  0
ARC
  5
10A
330
1F
100
AcDbEntity
  8
0
  6
Continuous
 62
     3
100
AcDbCircle
 10
-58.61104227593228
 20
143.5799460819988
 30
0.0
 40
1.000000000000227
100
AcDbArc
 50
0.0
 51
90.0
  0
ARC
  5
10B
330
1F
100
AcDbEntity
  8
0
  6
Continuous
 62
     3
100
AcDbCircle
 10
-43.61104227593228
 20
139.5799460819988
 30
0.0
 40
5.0
100
AcDbArc
 50
0.0
 51
90.0
  0
ARC
  5
10C
330
1F
100
AcDbEntity
  8
0
  6
Continuous
 62
     3
100
AcDbCircle
 10
-25.61104227593228
 20
139.5799460819988
 30
0.0
 40
5.0
100
AcDbArc
 50
90.0
 51
180.0
  0
LINE
  5
10D
330
1F
100
AcDbEntity
  8
0
  6
Continuous
 62
     3
100
AcDbLine
 10
-57.61104227593228
 20
-25.32005391800118
 30
0.0
 11
-57.61104227593211
 21
143.5799460819988
 31
0.0
  0
LINE
  5
10E
330
1F
100
AcDbEntity
  8
0
  6
Continuous
 62
     3
100
AcDbLine
 10
-38.61104227593228
 20
-0.320053918001207
 30
0.0
 11
-38.61104227593228
 21
139.5799460819988
 31
0.0
  0
ARC
  5
10F
330
1F
100
AcDbEntity
  8
0
  6
Continuous
 62
     3
100
AcDbCircle
 10
62.38895772406772
 20
-14.32005391800119
 30
0.0
 40
3.0
100
AcDbArc
 50
180.0
 51
270.0
  0
ARC
  5
110
330
1F
100
AcDbEntity
  8
0
  6
Continuous
 62
     3
100
AcDbCircle
 10
51.38895772406772
 20
-13.32005391800121
 30
0.0
 40
8.0
100
AcDbArc
 50
0.0
 51
90.0
  0
LINE
  5
111
330
1F
100
AcDbEntity
  8
0
  6
Continuous
 62
     3
100
AcDbLine
 10
59.38895772406772
 20
-14.32005391800119
 30
0.0
 11
59.38895772406772
 21
-13.32005391800121
 31
0.0
  0
ARC
  5
112
330
1F
100
AcDbEntity
  8
0
  6
Continuous
 62
     3
100
AcDbCircle
 10
67.38895772406772
 20
-12.61184998550186
 30
0.0
 40
5.0
100
AcDbArc
 50
180.0
 51
253.3984504009783
  0
ARC
  5
113
330
1F
100
AcDbEntity
  8
0
  6
Continuous
 62
     3
100
AcDbCircle
 10
65.38895772406772
 20
-19.32005391800121
 30
0.0
 40
2.0
100
AcDbArc
 50
0.0
 51
73.39845040098328
  0
ARC
  5
114
330
1F
100
AcDbEntity
  8
0
  6
Continuous
 62
     3
100
AcDbCircle
 10
53.38895772406772
 20
-0.320053918001207
 30
0.0
 40
5.0
100
AcDbArc
 50
180.0
 51
270.0
  0
ARC
  5
115
330
1F
100
AcDbEntity
  8
0
  6
Continuous
 62
     3
100
AcDbCircle
 10
35.38895772406772
 20
-0.320053918001207
 30
0.0
 40
5.0
100
AcDbArc
 50
270.0
 51
0.0
  0
LINE
  5
116
330
1F
100
AcDbEntity
  8
0
  6
Continuous
 62
     3
100
AcDbLine
 10
67.38895772406772
 20
-27.62005391800122
 30
0.0
 11
67.38895772406772
 21
-19.32005391800121
 31
0.0
  0
ARC
  5
117
330
1F
100
AcDbEntity
  8
0
  6
Continuous
 62
     3
100
AcDbCircle
 10
67.38895772406772
 20
139.5799460819988
 30
0.0
 40
5.0
100
AcDbArc
 50
90.0
 51
180.0
  0
ARC
  5
118
330
1F
100
AcDbEntity
  8
0
  6
Continuous
 62
     3
100
AcDbCircle
 10
53.38895772406772
 20
139.5799460819988
 30
0.0
 40
5.0
100
AcDbArc
 50
90.0
 51
180.0
  0
ARC
  5
119
330
1F
100
AcDbEntity
  8
0
  6
Continuous
 62
     3
100
AcDbCircle
 10
35.38895772406772
 20
139.5799460819988
 30
0.0
 40
5.0
100
AcDbArc
 50
0.0
 51
90.0
  0
LINE
  5
11A
330
1F
100
AcDbEntity
  8
0
  6
Continuous
 62
     3
100
AcDbLine
 10
62.38895772406772
 20
-12.61184998550186
 30
0.0
 11
62.38895772406772
 21
139.5799460819988
 31
0.0
  0
LINE
  5
11B
330
1F
100
AcDbEntity
  8
0
  6
Continuous
 62
     3
100
AcDbLine
 10
48.38895772406772
 20
-0.320053918001207
 30
0.0
 11
48.38895772406772
 21
139.5799460819988
 31
0.0
  0
LINE
  5
11C
330
1F
100
AcDbEntity
  8
0
  6
Continuous
 62
     3
100
AcDbLine
 10
4.888957724067723
 20
-25.32005391800119
 30
0.0
 11
67.38895772406772
 21
-25.32005391800119
 31
0.0
  0
LINE
  5
11D
330
1F
100
AcDbEntity
  8
0
  6
DASHED
 62
     3
100
AcDbLine
 10
-61.18663589114431
 20
157.5799460819988
 30
0.0
 11
-75.11104227593205
 21
157.5799460819988
 31
0.0
  0
LINE
  5
11E
330
1F
100
AcDbEntity
  8
0
  6
DASHED
 62
     3
100
AcDbLine
 10
-61.18663589114431
 20
177.5799460819988
 30
0.0
 11
-75.11104227593205
 21
177.5799460819989
 31
0.0
  0
LINE
  5
11F
330
1F
100
AcDbEntity
  8
0
  6
Continuous
 62
     3
100
AcDbLine
 10
68.88895772406772
 20
144.5799460819988
 30
0.0
 11
68.88895772406772
 21
147.5799460819988
 31
0.0
  0
LINE
  5
120
330
1F
100
AcDbEntity
  8
0
  6
Continuous
 62
     3
100
AcDbLine
 10
74.88895772406772
 20
147.5799460819988
 30
0.0
 11
74.88895772406772
 21
155.5799460819988
 31
0.0
  0
LINE
  5
121
330
1F
100
AcDbEntity
  8
0
  6
Continuous
 62
     3
100
AcDbLine
 10
4.888957724067723
 20
147.5799460819988
 30
0.0
 11
74.88895772406772
 21
147.5799460819988
 31
0.0
  0
LINE
  5
122
330
1F
100
AcDbEntity
  8
0
  6
Continuous
 62
     3
100
AcDbLine
 10
4.888957724067723
 20
155.5799460819988
 30
0.0
 11
74.88895772406772
 21
155.5799460819988
 31
0.0
  0
LINE
  5
123
330
1F
100
AcDbEntity
  8
0
  6
Continuous
 62
     3
100
AcDbLine
 10
4.888957724067723
 20
144.5799460819988
 30
0.0
 11
68.88895772406772
 21
144.5799460819988
 31
0.0
  0
LINE
  5
124
330
1F
100
AcDbEntity
  8
0
  6
Continuous
 62
     3
100
AcDbLine
 10
-56.11104227593228
 20
155.5799460819988
 30
0.0
 11
-56.11104227593228
 21
182.5799460819988
 31
0.0
  0
LINE
  5
125
330
1F
100
AcDbEntity
  8
0
  6
Continuous
 62
     3
100
AcDbLine
 10
-59.11104227593228
 20
144.5799460819988
 30
0.0
 11
-59.11104227593228
 21
147.5799460819988
 31
0.0
  0
LINE
  5
126
330
1F
100
AcDbEntity
  8
0
  6
Continuous
 62
     3
100
AcDbLine
 10
4.888957724067723
 20
155.5799460819988
 30
0.0
 11
-65.11104227593228
 21
155.5799460819988
 31
0.0
  0
LINE
  5
127
330
1F
100
AcDbEntity
  8
0
  6
Continuous
 62
     3
100
AcDbLine
 10
4.888957724067723
 20
144.5799460819988
 30
0.0
 11
-59.11104227593228
 21
144.5799460819988
 31
0.0
  0
LINE
  5
128
330
1F
100
AcDbEntity
  8
0
  6
Continuous
 62
     3
100
AcDbLine
 10
-65.11104227593228
 20
147.5799460819988
 30
0.0
 11
-65.11104227593228
 21
155.5799460819988
 31
0.0
  0
LINE
  5
129
330
1F
100
AcDbEntity
  8
0
  6
DASHDOT
 62
     4
100
AcDbLine
 10
-61.18663589114431
 20
167.5799460819988
 30
0.0
 11
-84.83410307821146
 21
167.5799460819988
 31
0.0
  0
ARC
  5
12A
330
1F
100
AcDbEntity
  8
0
  6
Continuous
 62
     3
100
AcDbCircle
 10
-73.11104227593205
 20
154.5799460819988
 30
0.0
 40
2.0
100
AcDbArc
 50
179.9999999999984
 51
270.0
  0
ARC
  5
12B
330
1F
100
AcDbEntity
  8
0
  6
Continuous
 62
     3
100
AcDbCircle
 10
-73.11104227593228
 20
190.5799460819988
 30
0.0
 40
2.0
100
AcDbArc
 50
90.0
 51
179.9999999999984
  0
LINE
  5
12C
330
1F
100
AcDbEntity
  8
0
  6
Continuous
 62
     3
100
AcDbLine
 10
-75.11104227593205
 20
154.5799460819989
 30
0.0
 11
-75.11104227593205
 21
190.5799460819989
 31
0.0
  0
LINE
  5
12D
330
1F
100
AcDbEntity
  8
0
  6
Continuous
 62
     3
100
AcDbLine
 10
-65.01835728590731
 20
192.5799460819988
 30
0.0
 11
-73.11104227593228
 21
192.5799460819988
 31
0.0
  0
LINE
  5
12E
330
1F
100
AcDbEntity
  8
0
  6
Continuous
 62
     3
100
AcDbLine
 10
-65.11104227593228
 20
152.5799460819988
 30
0.0
 11
-73.11104227593205
 21
152.5799460819988
 31
0.0
  0
LINE
  5
12F
330
1F
100
AcDbEntity
  8
0
  6
Continuous
 62
     3
100
AcDbLine
 10
4.888957724067723
 20
147.5799460819988
 30
0.0
 11
-65.11104227593228
 21
147.5799460819988
 31
0.0
  0
LINE
  5
130
330
1F
100
AcDbEntity
  8
0
  6
Continuous
 62
     3
100
AcDbLine
 10
-3.361042275932277
 20
136.5799460819988
 30
0.0
 11
-3.361042275932277
 21
137.5799460819987
 31
0.0
  0
LINE
  5
131
330
1F
100
AcDbEntity
  8
0
  6
Continuous
 62
     3
100
AcDbLine
 10
-3.611042275932277
 20
142.5799460819987
 30
0.0
 11
-3.611042275932277
 21
144.5799460819988
 31
0.0
  0
LINE
  5
132
330
1F
100
AcDbEntity
  8
0
  6
Continuous
 62
     3
100
AcDbLine
 10
-3.611042275932277
 20
142.5799460819987
 30
0.0
 11
4.888957724067495
 21
142.5799460819987
 31
0.0
  0
LINE
  5
133
330
1F
100
AcDbEntity
  8
0
  6
Continuous
 62
     3
100
AcDbLine
 10
-6.611042275932277
 20
137.5799460819988
 30
0.0
 11
-6.611042275932277
 21
140.0799460819988
 31
0.0
  0
LINE
  5
134
330
1F
100
AcDbEntity
  8
0
  6
Continuous
 62
     3
100
AcDbLine
 10
-6.611042275932277
 20
137.5799460819988
 30
0.0
 11
4.888957724067495
 21
137.5799460819987
 31
0.0
  0
LINE
  5
135
330
1F
100
AcDbEntity
  8
0
  6
Continuous
 62
     3
100
AcDbLine
 10
-10.11104227593228
 20
140.0799460819988
 30
0.0
 11
-10.11104227593228
 21
141.5799460819988
 31
0.0
  0
LINE
  5
136
330
1F
100
AcDbEntity
  8
0
  6
Continuous
 62
     3
100
AcDbLine
 10
-10.11104227593228
 20
140.0799460819988
 30
0.0
 11
4.888957724067495
 21
140.0799460819987
 31
0.0
  0
LINE
  5
137
330
1F
100
AcDbEntity
  8
0
  6
Continuous
 62
     3
100
AcDbLine
 10
-10.11104227593228
 20
141.5799460819988
 30
0.0
 11
4.888957724067495
 21
141.5799460819987
 31
0.0
  0
LINE
  5
138
330
1F
100
AcDbEntity
  8
0
  6
Continuous
 62
     3
100
AcDbLine
 10
-3.361042275932277
 20
141.5799460819987
 30
0.0
 11
-3.361042275932277
 21
142.5799460819987
 31
0.0
  0
LINE
  5
139
330
1F
100
AcDbEntity
  8
0
  6
Continuous
 62
     3
100
AcDbLine
 10
4.888957724067723
 20
195.5799460819988
 30
0.0
 11
-65.01835728590731
 21
195.5799460819988
 31
0.0
  0
LINE
  5
13A
330
1F
100
AcDbEntity
  8
0
  6
Continuous
 62
     3
100
AcDbLine
 10
-13.11104227593228
 20
204.5799460819988
 30
0.0
 11
-47.40677245520033
 21
204.5799460819988
 31
0.0
  0
LINE
  5
13B
330
1F
100
AcDbEntity
  8
0
  6
Continuous
 62
     3
100
AcDbLine
 10
-59.12657395515134
 20
292.1344405745836
 30
0.0
 11
-61.36323566108194
 21
211.6702474664737
 31
0.0
  0
LINE
  5
13C
330
1F
100
AcDbEntity
  8
0
  6
Continuous
 62
     3
100
AcDbLine
 10
-54.61104227593205
 20
295.291270947404
 30
0.0
 11
-58.62696006750866
 21
292.9726797293938
 31
0.0
  0
ARC
  5
13D
330
1F
100
AcDbEntity
  8
0
  6
Continuous
 62
     3
100
AcDbCircle
 10
-58.12696006750866
 20
292.1066543256094
 30
0.0
 40
0.999999999999984
100
AcDbArc
 50
120.0000000000006
 51
178.4077602721936
  0
LINE
  5
13E
330
1F
100
AcDbEntity
  8
0
  6
Continuous
 62
     3
100
AcDbLine
 10
16.6416489175258
 20
-31.6200539180012
 30
0.0
 11
20.6416489175258
 21
-27.6200539180012
 31
0.0
  0
LINE
  5
13F
330
1F
100
AcDbEntity
  8
0
  6
Continuous
 62
     3
100
AcDbLine
 10
16.6416489175258
 20
-31.6200539180012
 30
0.0
 11
4.888957724067723
 21
-31.6200539180012
 31
0.0
  0
LINE
  5
140
330
1F
100
AcDbEntity
  8
0
  6
Continuous
 62
     3
100
AcDbLine
 10
4.888957724067723
 20
-27.6200539180012
 30
0.0
 11
67.38895772406772
 21
-27.62005391800122
 31
0.0
  0
LINE
  5
141
330
1F
100
AcDbEntity
  8
0
  6
Continuous
 62
     3
100
AcDbLine
 10
13.13895772406772
 20
141.5799460819987
 30
0.0
 11
13.13895772406772
 21
142.5799460819987
 31
0.0
  0
LINE
  5
142
330
1F
100
AcDbEntity
  8
0
  6
Continuous
 62
     3
100
AcDbLine
 10
19.88895772406772
 20
141.5799460819988
 30
0.0
 11
4.88895772406795
 21
141.5799460819987
 31
0.0
  0
LINE
  5
143
330
1F
100
AcDbEntity
  8
0
  6
Continuous
 62
     3
100
AcDbLine
 10
19.88895772406772
 20
140.0799460819988
 30
0.0
 11
4.88895772406795
 21
140.0799460819987
 31
0.0
  0
LINE
  5
144
330
1F
100
AcDbEntity
  8
0
  6
Continuous
 62
     3
100
AcDbLine
 10
19.88895772406772
 20
140.0799460819988
 30
0.0
 11
19.88895772406772
 21
141.5799460819988
 31
0.0
  0
LINE
  5
145
330
1F
100
AcDbEntity
  8
0
  6
Continuous
 62
     3
100
AcDbLine
 10
16.38895772406772
 20
137.5799460819988
 30
0.0
 11
4.88895772406795
 21
137.5799460819987
 31
0.0
  0
LINE
  5
146
330
1F
100
AcDbEntity
  8
0
  6
Continuous
 62
     3
100
AcDbLine
 10
16.38895772406772
 20
137.5799460819988
 30
0.0
 11
16.38895772406772
 21
140.0799460819988
 31
0.0
  0
ARC
  5
147
330
1F
100
AcDbEntity
  8
0
  6
Continuous
 62
     3
100
AcDbCircle
 10
70.37278245797688
 20
203.3233840374996
 30
0.0
 40
1.000000000000033
100
AcDbArc
 50
299.9999999999989
 51
1.592239727803176
  0
ARC
  5
148
330
1F
100
AcDbEntity
  8
0
  6
Continuous
 62
     3
100
AcDbCircle
 10
67.90487551564433
 20
292.1066543256094
 30
0.0
 40
1.000000000000085
100
AcDbArc
 50
1.592239727806432
 51
59.99999999999946
  0
LINE
  5
149
330
1F
100
AcDbEntity
  8
0
  6
Continuous
 62
     3
100
AcDbLine
 10
68.90448940328702
 20
292.1344405745836
 30
0.0
 11
71.37239634561956
 21
203.3511702864737
 31
0.0
  0
LINE
  5
14A
330
1F
100
AcDbEntity
  8
0
  6
Continuous
 62
     3
100
AcDbLine
 10
63.88895772406772
 20
295.5799460819987
 30
0.0
 11
68.40487551564433
 21
292.9726797293938
 31
0.0
  0
LINE
  5
14B
330
1F
100
AcDbEntity
  8
0
  6
Continuous
 62
     3
100
AcDbLine
 10
63.88895772406772
 20
295.5799460819989
 30
0.0
 11
63.88895772406772
 21
296.5799460819987
 31
0.0
  0
LINE
  5
14C
330
1F
100
AcDbEntity
  8
0
  6
Continuous
 62
     3
100
AcDbLine
 10
65.88895772406772
 20
199.5799460819988
 30
0.0
 11
70.87278245797688
 21
202.4573586337151
 31
0.0
  0
ARC
  5
14D
330
1F
100
AcDbEntity
  8
0
  6
Continuous
 62
     3
100
AcDbCircle
 10
29.38895772406772
 20
-4.320053918001236
 30
0.0
 40
1.0
100
AcDbArc
 50
180.0
 51
270.0
  0
LINE
  5
14E
330
1F
100
AcDbEntity
  8
0
  6
Continuous
 62
     3
100
AcDbLine
 10
28.38895772406772
 20
-4.320053918001236
 30
0.0
 11
28.38895772406772
 21
-2.320053918001179
 31
0.0
  0
LINE
  5
14F
330
1F
100
AcDbEntity
  8
0
  6
Continuous
 62
     3
100
AcDbLine
 10
23.38895772406772
 20
-2.320053918001236
 30
0.0
 11
28.38895772406772
 21
-2.320053918001179
 31
0.0
  0
LINE
  5
150
330
1F
100
AcDbEntity
  8
0
  6
Continuous
 62
     3
100
AcDbLine
 10
23.38895772406772
 20
-5.320053918001236
 30
0.0
 11
23.38895772406772
 21
-2.320053918001236
 31
0.0
  0
LINE
  5
151
330
1F
100
AcDbEntity
  8
0
  6
Continuous
 62
     3
100
AcDbLine
 10
21.88895772406772
 20
15.67994608199876
 30
0.0
 11
29.88895772406772
 21
23.67994608199876
 31
0.0
  0
LINE
  5
152
330
1F
100
AcDbEntity
  8
0
  6
Continuous
 62
     3
100
AcDbLine
 10
29.88895772406772
 20
23.67994608199876
 30
0.0
 11
40.38895772406772
 21
23.67994608199876
 31
0.0
  0
ARC
  5
153
330
1F
100
AcDbEntity
  8
0
  6
Continuous
 62
     3
100
AcDbCircle
 10
22.88895772406772
 20
12.67994608199876
 30
0.0
 40
1.0
100
AcDbArc
 50
180.0
 51
270.0
  0
ARC
  5
154
330
1F
100
AcDbEntity
  8
0
  6
Continuous
 62
     3
100
AcDbCircle
 10
29.88895772406772
 20
6.679946081998764
 30
0.0
 40
5.0
100
AcDbArc
 50
0.0
 51
90.0
  0
ARC
  5
155
330
1F
100
AcDbEntity
  8
0
  6
Continuous
 62
     3
100
AcDbCircle
 10
33.88895772406772
 20
-4.320053918001179
 30
0.0
 40
1.0
100
AcDbArc
 50
270.0
 51
0.0
  0
LINE
  5
156
330
1F
100
AcDbEntity
  8
0
  6
Continuous
 62
     3
100
AcDbLine
 10
34.88895772406772
 20
-4.320053918001179
 30
0.0
 11
34.88895772406772
 21
6.679946081998764
 31
0.0
  0
LINE
  5
157
330
1F
100
AcDbEntity
  8
0
  6
Continuous
 62
     3
100
AcDbLine
 10
22.88895772406772
 20
11.67994608199876
 30
0.0
 11
29.88895772406772
 21
11.67994608199876
 31
0.0
  0
LINE
  5
158
330
1F
100
AcDbEntity
  8
0
  6
Continuous
 62
     3
100
AcDbLine
 10
21.88895772406772
 20
12.67994608199876
 30
0.0
 11
21.88895772406772
 21
14.67994608199874
 31
0.0
  0
LINE
  5
159
330
1F
100
AcDbEntity
  8
0
  6
Continuous
 62
     3
100
AcDbLine
 10
13.38895772406772
 20
136.5799460819988
 30
0.0
 11
4.88895772406795
 21
136.5799460819987
 31
0.0
  0
LINE
  5
15A
330
1F
100
AcDbEntity
  8
0
  6
Continuous
 62
     3
100
AcDbLine
 10
13.38895772406772
 20
142.5799460819987
 30
0.0
 11
4.88895772406795
 21
142.5799460819987
 31
0.0
  0
LINE
  5
15B
330
1F
100
AcDbEntity
  8
0
  6
Continuous
 62
     3
100
AcDbLine
 10
13.38895772406772
 20
142.5799460819987
 30
0.0
 11
13.38895772406772
 21
144.5799460819988
 31
0.0
  0
LINE
  5
15C
330
1F
100
AcDbEntity
  8
0
  6
Continuous
 62
     3
100
AcDbLine
 10
13.13895772406772
 20
136.5799460819988
 30
0.0
 11
13.13895772406772
 21
137.5799460819987
 31
0.0
  0
LINE
  5
15D
330
1F
100
AcDbEntity
  8
0
  6
Continuous
 62
     3
100
AcDbLine
 10
4.888957724067723
 20
-5.320053918001236
 30
0.0
 11
51.38895772406772
 21
-5.320053918001207
 31
0.0
  0
LINE
  5
15E
330
1F
100
AcDbEntity
  8
0
  6
Continuous
 62
     3
100
AcDbLine
 10
-3.611042275932277
 20
136.5799460819988
 30
0.0
 11
4.888957724067495
 21
136.5799460819987
 31
0.0
  0
LINE
  5
15F
330
1F
100
AcDbEntity
  8
0
  6
Continuous
 62
     3
100
AcDbLine
 10
4.888957724067723
 20
-17.32005391800119
 30
0.0
 11
65.38895772406772
 21
-17.32005391800121
 31
0.0
  0
LINE
  5
160
330
1F
100
AcDbEntity
  8
0
  6
Continuous
 62
     3
100
AcDbLine
 10
-53.11104227593205
 20
195.5799460819988
 30
0.0
 11
-56.11104227593205
 21
195.5799460819988
 31
0.0
  0
LINE
  5
161
330
1F
100
AcDbEntity
  8
0
  6
Continuous
 62
     3
100
AcDbLine
 10
-54.35602279830664
 20
232.2639935949432
 30
0.0
 11
-54.7147601063084
 21
219.1102923015447
 31
0.0
  0
LINE
  5
162
330
1F
100
AcDbEntity
  8
0
  6
Continuous
 62
     3
100
AcDbLine
 10
61.93822619814387
 20
312.7734353658787
 30
0.0
 11
62.46774790328254
 21
293.3576395107911
 31
0.0
  0
LINE
  5
163
330
1F
100
AcDbEntity
  8
0
  6
Continuous
 62
     3
100
AcDbLine
 10
22.88895772406772
 20
204.5799460819988
 30
0.0
 11
65.88895772406772
 21
204.5799460819988
 31
0.0
  0
LINE
  5
164
330
1F
100
AcDbEntity
  8
0
  6
Continuous
 62
     3
100
AcDbLine
 10
4.888957724067723
 20
195.5799460819988
 30
0.0
 11
74.79627273404276
 21
195.5799460819988
 31
0.0
  0
LINE
  5
165
330
1F
100
AcDbEntity
  8
0
  6
Continuous
 62
     3
100
AcDbLine
 10
65.88895772406772
 20
204.5799460819988
 30
0.0
 11
65.88895772406772
 21
155.5799460819988
 31
0.0
  0
ENDSEC
  0
SECTION
  2
OBJECTS
  0
DICTIONARY
  5
C
330
0
100
AcDbDictionary
281
     1
  3
ACAD_COLOR
350
6C
  3
ACAD_GROUP
350
D
  3
ACAD_LAYOUT
350
1A
  3
ACAD_MATERIAL
350
6B
  3
ACAD_MLINESTYLE
350
17
  3
ACAD_PLOTSETTINGS
350
19
  3
ACAD_PLOTSTYLENAME
350
E
  3
ACAD_TABLESTYLE
350
92
  3
AcDbVariableDictionary
350
59
  0
DICTIONARY
  5
6C
102
{ACAD_REACTORS
330
C
102
}
330
C
100
AcDbDictionary
281
     1
  0
DICTIONARY
  5
D
102
{ACAD_REACTORS
330
C
102
}
330
C
100
AcDbDictionary
281
     1
  0
DICTIONARY
  5
1A
102
{ACAD_REACTORS
330
C
102
}
330
C
100
AcDbDictionary
281
     1
  3
Layout1
350
74
  3
Model
350
22
  0
DICTIONARY
  5
6B
102
{ACAD_REACTORS
330
C
102
}
330
C
100
AcDbDictionary
281
     1
  0
DICTIONARY
  5
17
102
{ACAD_REACTORS
330
C
102
}
330
C
100
AcDbDictionary
281
     1
  3
Standard
350
18
  0
DICTIONARY
  5
19
102
{ACAD_REACTORS
330
C
102
}
330
C
100
AcDbDictionary
281
     1
  0
ACDBDICTIONARYWDFLT
  5
E
102
{ACAD_REACTORS
330
C
102
}
330
C
100
AcDbDictionary
281
     1
  3
Normal
350
F
100
AcDbDictionaryWithDefault
340
F
  0
DICTIONARY
  5
92
102
{ACAD_REACTORS
330
C
102
}
330
C
100
AcDbDictionary
281
     1
  3
Standard
350
93
  0
DICTIONARY
  5
59
102
{ACAD_REACTORS
330
C
102
}
330
C
100
AcDbDictionary
281
     1
  3
CTABLESTYLE
350
98
  3
HIDETEXT
350
16C
  0
LAYOUT
  5
74
102
{ACAD_REACTORS
330
1A
102
}
330
1A
100
AcDbPlotSettings
  1

  2
指定なし
  4

  6

 40
0.0
 41
0.0
 42
0.0
 43
0.0
 44
0.0
 45
0.0
 46
0.0
 47
0.0
 48
0.0
 49
0.0
140
0.0
141
0.0
142
1.0
143
1.0
 70
   688
 72
     0
 73
     0
 74
     5
  7

 75
    16
 76
     0
 77
     2
 78
   300
147
1.0
148
0.0
149
0.0
100
AcDbLayout
  1
Layout1
 70
     1
 71
     1
 10
0.0
 20
0.0
 11
12.0
 21
9.0
 12
0.0
 22
0.0
 32
0.0
 14
1.000000000000000E+20
 24
1.000000000000000E+20
 34
1.000000000000000E+20
 15
-1.000000000000000E+20
 25
-1.000000000000000E+20
 35
-1.000000000000000E+20
146
0.0
 13
0.0
 23
0.0
 33
0.0
 16
1.0
 26
0.0
 36
0.0
 17
0.0
 27
1.0
 37
0.0
 76
     0
330
73
  0
LAYOUT
  5
22
102
{ACAD_REACTORS
330
1A
102
}
330
1A
100
AcDbPlotSettings
  1

  2
指定なし
  4

  6

 40
0.0
 41
0.0
 42
0.0
 43
0.0
 44
0.0
 45
0.0
 46
0.0
 47
0.0
 48
0.0
 49
0.0
140
0.0
141
0.0
142
1.0
143
1.0
 70
 11952
 72
     0
 73
     0
 74
     0
  7

 75
     0
 76
     0
 77
     2
 78
   300
147
1.0
148
0.0
149
0.0
100
AcDbLayout
  1
Model
 70
     1
 71
     0
 10
0.0
 20
0.0
 11
12.0
 21
9.0
 12
0.0
 22
0.0
 32
0.0
 14
-108.7870551001708
 24
-267.6705787287744
 34
0.0
 15
87.15030044671266
 25
328.4658040956556
 35
0.0
146
0.0
 13
0.0
 23
0.0
 33
0.0
 16
1.0
 26
0.0
 36
0.0
 17
0.0
 27
1.0
 37
0.0
 76
     0
330
1F
  0
MLINESTYLE
  5
18
102
{ACAD_REACTORS
330
17
102
}
330
17
100
AcDbMlineStyle
  2
Standard
 70
     0
  3

 62
   256
 51
90.0
 52
90.0
 71
     2
 49
0.5
 62
   256
  6
BYLAYER
 49
-0.5
 62
   256
  6
BYLAYER
  0
ACDBPLACEHOLDER
  5
F
102
{ACAD_REACTORS
330
E
102
}
330
E
  0
TABLESTYLE
  5
93
102
{ACAD_REACTORS
330
92
102
}
330
92
100
AcDbTableStyle
  3
Standard
 70
     0
 71
     0
 40
0.06
 41
0.06
280
     0
281
     0
  7
Standard
140
0.18
170
     2
 62
     0
 63
     7
283
     0
274
    -2
284
     1
 64
     0
275
    -2
285
     1
 65
     0
276
    -2
286
     1
 66
     0
277
    -2
287
     1
 67
     0
278
    -2
288
     1
 68
     0
279
    -2
289
     1
 69
     0
  7
Standard
140
0.25
170
     5
 62
     0
 63
     7
283
     0
274
    -2
284
     1
 64
     0
275
    -2
285
     1
 65
     0
276
    -2
286
     1
 66
     0
277
    -2
287
     1
 67
     0
278
    -2
288
     1
 68
     0
279
    -2
289
     1
 69
     0
  7
Standard
140
0.18
170
     5
 62
     0
 63
     7
283
     0
274
    -2
284
     1
 64
     0
275
    -2
285
     1
 65
     0
276
    -2
286
     1
 66
     0
277
    -2
287
     1
 67
     0
278
    -2
288
     1
 68
     0
279
    -2
289
     1
 69
     0
  0
DICTIONARYVAR
  5
98
102
{ACAD_REACTORS
330
59
102
}
330
59
100
DictionaryVariables
280
     0
  1
STANDARD
  0
DICTIONARYVAR
  5
16C
102
{ACAD_REACTORS
330
59
102
}
330
59
100
DictionaryVariables
280
     0
  1
2
  0
ENDSEC
  0
EOF
