  0
SECTION
  2
HEADER
  9
$FILLMODE
 70
1
  9
$TEXTSTYLE
  7
STANDARD1
  9
$ACADVER
  1
AC1009
  9
$DIMASZ
 40
1.931851648807023
  9
$DIMEXE
 40
2.000000000000000
  9
$DIMEXO
 40
1.000000000000000
  9
$DIMLFAC
 40
1.000000000000000
  9
$DIMSCALE
 40
1.000000000000000
  9
$DIMTAD
 70
1
  9
$DIMTFAC
 40
0.714285731315613
  9
$DIMTXT
 40
3.200000047683716
  9
$LUPREC
 70
3
  9
$TEXTSIZE
 40
3.200000047683716
  9
$REGENMODE
 70
1
  0
ENDSEC
  0
SECTION
  2
TABLES
  0
TABLE
  2
LTYPE
 70
4
  0
LTYPE
  2
CONTINUOUS
 70
64
  3
Solid line
 72
65
 73
0
 40
0.0
  0
LTYPE
  2
DASHED
 70
64
  3
-- -- -- -- -- -- -- -- -- -- -- -- -- -- --
 72
65
 73
2
 40
0.75
 49
0.5
 49
-0.25
  0
LTYPE
  2
DASHDOT
 70
64
  3
__ . __ . __ . __ . __ . __ . __ . __ . __ . __
 72
65
 73
4
 40
1.0
 49
0.5
 49
-0.25
 49
0.0
 49
-0.25
  0
LTYPE
  2
DIVIDE
 70
64
  3
__ . . __ . . __ . . __ . . __ . . __ . . __
 72
65
 73
6
 40
1.25
 49
0.5
 49
-0.25
 49
0.0
 49
-0.25
 49
0.0
 49
-0.25
  0
ENDTAB
  0
TABLE
  2
LAYER
 70
4
  0
LAYER
  2
0
 70
64
 62
3
  6
CONTINUOUS
  0
LAYER
  2
1
 70
64
 62
-7
  6
CONTINUOUS
  0
LAYER
  2
2
 70
64
 62
-1
  6
CONTINUOUS
  0
LAYER
  2
3
 70
64
 62
-4
  6
CONTINUOUS
  0
ENDTAB
  0
TABLE
  2
STYLE
 70
4
  0
STYLE
  2
STANDARD1
 70
64
 40
0.0
 41
1.0
 50
0.0
 71
0
 42
3.200000047683716
  3
MONOTXT
  4
BIGFONT
  0
STYLE
  2
STANDARD2
 70
68
 40
0.0
 41
1.0
 50
0.0
 71
0
 42
3.200000047683716
  3
MONOTXT
  4
BIGFONT
  0
STYLE
  2
STANDARD3
 70
64
 40
0.0
 41
1.0
 50
0.0
 71
0
 42
3.200000047683716
  3
MONOTXT
  4

  0
STYLE
  2
STANDARD4
 70
68
 40
0.0
 41
1.0
 50
0.0
 71
0
 42
3.200000047683716
  3
MONOTXT
  4

  0
ENDTAB
  0
TABLE
  2
VIEW
 70
0
  0
ENDTAB
  0
ENDSEC
  0
SECTION
  2
BLOCKS
  0
ENDSEC
  0
SECTION
  2
ENTITIES
  0
ARC
  8
0
  6
CONTINUOUS
 62
3
 10
55.968991804360712
 20
-105.538033373502770
 40
8.000000000000000
 50
0.000000000000000
 51
90.000000000000000
  0
ARC
  8
0
  6
CONTINUOUS
 62
3
 10
66.968991804360712
 20
-106.538033373502770
 40
3.000000000000000
 50
180.000000000000000
 51
270.000000000000000
  0
LINE
  8
0
  6
DASHDOT
 62
4
 10
4.468991804360712
 20
-135.066398099153500
 11
4.468991804360712
 21
303.476713155348530
  0
LINE
  8
0
  6
CONTINUOUS
 62
3
 10
-63.031008195639288
 20
122.361966626497240
 11
-63.031008195639288
 21
125.361966626497210
  0
LINE
  8
0
  6
CONTINUOUS
 62
3
 10
71.968991804360712
 20
122.361966626497240
 11
71.968991804360712
 21
125.361966626497210
  0
LINE
  8
0
  6
CONTINUOUS
 62
3
 10
-70.531008195639288
 20
125.361966626497240
 11
-70.531008195639288
 21
133.361966626497240
  0
LINE
  8
0
  6
CONTINUOUS
 62
3
 10
79.468991804360712
 20
125.361966626497240
 11
79.468991804360712
 21
133.361966626497240
  0
ARC
  8
0
  6
CONTINUOUS
 62
3
 10
4.468991804360712
 20
-275.857171139660300
 40
42.500000000000000
 50
90.000000000000000
 51
180.000000000000000
  0
ARC
  8
0
  6
CONTINUOUS
 62
3
 10
4.468991804360712
 20
-277.042185440743760
 40
29.499999999999972
 50
90.000000000000000
 51
177.697810465246930
  0
ARC
  8
0
  6
DASHDOT
 62
4
 10
4.468991804360712
 20
-275.857171139660300
 40
62.000000000000000
 50
11.355190700227588
 51
23.415368759530509
  0
ARC
  8
0
  6
DASHDOT
 62
4
 10
4.468991804360712
 20
-275.857171139660300
 40
62.000000000000000
 50
281.544278376419920
 51
293.206047155542480
  0
ARC
  8
0
  6
DASHDOT
 62
4
 10
4.468991804360712
 20
-275.857171139660300
 40
61.999999999999986
 50
190.761937563399810
 51
202.265991688751230
  0
ARC
  8
0
  6
DASHDOT
 62
4
 10
4.468991804360712
 20
-275.857171139660300
 40
62.000000000000050
 50
102.513991337774000
 51
110.955159265575020
  0
CIRCLE
  8
0
  6
CONTINUOUS
 62
3
 10
4.468991804360712
 20
-275.857171139660300
 40
66.500000000000000
  0
LINE
  8
0
  6
DASHDOT
 62
4
 10
4.468991804360712
 20
-360.351962683449980
 11
4.468991804360712
 21
-164.926089813109000
  0
ARC
  8
0
  6
CONTINUOUS
 62
3
 10
4.468991804360712
 20
-275.857171139660300
 40
90.000000000000000
 50
213.557309761920690
 51
236.442690238079280
  0
ARC
  8
0
  6
CONTINUOUS
 62
3
 10
4.468991804360712
 20
-275.857171139660300
 40
89.999999999999972
 50
303.557309761920690
 51
326.442690238079250
  0
ARC
  8
0
  6
CONTINUOUS
 62
3
 10
4.468991804360712
 20
-275.857171139660300
 40
90.000000000000014
 50
33.557309761920727
 51
56.442690238079301
  0
ARC
  8
0
  6
CONTINUOUS
 62
3
 10
4.468991804360712
 20
-275.857171139660300
 40
90.000000000000028
 50
123.557309761920720
 51
146.442690238079280
  0
LINE
  8
0
  6
CONTINUOUS
 62
3
 10
-45.280380050970251
 20
-350.857171139660300
 11
54.218363659691661
 21
-350.857171139660300
  0
LINE
  8
0
  6
CONTINUOUS
 62
3
 10
-45.280380050970287
 20
-200.857171139660270
 11
54.218363659691704
 21
-200.857171139660270
  0
LINE
  8
0
  6
CONTINUOUS
 62
3
 10
-70.531008195639288
 20
-325.606542994991290
 11
-70.531008195639288
 21
-226.107799284329270
  0
LINE
  8
0
  6
CONTINUOUS
 62
3
 10
79.468991804360712
 20
-325.606542994991290
 11
79.468991804360712
 21
-226.107799284329270
  0
LINE
  8
0
  6
DASHED
 62
3
 10
-12.531008195639288
 20
-77.538033373502827
 11
-12.531008195639288
 21
-76.538033373502799
  0
LINE
  8
0
  6
DASHED
 62
3
 10
21.468991804360712
 20
-77.538033373502827
 11
21.468991804360712
 21
-76.538033373502799
  0
LINE
  8
0
  6
CONTINUOUS
 62
3
 10
-35.031008195639288
 20
-92.538033373502770
 11
-35.031008195639288
 21
117.361966626497240
  0
LINE
  8
0
  6
CONTINUOUS
 62
3
 10
43.968991804360712
 20
-92.538033373502770
 11
43.968991804360712
 21
117.361966626497240
  0
LINE
  8
0
  6
CONTINUOUS
 62
3
 10
12.968991804360229
 20
-97.538033373502799
 11
12.968991804360712
 21
114.361966626497240
  0
LINE
  8
0
  6
CONTINUOUS
 62
3
 10
-4.031008195639288
 20
-97.538033373502785
 11
-4.031008195639288
 21
114.361966626497240
  0
LINE
  8
0
  6
DASHED
 62
3
 10
-46.801353286302401
 20
269.361966626497180
 11
-46.801353286302401
 21
229.361966626497180
  0
LINE
  8
0
  6
DASHED
 62
3
 10
-12.858030809568390
 20
229.361966626497180
 11
-46.801353286302401
 21
229.361966626497180
  0
LINE
  8
0
  6
DASHED
 62
3
 10
-12.858030809568390
 20
269.361966626497180
 11
-46.801353286302401
 21
269.361966626497180
  0
LINE
  8
0
  6
DASHED
 62
3
 10
-12.858030809568390
 20
269.361966626497180
 11
-12.858030809568390
 21
229.361966626497180
  0
LINE
  8
0
  6
DASHDOT
 62
4
 10
-13.243729950049101
 20
-195.857171139660270
 11
22.660156219219630
 21
-195.857171139660270
  0
ARC
  8
0
  6
CONTINUOUS
 62
3
 10
0.068991804360166
 20
-175.857171139660270
 40
3.000000000000000
 50
270.000000000000000
 51
323.130102354167260
  0
ARC
  8
0
  6
CONTINUOUS
 62
3
 10
8.868991804361485
 20
-175.857171139660270
 40
2.999999999999954
 50
216.869897645832710
 51
270.000000000000000
  0
ARC
  8
0
  6
CONTINUOUS
 62
3
 10
4.468991804360712
 20
-179.157171139659340
 40
2.500000000000108
 50
36.869897645829951
 51
143.130102354166920
  0
ARC
  8
0
  6
CONTINUOUS
 62
3
 10
-1.040999121222512
 20
-173.357171139660240
 40
3.000000000000028
 50
270.000000000000000
 51
313.531152167379670
  0
ARC
  8
0
  6
CONTINUOUS
 62
3
 10
10.278466823672716
 20
-173.657171139660250
 40
2.999999999999901
 50
223.432536557782580
 51
270.000000000000000
  0
ARC
  8
0
  6
CONTINUOUS
 62
3
 10
4.468991804360712
 20
-179.157171139659340
 40
5.000000000000111
 50
43.432536557779599
 51
133.531152167382340
  0
LINE
  8
0
  6
CONTINUOUS
 62
3
 10
8.868991804361485
 20
-178.857171139660270
 11
27.768991804360667
 21
-178.857171139660270
  0
LINE
  8
0
  6
CONTINUOUS
 62
3
 10
10.278466823671806
 20
-176.657171139660250
 11
29.468991804360712
 21
-176.657171139660250
  0
ARC
  8
0
  6
CONTINUOUS
 62
3
 10
-20.531008195639288
 20
-179.357171139660270
 40
3.000000000000000
 50
90.000000000000000
 51
180.000000000000000
  0
ARC
  8
0
  6
CONTINUOUS
 62
3
 10
29.468991804360712
 20
-179.357171139660240
 40
3.000000000000000
 50
0.000000000000000
 51
90.000000000000000
  0
ARC
  8
0
  6
CONTINUOUS
 62
3
 10
-18.831008195639242
 20
-180.857171139660270
 40
2.000000000000000
 50
90.000000000000000
 51
180.000000000000000
  0
ARC
  8
0
  6
CONTINUOUS
 62
3
 10
27.768991804360667
 20
-180.857171139660270
 40
2.000000000000000
 50
0.000000000000000
 51
90.000000000000000
  0
LINE
  8
0
  6
CONTINUOUS
 62
3
 10
-18.831008195639242
 20
-178.857171139660270
 11
0.068991804360166
 21
-178.857171139660270
  0
LINE
  8
0
  6
CONTINUOUS
 62
3
 10
-20.531008195639288
 20
-176.357171139660270
 11
-1.040999121222512
 21
-176.357171139660270
  0
LINE
  8
0
  6
CONTINUOUS
 62
3
 10
32.468991804360712
 20
-200.857171139660270
 11
32.468991804360712
 21
-179.357171139660240
  0
LINE
  8
0
  6
CONTINUOUS
 62
3
 10
-23.531008195639288
 20
-200.857171139660270
 11
-23.531008195639288
 21
-179.357171139660270
  0
LINE
  8
0
  6
CONTINUOUS
 62
3
 10
-20.831008195639242
 20
-200.857171139660270
 11
-20.831008195639242
 21
-180.857171139660270
  0
LINE
  8
0
  6
CONTINUOUS
 62
3
 10
29.768991804360667
 20
-200.857171139660270
 11
29.768991804360667
 21
-180.857171139660270
  0
ARC
  8
0
  6
CONTINUOUS
 62
3
 10
4.468991804360712
 20
-195.857171139660270
 40
10.999999999999996
 50
332.964308210587720
 51
207.035691789412310
  0
ARC
  8
0
  6
CONTINUOUS
 62
3
 10
62.597281885083248
 20
269.431836972385040
 40
1.000000000000000
 50
0.000000000000000
 51
51.711897476733505
  0
ARC
  8
0
  6
CONTINUOUS
 62
3
 10
60.326478954660843
 20
273.772522460554680
 40
1.000000000000000
 50
180.000000000000000
 51
231.711897476745750
  0
ARC
  8
0
  6
CONTINUOUS
 62
3
 10
57.143908152868107
 20
269.475283377638500
 40
1.000000000000000
 50
0.000000000000000
 51
47.612008939424058
  0
ARC
  8
0
  6
CONTINUOUS
 62
3
 10
55.450158815812983
 20
273.729076055301050
 40
1.000000000000000
 50
180.000000000000000
 51
227.612008939431460
  0
LINE
  8
0
  6
CONTINUOUS
 62
3
 10
57.818055748701454
 20
270.213880032811230
 11
54.776011219979864
 21
272.990479400128380
  0
LINE
  8
0
  6
CONTINUOUS
 62
3
 10
59.706862895151289
 20
272.987617409737940
 11
63.216897944593029
 21
270.216742023201730
  0
ARC
  8
0
  6
CONTINUOUS
 62
3
 10
57.326478954660843
 20
280.343213861546190
 40
2.000000000000000
 50
0.000000000000000
 51
90.000000000000000
  0
LINE
  8
0
  6
CONTINUOUS
 62
3
 10
56.739336895024280
 20
282.343213861546190
 11
57.326478954660843
 21
282.343213861546190
  0
LINE
  8
0
  6
CONTINUOUS
 62
3
 10
59.326478954660843
 20
273.772522460554680
 11
59.326478954660843
 21
280.343213861546190
  0
LINE
  8
0
  6
CONTINUOUS
 62
3
 10
56.739336895024280
 20
282.343213861546190
 11
56.739336895024280
 21
271.198471171551550
  0
LINE
  8
0
  6
CONTINUOUS
 62
3
 10
63.597281885083248
 20
182.361966626497240
 11
63.597281885083248
 21
269.431836972385040
  0
LINE
  8
0
  6
CONTINUOUS
 62
3
 10
-19.998314112765684
 20
209.725463191494210
 11
-19.998314112765684
 21
182.361966626497240
  0
LINE
  8
0
  6
CONTINUOUS
 62
3
 10
-16.416727177384018
 20
208.411148939908230
 11
-16.416727177384018
 21
182.361966626497240
  0
LINE
  8
0
  6
CONTINUOUS
 62
3
 10
-25.731984720483069
 20
182.361966626497240
 11
-25.731984720483069
 21
282.343213861546190
  0
LINE
  8
0
  6
CONTINUOUS
 62
3
 10
-26.439490429196894
 20
282.343213861546190
 11
-25.731984720483069
 21
282.343213861546190
  0
ARC
  8
0
  6
CONTINUOUS
 62
3
 10
-26.439490429196894
 20
280.343213861546300
 40
1.999999999999886
 50
90.000000000000000
 51
180.000000000000000
  0
LINE
  8
0
  6
CONTINUOUS
 62
3
 10
-34.397062755512252
 20
293.705221844284550
 11
-34.397062755512252
 21
182.361966626497240
  0
LINE
  8
0
  6
CONTINUOUS
 62
3
 10
-41.116762369587832
 20
293.207466317315950
 11
-41.116762369587832
 21
182.361966626497240
  0
LINE
  8
0
  6
CONTINUOUS
 62
3
 10
-38.288335244841619
 20
293.416979437667350
 11
-38.288335244841619
 21
182.361966626497240
  0
LINE
  8
0
  6
CONTINUOUS
 62
3
 10
-30.365725118090040
 20
182.361966626497240
 11
-30.365725118090040
 21
269.689393720504430
  0
ARC
  8
0
  6
CONTINUOUS
 62
3
 10
-29.365725118090040
 20
269.689393720504430
 40
0.999999999999897
 50
154.413842152113060
 51
180.000000000000000
  0
LINE
  8
0
  6
CONTINUOUS
 62
3
 10
-28.439490429196894
 20
274.166384294264450
 11
-28.439490429196894
 21
280.343213861546300
  0
LINE
  8
0
  6
CONTINUOUS
 62
3
 10
-28.537553541026682
 20
273.734516432809070
 11
-30.267662006260025
 21
270.121261581959800
  0
ARC
  8
0
  6
CONTINUOUS
 62
3
 10
-29.439490429196894
 20
274.166384294264450
 40
1.000000000000102
 50
334.413842152118720
 51
0.000000000000000
  0
ARC
  8
0
  6
CONTINUOUS
 62
3
 10
38.377474037918319
 20
274.166384294264450
 40
1.000000000000000
 50
180.000000000000000
 51
205.586157847881310
  0
ARC
  8
0
  6
CONTINUOUS
 62
3
 10
38.303708726811465
 20
269.689393720504430
 40
1.000000000000000
 50
0.000000000000000
 51
25.586157847881310
  0
LINE
  8
0
  6
CONTINUOUS
 62
3
 10
37.475537149748106
 20
273.734516432809070
 11
39.205645614981677
 21
270.121261581959800
  0
ARC
  8
0
  6
CONTINUOUS
 62
3
 10
52.450158815812983
 20
280.343213861546190
 40
2.000000000000000
 50
0.000000000000000
 51
90.000000000000000
  0
LINE
  8
0
  6
CONTINUOUS
 62
3
 10
54.450158815812983
 20
273.729076055301050
 11
54.450158815812983
 21
280.343213861546190
  0
LINE
  8
0
  6
CONTINUOUS
 62
3
 10
52.450158815812983
 20
282.343213861546190
 11
51.721217816701028
 21
282.343213861546190
  0
LINE
  8
0
  6
CONTINUOUS
 62
3
 10
51.721217816701028
 20
282.343213861546190
 11
51.721217816701028
 21
182.361966626497240
  0
LINE
  8
0
  6
CONTINUOUS
 62
3
 10
58.143908152868107
 20
269.475283377638500
 11
58.143908152868107
 21
182.361966626497240
  0
LINE
  8
0
  6
CONTINUOUS
 62
3
 10
43.335046364233676
 20
293.705221844284550
 11
43.335046364233676
 21
182.361966626497240
  0
LINE
  8
0
  6
CONTINUOUS
 62
3
 10
47.226318853563043
 20
293.416979437667350
 11
47.226318853563043
 21
182.361966626497240
  0
LINE
  8
0
  6
CONTINUOUS
 62
3
 10
50.054745978309256
 20
293.207466317315950
 11
50.054745978309256
 21
182.361966626497240
  0
ARC
  8
0
  6
CONTINUOUS
 62
3
 10
35.377474037918319
 20
280.343213861546300
 40
2.000000000000000
 50
0.000000000000000
 51
90.000000000000000
  0
LINE
  8
0
  6
CONTINUOUS
 62
3
 10
37.377474037918319
 20
274.166384294264450
 11
37.377474037918319
 21
280.343213861546300
  0
LINE
  8
0
  6
CONTINUOUS
 62
3
 10
35.377474037918319
 20
282.343213861546190
 11
34.669968329204494
 21
282.343213861546190
  0
LINE
  8
0
  6
CONTINUOUS
 62
3
 10
25.354710786105443
 20
208.411148939908230
 11
25.354710786105443
 21
182.361966626497240
  0
LINE
  8
0
  6
CONTINUOUS
 62
3
 10
28.936297721487108
 20
209.725463191494210
 11
28.936297721487108
 21
182.361966626497240
  0
LINE
  8
0
  6
CONTINUOUS
 62
3
 10
39.303708726811465
 20
182.361966626497240
 11
39.303708726811465
 21
269.689393720504430
  0
LINE
  8
0
  6
CONTINUOUS
 62
3
 10
34.669968329204494
 20
182.361966626497240
 11
34.669968329204494
 21
282.343213861546190
  0
ARC
  8
0
  6
CONTINUOUS
 62
3
 10
-15.531008195639060
 20
214.361966626497290
 40
5.000000000000000
 50
180.000000000000000
 51
270.000000000000000
  0
ARC
  8
0
  6
CONTINUOUS
 62
3
 10
24.468991804360712
 20
214.361966626497290
 40
5.000000000000000
 50
270.000000000000000
 51
0.000000000000000
  0
ARC
  8
0
  6
CONTINUOUS
 62
3
 10
4.468991804360712
 20
208.361966626497290
 40
4.999999999999968
 50
202.024312837042320
 51
337.975687162957680
  0
ARC
  8
0
  6
CONTINUOUS
 62
3
 10
-2.947206682734986
 20
205.361966626497290
 40
3.000000000000065
 50
22.024312837041659
 51
90.000000000000000
  0
ARC
  8
0
  6
CONTINUOUS
 62
3
 10
11.885190291456411
 20
205.361966626497290
 40
3.000000000000000
 50
90.000000000000000
 51
157.975687162958370
  0
LINE
  8
0
  6
CONTINUOUS
 62
3
 10
11.885190291456411
 20
208.361966626497290
 11
24.468991804360712
 21
208.361966626497290
  0
ARC
  8
0
  6
CONTINUOUS
 62
3
 10
4.468991804360712
 20
208.361966626497290
 40
5.000000000000000
 50
0.000000000000000
 51
180.000000000000000
  0
LINE
  8
0
  6
CONTINUOUS
 62
3
 10
-20.531008195639288
 20
214.361966626497290
 11
-20.531008195639288
 21
280.361966626497240
  0
ARC
  8
0
  6
CONTINUOUS
 62
3
 10
-15.531008195639288
 20
280.361966626497240
 40
5.000000000000000
 50
90.000000000000000
 51
180.000000000000000
  0
LINE
  8
0
  6
CONTINUOUS
 62
3
 10
-15.531008195639288
 20
285.361966626497240
 11
24.468991804360712
 21
285.361966626497240
  0
LINE
  8
0
  6
CONTINUOUS
 62
3
 10
29.468991804360712
 20
214.361966626497290
 11
29.468991804360712
 21
280.361966626497240
  0
ARC
  8
0
  6
CONTINUOUS
 62
3
 10
24.468991804360712
 20
280.361966626497240
 40
5.000000000000000
 50
0.000000000000000
 51
90.000000000000000
  0
ARC
  8
0
  6
CONTINUOUS
 62
3
 10
24.468991804360712
 20
216.361966626497290
 40
8.000000000000000
 50
270.000000000000000
 51
0.000000000000000
  0
ARC
  8
0
  6
CONTINUOUS
 62
3
 10
-15.531008195639060
 20
216.361966626497290
 40
8.000000000000227
 50
180.000000000000000
 51
270.000000000000000
  0
ARC
  8
0
  6
CONTINUOUS
 62
3
 10
-15.531008195639288
 20
280.361966626497240
 40
8.000000000000000
 50
90.000000000000000
 51
180.000000000000000
  0
ARC
  8
0
  6
CONTINUOUS
 62
3
 10
24.468991804360712
 20
280.361966626497240
 40
8.000000000000000
 50
0.000000000000000
 51
90.000000000000000
  0
LINE
  8
0
  6
CONTINUOUS
 62
3
 10
-15.531008195639288
 20
288.361966626497240
 11
24.468991804360712
 21
288.361966626497240
  0
LINE
  8
0
  6
CONTINUOUS
 62
3
 10
-23.531008195639288
 20
216.361966626497290
 11
-23.531008195639288
 21
280.361966626497240
  0
LINE
  8
0
  6
CONTINUOUS
 62
3
 10
32.468991804360712
 20
216.361966626497290
 11
32.468991804360712
 21
280.361966626497240
  0
LINE
  8
0
  6
CONTINUOUS
 62
3
 10
-15.531008195639060
 20
208.361966626497290
 11
-2.947206682734986
 21
208.361966626497290
  0
POINT
  8
0
  6
CONTINUOUS
 62
3
 10
63.468991804360712
 20
282.361966626497240
  0
POINT
  8
0
  6
CONTINUOUS
 62
3
 10
63.468991804360712
 20
273.361966626497180
  0
LINE
  8
0
  6
CONTINUOUS
 62
3
 10
63.968991804360712
 20
273.073291491902350
 11
67.984909595937324
 21
270.754700273892180
  0
ARC
  8
0
  6
CONTINUOUS
 62
3
 10
64.468991804360712
 20
273.939316895686830
 40
1.000000000000000
 50
180.000000000000000
 51
240.000000000001050
  0
LINE
  8
0
  6
CONTINUOUS
 62
3
 10
63.468991804360712
 20
273.939316895686830
 11
63.468991804360712
 21
280.361966626497240
  0
ARC
  8
0
  6
CONTINUOUS
 62
3
 10
61.468991804360712
 20
280.361966626497240
 40
2.000000000000000
 50
0.000000000000000
 51
82.147730170877054
  0
ARC
  8
0
  6
CONTINUOUS
 62
3
 10
-52.531008195639060
 20
280.361966626497240
 40
2.000000000000056
 50
97.852269829128957
 51
180.000000000000000
  0
ARC
  8
0
  6
CONTINUOUS
 62
3
 10
-55.531008195639060
 20
273.939316895686890
 40
1.000000000000033
 50
299.999999999998920
 51
0.000000000000000
  0
POINT
  8
0
  6
CONTINUOUS
 62
3
 10
-54.531008195639288
 20
273.361966626497240
  0
POINT
  8
0
  6
CONTINUOUS
 62
3
 10
-54.531008195639288
 20
282.361966626497240
  0
LINE
  8
0
  6
CONTINUOUS
 62
3
 10
-54.531008195639060
 20
273.939316895686890
 11
-54.531008195639060
 21
280.361966626497240
  0
LINE
  8
0
  6
CONTINUOUS
 62
3
 10
-52.580276669715204
 20
290.555455910377130
 11
-55.134726026015187
 21
196.892312846043300
  0
POINT
  8
0
  6
CONTINUOUS
 62
3
 10
-25.531008195639288
 20
294.361966626497180
  0
POINT
  8
0
  6
CONTINUOUS
 62
3
 10
-25.531008195639288
 20
296.361966626497180
  0
LINE
  8
0
  6
CONTINUOUS
 62
3
 10
4.468991804360712
 20
296.361966626497180
 11
-24.531008195639288
 21
296.361966626497180
  0
ARC
  8
0
  6
CONTINUOUS
 62
3
 10
-24.531008195639288
 20
295.361966626497180
 40
1.000000000000000
 50
90.000000000000000
 51
180.000000000000000
  0
LINE
  8
0
  6
CONTINUOUS
 62
3
 10
-25.531008195639288
 20
295.290632283584730
 11
-25.531008195639288
 21
295.361966626497180
  0
ARC
  8
0
  6
CONTINUOUS
 62
3
 10
-26.531008195639288
 20
295.290632283584730
 40
1.000000000000034
 50
274.236394799058810
 51
0.000000000000000
  0
LINE
  8
0
  6
CONTINUOUS
 62
3
 10
4.468991804360712
 20
294.361966626497180
 11
-26.160090283768795
 21
294.361966626497180
  0
POINT
  8
0
  6
CONTINUOUS
 62
3
 10
-52.531008195639288
 20
292.361966626497180
  0
LINE
  8
0
  6
CONTINUOUS
 62
3
 10
-50.728763427724971
 20
292.495466238935250
 11
-26.457136510123973
 21
294.293364529127980
  0
ARC
  8
0
  6
CONTINUOUS
 62
3
 10
-50.581020056694342
 20
290.500930730022050
 40
1.999999999999785
 50
94.236394799059454
 51
178.437775083158410
  0
ARC
  8
0
  6
CONTINUOUS
 62
3
 10
59.519003665415994
 20
290.500930730022050
 40
2.000000000000100
 50
1.562224916841569
 51
85.763605200940560
  0
ARC
  8
0
  6
CONTINUOUS
 62
3
 10
35.468991804360712
 20
295.290632283584730
 40
1.000000000000000
 50
180.000000000000000
 51
265.763605200941190
  0
ARC
  8
0
  6
CONTINUOUS
 62
3
 10
33.468991804360712
 20
295.361966626497180
 40
1.000000000000000
 50
0.000000000000000
 51
90.000000000000000
  0
POINT
  8
0
  6
CONTINUOUS
 62
3
 10
34.468991804360712
 20
296.361966626497180
  0
POINT
  8
0
  6
CONTINUOUS
 62
3
 10
34.468991804360712
 20
294.361966626497180
  0
POINT
  8
0
  6
CONTINUOUS
 62
3
 10
61.468991804360712
 20
292.361966626497180
  0
LINE
  8
0
  6
CONTINUOUS
 62
3
 10
59.666747036446623
 20
292.495466238935250
 11
35.395120118845398
 21
294.293364529127980
  0
LINE
  8
0
  6
CONTINUOUS
 62
3
 10
34.468991804360712
 20
295.290632283584730
 11
34.468991804360712
 21
295.361966626497180
  0
LINE
  8
0
  6
CONTINUOUS
 62
3
 10
4.468991804360712
 20
294.361966626497180
 11
35.098073892490220
 21
294.361966626497180
  0
LINE
  8
0
  6
CONTINUOUS
 62
3
 10
4.468991804360712
 20
296.361966626497180
 11
33.468991804360712
 21
296.361966626497180
  0
ARC
  8
0
  6
CONTINUOUS
 62
3
 10
4.468991804360712
 20
-277.042185440743760
 40
29.500000000000014
 50
177.697810465246930
 51
90.000000000000000
  0
ARC
  8
0
  6
CONTINUOUS
 62
3
 10
4.468991804360712
 20
-275.857171139660300
 40
42.500000000000000
 50
180.000000000000000
 51
90.000000000000000
  0
POINT
  8
0
  6
DASHED
 62
3
 10
-34.531008195639288
 20
95.361966626497235
  0
LINE
  8
0
  6
DASHED
 62
3
 10
-66.606601810851316
 20
141.361966626497240
 11
-80.531008195639060
 21
141.361966626497240
  0
LINE
  8
0
  6
DASHED
 62
3
 10
-66.606601810851316
 20
159.361966626497240
 11
-80.531008195639060
 21
159.361966626497290
  0
LINE
  8
0
  6
DASHDOT
 62
4
 10
-88.370759526045504
 20
-275.857171139660300
 11
93.874744987827853
 21
-275.857171139660300
  0
LINE
  8
0
  6
DASHED
 62
3
 10
-80.531008195639288
 20
-266.857171139660300
 11
-70.531008195639288
 21
-266.857171139660300
  0
LINE
  8
0
  6
DASHED
 62
3
 10
-80.531008195639288
 20
-284.857171139660300
 11
-70.531008195639288
 21
-284.857171139660300
  0
LINE
  8
0
  6
DASHED
 62
3
 10
-80.531008195639288
 20
-285.857171139660240
 11
-70.531008195639288
 21
-285.857171139660240
  0
LINE
  8
0
  6
DASHED
 62
3
 10
-80.531008195639288
 20
-265.857171139660300
 11
-70.531008195639288
 21
-265.857171139660300
  0
LINE
  8
0
  6
CONTINUOUS
 62
3
 10
-51.496684041495200
 20
-124.338033373502770
 11
-51.496684041495200
 21
-119.838033373502770
  0
LINE
  8
0
  6
CONTINUOUS
 62
3
 10
-58.496684041495200
 20
-124.338033373502770
 11
-51.496684041495200
 21
-124.338033373502770
  0
LINE
  8
0
  6
CONTINUOUS
 62
3
 10
-58.496684041495200
 20
-124.338033373502770
 11
-58.496684041495200
 21
-119.838033373502770
  0
LINE
  8
0
  6
DASHDOT
 62
4
 10
-54.996684041495200
 20
-126.503707724626170
 11
-54.996684041495200
 21
-115.433079698614250
  0
LINE
  8
0
  6
DASHDOT
 62
4
 10
63.934667650216852
 20
-126.503707724626170
 11
63.934667650216852
 21
-115.433079698614250
  0
LINE
  8
0
  6
CONTINUOUS
 62
3
 10
60.434667650216852
 20
-124.338033373502770
 11
60.434667650216852
 21
-119.838033373502780
  0
LINE
  8
0
  6
CONTINUOUS
 62
3
 10
67.434667650216852
 20
-124.338033373502780
 11
67.434667650216852
 21
-119.838033373502780
  0
LINE
  8
0
  6
CONTINUOUS
 62
3
 10
60.434667650216852
 20
-124.338033373502770
 11
67.434667650216852
 21
-124.338033373502780
  0
CIRCLE
  8
0
  6
DASHED
 62
3
 10
4.468991804360712
 20
141.361966626497240
 40
4.000000000000000
  0
LINE
  8
0
  6
DASHDOT
 62
4
 10
-3.998714279877504
 20
141.361966626497240
 11
13.893880505004063
 21
141.361966626497240
  0
ARC
  8
0
  6
CONTINUOUS
 62
3
 10
72.376306814335749
 20
162.361966626497240
 40
2.000000000000000
 50
270.000000000000000
 51
0.000000000000000
  0
LINE
  8
0
  6
CONTINUOUS
 62
3
 10
65.468991804360712
 20
160.361966626497240
 11
72.376306814335749
 21
160.361966626497240
  0
ARC
  8
0
  6
CONTINUOUS
 62
3
 10
-56.550021423042608
 20
184.598556963724320
 40
2.000000000000116
 50
138.215805764362500
 51
180.000000000000000
  0
ARC
  8
0
  6
CONTINUOUS
 62
3
 10
-63.438323205614324
 20
184.598556963724430
 40
1.999999999999909
 50
138.215805764359370
 51
180.000000000000000
  0
ARC
  8
0
  6
CONTINUOUS
 62
3
 10
-63.438323205614324
 20
162.361966626497240
 40
2.000000000000000
 50
180.000000000000000
 51
270.000000000000000
  0
LINE
  8
0
  6
CONTINUOUS
 62
3
 10
-47.826738374907336
 20
160.361966626497240
 11
-63.438323205614324
 21
160.361966626497240
  0
LINE
  8
0
  6
CONTINUOUS
 62
3
 10
-13.531008195639288
 20
173.361966626497240
 11
-13.531008195639288
 21
208.361966626497290
  0
LINE
  8
0
  6
CONTINUOUS
 62
3
 10
22.468991804360712
 20
173.361966626497240
 11
22.468991804360712
 21
208.361966626497290
  0
LINE
  8
0
  6
CONTINUOUS
 62
3
 10
74.376306814335749
 20
185.361966626497240
 11
70.716551125528213
 21
189.618979059919070
  0
LINE
  8
0
  6
CONTINUOUS
 62
3
 10
74.376306814335749
 20
185.361966626497240
 11
74.376306814335749
 21
162.361966626497240
  0
LINE
  8
0
  6
CONTINUOUS
 62
3
 10
-55.134726026015414
 20
196.892312846043070
 11
-64.929642891043386
 21
185.931210555567190
  0
LINE
  8
0
  6
CONTINUOUS
 62
3
 10
-47.826738374907336
 20
197.361966626497240
 11
-58.041341108471897
 21
185.931210555567130
  0
LINE
  8
0
  6
CONTINUOUS
 62
3
 10
-65.438323205614324
 20
184.598556963724430
 11
-65.438323205614324
 21
162.361966626497240
  0
LINE
  8
0
  6
CONTINUOUS
 62
3
 10
-58.550021423042608
 20
184.598556963724320
 11
-58.550021423042608
 21
160.361966626497240
  0
LINE
  8
0
  6
CONTINUOUS
 62
3
 10
-47.826738374907336
 20
205.811422149670190
 11
-47.826738374907336
 21
160.361966626497240
  0
LINE
  8
0
  6
CONTINUOUS
 62
3
 10
-58.398589973782691
 20
185.361966626497240
 11
-65.286891756354407
 21
185.361966626497240
  0
CIRCLE
  8
0
  6
CONTINUOUS
 62
3
 10
4.468991804360712
 20
-275.857171139660300
 40
12.500000000000000
  0
CIRCLE
  8
0
  6
CONTINUOUS
 62
3
 10
-13.658053888448702
 20
-216.566276269952000
 40
2.750000000000000
  0
CIRCLE
  8
0
  6
CONTINUOUS
 62
3
 10
-54.821903065347328
 20
-293.984216832470000
 40
2.750000000000000
  0
CIRCLE
  8
0
  6
CONTINUOUS
 62
3
 10
22.596037497170613
 20
-335.148066009368450
 40
2.750000000000000
  0
CIRCLE
  8
0
  6
CONTINUOUS
 62
3
 10
63.759886674068994
 20
-257.730125446850590
 40
2.750000000000000
  0
ARC
  8
0
  6
DASHDOT
 62
4
 10
4.468991804360712
 20
-275.857171139660300
 40
58.000000000000043
 50
191.193535948265490
 51
201.097382975086160
  0
LINE
  8
0
  6
DASHDOT
 62
4
 10
-60.453267701565323
 20
-295.705897780243050
 11
-49.894731745323156
 21
-292.477829387135330
  0
LINE
  8
0
  6
DASHDOT
 62
4
 10
24.443038325515175
 20
-341.189333505101960
 11
20.421723905095263
 21
-328.036206703323390
  0
ARC
  8
0
  6
DASHDOT
 62
4
 10
4.468991804360712
 20
-275.857171139660300
 40
58.000000000000000
 50
282.964175517801270
 51
292.076148432008950
  0
LINE
  8
0
  6
DASHDOT
 62
4
 10
59.871883340194600
 20
-258.918807355629550
 11
69.257235800981007
 21
-256.049417152063600
  0
ARC
  8
0
  6
DASHDOT
 62
4
 10
4.468991804360712
 20
-275.857171139660300
 40
58.000000000000007
 50
103.804241280756680
 51
110.255041687155340
  0
LINE
  8
0
  6
DASHDOT
 62
4
 10
-12.479796274217332
 20
-220.420183272709920
 11
-15.219996089158993
 21
-211.457393532837760
  0
ARC
  8
0
  6
DASHDOT
 62
4
 10
4.468991804360712
 20
-275.857171139660300
 40
80.000000000000057
 50
307.209999036439800
 51
325.119526025526000
  0
LINE
  8
0
  6
DASHDOT
 62
4
 10
-43.736496530038039
 20
-227.651682805261260
 11
-65.853980989397769
 21
-205.534198345901470
  0
CIRCLE
  8
0
  6
CONTINUOUS
 62
3
 10
61.037534299284744
 20
-332.425713634583990
 40
5.000000000000000
  0
CIRCLE
  8
0
  6
CONTINUOUS
 62
3
 10
-52.099550690562864
 20
-219.288628644736410
 40
5.000000000000000
  0
LINE
  8
0
  6
DASHDOT
 62
4
 10
74.905462765392713
 20
-346.293642100692070
 11
53.143520266047290
 21
-324.531699601346650
  0
ARC
  8
0
  6
DASHDOT
 62
4
 10
4.468991804360712
 20
-275.857171139660300
 40
80.000000000000043
 50
125.562086429849330
 51
141.908698399379230
  0
ARC
  8
0
  6
CONTINUOUS
 62
3
 10
-78.531008195639060
 20
-293.857171139660300
 40
2.000000000000227
 50
180.000000000000000
 51
270.000000000000000
  0
ARC
  8
0
  6
CONTINUOUS
 62
3
 10
-78.531008195639288
 20
-257.857171139660300
 40
2.000000000000028
 50
90.000000000000000
 51
180.000000000000000
  0
LINE
  8
0
  6
CONTINUOUS
 62
3
 10
-78.531008195639060
 20
-295.857171139660300
 11
-70.531008195639288
 21
-295.857171139660300
  0
LINE
  8
0
  6
CONTINUOUS
 62
3
 10
-78.531008195639288
 20
-255.857171139660270
 11
-70.531008195639288
 21
-255.857171139660270
  0
LINE
  8
0
  6
CONTINUOUS
 62
3
 10
-80.531008195639288
 20
-293.857171139660300
 11
-80.531008195639288
 21
-257.857171139660300
  0
ARC
  8
0
  6
CONTINUOUS
 62
3
 10
-54.031008195639288
 20
-105.538033373502770
 40
8.000000000000028
 50
90.000000000000000
 51
179.999999999999890
  0
LINE
  8
0
  6
CONTINUOUS
 62
3
 10
-62.031008195639288
 20
-119.838033373502770
 11
-62.031008195639288
 21
-111.538033373502770
  0
ARC
  8
0
  6
CONTINUOUS
 62
3
 10
-60.031008195639060
 20
-111.538033373502770
 40
2.000000000000014
 50
90.000000000000000
 51
180.000000000000000
  0
LINE
  8
0
  6
CONTINUOUS
 62
3
 10
-7.283699389097365
 20
-123.838033373502770
 11
4.468991804360712
 21
-123.838033373502770
  0
LINE
  8
0
  6
CONTINUOUS
 62
3
 10
-7.283699389097365
 20
-123.838033373502770
 11
-11.283699389097364
 21
-119.838033373502770
  0
LINE
  8
0
  6
CONTINUOUS
 62
3
 10
4.468991804360712
 20
-119.838033373502770
 11
-62.031008195639288
 21
-119.838033373502770
  0
LINE
  8
0
  6
CONTINUOUS
 62
3
 10
4.468991804360712
 20
-117.538033373502760
 11
-62.031008195639060
 21
-117.538033373502740
  0
LINE
  8
0
  6
CONTINUOUS
 62
3
 10
4.468991804360712
 20
-109.538033373502760
 11
-60.031008195639060
 21
-109.538033373502760
  0
ARC
  8
0
  6
CONTINUOUS
 62
3
 10
-48.031008195639288
 20
-92.538033373502770
 40
5.000000000000000
 50
270.000000000000000
 51
0.000000000000000
  0
ARC
  8
0
  6
CONTINUOUS
 62
3
 10
-24.531008195639288
 20
-96.538033373502742
 40
1.000000000000000
 50
180.000000000000000
 51
270.000000000000000
  0
ARC
  8
0
  6
CONTINUOUS
 62
3
 10
-30.031008195639288
 20
-92.538033373502770
 40
5.000000000000000
 50
180.000000000000000
 51
270.000000000000000
  0
LINE
  8
0
  6
CONTINUOUS
 62
3
 10
-14.031008195639288
 20
-97.538033373502799
 11
-14.031008195639288
 21
-94.538033373502799
  0
LINE
  8
0
  6
CONTINUOUS
 62
3
 10
-14.031008195639288
 20
-94.538033373502799
 11
-19.031008195639288
 21
-94.538033373502742
  0
LINE
  8
0
  6
CONTINUOUS
 62
3
 10
-19.031008195639288
 20
-96.538033373502799
 11
-19.031008195639288
 21
-94.538033373502742
  0
ARC
  8
0
  6
CONTINUOUS
 62
3
 10
-20.031008195639288
 20
-96.538033373502799
 40
1.000000000000000
 50
270.000000000000000
 51
0.000000000000000
  0
LINE
  8
0
  6
CONTINUOUS
 62
3
 10
4.468991804360712
 20
-97.538033373502799
 11
-54.031008195639281
 21
-97.538033373502742
  0
LINE
  8
0
  6
CONTINUOUS
 62
3
 10
-25.531008195639288
 20
-96.538033373502742
 11
-25.531008195639288
 21
-85.538033373502799
  0
LINE
  8
0
  6
CONTINUOUS
 62
3
 10
-12.531008195639288
 20
-79.538033373502799
 11
-12.531008195639288
 21
-77.538033373502827
  0
LINE
  8
0
  6
CONTINUOUS
 62
3
 10
-13.531008195639288
 20
-80.538033373502799
 11
-20.531008195639288
 21
-80.538033373502799
  0
ARC
  8
0
  6
CONTINUOUS
 62
3
 10
-13.531008195639288
 20
-79.538033373502799
 40
1.000000000000000
 50
270.000000000000000
 51
0.000000000000000
  0
ARC
  8
0
  6
CONTINUOUS
 62
3
 10
-20.531008195639288
 20
-85.538033373502799
 40
5.000000000000000
 50
90.000000000000000
 51
180.000000000000000
  0
LINE
  8
0
  6
CONTINUOUS
 62
3
 10
-12.531008195639288
 20
-76.538033373502799
 11
-20.531008195639288
 21
-68.538033373502799
  0
LINE
  8
0
  6
CONTINUOUS
 62
3
 10
-20.531008195639288
 20
-68.538033373502799
 11
-35.031008195639288
 21
-68.538033373502799
  0
ARC
  8
0
  6
CONTINUOUS
 62
3
 10
-63.031008195639288
 20
121.361966626497240
 40
1.000000000000227
 50
0.000000000000000
 51
90.000000000000000
  0
ARC
  8
0
  6
CONTINUOUS
 62
3
 10
-48.031008195639288
 20
117.361966626497240
 40
5.000000000000000
 50
0.000000000000000
 51
90.000000000000000
  0
ARC
  8
0
  6
CONTINUOUS
 62
3
 10
-30.031008195639288
 20
117.361966626497240
 40
5.000000000000000
 50
90.000000000000000
 51
180.000000000000000
  0
LINE
  8
0
  6
CONTINUOUS
 62
3
 10
-62.031008195639288
 20
-117.538033373502740
 11
-62.031008195639060
 21
121.361966626497240
  0
LINE
  8
0
  6
CONTINUOUS
 62
3
 10
-43.031008195639288
 20
-92.538033373502770
 11
-43.031008195639288
 21
117.361966626497240
  0
ARC
  8
0
  6
CONTINUOUS
 62
3
 10
68.968991804360712
 20
-111.538033373502770
 40
2.000000000000000
 50
0.000000000000000
 51
90.000000000000000
  0
ARC
  8
0
  6
CONTINUOUS
 62
3
 10
56.968991804360712
 20
-92.538033373502770
 40
5.000000000000000
 50
180.000000000000000
 51
270.000000000000000
  0
ARC
  8
0
  6
CONTINUOUS
 62
3
 10
38.968991804360712
 20
-92.538033373502770
 40
5.000000000000000
 50
270.000000000000000
 51
0.000000000000000
  0
LINE
  8
0
  6
CONTINUOUS
 62
3
 10
70.968991804360712
 20
-119.838033373502780
 11
70.968991804360712
 21
-111.538033373502770
  0
ARC
  8
0
  6
CONTINUOUS
 62
3
 10
68.968991804360712
 20
117.361966626497240
 40
5.000000000000000
 50
90.000000000000000
 51
180.000000000000000
  0
ARC
  8
0
  6
CONTINUOUS
 62
3
 10
56.968991804360712
 20
117.361966626497240
 40
5.000000000000000
 50
90.000000000000000
 51
180.000000000000000
  0
ARC
  8
0
  6
CONTINUOUS
 62
3
 10
38.968991804360712
 20
117.361966626497240
 40
5.000000000000000
 50
0.000000000000000
 51
90.000000000000000
  0
LINE
  8
0
  6
CONTINUOUS
 62
3
 10
63.968991804360712
 20
-106.538033373502770
 11
63.968991804360712
 21
117.361966626497240
  0
LINE
  8
0
  6
CONTINUOUS
 62
3
 10
51.968991804360712
 20
-92.538033373502770
 11
51.968991804360712
 21
117.361966626497240
  0
LINE
  8
0
  6
CONTINUOUS
 62
3
 10
4.468991804360712
 20
-117.538033373502760
 11
70.968991804360712
 21
-117.538033373502760
  0
LINE
  8
0
  6
DASHED
 62
3
 10
-66.606601810851316
 20
140.361966626497240
 11
-80.531008195639060
 21
140.361966626497240
  0
LINE
  8
0
  6
DASHED
 62
3
 10
-66.606601810851316
 20
160.361966626497240
 11
-80.531008195639060
 21
160.361966626497290
  0
LINE
  8
0
  6
CONTINUOUS
 62
3
 10
4.468991804360712
 20
125.361966626497240
 11
79.468991804360712
 21
125.361966626497240
  0
LINE
  8
0
  6
CONTINUOUS
 62
3
 10
4.468991804360712
 20
133.361966626497240
 11
79.468991804360712
 21
133.361966626497210
  0
LINE
  8
0
  6
CONTINUOUS
 62
3
 10
4.468991804360712
 20
122.361966626497240
 11
71.968991804360712
 21
122.361966626497240
  0
LINE
  8
0
  6
CONTINUOUS
 62
3
 10
-56.531008195639288
 20
133.361966626497240
 11
-56.531008195639288
 21
160.361966626497240
  0
LINE
  8
0
  6
CONTINUOUS
 62
3
 10
4.468991804360712
 20
133.361966626497240
 11
-70.531008195639288
 21
133.361966626497210
  0
LINE
  8
0
  6
CONTINUOUS
 62
3
 10
4.468991804360712
 20
122.361966626497240
 11
-63.031008195639288
 21
122.361966626497240
  0
LINE
  8
0
  6
DASHDOT
 62
4
 10
-66.606601810851316
 20
150.361966626497240
 11
-90.254068997918466
 21
150.361966626497240
  0
ARC
  8
0
  6
CONTINUOUS
 62
3
 10
-78.531008195639060
 20
132.361966626497240
 40
2.000000000000000
 50
179.999999999998380
 51
270.000000000000000
  0
ARC
  8
0
  6
CONTINUOUS
 62
3
 10
-78.531008195639288
 20
168.361966626497240
 40
2.000000000000000
 50
90.000000000000000
 51
179.999999999998380
  0
LINE
  8
0
  6
CONTINUOUS
 62
3
 10
-80.531008195639060
 20
132.361966626497290
 11
-80.531008195639060
 21
168.361966626497290
  0
LINE
  8
0
  6
CONTINUOUS
 62
3
 10
-65.438323205614324
 20
170.361966626497240
 11
-78.531008195639288
 21
170.361966626497240
  0
LINE
  8
0
  6
CONTINUOUS
 62
3
 10
-70.531008195639288
 20
130.361966626497180
 11
-78.531008195639060
 21
130.361966626497240
  0
LINE
  8
0
  6
CONTINUOUS
 62
3
 10
4.468991804360712
 20
125.361966626497240
 11
-70.531008195639288
 21
125.361966626497240
  0
LINE
  8
0
  6
CONTINUOUS
 62
3
 10
-3.781008195639288
 20
114.361966626497240
 11
-3.781008195639288
 21
115.361966626497180
  0
LINE
  8
0
  6
CONTINUOUS
 62
3
 10
-4.031008195639288
 20
120.361966626497180
 11
-4.031008195639288
 21
122.361966626497240
  0
LINE
  8
0
  6
CONTINUOUS
 62
3
 10
-4.031008195639288
 20
120.361966626497180
 11
4.468991804360485
 21
120.361966626497120
  0
LINE
  8
0
  6
CONTINUOUS
 62
3
 10
-7.031008195639288
 20
115.361966626497240
 11
-7.031008195639288
 21
117.861966626497240
  0
LINE
  8
0
  6
CONTINUOUS
 62
3
 10
-7.031008195639288
 20
115.361966626497240
 11
4.468991804360485
 21
115.361966626497120
  0
LINE
  8
0
  6
CONTINUOUS
 62
3
 10
-10.531008195639288
 20
117.861966626497240
 11
-10.531008195639288
 21
119.361966626497240
  0
LINE
  8
0
  6
CONTINUOUS
 62
3
 10
-10.531008195639288
 20
117.861966626497240
 11
4.468991804360485
 21
117.861966626497120
  0
LINE
  8
0
  6
CONTINUOUS
 62
3
 10
-10.531008195639288
 20
119.361966626497240
 11
4.468991804360485
 21
119.361966626497120
  0
LINE
  8
0
  6
CONTINUOUS
 62
3
 10
-3.781008195639288
 20
119.361966626497180
 11
-3.781008195639288
 21
120.361966626497180
  0
LINE
  8
0
  6
CONTINUOUS
 62
3
 10
4.468991804360712
 20
173.361966626497240
 11
-65.438323205614324
 21
173.361966626497240
  0
LINE
  8
0
  6
CONTINUOUS
 62
3
 10
-13.531008195639288
 20
182.361966626497240
 11
-47.826738374907336
 21
182.361966626497240
  0
LINE
  8
0
  6
CONTINUOUS
 62
3
 10
-59.546539874858354
 20
269.916461119081990
 11
-61.783201580788955
 21
189.452268010972150
  0
LINE
  8
0
  6
CONTINUOUS
 62
3
 10
-55.031008195639060
 20
273.073291491902410
 11
-59.046925987215673
 21
270.754700273892240
  0
ARC
  8
0
  6
CONTINUOUS
 62
3
 10
-58.546925987215673
 20
269.888674870107820
 40
0.999999999999984
 50
120.000000000000550
 51
178.407760272193570
  0
LINE
  8
0
  6
CONTINUOUS
 62
3
 10
16.221682997818789
 20
-123.838033373502770
 11
20.221682997818789
 21
-119.838033373502770
  0
LINE
  8
0
  6
CONTINUOUS
 62
3
 10
16.221682997818789
 20
-123.838033373502770
 11
4.468991804360712
 21
-123.838033373502770
  0
LINE
  8
0
  6
CONTINUOUS
 62
3
 10
4.468991804360712
 20
-119.838033373502770
 11
70.968991804360712
 21
-119.838033373502780
  0
LINE
  8
0
  6
CONTINUOUS
 62
3
 10
12.718991804360712
 20
119.361966626497180
 11
12.718991804360712
 21
120.361966626497180
  0
LINE
  8
0
  6
CONTINUOUS
 62
3
 10
19.468991804360712
 20
119.361966626497240
 11
4.468991804360940
 21
119.361966626497120
  0
LINE
  8
0
  6
CONTINUOUS
 62
3
 10
19.468991804360712
 20
117.861966626497240
 11
4.468991804360940
 21
117.861966626497120
  0
LINE
  8
0
  6
CONTINUOUS
 62
3
 10
19.468991804360712
 20
117.861966626497240
 11
19.468991804360712
 21
119.361966626497240
  0
LINE
  8
0
  6
CONTINUOUS
 62
3
 10
15.968991804360712
 20
115.361966626497240
 11
4.468991804360940
 21
115.361966626497120
  0
LINE
  8
0
  6
CONTINUOUS
 62
3
 10
15.968991804360712
 20
115.361966626497240
 11
15.968991804360712
 21
117.861966626497240
  0
ARC
  8
0
  6
CONTINUOUS
 62
3
 10
69.952816538269872
 20
181.105404581998020
 40
1.000000000000033
 50
299.999999999998920
 51
1.592239727803176
  0
ARC
  8
0
  6
CONTINUOUS
 62
3
 10
67.484909595937324
 20
269.888674870107820
 40
1.000000000000085
 50
1.592239727806432
 51
59.999999999999460
  0
LINE
  8
0
  6
CONTINUOUS
 62
3
 10
68.484523483580006
 20
269.916461119081990
 11
70.952430425912553
 21
181.133190830972130
  0
LINE
  8
0
  6
CONTINUOUS
 62
3
 10
63.468991804360712
 20
273.361966626497180
 11
67.984909595937324
 21
270.754700273892240
  0
LINE
  8
0
  6
CONTINUOUS
 62
3
 10
63.468991804360712
 20
273.361966626497290
 11
63.468991804360712
 21
274.361966626497180
  0
LINE
  8
0
  6
CONTINUOUS
 62
3
 10
65.468991804360712
 20
177.361966626497240
 11
70.452816538269872
 21
180.239379178213540
  0
ARC
  8
0
  6
CONTINUOUS
 62
3
 10
28.968991804360712
 20
-96.538033373502799
 40
1.000000000000000
 50
180.000000000000000
 51
270.000000000000000
  0
LINE
  8
0
  6
CONTINUOUS
 62
3
 10
27.968991804360712
 20
-96.538033373502799
 11
27.968991804360712
 21
-94.538033373502742
  0
LINE
  8
0
  6
CONTINUOUS
 62
3
 10
22.968991804360712
 20
-94.538033373502799
 11
27.968991804360712
 21
-94.538033373502742
  0
LINE
  8
0
  6
CONTINUOUS
 62
3
 10
22.968991804360712
 20
-97.538033373502799
 11
22.968991804360712
 21
-94.538033373502799
  0
LINE
  8
0
  6
CONTINUOUS
 62
3
 10
21.468991804360712
 20
-76.538033373502799
 11
29.468991804360712
 21
-68.538033373502799
  0
LINE
  8
0
  6
CONTINUOUS
 62
3
 10
29.468991804360712
 20
-68.538033373502799
 11
43.968991804360712
 21
-68.538033373502799
  0
ARC
  8
0
  6
CONTINUOUS
 62
3
 10
22.468991804360712
 20
-79.538033373502799
 40
1.000000000000000
 50
180.000000000000000
 51
270.000000000000000
  0
ARC
  8
0
  6
CONTINUOUS
 62
3
 10
29.468991804360712
 20
-85.538033373502799
 40
5.000000000000000
 50
0.000000000000000
 51
90.000000000000000
  0
ARC
  8
0
  6
CONTINUOUS
 62
3
 10
33.468991804360712
 20
-96.538033373502742
 40
1.000000000000000
 50
270.000000000000000
 51
0.000000000000000
  0
LINE
  8
0
  6
CONTINUOUS
 62
3
 10
34.468991804360712
 20
-96.538033373502742
 11
34.468991804360712
 21
-85.538033373502799
  0
LINE
  8
0
  6
CONTINUOUS
 62
3
 10
22.468991804360712
 20
-80.538033373502799
 11
29.468991804360712
 21
-80.538033373502799
  0
LINE
  8
0
  6
CONTINUOUS
 62
3
 10
21.468991804360712
 20
-79.538033373502799
 11
21.468991804360712
 21
-77.538033373502827
  0
LINE
  8
0
  6
CONTINUOUS
 62
3
 10
12.968991804360712
 20
114.361966626497240
 11
4.468991804360940
 21
114.361966626497120
  0
LINE
  8
0
  6
CONTINUOUS
 62
3
 10
12.968991804360712
 20
120.361966626497180
 11
4.468991804360940
 21
120.361966626497120
  0
LINE
  8
0
  6
CONTINUOUS
 62
3
 10
12.968991804360712
 20
120.361966626497180
 11
12.968991804360712
 21
122.361966626497240
  0
LINE
  8
0
  6
CONTINUOUS
 62
3
 10
12.718991804360712
 20
114.361966626497240
 11
12.718991804360712
 21
115.361966626497180
  0
LINE
  8
0
  6
CONTINUOUS
 62
3
 10
4.468991804360712
 20
-97.538033373502799
 11
55.968991804360712
 21
-97.538033373502770
  0
LINE
  8
0
  6
CONTINUOUS
 62
3
 10
-4.031008195639288
 20
114.361966626497240
 11
4.468991804360485
 21
114.361966626497120
  0
LINE
  8
0
  6
CONTINUOUS
 62
3
 10
4.468991804360712
 20
-109.538033373502770
 11
68.968991804360712
 21
-109.538033373502770
  0
LINE
  8
0
  6
CONTINUOUS
 62
3
 10
-53.531008195639060
 20
173.361966626497240
 11
-56.531008195639060
 21
173.361966626497240
  0
LINE
  8
0
  6
CONTINUOUS
 62
3
 10
-54.775988718013650
 20
210.046014139441640
 11
-55.134726026015414
 21
196.892312846043180
  0
LINE
  8
0
  6
CONTINUOUS
 62
3
 10
61.518260278436856
 20
290.555455910377130
 11
62.047781983575533
 21
271.139660055289540
  0
LINE
  8
0
  6
CONTINUOUS
 62
3
 10
22.468991804360712
 20
182.361966626497240
 11
65.468991804360712
 21
182.361966626497240
  0
LINE
  8
0
  6
CONTINUOUS
 62
3
 10
4.468991804360712
 20
173.361966626497240
 11
74.376306814335749
 21
173.361966626497240
  0
LINE
  8
0
  6
CONTINUOUS
 62
3
 10
65.468991804360712
 20
182.361966626497240
 11
65.468991804360712
 21
133.361966626497240
  0
ENDSEC
  0
EOF
