  0
SECTION
  2
HEADER
  9
$ACADVER
  1
AC1015
  9
$ACADMAINTVER
 70
     6
  9
$DWGCODEPAGE
  3
DOS932
  9
$INSBASE
 10
0.0
 20
0.0
 30
0.0
  9
$EXTMIN
 10
0.0
 20
0.0
 30
0.0
  9
$EXTMAX
 10
210.0
 20
297.0
 30
0.0
  9
$LIMMIN
 10
0.0
 20
0.0
  9
$LIMMAX
 10
210.0
 20
297.0
  9
$ORTHOMODE
 70
     0
  9
$REGENMODE
 70
     1
  9
$FILLMODE
 70
     1
  9
$QTEXTMODE
 70
     0
  9
$MIRRTEXT
 70
     1
  9
$LTSCALE
 40
1.0
  9
$ATTMODE
 70
     1
  9
$TEXTSIZE
 40
3.5
  9
$TRACEWID
 40
1.0
  9
$TEXTSTYLE
  7
Standard
  9
$CLAYER
  8
0
  9
$CELTYPE
  6
ByLayer
  9
$CECOLOR
 62
   256
  9
$CELTSCALE
 40
1.0
  9
$DISPSILH
 70
     0
  9
$DIMSCALE
 40
1.0
  9
$DIMASZ
 40
2.0
  9
$DIMEXO
 40
1.0
  9
$DIMDLI
 40
3.75
  9
$DIMRND
 40
0.0
  9
$DIMDLE
 40
0.0
  9
$DIMEXE
 40
1.0
  9
$DIMTP
 40
0.0
  9
$DIMTM
 40
0.0
  9
$DIMTXT
 40
4.2333333333
  9
$DIMCEN
 40
2.5
  9
$DIMTSZ
 40
0.0
  9
$DIMTOL
 70
     0
  9
$DIMLIM
 70
     0
  9
$DIMTIH
 70
     1
  9
$DIMTOH
 70
     1
  9
$DIMSE1
 70
     0
  9
$DIMSE2
 70
     0
  9
$DIMTAD
 70
     1
  9
$DIMZIN
 70
     0
  9
$DIMBLK
  1

  9
$DIMASO
 70
     1
  9
$DIMSHO
 70
     1
  9
$DIMPOST
  1

  9
$DIMAPOST
  1

  9
$DIMALT
 70
     0
  9
$DIMALTD
 70
     3
  9
$DIMALTF
 40
0.0393700787
  9
$DIMLFAC
 40
1.0
  9
$DIMTOFL
 70
     1
  9
$DIMTVP
 40
0.0
  9
$DIMTIX
 70
     0
  9
$DIMSOXD
 70
     0
  9
$DIMSAH
 70
     0
  9
$DIMBLK1
  1

  9
$DIMBLK2
  1

  9
$DIMSTYLE
  2
ISO-25
  9
$DIMCLRD
 70
     0
  9
$DIMCLRE
 70
     0
  9
$DIMCLRT
 70
     0
  9
$DIMTFAC
 40
1.0
  9
$DIMGAP
 40
1.524
  9
$DIMJUST
 70
     0
  9
$DIMSD1
 70
     0
  9
$DIMSD2
 70
     0
  9
$DIMTOLJ
 70
     0
  9
$DIMTZIN
 70
     0
  9
$DIMALTZ
 70
     0
  9
$DIMALTTZ
 70
     0
  9
$DIMUPT
 70
     0
  9
$DIMDEC
 70
     2
  9
$DIMTDEC
 70
     2
  9
$DIMALTU
 70
     2
  9
$DIMALTTD
 70
     3
  9
$DIMTXSTY
  7
Standard
  9
$DIMAUNIT
 70
     0
  9
$DIMADEC
 70
     0
  9
$DIMALTRND
 40
0.0
  9
$DIMAZIN
 70
     0
  9
$DIMDSEP
 70
    44
  9
$DIMATFIT
 70
     3
  9
$DIMFRAC
 70
     0
  9
$DIMLDRBLK
  1

  9
$DIMLUNIT
 70
     2
  9
$DIMLWD
 70
    -2
  9
$DIMLWE
 70
    -2
  9
$DIMTMOVE
 70
     0
  9
$LUNITS
 70
     2
  9
$LUPREC
 70
     2
  9
$SKETCHINC
 40
1.0
  9
$FILLETRAD
 40
10.0
  9
$AUNITS
 70
     0
  9
$AUPREC
 70
     0
  9
$MENU
  1
.
  9
$ELEVATION
 40
0.0
  9
$PELEVATION
 40
0.0
  9
$THICKNESS
 40
0.0
  9
$LIMCHECK
 70
     0
  9
$CHAMFERA
 40
0.0
  9
$CHAMFERB
 40
0.0
  9
$CHAMFERC
 40
0.0
  9
$CHAMFERD
 40
0.0
  9
$SKPOLY
 70
     0
  9
$TDCREATE
 40
2459625.560607998
  9
$TDUCREATE
 40
2459625.185607998
  9
$TDUPDATE
 40
2459625.560608715
  9
$TDUUPDATE
 40
2459625.185608715
  9
$TDINDWG
 40
0.0000000116
  9
$TDUSRTIMER
 40
0.0000000116
  9
$USRTIMER
 70
     1
  9
$ANGBASE
 50
0.0
  9
$ANGDIR
 70
     0
  9
$PDMODE
 70
     0
  9
$PDSIZE
 40
-1.0
  9
$PLINEWID
 40
0.0
  9
$SPLFRAME
 70
     0
  9
$SPLINETYPE
 70
     6
  9
$SPLINESEGS
 70
     8
  9
$HANDSEED
  5
216
  9
$SURFTAB1
 70
     6
  9
$SURFTAB2
 70
     6
  9
$SURFTYPE
 70
     6
  9
$SURFU
 70
     6
  9
$SURFV
 70
     6
  9
$UCSBASE
  2

  9
$UCSNAME
  2

  9
$UCSORG
 10
0.0
 20
0.0
 30
0.0
  9
$UCSXDIR
 10
1.0
 20
0.0
 30
0.0
  9
$UCSYDIR
 10
0.0
 20
1.0
 30
0.0
  9
$UCSORTHOREF
  2

  9
$UCSORTHOVIEW
 70
     0
  9
$UCSORGTOP
 10
0.0
 20
0.0
 30
0.0
  9
$UCSORGBOTTOM
 10
0.0
 20
0.0
 30
0.0
  9
$UCSORGLEFT
 10
0.0
 20
0.0
 30
0.0
  9
$UCSORGRIGHT
 10
0.0
 20
0.0
 30
0.0
  9
$UCSORGFRONT
 10
0.0
 20
0.0
 30
0.0
  9
$UCSORGBACK
 10
0.0
 20
0.0
 30
0.0
  9
$PUCSBASE
  2

  9
$PUCSNAME
  2

  9
$PUCSORG
 10
0.0
 20
0.0
 30
0.0
  9
$PUCSXDIR
 10
1.0
 20
0.0
 30
0.0
  9
$PUCSYDIR
 10
0.0
 20
1.0
 30
0.0
  9
$PUCSORTHOREF
  2

  9
$PUCSORTHOVIEW
 70
     0
  9
$PUCSORGTOP
 10
0.0
 20
0.0
 30
0.0
  9
$PUCSORGBOTTOM
 10
0.0
 20
0.0
 30
0.0
  9
$PUCSORGLEFT
 10
0.0
 20
0.0
 30
0.0
  9
$PUCSORGRIGHT
 10
0.0
 20
0.0
 30
0.0
  9
$PUCSORGFRONT
 10
0.0
 20
0.0
 30
0.0
  9
$PUCSORGBACK
 10
0.0
 20
0.0
 30
0.0
  9
$USERI1
 70
     0
  9
$USERI2
 70
     0
  9
$USERI3
 70
     0
  9
$USERI4
 70
     0
  9
$USERI5
 70
     0
  9
$USERR1
 40
0.0
  9
$USERR2
 40
0.0
  9
$USERR3
 40
0.0
  9
$USERR4
 40
0.0
  9
$USERR5
 40
0.0
  9
$WORLDVIEW
 70
     1
  9
$SHADEDGE
 70
     3
  9
$SHADEDIF
 70
    70
  9
$TILEMODE
 70
     1
  9
$MAXACTVP
 70
    64
  9
$PINSBASE
 10
0.0
 20
0.0
 30
0.0
  9
$PLIMCHECK
 70
     0
  9
$PEXTMIN
 10
1.0000000000E+20
 20
1.0000000000E+20
 30
1.0000000000E+20
  9
$PEXTMAX
 10
-1.0000000000E+20
 20
-1.0000000000E+20
 30
-1.0000000000E+20
  9
$PLIMMIN
 10
0.0
 20
0.0
  9
$PLIMMAX
 10
420.0
 20
297.0
  9
$UNITMODE
 70
     0
  9
$VISRETAIN
 70
     1
  9
$PLINEGEN
 70
     0
  9
$PSLTSCALE
 70
     1
  9
$TREEDEPTH
 70
  3020
  9
$CMLSTYLE
  2
Standard
  9
$CMLJUST
 70
     0
  9
$CMLSCALE
 40
20.0
  9
$PROXYGRAPHICS
 70
     1
  9
$MEASUREMENT
 70
     1
  9
$CELWEIGHT
370
    -1
  9
$ENDCAPS
280
     0
  9
$JOINSTYLE
280
     0
  9
$LWDISPLAY
290
     1
  9
$INSUNITS
 70
     4
  9
$HYPERLINKBASE
  1

  9
$STYLESHEET
  1

  9
$XEDIT
290
     1
  9
$CEPSNTYPE
380
     0
  9
$PSTYLEMODE
290
     1
  9
$FINGERPRINTGUID
  2
{37893c9b-5310-4d89-b82f-e67c57ba0e9f}
  9
$VERSIONGUID
  2
{FAEB1C32-E019-11D5-929B-00C0DF256EC4}
  9
$EXTNAMES
290
     1
  9
$PSVPSCALE
 40
0.0
  9
$OLESTARTUP
290
     0
  0
ENDSEC
  0
SECTION
  2
CLASSES
  0
CLASS
  1
ACDBDICTIONARYWDFLT
  2
AcDbDictionaryWithDefault
  3
ObjectDBX Classes
 90
        0
280
     0
281
     0
  0
CLASS
  1
VISUALSTYLE
  2
AcDbVisualStyle
  3
ObjectDBX Classes
 90
     4095
280
     0
281
     0
  0
CLASS
  1
MATERIAL
  2
AcDbMaterial
  3
ObjectDBX Classes
 90
     1153
280
     0
281
     0
  0
CLASS
  1
SCALE
  2
AcDbScale
  3
ObjectDBX Classes
 90
     1153
280
     0
281
     0
  0
CLASS
  1
TABLESTYLE
  2
AcDbTableStyle
  3
ObjectDBX Classes
 90
     4095
280
     0
281
     0
  0
CLASS
  1
MLEADERSTYLE
  2
AcDbMLeaderStyle
  3
ACDB_MLEADERSTYLE_CLASS
 90
     4095
280
     0
281
     0
  0
CLASS
  1
SUN
  2
AcDbSun
  3
SCENEOE
 90
     1153
280
     0
281
     0
  0
CLASS
  1
ACDBPLACEHOLDER
  2
AcDbPlaceHolder
  3
ObjectDBX Classes
 90
        0
280
     0
281
     0
  0
CLASS
  1
LAYOUT
  2
AcDbLayout
  3
ObjectDBX Classes
 90
        0
280
     0
281
     0
  0
ENDSEC
  0
SECTION
  2
TABLES
  0
TABLE
  2
VPORT
  5
8
330
0
100
AcDbSymbolTable
 70
     1
  0
VPORT
  5
29
330
8
100
AcDbSymbolTableRecord
100
AcDbViewportTableRecord
  2
*Active
 70
     0
 10
0.0
 20
0.0
 11
1.0
 21
1.0
 12
105.0
 22
148.5
 13
0.0
 23
0.0
 14
10.0
 24
10.0
 15
10.0
 25
10.0
 16
0.0
 26
0.0
 36
1.0
 17
0.0
 27
0.0
 37
0.0
 40
297.0
 41
0.7070707071
 42
50.0
 43
0.0
 44
0.0
 50
0.0
 51
0.0
 71
     0
 72
  2000
 73
     1
 74
     3
 75
     0
 76
     0
 77
     0
 78
     0
281
     0
 65
     1
110
0.0
120
0.0
130
0.0
111
1.0
121
0.0
131
0.0
112
0.0
122
1.0
132
0.0
 79
     0
146
0.0
  0
ENDTAB
  0
TABLE
  2
LTYPE
  5
5
330
0
100
AcDbSymbolTable
 70
     6
  0
LTYPE
  5
14
330
5
100
AcDbSymbolTableRecord
100
AcDbLinetypeTableRecord
  2
ByBlock
 70
     0
  3

 72
    65
 73
     0
 40
0.0
  0
LTYPE
  5
15
330
5
100
AcDbSymbolTableRecord
100
AcDbLinetypeTableRecord
  2
ByLayer
 70
     0
  3

 72
    65
 73
     0
 40
0.0
  0
LTYPE
  5
16
330
5
100
AcDbSymbolTableRecord
100
AcDbLinetypeTableRecord
  2
Continuous
 70
     0
  3
Solid line
 72
    65
 73
     0
 40
0.0
  0
LTYPE
  5
6E
330
5
100
AcDbSymbolTableRecord
100
AcDbLinetypeTableRecord
  2
HIDDEN
 70
     0
  3
Hidden __ __ __ __ __ __ __ __ __ __ __ __ __ __
 72
    65
 73
     2
 40
1.905
 49
1.27
 74
     0
 49
-0.635
 74
     0
  0
LTYPE
  5
6F
330
5
100
AcDbSymbolTableRecord
100
AcDbLinetypeTableRecord
  2
PHANTOM
 70
     0
  3
Phantom ______  __  __  ______  __  __  ______
 72
    65
 73
     6
 40
12.7
 49
6.35
 74
     0
 49
-1.27
 74
     0
 49
1.27
 74
     0
 49
-1.27
 74
     0
 49
1.27
 74
     0
 49
-1.27
 74
     0
  0
LTYPE
  5
70
330
5
100
AcDbSymbolTableRecord
100
AcDbLinetypeTableRecord
  2
CENTER
 70
     0
  3
Center ____ _ ____ _ ____ _ ____ _ ____ _ ____
 72
    65
 73
     4
 40
10.16
 49
6.35
 74
     0
 49
-1.27
 74
     0
 49
1.27
 74
     0
 49
-1.27
 74
     0
  0
LTYPE
  5
71
330
5
100
AcDbSymbolTableRecord
100
AcDbLinetypeTableRecord
  2
CENTERX2
 70
     0
  3
Center (2x) ________  __  ________  __  _____
 72
    65
 73
     4
 40
20.32
 49
12.7
 74
     0
 49
-2.54
 74
     0
 49
2.54
 74
     0
 49
-2.54
 74
     0
  0
LTYPE
  5
72
330
5
100
AcDbSymbolTableRecord
100
AcDbLinetypeTableRecord
  2
DOT2
 70
     0
  3
Dot (.5x) ........................................
 72
    65
 73
     2
 40
0.635
 49
0.0
 74
     0
 49
-0.635
 74
     0
  0
ENDTAB
  0
TABLE
  2
LAYER
  5
2
330
0
100
AcDbSymbolTable
 70
    11
  0
LAYER
  5
10
330
2
100
AcDbSymbolTableRecord
100
AcDbLayerTableRecord
  2
0
 70
     0
 62
     7
  6
Continuous
370
    -3
390
F
  0
LAYER
  5
73
330
2
100
AcDbSymbolTableRecord
100
AcDbLayerTableRecord
  2
SLD-0
 70
     0
 62
   179
  6
Continuous
370
    -3
390
F
  0
LAYER
  5
74
330
2
100
AcDbSymbolTableRecord
100
AcDbLayerTableRecord
  2
AM_6
 70
     0
 62
     2
  6
Continuous
370
    50
390
F
  0
LAYER
  5
75
330
2
100
AcDbSymbolTableRecord
100
AcDbLayerTableRecord
  2
AM_5
 70
     0
 62
     3
  6
Continuous
370
    25
390
F
  0
LAYER
  5
76
330
2
100
AcDbSymbolTableRecord
100
AcDbLayerTableRecord
  2
AM_7
 70
     0
 62
     4
  6
Continuous
370
    25
390
F
  0
LAYER
  5
77
330
2
100
AcDbSymbolTableRecord
100
AcDbLayerTableRecord
  2
SLD-DEFPOINTS
 70
     0
 62
   179
  6
Continuous
370
    -3
390
F
  0
LAYER
  5
78
330
2
100
AcDbSymbolTableRecord
100
AcDbLayerTableRecord
  2
AM_0
 70
     0
 62
   179
  6
Continuous
370
    70
390
F
  0
LAYER
  5
79
330
2
100
AcDbSymbolTableRecord
100
AcDbLayerTableRecord
  2
AM_CL
 70
     0
 62
     1
  6
Continuous
370
    25
390
F
  0
LAYER
  5
7A
330
2
100
AcDbSymbolTableRecord
100
AcDbLayerTableRecord
  2
6
 70
     0
 62
     2
  6
Continuous
370
    -3
390
F
  0
LAYER
  5
7B
330
2
100
AcDbSymbolTableRecord
100
AcDbLayerTableRecord
  2
AM_4
 70
     0
 62
     3
  6
Continuous
370
    25
390
F
  0
LAYER
  5
7C
330
2
100
AcDbSymbolTableRecord
100
AcDbLayerTableRecord
  2
AM_8
 70
     0
 62
     1
  6
Continuous
370
    25
390
F
  0
ENDTAB
  0
TABLE
  2
STYLE
  5
3
330
0
100
AcDbSymbolTable
 70
     1
  0
STYLE
  5
11
330
3
100
AcDbSymbolTableRecord
100
AcDbTextStyleTableRecord
  2
Standard
 70
     0
 40
0.0
 41
1.0
 50
0.0
 71
     0
 42
3.5
  3
txt
  4
bigfont
  0
ENDTAB
  0
TABLE
  2
VIEW
  5
6
330
0
100
AcDbSymbolTable
 70
     0
  0
ENDTAB
  0
TABLE
  2
UCS
  5
7
330
0
100
AcDbSymbolTable
 70
     0
  0
ENDTAB
  0
TABLE
  2
APPID
  5
9
330
0
100
AcDbSymbolTable
 70
     1
  0
APPID
  5
12
330
9
100
AcDbSymbolTableRecord
100
AcDbRegAppTableRecord
  2
ACAD
 70
     0
  0
ENDTAB
  0
TABLE
  2
DIMSTYLE
  5
A
330
0
100
AcDbSymbolTable
 70
     1
100
AcDbDimStyleTable
  0
DIMSTYLE
105
27
330
A
100
AcDbSymbolTableRecord
100
AcDbDimStyleTableRecord
  2
ISO-25
 70
     0
 41
2.5
 42
0.625
 43
3.75
 44
1.25
 73
     0
 74
     0
 77
     1
 78
     8
140
2.5
141
2.5
143
0.0393700787
147
0.625
171
     3
172
     1
178
     0
271
     2
272
     2
274
     3
278
    44
283
     0
284
     8
340
11
  0
ENDTAB
  0
TABLE
  2
BLOCK_RECORD
  5
1
330
0
100
AcDbSymbolTable
 70
     1
  0
BLOCK_RECORD
  5
1F
330
1
100
AcDbSymbolTableRecord
100
AcDbBlockTableRecord
  2
*Model_Space
340
22
  0
BLOCK_RECORD
  5
1B
330
1
100
AcDbSymbolTableRecord
100
AcDbBlockTableRecord
  2
*Paper_Space
340
1E
  0
BLOCK_RECORD
  5
23
330
1
100
AcDbSymbolTableRecord
100
AcDbBlockTableRecord
  2
*Paper_Space0
340
26
  0
ENDTAB
  0
ENDSEC
  0
SECTION
  2
BLOCKS
  0
BLOCK
  5
20
330
1F
100
AcDbEntity
  8
0
100
AcDbBlockBegin
  2
*Model_Space
 70
     0
 10
0.0
 20
0.0
 30
0.0
  3
*Model_Space
  1

  0
ENDBLK
  5
21
330
1F
100
AcDbEntity
  8
0
100
AcDbBlockEnd
  0
BLOCK
  5
1C
330
1B
100
AcDbEntity
 67
     1
  8
0
100
AcDbBlockBegin
  2
*Paper_Space
 70
     0
 10
0.0
 20
0.0
 30
0.0
  3
*Paper_Space
  1

  0
ENDBLK
  5
1D
330
1B
100
AcDbEntity
 67
     1
  8
0
100
AcDbBlockEnd
  0
BLOCK
  5
24
330
23
100
AcDbEntity
  8
0
100
AcDbBlockBegin
  2
*Paper_Space0
 70
     0
 10
0.0
 20
0.0
 30
0.0
  3
*Paper_Space0
  1

  0
ENDBLK
  5
25
330
23
100
AcDbEntity
  8
0
100
AcDbBlockEnd
  0
ENDSEC
  0
SECTION
  2
ENTITIES
  0
LINE
  5
7D
330
1F
100
AcDbEntity
  8
0
  6
Continuous
 62
     7
370
    25
100
AcDbLine
 10
393.7769536801
 20
264.309653336
 30
0.0
 11
386.0206012554
 21
412.3096552434
 31
0.0
  0
LINE
  5
7E
330
1F
100
AcDbEntity
  8
0
  6
Continuous
 62
     7
370
    25
100
AcDbLine
 10
49.1699878998
 20
412.3096552434
 30
0.0
 11
41.4136354752
 21
264.309653336
 31
0.0
  0
LINE
  5
7F
330
1F
100
AcDbEntity
  8
0
  6
Continuous
 62
     7
370
    25
100
AcDbLine
 10
396.9639097281
 20
194.3096455874
 30
0.0
 11
396.5694908924
 21
216.9056844654
 31
0.0
  0
ARC
  5
80
330
1F
100
AcDbEntity
  8
0
  6
Continuous
 62
     7
370
    25
100
AcDbCircle
 10
395.5696410693
 20
216.8882293384
 30
0.0
 40
1.000000000000028
100
AcDbArc
 50
1.0
 51
45.0
  0
LINE
  5
81
330
1F
100
AcDbEntity
  8
0
  6
Continuous
 62
     7
370
    25
100
AcDbLine
 10
396.2767426796
 20
217.5953325572
 30
0.0
 11
394.8481236525
 21
219.0239590349
 31
0.0
  0
ARC
  5
82
330
1F
100
AcDbEntity
  8
0
  6
Continuous
 62
     7
370
    25
100
AcDbCircle
 10
395.5552339998
 20
219.7310635326
 30
0.0
 40
1.000000000000028
100
AcDbArc
 50
181.0
 51
225.0
  0
LINE
  5
83
330
1F
100
AcDbEntity
  8
0
  6
Continuous
 62
     7
370
    25
100
AcDbLine
 10
394.5553903408
 20
219.7136145773
 30
0.0
 11
393.7769536801
 21
264.309653336
 31
0.0
  0
LINE
  5
84
330
1F
100
AcDbEntity
  8
0
  6
Continuous
 62
     7
370
    25
100
AcDbLine
 10
41.4136354752
 20
264.309653336
 30
0.0
 11
41.3877223559
 21
262.8255274834
 31
0.0
  0
LINE
  5
85
330
1F
100
AcDbEntity
  8
0
  6
Continuous
 62
     7
370
    25
100
AcDbLine
 10
386.0206012554
 20
412.3096552434
 30
0.0
 11
385.2212731667
 21
458.1038144173
 31
0.0
  0
LINE
  5
86
330
1F
100
AcDbEntity
  8
0
  6
Continuous
 62
     7
370
    25
100
AcDbLine
 10
49.9693159886
 20
458.1038144173
 30
0.0
 11
49.1699878998
 21
412.3096552434
 31
0.0
  0
ARC
  5
87
330
1F
100
AcDbEntity
  8
0
  6
Continuous
 62
     7
370
    25
100
AcDbCircle
 10
370.2235527062
 20
457.8420265955
 30
0.0
 40
15.00000000000002
100
AcDbArc
 50
1.0
 51
82.900914729
  0
ARC
  5
88
330
1F
100
AcDbEntity
  8
0
  6
Continuous
 62
     7
370
    25
100
AcDbCircle
 10
64.967036449
 20
457.8420265955
 30
0.0
 40
15.00000000000002
100
AcDbArc
 50
97.099085271
 51
179.0
  0
ARC
  5
89
330
1F
100
AcDbEntity
  8
0
  6
Continuous
 62
     7
370
    25
100
AcDbCircle
 10
217.5952945776
 20
-767.6903535645
 30
0.0
 40
1250.0
100
AcDbArc
 50
90.3666954922
 51
97.099085271
  0
ARC
  5
8A
330
1F
100
AcDbEntity
  8
0
  6
Continuous
 62
     7
370
    25
100
AcDbCircle
 10
217.5952945776
 20
-767.6903535645
 30
0.0
 40
1250.0
100
AcDbArc
 50
82.900914729
 51
89.6333045078
  0
LINE
  5
8B
330
1F
100
AcDbEntity
  8
0
  6
Continuous
 62
     7
370
    25
100
AcDbLine
 10
91.398388607
 20
217.8096485081
 30
0.0
 11
90.7622580357
 21
217.8096485081
 31
0.0
  0
LINE
  5
8C
330
1F
100
AcDbEntity
  8
0
  6
Continuous
 62
     7
370
    25
100
AcDbLine
 10
43.1778733559
 20
241.1738198938
 30
0.0
 11
42.7986984081
 21
219.7138082924
 31
0.0
  0
LWPOLYLINE
  5
8D
330
1F
100
AcDbEntity
  8
0
  6
Continuous
 62
     7
370
    25
100
AcDbPolyline
 90
        3
 70
   128
 43
0.0
 10
40.7585506268
 20
216.9058930817
 10
40.3712992497
 20
194.9864339771
 10
40.3593485184
 20
194.3098989072
  0
SPLINE
  5
8E
330
1F
100
AcDbEntity
  8
0
  6
Continuous
 62
     7
370
    25
100
AcDbSpline
210
0.0
220
0.0
230
1.0
 70
     8
 71
     3
 72
    12
 73
     8
 74
     0
 42
0.000000001
 43
0.00000001
 40
0.0
 40
0.0
 40
0.0
 40
0.0
 40
0.1926323669594718
 40
0.4373212992284342
 40
0.6833877660964689
 40
0.9300735171563467
 40
1.0
 40
1.0
 40
1.0
 40
1.0
 10
42.79448137952599
 20
219.715104693399
 30
0.0
 10
42.79258158884016
 20
219.6659335522858
 30
0.0
 10
42.78826861203314
 20
219.5543033644019
 30
0.0
 10
42.74042171005274
 20
219.3846580253981
 30
0.0
 10
42.65631172709033
 20
219.2164967597035
 30
0.0
 10
42.57396152000184
 20
219.0964800720639
 30
0.0
 10
42.5131884570723
 20
219.0432299572335
 30
0.0
 10
42.49976621343404
 20
219.0314692201477
 30
0.0
  0
ARC
  5
8F
330
1F
100
AcDbEntity
  8
0
  6
Continuous
 62
     7
370
    25
100
AcDbCircle
 10
41.758387163
 20
216.8882293384
 30
0.0
 40
1.000000000000004
100
AcDbArc
 50
134.6538698334
 51
178.987846709
  0
SPLINE
  5
90
330
1F
100
AcDbEntity
  8
0
  6
Continuous
 62
     7
370
    25
100
AcDbSpline
210
0.0
220
0.0
230
1.0
 70
     8
 71
     3
 72
     9
 73
     5
 74
     0
 42
0.000000001
 43
0.00000001
 40
0.0
 40
0.0
 40
0.0
 40
0.0
 40
0.6999982076145588
 40
1.0
 40
1.0
 40
1.0
 40
1.0
 10
42.50179277135643
 20
219.028265470491
 30
0.0
 10
42.1643052149831
 20
218.6949428003785
 30
0.0
 10
41.68217889994094
 20
218.2187663380868
 30
0.0
 10
41.20021131552789
 20
217.742429222515
 30
0.0
 10
41.05562017633233
 20
217.5995272340637
 30
0.0
  0
SPLINE
  5
91
330
1F
100
AcDbEntity
  8
0
  6
Continuous
 62
     7
370
    25
100
AcDbSpline
210
0.0
220
0.0
230
1.0
 70
     8
 71
     3
 72
    47
 73
    43
 74
     0
 42
0.000000001
 43
0.00000001
 40
0.0
 40
0.0
 40
0.0
 40
0.0
 40
0.0039172829654199
 40
0.0184222304902077
 40
0.0417750391909837
 40
0.0675855127766641
 40
0.0938172627097917
 40
0.1202169453133271
 40
0.1467226254643777
 40
0.1732940945332444
 40
0.1998955761409048
 40
0.2264845205454014
 40
0.2530222668963925
 40
0.2794761724922513
 40
0.3058156951966775
 40
0.3320132509138784
 40
0.3580408049759096
 40
0.3843658744474041
 40
0.4106673663627247
 40
0.4370450315020558
 40
0.4634849225988052
 40
0.4899716848283048
 40
0.5164878093028201
 40
0.5430152954617884
 40
0.5695299631729015
 40
0.5960140847560003
 40
0.6224503101686862
 40
0.648822640741717
 40
0.6751172255054531
 40
0.7013161803177238
 40
0.7273611698934271
 40
0.7533096451634288
 40
0.7794046193487045
 40
0.8056193368815999
 40
0.831927545389338
 40
0.8582996975590408
 40
0.8847049446950117
 40
0.911106921880783
 40
0.9374675133166982
 40
0.9637558851255833
 40
0.9899417625616449
 40
1.0
 40
1.0
 40
1.0
 40
1.0
 10
41.39509843065056
 20
262.6873937191825
 30
0.0
 10
41.3951020864988
 20
262.6874030757512
 30
0.0
 10
41.39511927925188
 20
262.6874470778994
 30
0.0
 10
41.39685019471553
 20
262.6726872605848
 30
0.0
 10
41.40154421136291
 20
262.6322921381533
 30
0.0
 10
41.4109100044954
 20
262.5506455311154
 30
0.0
 10
41.42434471805148
 20
262.4311283442806
 30
0.0
 10
41.4416186691596
 20
262.2753307178078
 30
0.0
 10
41.46243984706319
 20
262.0838098348139
 30
0.0
 10
41.48671806189886
 20
261.8570161350498
 30
0.0
 10
41.51416565257471
 20
261.5954310179644
 30
0.0
 10
41.54465968582896
 20
261.2997665359898
 30
0.0
 10
41.57793104240223
 20
260.9708601899843
 30
0.0
 10
41.61376293860089
 20
260.6097059740258
 30
0.0
 10
41.65194580030665
 20
260.2173530293192
 30
0.0
 10
41.69219738291058
 20
259.7948431300115
 30
0.0
 10
41.7345063297068
 20
259.3411601448831
 30
0.0
 10
41.77836355068973
 20
258.8565897230602
 30
0.0
 10
41.8236345932495
 20
258.3400611438105
 30
0.0
 10
41.86981124739528
 20
257.793884313073
 30
0.0
 10
41.91663421095232
 20
257.2183531579695
 30
0.0
 10
41.96373461133027
 20
256.6145954981272
 30
0.0
 10
42.01067565482897
 20
255.9839037327388
 30
0.0
 10
42.05716467975729
 20
255.3276397961048
 30
0.0
 10
42.10274030436806
 20
254.6473282035903
 30
0.0
 10
42.14708423114796
 20
253.9445252720992
 30
0.0
 10
42.18977016759332
 20
253.2208205241441
 30
0.0
 10
42.23049916395696
 20
252.4778354480694
 30
0.0
 10
42.26883843080775
 20
251.7172215810838
 30
0.0
 10
42.30454677283094
 20
250.9412550604836
 30
0.0
 10
42.3369278783379
 20
250.1512465637909
 30
0.0
 10
42.36607418544183
 20
249.34641614846
 30
0.0
 10
42.39191187209626
 20
248.5253716605071
 30
0.0
 10
42.41432578267926
 20
247.6874054168659
 30
0.0
 10
42.43309874517118
 20
246.8346514044329
 30
0.0
 10
42.44805994406506
 20
245.969356404009
 30
0.0
 10
42.45904289421071
 20
245.0939201942021
 30
0.0
 10
42.4658128763136
 20
244.2108786408954
 30
0.0
 10
42.46832271984885
 20
243.3228473296382
 30
0.0
 10
42.46610690987634
 20
242.43227307451
 30
0.0
 10
42.46159213417771
 20
241.7233739941912
 30
0.0
 10
42.45611951930808
 20
241.3114828799312
 30
0.0
 10
42.45460079385552
 20
241.1971774639946
 30
0.0
  0
SPLINE
  5
92
330
1F
100
AcDbEntity
  8
0
  6
Continuous
 62
     7
370
    25
100
AcDbSpline
210
0.0
220
0.0
230
1.0
 70
     8
 71
     3
 72
    22
 73
    18
 74
     0
 42
0.000000001
 43
0.00000001
 40
0.0
 40
0.0
 40
0.0
 40
0.0
 40
0.0009340156663587
 40
0.0115187006408972
 40
0.0174697501049633
 40
0.0202672643560571
 40
0.0225179759489494
 40
0.02574167160291
 40
0.032085681326744
 40
0.0482089939411577
 40
0.0829207138011566
 40
0.1985418116001781
 40
0.3632149934408094
 40
0.5219053909611007
 40
0.6807751599819456
 40
0.8403070949139927
 40
1.0
 40
1.0
 40
1.0
 40
1.0
 10
41.38793097211629
 20
262.8258106055122
 30
0.0
 10
41.38783682357949
 20
262.8240518887503
 30
0.0
 10
41.38667574154412
 20
262.8023626038454
 30
0.0
 10
41.38819593895043
 20
262.7697304931644
 30
0.0
 10
41.39043782289148
 20
262.7332483394003
 30
0.0
 10
41.39184397449536
 20
262.7174766097683
 30
0.0
 10
41.39256049932122
 20
262.7100513207304
 30
0.0
 10
41.39319858802901
 20
262.7039837208806
 30
0.0
 10
41.3938109972416
 20
262.6982507673214
 30
0.0
 10
41.39424279231413
 20
262.6945034190879
 30
0.0
 10
41.39493773590494
 20
262.6885039430981
 30
0.0
 10
41.39710372631455
 20
262.6700015894681
 30
0.0
 10
41.403559505053
 20
262.6140178994587
 30
0.0
 10
41.41470286655532
 20
262.5160471766627
 30
0.0
 10
41.42964032579252
 20
262.3828511884884
 30
0.0
 10
41.44796357027258
 20
262.2167603328361
 30
0.0
 10
41.46310339214004
 20
262.0764415229164
 30
0.0
 10
41.47067712022576
 20
262.0062467398506
 30
0.0
  0
SPLINE
  5
93
330
1F
100
AcDbEntity
  8
0
  6
Continuous
 62
     7
370
    25
100
AcDbSpline
210
0.0
220
0.0
230
1.0
 70
     8
 71
     3
 72
     9
 73
     5
 74
     0
 42
0.000000001
 43
0.00000001
 40
0.0
 40
0.0
 40
0.0
 40
0.0
 40
0.7109339196799118
 40
1.0
 40
1.0
 40
1.0
 40
1.0
 10
42.45650814248833
 20
241.3480144681793
 30
0.0
 10
42.45625963210323
 20
241.3130274290607
 30
0.0
 10
42.45591007727376
 20
241.2638146426819
 30
0.0
 10
42.45514870600894
 20
241.2144786600083
 30
0.0
 10
42.45492861940178
 20
241.2002173008781
 30
0.0
  0
LINE
  5
94
330
1F
100
AcDbEntity
  8
0
  6
Continuous
 62
     7
370
    25
100
AcDbLine
 10
43.1620930262
 20
240.3329548182
 30
0.0
 11
42.7976106234
 21
219.7138231935
 31
0.0
  0
LINE
  5
95
330
1F
100
AcDbEntity
  8
0
  6
Continuous
 62
     7
370
    25
100
AcDbLine
 10
89.8587261267
 20
214.7663024011
 30
0.0
 11
86.7160414286
 21
214.2694008293
 31
0.0
  0
LINE
  5
96
330
1F
100
AcDbEntity
  8
0
  6
Continuous
 62
     7
370
    25
100
AcDbLine
 10
86.7160414286
 20
201.3498929086
 30
0.0
 11
89.8587261267
 21
200.8529913368
 31
0.0
  0
LINE
  5
97
330
1F
100
AcDbEntity
  8
0
  6
Continuous
 62
     7
370
    25
100
AcDbLine
 10
388.1952916212
 20
148.8096465113
 30
0.0
 11
386.1952875681
 21
148.8096465113
 31
0.0
  0
LINE
  5
98
330
1F
100
AcDbEntity
  8
0
  6
Continuous
 62
     7
370
    25
100
AcDbLine
 10
386.1952875681
 20
132.8096466827
 30
0.0
 11
388.1952916212
 21
132.8096466827
 31
0.0
  0
LINE
  5
99
330
1F
100
AcDbEntity
  8
0
  6
Continuous
 62
     7
370
    25
100
AcDbLine
 10
154.3971379228
 20
116.3753106015
 30
0.0
 11
165.0570821889
 21
109.8258050846
 31
0.0
  0
LINE
  5
9A
330
1F
100
AcDbEntity
  8
0
  6
Continuous
 62
     7
370
    25
100
AcDbLine
 10
165.0570821889
 20
99.7934874835
 30
0.0
 11
154.3971379228
 21
93.2439819666
 31
0.0
  0
ARC
  5
9B
330
1F
100
AcDbEntity
  8
0
  6
Continuous
 62
     7
370
    25
100
AcDbCircle
 10
154.4583761197
 20
120.9754539728
 30
0.0
 40
1.000000000000014
100
AcDbArc
 50
90.0
 51
121.5667039661
  0
ARC
  5
9C
330
1F
100
AcDbEntity
  8
0
  6
Continuous
 62
     7
370
    25
100
AcDbCircle
 10
154.4583761197
 20
88.6438388982
 30
0.0
 40
1.000000000000017
100
AcDbArc
 50
238.4332960339
 51
270.0
  0
LINE
  5
9D
330
1F
100
AcDbEntity
  8
0
  6
Continuous
 62
     7
370
    25
100
AcDbLine
 10
153.9348815508
 20
121.8274852949
 30
0.0
 11
140.7791902251
 21
113.7445813733
 31
0.0
  0
LINE
  5
9E
330
1F
100
AcDbEntity
  8
0
  6
Continuous
 62
     7
370
    25
100
AcDbLine
 10
140.7791902251
 20
95.8747111949
 30
0.0
 11
153.9348815508
 21
87.7918091359
 31
0.0
  0
LINE
  5
9F
330
1F
100
AcDbEntity
  8
0
  6
Continuous
 62
     7
370
    25
100
AcDbLine
 10
160.9567594655
 20
121.9754539419
 30
0.0
 11
154.4583742447
 21
121.9754539419
 31
0.0
  0
LINE
  5
A0
330
1F
100
AcDbEntity
  8
0
  6
Continuous
 62
     7
370
    25
100
AcDbLine
 10
154.4583742447
 20
87.6438406052
 30
0.0
 11
160.9567594655
 21
87.6438406052
 31
0.0
  0
ARC
  5
A1
330
1F
100
AcDbEntity
  8
0
  6
Continuous
 62
     7
370
    25
100
AcDbCircle
 10
141.3026794287
 20
98.8096464355
 30
0.0
 40
1.0
100
AcDbArc
 50
90.0
 51
180.0
  0
ARC
  5
A2
330
1F
100
AcDbEntity
  8
0
  6
Continuous
 62
     7
370
    25
100
AcDbCircle
 10
141.3026794287
 20
110.8096464355
 30
0.0
 40
1.0
100
AcDbArc
 50
180.0
 51
270.0
  0
LINE
  5
A3
330
1F
100
AcDbEntity
  8
0
  6
Continuous
 62
     7
370
    25
100
AcDbLine
 10
140.3026808925
 20
98.8096457662
 30
0.0
 11
140.3026808925
 21
96.7267428281
 31
0.0
  0
ARC
  5
A4
330
1F
100
AcDbEntity
  8
0
  6
Continuous
 62
     7
370
    25
100
AcDbCircle
 10
141.3026794287
 20
96.7267426669
 30
0.0
 40
1.0
100
AcDbArc
 50
180.0
 51
238.4332960339
  0
ARC
  5
A5
330
1F
100
AcDbEntity
  8
0
  6
Continuous
 62
     7
370
    25
100
AcDbCircle
 10
141.3026794287
 20
112.8925502042
 30
0.0
 40
1.000000000000008
100
AcDbArc
 50
121.5667039661
 51
180.0
  0
LINE
  5
A6
330
1F
100
AcDbEntity
  8
0
  6
Continuous
 62
     7
370
    25
100
AcDbLine
 10
140.3026808925
 20
112.89254974
 30
0.0
 11
140.3026808925
 21
110.8096468019
 31
0.0
  0
SPLINE
  5
A7
330
1F
100
AcDbEntity
  8
0
  6
Continuous
 62
     7
370
    25
100
AcDbSpline
210
0.0
220
0.0
230
1.0
 70
     8
 71
     3
 72
    13
 73
     9
 74
     0
 42
0.000000001
 43
0.00000001
 40
0.0
 40
0.0
 40
0.0
 40
0.0
 40
0.1613261280590698
 40
0.3407190417999902
 40
0.5278048642738309
 40
0.72053547543488
 40
0.9169821291888757
 40
1.0
 40
1.0
 40
1.0
 40
1.0
 10
141.8940951056651
 20
109.8096466379624
 30
0.0
 10
141.9050095001393
 20
109.7685780089803
 30
0.0
 10
141.9280605835058
 20
109.6818415076883
 30
0.0
 10
141.9592016043293
 20
109.5186962301745
 30
0.0
 10
141.9856229537466
 20
109.3303785369493
 30
0.0
 10
142.0041904681999
 20
109.1225974109229
 30
0.0
 10
142.0119709223965
 20
108.9460403088598
 30
0.0
 10
142.0125969010451
 20
108.8408842000803
 30
0.0
 10
142.0127828545741
 20
108.8096464740496
 30
0.0
  0
SPLINE
  5
A8
330
1F
100
AcDbEntity
  8
0
  6
Continuous
 62
     7
370
    25
100
AcDbSpline
210
0.0
220
0.0
230
1.0
 70
     8
 71
     3
 72
    13
 73
     9
 74
     0
 42
0.000000001
 43
0.00000001
 40
0.0
 40
0.0
 40
0.0
 40
0.0
 40
0.1031714799184458
 40
0.301074615843737
 40
0.4975655304027928
 40
0.6908386120668366
 40
0.8791319695630261
 40
1.0
 40
1.0
 40
1.0
 40
1.0
 10
142.0127828545741
 20
100.80964609407
 30
0.0
 10
142.0124994820471
 20
100.7706811401178
 30
0.0
 10
142.011672545429
 20
100.6569737613752
 30
0.0
 10
142.0024522632664
 20
100.4707992706891
 30
0.0
 10
141.9822618854946
 20
100.259395448858
 30
0.0
 10
141.9535447497013
 20
100.0670904033422
 30
0.0
 10
141.9227343072588
 20
99.91370840092812
 30
0.0
 10
141.9015072857742
 20
99.83889468697984
 30
0.0
 10
141.893208486574
 20
99.80964593015723
 30
0.0
  0
LINE
  5
A9
330
1F
100
AcDbEntity
  8
0
  6
Continuous
 62
     7
370
    25
100
AcDbLine
 10
142.0127828546
 20
108.809646474
 30
0.0
 11
142.0127828546
 21
100.8096460941
 31
0.0
  0
LINE
  5
AA
330
1F
100
AcDbEntity
  8
0
  6
Continuous
 62
     7
370
    25
100
AcDbLine
 10
38.2452909775
 20
194.3096455874
 30
0.0
 11
38.3500312395
 21
188.3096483292
 31
0.0
  0
LINE
  5
AB
330
1F
100
AcDbEntity
  8
0
  6
Continuous
 62
     7
370
    25
100
AcDbLine
 10
396.8405579157
 20
188.3096483292
 30
0.0
 11
396.9452981777
 21
194.3096455874
 31
0.0
  0
ARC
  5
AC
330
1F
100
AcDbEntity
  8
0
  6
Continuous
 62
     7
370
    25
100
AcDbCircle
 10
22.3550905333
 20
176.3028953168
 30
0.0
 40
20.00000000000002
100
AcDbArc
 50
1.0
 51
36.8940771377
  0
ARC
  5
AD
330
1F
100
AcDbEntity
  8
0
  6
Continuous
 62
     7
370
    25
100
AcDbCircle
 10
412.8354986219
 20
176.3028953168
 30
0.0
 40
20.00000000000002
100
AcDbArc
 50
143.1059228623
 51
179.0
  0
LINE
  5
AE
330
1F
100
AcDbEntity
  8
0
  6
Continuous
 62
     7
370
    25
100
AcDbLine
 10
42.9044221468
 20
172.6348262968
 30
0.0
 11
53.5923545189
 21
156.7513731065
 31
0.0
  0
LINE
  5
AF
330
1F
100
AcDbEntity
  8
0
  6
Continuous
 62
     7
370
    25
100
AcDbLine
 10
390.9853403397
 20
170.7016502263
 30
0.0
 11
392.2861670084
 21
172.6348262968
 31
0.0
  0
LINE
  5
B0
330
1F
100
AcDbEntity
  8
0
  6
Continuous
 62
     7
370
    25
100
AcDbLine
 10
42.3520510025
 20
176.6519446614
 30
0.0
 11
42.3938487597
 21
174.2572908046
 31
0.0
  0
LINE
  5
B1
330
1F
100
AcDbEntity
  8
0
  6
Continuous
 62
     7
370
    25
100
AcDbLine
 10
392.7967403956
 20
174.2572908046
 30
0.0
 11
392.8385381527
 21
176.6519446614
 31
0.0
  0
ARC
  5
B2
330
1F
100
AcDbEntity
  8
0
  6
Continuous
 62
     7
370
    25
100
AcDbCircle
 10
389.7972027883
 20
174.3096464355
 30
0.0
 40
3.000000000000008
100
AcDbArc
 50
326.0634873555
 51
359.0
  0
ARC
  5
B3
330
1F
100
AcDbEntity
  8
0
  6
Continuous
 62
     7
370
    25
100
AcDbCircle
 10
45.393386367
 20
174.3096464355
 30
0.0
 40
3.000000000000012
100
AcDbArc
 50
181.0
 51
213.9365126445
  0
ARC
  5
B4
330
1F
100
AcDbEntity
  8
0
  6
Continuous
 62
     7
370
    25
100
AcDbCircle
 10
54.4220087112
 20
157.3096464355
 30
0.0
 40
1.0
100
AcDbArc
 50
213.9365126445
 51
270.0
  0
LINE
  5
B5
330
1F
100
AcDbEntity
  8
0
  6
Continuous
 62
     7
370
    25
100
AcDbLine
 10
376.1952971049
 20
119.8096464144
 30
0.0
 11
381.795287592
 21
119.8096464144
 31
0.0
  0
LINE
  5
B6
330
1F
100
AcDbEntity
  8
0
  6
Continuous
 62
     7
370
    25
100
AcDbLine
 10
381.795287592
 20
161.8096467795
 30
0.0
 11
381.5354858465
 21
161.8096467795
 31
0.0
  0
ARC
  5
B7
330
1F
100
AcDbEntity
  8
0
  6
Continuous
 62
     7
370
    25
100
AcDbCircle
 10
381.7952945776
 20
120.8096464355
 30
0.0
 40
1.0
100
AcDbArc
 50
270.0
 51
360.0
  0
ARC
  5
B8
330
1F
100
AcDbEntity
  8
0
  6
Continuous
 62
     7
370
    25
100
AcDbCircle
 10
381.7952945776
 20
160.8096464355
 30
0.0
 40
1.0
100
AcDbArc
 50
0.0
 51
90.0
  0
LINE
  5
B9
330
1F
100
AcDbEntity
  8
0
  6
Continuous
 62
     7
370
    25
100
AcDbLine
 10
375.7952903338
 20
120.8096463455
 30
0.0
 11
376.1952971049
 21
120.8096463455
 31
0.0
  0
LINE
  5
BA
330
1F
100
AcDbEntity
  8
0
  6
Continuous
 62
     7
370
    25
100
AcDbLine
 10
383.7952916451
 20
123.3096464352
 30
0.0
 11
396.795288188
 21
123.3096464352
 31
0.0
  0
LINE
  5
BB
330
1F
100
AcDbEntity
  8
0
  6
Continuous
 62
     7
370
    25
100
AcDbLine
 10
396.795288188
 20
158.3096471372
 30
0.0
 11
383.7952916451
 21
158.3096471372
 31
0.0
  0
ARC
  5
BC
330
1F
100
AcDbEntity
  8
0
  6
Continuous
 62
     7
370
    25
100
AcDbCircle
 10
396.7952945776
 20
157.3096464355
 30
0.0
 40
1.0
100
AcDbArc
 50
0.0
 51
90.0
  0
ARC
  5
BD
330
1F
100
AcDbEntity
  8
0
  6
Continuous
 62
     7
370
    25
100
AcDbCircle
 10
396.7952945776
 20
124.3096464355
 30
0.0
 40
1.0
100
AcDbArc
 50
270.0
 51
360.0
  0
ARC
  5
BE
330
1F
100
AcDbEntity
  8
0
  6
Continuous
 62
     7
370
    25
100
AcDbCircle
 10
383.7952945776
 20
122.3096464355
 30
0.0
 40
1.0
100
AcDbArc
 50
90.0
 51
180.0
  0
ARC
  5
BF
330
1F
100
AcDbEntity
  8
0
  6
Continuous
 62
     7
370
    25
100
AcDbCircle
 10
383.7952945776
 20
159.3096464355
 30
0.0
 40
1.0
100
AcDbArc
 50
180.0
 51
270.0
  0
LINE
  5
C0
330
1F
100
AcDbEntity
  8
0
  6
Continuous
 62
     7
370
    25
100
AcDbLine
 10
75.091526372
 20
62.3689976277
 30
0.0
 11
75.1062934227
 21
61.5691591742
 31
0.0
  0
LINE
  5
C1
330
1F
100
AcDbEntity
  8
0
  6
Continuous
 62
     7
370
    25
100
AcDbLine
 10
84.104761941
 20
61.7353033962
 30
0.0
 11
84.0899948902
 21
62.5351381245
 31
0.0
  0
SPLINE
  5
C2
330
1F
100
AcDbEntity
  8
0
  6
Continuous
 62
     7
370
    25
100
AcDbSpline
210
0.0
220
0.0
230
1.0
 70
     8
 71
     3
 72
    14
 73
    10
 74
     0
 42
0.000000001
 43
0.00000001
 40
0.0
 40
0.0
 40
0.0
 40
0.0
 40
0.0320500215729622
 40
0.195331198635489
 40
0.3609738583213647
 40
0.5281291312634299
 40
0.696252969412587
 40
0.8649818202630397
 40
1.0
 40
1.0
 40
1.0
 40
1.0
 10
76.08859286977562
 20
64.85433622621112
 30
0.0
 10
76.07728729038577
 20
64.8428929112334
 30
0.0
 10
76.00838461060249
 20
64.77315079184459
 30
0.0
 10
75.90264798522354
 20
64.62467264405063
 30
0.0
 10
75.77604400269684
 20
64.41018214989703
 30
0.0
 10
75.67807167769774
 20
64.17766652988735
 30
0.0
 10
75.61030778098926
 20
63.9336351055064
 30
0.0
 10
75.57239828683915
 20
63.69873650508526
 30
0.0
 10
75.57407182901495
 20
63.54612543507731
 30
0.0
 10
75.57481573297295
 20
63.47828849576526
 30
0.0
  0
SPLINE
  5
C3
330
1F
100
AcDbEntity
  8
0
  6
Continuous
 62
     7
370
    25
100
AcDbSpline
210
0.0
220
0.0
230
1.0
 70
     8
 71
     3
 72
     9
 73
     5
 74
     0
 42
0.000000001
 43
0.00000001
 40
0.0
 40
0.0
 40
0.0
 40
0.0
 40
0.3524745188357477
 40
1.0
 40
1.0
 40
1.0
 40
1.0
 10
77.69477413369927
 20
65.52436693929248
 30
0.0
 10
77.67183299283997
 20
65.52356657075659
 30
0.0
 10
77.60674703730747
 20
65.52129585757565
 30
0.0
 10
77.55817225016919
 20
65.51886148239517
 30
0.0
 10
77.52671883775506
 20
65.5172851624351
 30
0.0
  0
SPLINE
  5
C4
330
1F
100
AcDbEntity
  8
0
  6
Continuous
 62
     7
370
    25
100
AcDbSpline
210
0.0
220
0.0
230
1.0
 70
     8
 71
     3
 72
    10
 73
     6
 74
     0
 42
0.000000001
 43
0.00000001
 40
0.0
 40
0.0
 40
0.0
 40
0.0
 40
0.3335073602018183
 40
0.8659186954034397
 40
1.0
 40
1.0
 40
1.0
 40
1.0
 10
81.54080854131493
 20
65.5913960876327
 30
0.0
 10
81.51902714162979
 20
65.59168014943329
 30
0.0
 10
81.46247390338043
 20
65.59241768765017
 30
0.0
 10
81.39091968947795
 20
65.59252243300733
 30
0.0
 10
81.32736474453297
 20
65.59223291661276
 30
0.0
 10
81.31457911206994
 20
65.59217467330508
 30
0.0
  0
SPLINE
  5
C5
330
1F
100
AcDbEntity
  8
0
  6
Continuous
 62
     7
370
    25
100
AcDbSpline
210
0.0
220
0.0
230
1.0
 70
     8
 71
     3
 72
    14
 73
    10
 74
     0
 42
0.000000001
 43
0.00000001
 40
0.0
 40
0.0
 40
0.0
 40
0.0
 40
0.0496089438511194
 40
0.2263483949615668
 40
0.396984225393759
 40
0.5620626261001811
 40
0.7218717128707157
 40
0.8764878148721096
 40
1.0
 40
1.0
 40
1.0
 40
1.0
 10
83.56602535917077
 20
63.62510218642764
 30
0.0
 10
83.56668561246117
 20
63.65000440433588
 30
0.0
 10
83.56969811909698
 20
63.76362458281478
 30
0.0
 10
83.5391133168555
 20
63.96195837934737
 30
0.0
 10
83.4766697067556
 20
64.21159690663139
 30
0.0
 10
83.3839375226757
 20
64.44330999150655
 30
0.0
 10
83.26761557185297
 20
64.65436219149915
 30
0.0
 10
83.14108917269733
 20
64.83505897294445
 30
0.0
 10
83.04525862644871
 20
64.93669804923474
 30
0.0
 10
83.00270186139855
 20
64.98183428667598
 30
0.0
  0
LINE
  5
C6
330
1F
100
AcDbEntity
  8
0
  6
Continuous
 62
     7
370
    25
100
AcDbLine
 10
83.5900758333
 20
62.5259105804
 30
0.0
 11
83.5697655506
 21
63.6256833317
 31
0.0
  0
LINE
  5
C7
330
1F
100
AcDbEntity
  8
0
  6
Continuous
 62
     7
370
    25
100
AcDbLine
 10
75.5711351462
 20
63.4780016484
 30
0.0
 11
75.5914454289
 21
62.3782251718
 31
0.0
  0
LINE
  5
C8
330
1F
100
AcDbEntity
  8
0
  6
Continuous
 62
     7
370
    25
100
AcDbLine
 10
81.6063587494
 20
61.6251912656
 30
0.0
 11
81.6058074064
 21
61.6554443481
 31
0.0
  0
LINE
  5
C9
330
1F
100
AcDbEntity
  8
0
  6
Continuous
 62
     7
370
    25
100
AcDbLine
 10
77.6064847536
 20
61.5816016438
 30
0.0
 11
77.6069019861
 21
61.5588922741
 31
0.0
  0
LINE
  5
CA
330
1F
100
AcDbEntity
  8
0
  6
Continuous
 62
     7
370
    25
100
AcDbLine
 10
59.5952873058
 20
71.8096469285
 30
0.0
 11
59.5952873058
 21
61.5221609118
 31
0.0
  0
LINE
  5
CB
330
1F
100
AcDbEntity
  8
0
  6
Continuous
 62
     7
370
    25
100
AcDbLine
 10
375.5953018494
 20
61.5197133961
 30
0.0
 11
375.5953018494
 21
71.8096469285
 31
0.0
  0
SPLINE
  5
CC
330
1F
100
AcDbEntity
  8
0
  6
Continuous
 62
     7
370
    25
100
AcDbSpline
210
0.0
220
0.0
230
1.0
 70
     8
 71
     3
 72
    40
 73
    36
 74
     0
 42
0.000000001
 43
0.00000001
 40
0.0
 40
0.0
 40
0.0
 40
0.0
 40
0.0053201394055663
 40
0.0473681843083303
 40
0.0888214568810908
 40
0.1297018383710722
 40
0.1700221530338413
 40
0.2097862689819562
 40
0.2489911592712492
 40
0.2876256226333186
 40
0.325671485585088
 40
0.3631020378389849
 40
0.3998790293104132
 40
0.4359552325336791
 40
0.4712704210750259
 40
0.5057417986505883
 40
0.5392698234601031
 40
0.5717189257363886
 40
0.6029012281901823
 40
0.6325374450905817
 40
0.6601369484833374
 40
0.6847677153921036
 40
0.7051674727576851
 40
0.7212408984979171
 40
0.7344605466727354
 40
0.746556844693162
 40
0.7591966882605
 40
0.7736004395116893
 40
0.7923127060666321
 40
0.8207772216475798
 40
0.862004023052622
 40
0.8963819390472495
 40
0.9326218157644376
 40
0.9676636401088974
 40
0.9999999999999999
 40
0.9999999999999999
 40
0.9999999999999999
 40
0.9999999999999999
 10
396.5869401521853
 20
56.11527829788737
 30
0.0
 10
396.5875929958311
 20
56.13309951186907
 30
0.0
 10
396.5934056288806
 20
56.29177177290035
 30
0.0
 10
396.5701166214677
 20
56.58955906484204
 30
0.0
 10
396.5159241940016
 20
57.00295550237977
 30
0.0
 10
396.4254901513575
 20
57.40462951995629
 30
0.0
 10
396.3051611528045
 20
57.79219038605188
 30
0.0
 10
396.1559391034722
 20
58.16359058861914
 30
0.0
 10
395.9802884155645
 20
58.51689776827693
 30
0.0
 10
395.7805212845763
 20
58.85044219594477
 30
0.0
 10
395.5590870199301
 20
59.16272508057763
 30
0.0
 10
395.3185961965549
 20
59.45250719923473
 30
0.0
 10
395.0617908736153
 20
59.71880713809663
 30
0.0
 10
394.7914663128419
 20
59.96083055424523
 30
0.0
 10
394.5106223244508
 20
60.17810369365046
 30
0.0
 10
394.2223724872364
 20
60.37039225246288
 30
0.0
 10
393.9300485044078
 20
60.5377580031351
 30
0.0
 10
393.6372434225513
 20
60.68050504140002
 30
0.0
 10
393.3481039036367
 20
60.7992808720835
 30
0.0
 10
393.0678406494085
 20
60.89486518055523
 30
0.0
 10
392.8041321451531
 20
60.96823037161781
 30
0.0
 10
392.5680762887396
 20
61.0208221600455
 30
0.0
 10
392.3699018695954
 20
61.05580370871267
 30
0.0
 10
392.2124533782253
 20
61.07792401601192
 30
0.0
 10
392.0892603618881
 20
61.09190642551043
 30
0.0
 10
391.9891968311209
 20
61.10121992193157
 30
0.0
 10
391.9030854942429
 20
61.10784850987866
 30
0.0
 10
391.8207378674363
 20
61.11315452894564
 30
0.0
 10
391.7261760605905
 20
61.11824261813786
 30
0.0
 10
391.5991891456956
 20
61.12391812430401
 30
0.0
 10
391.4342321433652
 20
61.1300465978924
 30
0.0
 10
391.2264004248133
 20
61.13678343072304
 30
0.0
 10
391.0013248943647
 20
61.14338492764696
 30
0.0
 10
390.7553368451181
 20
61.15008536561859
 30
0.0
 10
390.5756202636501
 20
61.15458431197757
 30
0.0
 10
390.4893700905017
 20
61.15674346111827
 30
0.0
  0
LINE
  5
CD
330
1F
100
AcDbEntity
  8
0
  6
Continuous
 62
     7
370
    25
100
AcDbLine
 10
396.591544611
 20
44.3096470775
 30
0.0
 11
396.591544611
 21
56.1151665392
 31
0.0
  0
SPLINE
  5
CE
330
1F
100
AcDbEntity
  8
0
  6
Continuous
 62
     7
370
    25
100
AcDbSpline
210
0.0
220
0.0
230
1.0
 70
     8
 71
     3
 72
    38
 73
    34
 74
     0
 42
0.000000001
 43
0.00000001
 40
0.0
 40
0.0
 40
0.0
 40
0.0
 40
0.013309556246665
 40
0.0470545939110861
 40
0.0813046400720359
 40
0.1161430977088751
 40
0.1519132243040411
 40
0.1898795978883079
 40
0.2148573604275221
 40
0.2353295466057527
 40
0.2489859682613103
 40
0.2625739108543529
 40
0.276447107428925
 40
0.2930676833305633
 40
0.3148725364979092
 40
0.3427838143124393
 40
0.3735902508899864
 40
0.4062598603440493
 40
0.4410705376648912
 40
0.4774921476796901
 40
0.51500820377536
 40
0.5532558385846674
 40
0.5919985010723604
 40
0.6310886917742091
 40
0.6704266178796797
 40
0.709945803209944
 40
0.749602811432686
 40
0.789362668253299
 40
0.829203594788978
 40
0.8691060017703619
 40
0.9134480531735452
 40
0.9571815285744433
 40
1.0
 40
1.0
 40
1.0
 40
1.0
 10
44.70291779710564
 20
61.15675463698916
 30
0.0
 10
44.66615402929636
 20
61.15585834428519
 30
0.0
 10
44.53617943563998
 20
61.15268959181675
 30
0.0
 10
44.33397317801668
 20
61.14735840270108
 30
0.0
 10
44.09800308063377
 20
61.14078467605108
 30
0.0
 10
43.88587048933177
 20
61.13433011464786
 30
0.0
 10
43.69470366979058
 20
61.12786192033163
 30
0.0
 10
43.54561744451682
 20
61.12199616589517
 30
0.0
 10
43.42525590921372
 20
61.11627391363941
 30
0.0
 10
43.32923811778133
 20
61.11071835067422
 30
0.0
 10
43.23215983728792
 20
61.10375435053781
 30
0.0
 10
43.12874828478922
 20
61.09470664421612
 30
0.0
 10
42.99976672992945
 20
61.08065986855188
 30
0.0
 10
42.83477376737649
 20
61.05811529326749
 30
0.0
 10
42.61963919878459
 20
61.02059541546556
 30
0.0
 10
42.35792998230409
 20
60.96155954326215
 30
0.0
 10
42.06419300254669
 20
60.87694250569578
 30
0.0
 10
41.75424905878669
 20
60.76586569967129
 30
0.0
 10
41.43508525111964
 20
60.62644058672711
 30
0.0
 10
41.11222174858514
 20
60.45693173530947
 30
0.0
 10
40.79298858374644
 20
60.25780131804414
 30
0.0
 10
40.48351845693196
 20
60.03033407240349
 30
0.0
 10
40.18857557010291
 20
59.77612192759624
 30
0.0
 10
39.91178723298744
 20
59.49705708326294
 30
0.0
 10
39.65617261711971
 20
59.19504058473957
 30
0.0
 10
39.42416529027523
 20
58.8721795914584
 30
0.0
 10
39.21783536404075
 20
58.53067462129668
 30
0.0
 10
39.03891680043295
 20
58.17282679227459
 30
0.0
 10
38.88890692166461
 20
57.80105572104893
 30
0.0
 10
38.76440181948729
 20
57.40379495598319
 30
0.0
 10
38.67182258140605
 20
56.98456258952744
 30
0.0
 10
38.61264924216884
 20
56.54905946751509
 30
0.0
 10
38.60549137080385
 20
56.25891414661577
 30
0.0
 10
38.60195027066979
 20
56.11537515543513
 30
0.0
  0
LINE
  5
CF
330
1F
100
AcDbEntity
  8
0
  6
Continuous
 62
     7
370
    25
100
AcDbLine
 10
38.5990445442
 20
56.1151814403
 30
0.0
 11
38.5990445442
 21
44.3096470775
 31
0.0
  0
LINE
  5
D0
330
1F
100
AcDbEntity
  8
0
  6
Continuous
 62
     7
370
    25
100
AcDbLine
 10
390.4922311135
 20
61.1524482014
 30
0.0
 11
367.9627780743
 21
61.7078815343
 31
0.0
  0
LINE
  5
D1
330
1F
100
AcDbEntity
  8
0
  6
Continuous
 62
     7
370
    25
100
AcDbLine
 10
67.2277812786
 20
61.709788883
 30
0.0
 11
44.6982388325
 21
61.1559536996
 31
0.0
  0
SPLINE
  5
D2
330
1F
100
AcDbEntity
  8
0
  6
Continuous
 62
     7
370
    25
100
AcDbSpline
210
0.0
220
0.0
230
1.0
 70
     8
 71
     3
 72
    24
 73
    20
 74
     0
 42
0.000000001
 43
0.00000001
 40
0.0
 40
0.0
 40
0.0
 40
0.0
 40
0.0503945070167191
 40
0.1059531785485512
 40
0.1622999681791716
 40
0.2188139121953924
 40
0.274680118786381
 40
0.3293208811206318
 40
0.3823876845573875
 40
0.4364163894406688
 40
0.497522186523825
 40
0.5605042160122439
 40
0.6254792705791431
 40
0.6925442146704378
 40
0.7619456989598462
 40
0.8341942371953364
 40
0.9104583283788955
 40
0.9980085079298209
 40
0.9999999999999999
 40
0.9999999999999999
 40
0.9999999999999999
 40
0.9999999999999999
 10
70.23663864805016
 20
64.86610814355426
 30
0.0
 10
70.20287536330491
 20
64.75321700315273
 30
0.0
 10
70.13188890964608
 20
64.51586623094374
 30
0.0
 10
70.00009053887888
 20
64.17360405015826
 30
0.0
 10
69.84881327194722
 20
63.8373958766309
 30
0.0
 10
69.68299974001327
 20
63.52370531869761
 30
0.0
 10
69.50851136598635
 20
63.23838074491417
 30
0.0
 10
69.33017716107834
 20
62.98523933417297
 30
0.0
 10
69.15339056749865
 20
62.76656171519512
 30
0.0
 10
68.96229213327639
 20
62.56036524600081
 30
0.0
 10
68.75986158295721
 20
62.37128003282738
 30
0.0
 10
68.54646330930531
 20
62.20101784781509
 30
0.0
 10
68.33128671080415
 20
62.05648644330336
 30
0.0
 10
68.117407101376
 20
61.93792795365508
 30
0.0
 10
67.90616019491974
 20
61.84505501599627
 30
0.0
 10
67.70311469469611
 20
61.77723168089766
 30
0.0
 10
67.4842419130896
 20
61.7310187161168
 30
0.0
 10
67.33913719003165
 20
61.70910341030092
 30
0.0
 10
67.2620984346233
 20
61.71071053850169
 30
0.0
 10
67.26038501931939
 20
61.71074628256373
 30
0.0
  0
SPLINE
  5
D3
330
1F
100
AcDbEntity
  8
0
  6
Continuous
 62
     7
370
    25
100
AcDbSpline
210
0.0
220
0.0
230
1.0
 70
     8
 71
     3
 72
    10
 73
     6
 74
     0
 42
0.000000001
 43
0.00000001
 40
0.0
 40
0.0
 40
0.0
 40
0.0
 40
0.3431473895172027
 40
0.7320887578368368
 40
1.0
 40
1.0
 40
1.0
 40
1.0
 10
367.9687087364367
 20
61.71914308689647
 30
0.0
 10
367.9025106641494
 20
61.7216664649003
 30
0.0
 10
367.7612802016937
 20
61.72704997275954
 30
0.0
 10
367.5613648251177
 20
61.76416369870024
 30
0.0
 10
367.4232983009099
 20
61.80881536613936
 30
0.0
 10
367.366984946268
 20
61.82702749393992
 30
0.0
  0
SPLINE
  5
D4
330
1F
100
AcDbEntity
  8
0
  6
Continuous
 62
     7
370
    25
100
AcDbSpline
210
0.0
220
0.0
230
1.0
 70
     8
 71
     3
 72
    21
 73
    17
 74
     0
 42
0.000000001
 43
0.00000001
 40
0.0
 40
0.0
 40
0.0
 40
0.0
 40
0.0336384219553477
 40
0.0830037029501087
 40
0.1357323571818909
 40
0.1914519374633181
 40
0.2919583768085173
 40
0.4112185806188051
 40
0.4969854234495066
 40
0.557511621787619
 40
0.6205256788421321
 40
0.6818685190040927
 40
0.7694199160993905
 40
0.852684849654432
 40
0.941449752886439
 40
1.0
 40
1.0
 40
1.0
 40
1.0
 10
367.3750911779574
 20
61.81991218946986
 30
0.0
 10
367.3469655082379
 20
61.82954117826853
 30
0.0
 10
367.2775646683955
 20
61.85330096483096
 30
0.0
 10
367.2027172876577
 20
61.88917641758823
 30
0.0
 10
367.1455794926728
 20
61.92132334498418
 30
0.0
 10
367.1016967993618
 20
61.9524166711653
 30
0.0
 10
367.041978423375
 20
62.00456880477712
 30
0.0
 10
366.9910000545403
 20
62.06665923984384
 30
0.0
 10
366.935224114413
 20
62.15665001328688
 30
0.0
 10
366.8911846510695
 20
62.24511156395107
 30
0.0
 10
366.8453430704766
 20
62.35712983131991
 30
0.0
 10
366.798200347223
 20
62.49864850669123
 30
0.0
 10
366.7539725143581
 20
62.67276947892239
 30
0.0
 10
366.7172234940313
 20
62.8976022610499
 30
0.0
 10
366.6953649535518
 20
63.12077252436807
 30
0.0
 10
366.6953079565354
 20
63.28533097699673
 30
0.0
 10
366.6952853031329
 20
63.35073455594592
 30
0.0
  0
LINE
  5
D5
330
1F
100
AcDbEntity
  8
0
  6
Continuous
 62
     7
370
    25
100
AcDbLine
 10
57.9952900238
 20
156.3096468093
 30
0.0
 11
57.9952900238
 21
71.8096469285
 31
0.0
  0
LINE
  5
D6
330
1F
100
AcDbEntity
  8
0
  6
Continuous
 62
     7
370
    25
100
AcDbLine
 10
377.1952991314
 20
71.8096469285
 30
0.0
 11
377.1952991314
 21
112.8242567869
 31
0.0
  0
LINE
  5
D7
330
1F
100
AcDbEntity
  8
0
  6
Continuous
 62
     7
370
    25
100
AcDbLine
 10
396.9639097281
 20
194.3096455874
 30
0.0
 11
95.8089013524
 21
194.3096455874
 31
0.0
  0
LINE
  5
D8
330
1F
100
AcDbEntity
  8
0
  6
Continuous
 62
     7
370
    25
100
AcDbLine
 10
96.0127119847
 20
210.8096492233
 30
0.0
 11
95.8089013524
 21
194.3096455874
 31
0.0
  0
SPLINE
  5
D9
330
1F
100
AcDbEntity
  8
0
  6
Continuous
 62
     7
370
    25
100
AcDbSpline
210
0.0
220
0.0
230
1.0
 70
     8
 71
     3
 72
    17
 73
    13
 74
     0
 42
0.000000001
 43
0.00000001
 40
0.0
 40
0.0
 40
0.0
 40
0.0
 40
0.1062559236337683
 40
0.2128497346897926
 40
0.3191054727838789
 40
0.4253806752777397
 40
0.5319944307279811
 40
0.6382696493982615
 40
0.7445124305937246
 40
0.8510946295548742
 40
0.9573379425265911
 40
1.0
 40
1.0
 40
1.0
 40
1.0
 10
93.49775360299859
 20
216.9056844653946
 30
0.0
 10
93.65762508315115
 20
216.7692942251636
 30
0.0
 10
93.97787642511133
 20
216.4960800319721
 30
0.0
 10
94.41314288545554
 20
215.9944995119076
 30
0.0
 10
94.80855534823019
 20
215.4337604493521
 30
0.0
 10
95.1540579050744
 20
214.8116513060374
 30
0.0
 10
95.44739916169681
 20
214.1401009929494
 30
0.0
 10
95.68438649076093
 20
213.4267990539357
 30
0.0
 10
95.85974421469524
 20
212.6797401336359
 30
0.0
 10
95.97237847306448
 20
211.9096719798113
 30
0.0
 10
96.01379636263084
 20
211.2817937488205
 30
0.0
 10
96.01295347557807
 20
210.9147957876426
 30
0.0
 10
96.01271198465142
 20
210.8096492233139
 30
0.0
  0
SPLINE
  5
DA
330
1F
100
AcDbEntity
  8
0
  6
Continuous
 62
     7
370
    25
100
AcDbSpline
210
0.0
220
0.0
230
1.0
 70
     8
 71
     3
 72
    10
 73
     6
 74
     0
 42
0.000000001
 43
0.00000001
 40
0.0
 40
0.0
 40
0.0
 40
0.0
 40
0.4927292735747578
 40
0.7464702250848338
 40
1.0
 40
1.0
 40
1.0
 40
1.0
 10
92.46967778875145
 20
217.5953325571876
 30
0.0
 10
92.6267386429617
 20
217.5105360666674
 30
0.0
 10
92.86468117546794
 20
217.3820719003194
 30
0.0
 10
93.20858976631219
 20
217.1317361221187
 30
0.0
 10
93.4013924119905
 20
216.9810141024643
 30
0.0
 10
93.49775360299859
 20
216.9056844653946
 30
0.0
  0
SPLINE
  5
DB
330
1F
100
AcDbEntity
  8
0
  6
Continuous
 62
     7
370
    25
100
AcDbSpline
210
0.0
220
0.0
230
1.0
 70
     8
 71
     3
 72
    11
 73
     7
 74
     0
 42
0.000000001
 43
0.00000001
 40
0.0
 40
0.0
 40
0.0
 40
0.0
 40
0.2077070727364626
 40
0.4661482411205637
 40
0.733063043265131
 40
1.0
 40
1.0
 40
1.0
 40
1.0
 10
91.39835880471978
 20
217.8073313774925
 30
0.0
 10
91.48358070011531
 20
217.8064330490325
 30
0.0
 10
91.6748406130312
 20
217.8044169682796
 30
0.0
 10
91.94948000641179
 20
217.7657034033734
 30
0.0
 10
92.2255947526201
 20
217.6993533636618
 30
0.0
 10
92.38831452577698
 20
217.6300071186243
 30
0.0
 10
92.46967778875145
 20
217.5953325571876
 30
0.0
  0
LINE
  5
DC
330
1F
100
AcDbEntity
  8
0
  6
Continuous
 62
     7
370
    25
100
AcDbLine
 10
209.5952941976
 20
482.2840478959
 30
0.0
 11
225.5952949576
 21
482.2840478959
 31
0.0
  0
LWPOLYLINE
  5
DD
330
1F
100
AcDbEntity
  8
0
  6
Continuous
 62
     7
370
    25
100
AcDbPolyline
 90
       36
 70
   128
 43
0.0
 10
86.4368979759
 20
214.2129552307
 10
86.5076039858
 20
214.386777276
 10
86.7137168474
 20
214.8368743005
 10
86.94358216
 20
215.2633455338
 10
87.195858819
 20
215.6636726799
 10
87.4690567084
 20
216.0355162563
 10
87.7615963049
 20
216.376693243
 10
88.0717341728
 20
216.6852068844
 10
88.3976672716
 20
216.9592317881
 10
88.7374733515
 20
217.1971735301
 10
89.0891556568
 20
217.3976239505
 10
89.4506727286
 20
217.5594207587
 10
89.8198638983
 20
217.6816028299
 10
90.1945983
 20
217.7634623589
 10
90.5726705618
 20
217.8045076074
 10
90.9518455095
 20
217.8045076074
 10
91.3299177714
 20
217.7634623589
 10
91.7046521731
 20
217.6816028299
 10
92.0738433428
 20
217.5594207587
 10
92.4353604145
 20
217.3976239505
 10
92.7870427199
 20
217.1971735301
 10
93.1268487997
 20
216.9592317881
 10
93.4527818985
 20
216.6852068844
 10
93.7629197664
 20
216.376693243
 10
94.0554519124
 20
216.0355162563
 10
94.3286572523
 20
215.6636726799
 10
94.5809339113
 20
215.2633455338
 10
94.8107992239
 20
214.8368743005
 10
95.0169120856
 20
214.386777276
 10
95.198050601
 20
213.9156845155
 10
95.3531642385
 20
213.4263676348
 10
95.4813291259
 20
212.9216876569
 10
95.5818076558
 20
212.4046173634
 10
95.6539963312
 20
211.8781891408
 10
95.6974853702
 20
211.3454875293
 10
95.7120065518
 20
210.8096492233
  0
LINE
  5
DE
330
1F
100
AcDbEntity
  8
0
  6
Continuous
 62
     7
370
    25
100
AcDbLine
 10
95.7120065518
 20
210.8096492233
 30
0.0
 11
95.7120065518
 21
194.3096455874
 31
0.0
  0
LINE
  5
DF
330
1F
100
AcDbEntity
  8
0
  6
Continuous
 62
     7
370
    25
100
AcDbLine
 10
95.8089013524
 20
194.3096455874
 30
0.0
 11
95.7120065518
 21
194.3096455874
 31
0.0
  0
LINE
  5
E0
330
1F
100
AcDbEntity
  8
0
  6
Continuous
 62
     7
370
    25
100
AcDbLine
 10
85.8125095196
 20
194.3096455874
 30
0.0
 11
85.8125095196
 21
201.6249906959
 31
0.0
  0
LINE
  5
E1
330
1F
100
AcDbEntity
  8
0
  6
Continuous
 62
     7
370
    25
100
AcDbLine
 10
92.8835798927
 20
194.3096455874
 30
0.0
 11
92.8835798927
 21
201.7474707904
 31
0.0
  0
LINE
  5
E2
330
1F
100
AcDbEntity
  8
0
  6
Continuous
 62
     7
370
    25
100
AcDbLine
 10
88.6409436293
 20
201.0455441418
 30
0.0
 11
88.6409436293
 21
194.3096455874
 31
0.0
  0
LINE
  5
E3
330
1F
100
AcDbEntity
  8
0
  6
Continuous
 62
     7
370
    25
100
AcDbLine
 10
88.6409436293
 20
194.3096455874
 30
0.0
 11
85.8125095196
 21
194.3096455874
 31
0.0
  0
LINE
  5
E4
330
1F
100
AcDbEntity
  8
0
  6
Continuous
 62
     7
370
    25
100
AcDbLine
 10
95.7120065518
 20
194.3096455874
 30
0.0
 11
92.8835798927
 21
194.3096455874
 31
0.0
  0
LINE
  5
E5
330
1F
100
AcDbEntity
  8
0
  6
Continuous
 62
     7
370
    25
100
AcDbLine
 10
88.6409436293
 20
194.3096455874
 30
0.0
 11
88.6721168585
 21
194.3096455874
 31
0.0
  0
LINE
  5
E6
330
1F
100
AcDbEntity
  8
0
  6
Continuous
 62
     7
370
    25
100
AcDbLine
 10
90.7930289335
 20
194.3096455874
 30
0.0
 11
90.954751236
 21
200.8578640165
 31
0.0
  0
LINE
  5
E7
330
1F
100
AcDbEntity
  8
0
  6
Continuous
 62
     7
370
    25
100
AcDbLine
 10
85.8125095196
 20
194.3096455874
 30
0.0
 11
40.3712992497
 21
194.3096455874
 31
0.0
  0
SPLINE
  5
E8
330
1F
100
AcDbEntity
  8
0
  6
Continuous
 62
     7
370
    25
100
AcDbSpline
210
0.0
220
0.0
230
1.0
 70
     8
 71
     3
 72
     9
 73
     5
 74
     0
 42
0.000000001
 43
0.00000001
 40
0.0
 40
0.0
 40
0.0
 40
0.0
 40
0.0289568324567034
 40
1.0
 40
1.0
 40
1.0
 40
1.0
 10
43.19171653463155
 20
241.3271006884437
 30
0.0
 10
43.19145416512879
 20
241.3256104527684
 30
0.0
 10
43.18239345370037
 20
241.2741464096099
 30
0.0
 10
43.18793996151929
 20
241.2231101165724
 30
0.0
 10
43.19332586004049
 20
241.1735516729217
 30
0.0
  0
SPLINE
  5
E9
330
1F
100
AcDbEntity
  8
0
  6
Continuous
 62
     7
370
    25
100
AcDbSpline
210
0.0
220
0.0
230
1.0
 70
     8
 71
     3
 72
    14
 73
    10
 74
     0
 42
0.000000001
 43
0.00000001
 40
0.0
 40
0.0
 40
0.0
 40
0.0
 40
0.0036657219195031
 40
0.2927438399390764
 40
0.4377216952361135
 40
0.58640160474688
 40
0.7988146823137559
 40
0.9507233885502908
 40
1.0
 40
1.0
 40
1.0
 40
1.0
 10
42.46541903688225
 20
241.3271006884437
 30
0.0
 10
42.46520427625738
 20
241.3255758466101
 30
0.0
 10
42.44805353450259
 20
241.203802274182
 30
0.0
 10
42.45608974910131
 20
241.0204727274158
 30
0.0
 10
42.53591060607115
 20
240.7918181372423
 30
0.0
 10
42.64889299394764
 20
240.6052268863781
 30
0.0
 10
42.82837220290436
 20
240.4477535993502
 30
0.0
 10
43.02090084869686
 20
240.3480833939917
 30
0.0
 10
43.13431446480767
 20
240.3359312584146
 30
0.0
 10
43.16209302617818
 20
240.332954818235
 30
0.0
  0
LWPOLYLINE
  5
EA
330
1F
100
AcDbEntity
  8
0
  6
Continuous
 62
     7
370
    25
100
AcDbPolyline
 90
       81
 70
   128
 43
0.0
 10
83.976731164
 20
203.2134544792
 10
84.2417334147
 20
202.867009932
 10
84.5251535006
 20
202.5510382595
 10
84.8252181835
 20
202.2674840631
 10
85.1400946207
 20
202.01810568
 10
85.46783076
 20
201.804430479
 10
85.8064149447
 20
201.6277772131
 10
86.1537610121
 20
201.4892411175
 10
86.5077231951
 20
201.3896715584
 10
86.866111023
 20
201.329686934
 10
87.2267191239
 20
201.3096448722
 10
87.5873421259
 20
201.329686934
 10
87.9457299538
 20
201.3896715584
 10
88.2996772356
 20
201.4892411175
 10
88.647023303
 20
201.6277772131
 10
88.9856074877
 20
201.804430479
 10
89.3133585282
 20
202.01810568
 10
89.6282349653
 20
202.2674840631
 10
89.9282996483
 20
202.5510382595
 10
90.2117197342
 20
202.867009932
 10
90.4767219849
 20
203.2134544792
 10
90.7216970749
 20
203.5882335844
 10
90.9451250858
 20
203.9890450182
 10
91.1456202097
 20
204.4134077372
 10
91.3219605513
 20
204.8587065878
 10
91.4730583258
 20
205.3222072067
 10
91.5979598589
 20
205.8010336699
 10
91.6959200926
 20
206.2922504487
 10
91.7663280792
 20
206.7928251567
 10
91.8087516852
 20
207.2996658029
 10
91.8229226895
 20
207.8096431436
 10
91.8087516852
 20
208.3196279349
 10
91.7663280792
 20
208.8264685812
 10
91.6959200926
 20
209.3270432892
 10
91.5979598589
 20
209.8182600679
 10
91.4730583258
 20
210.2970865311
 10
91.3219605513
 20
210.7605871501
 10
91.1456202097
 20
211.2058860006
 10
90.9451250858
 20
211.6302487197
 10
90.7216970749
 20
212.0310601535
 10
90.4767219849
 20
212.4058392587
 10
90.2117197342
 20
212.7522838058
 10
89.9282996483
 20
213.0682554784
 10
89.6282349653
 20
213.3518096747
 10
89.3133585282
 20
213.6011880579
 10
88.9856074877
 20
213.8148632588
 10
88.647023303
 20
213.9915165248
 10
88.2996772356
 20
214.1300526204
 10
87.9457299538
 20
214.2296221795
 10
87.5873421259
 20
214.2896068039
 10
87.2267191239
 20
214.3096488657
 10
86.866111023
 20
214.2896068039
 10
86.5077231951
 20
214.2296221795
 10
86.1537610121
 20
214.1300526204
 10
85.8064149447
 20
213.9915165248
 10
85.46783076
 20
213.8148632588
 10
85.1400946207
 20
213.6011880579
 10
84.8252181835
 20
213.3518096747
 10
84.5251535006
 20
213.0682554784
 10
84.2417334147
 20
212.7522838058
 10
83.976731164
 20
212.4058392587
 10
83.731756074
 20
212.0310601535
 10
83.508328063
 20
211.6302487197
 10
83.307818038
 20
211.2058860006
 10
83.1314925976
 20
210.7605871501
 10
82.9803948231
 20
210.2970865311
 10
82.8554783888
 20
209.8182600679
 10
82.7575181551
 20
209.3270432892
 10
82.6871101685
 20
208.8264685812
 10
82.6447014637
 20
208.3196279349
 10
82.6305304594
 20
207.8096431436
 10
82.6447014637
 20
207.2996658029
 10
82.6871101685
 20
206.7928251567
 10
82.7575181551
 20
206.2922504487
 10
82.8554783888
 20
205.8010336699
 10
82.9803948231
 20
205.3222072067
 10
83.1314925976
 20
204.8587065878
 10
83.307818038
 20
204.4134077372
 10
83.508328063
 20
203.9890450182
 10
83.731756074
 20
203.5882335844
 10
83.976731164
 20
203.2134544792
  0
LWPOLYLINE
  5
EB
330
1F
100
AcDbEntity
  8
0
  6
Continuous
 62
     7
370
    25
100
AcDbPolyline
 90
       47
 70
   128
 43
0.0
 10
89.8587261267
 20
200.8529913368
 10
89.8944144077
 20
200.8475300612
 10
90.2682100363
 20
200.8124676289
 10
90.6428103275
 20
200.8174818697
 10
91.0160546131
 20
200.8625429811
 10
91.3858418293
 20
200.9473976436
 10
91.7500113077
 20
201.0715615692
 10
92.1065066881
 20
201.2343195023
 10
92.4532716103
 20
201.4347401204
 10
92.7883391209
 20
201.671676034
 10
93.1097646184
 20
201.9437637868
 10
93.4157227106
 20
202.2494611087
 10
93.7044550605
 20
202.587002212
 10
93.9743150897
 20
202.9544573965
 10
94.2237456269
 20
203.3497181477
 10
94.4513236113
 20
203.7705343904
 10
94.6557526417
 20
204.2144772353
 10
94.8358480759
 20
204.6790209355
 10
94.9905891843
 20
205.1614907327
 10
95.1190818973
 20
205.6591299119
 10
95.2205960579
 20
206.1690923514
 10
95.2945505209
 20
206.6884425225
 10
95.3405131526
 20
207.2142225447
 10
95.3582306333
 20
207.7434074821
 10
95.3475986548
 20
208.2729798498
 10
95.3086768217
 20
208.7998923602
 10
95.2416886516
 20
209.3211275282
 10
95.1470141239
 20
209.8337125721
 10
95.0252045818
 20
210.3347045126
 10
94.8769454785
 20
210.8212274256
 10
94.7030936308
 20
211.290509695
 10
94.5046474166
 20
211.7398467603
 10
94.2827393241
 20
212.1666756215
 10
94.0386434026
 20
212.5685450377
 10
93.7737529106
 20
212.9431527796
 10
93.4895877667
 20
213.2883605304
 10
93.1877721973
 20
213.6021864357
 10
92.8700421877
 20
213.8828349056
 10
92.5382231302
 20
214.1286966147
 10
92.1941851206
 20
214.3383559527
 10
91.8399398155
 20
214.5106282773
 10
91.4774839707
 20
214.6445152106
 10
91.1089186497
 20
214.7392493429
 10
90.7363300152
 20
214.7942942324
 10
90.3618638344
 20
214.809329504
 10
89.9876807757
 20
214.7842732015
 10
89.8587261267
 20
214.7663024011
  0
LINE
  5
EC
330
1F
100
AcDbEntity
  8
0
  6
Continuous
 62
     7
370
    25
100
AcDbLine
 10
194.107411889
 20
137.008400889
 30
0.0
 11
194.107411889
 21
144.5139546635
 31
0.0
  0
LINE
  5
ED
330
1F
100
AcDbEntity
  8
0
  6
Continuous
 62
     7
370
    25
100
AcDbLine
 10
187.6074117549
 20
133.2556244674
 30
0.0
 11
194.107411889
 21
137.008400889
 31
0.0
  0
LINE
  5
EE
330
1F
100
AcDbEntity
  8
0
  6
Continuous
 62
     7
370
    25
100
AcDbLine
 10
181.1074134834
 20
137.008400889
 30
0.0
 11
187.6074117549
 21
133.2556244674
 31
0.0
  0
LINE
  5
EF
330
1F
100
AcDbEntity
  8
0
  6
Continuous
 62
     7
370
    25
100
AcDbLine
 10
187.6074117549
 20
148.2667301538
 30
0.0
 11
181.1074134834
 21
144.5139546635
 31
0.0
  0
LINE
  5
F0
330
1F
100
AcDbEntity
  8
0
  6
Continuous
 62
     7
370
    25
100
AcDbLine
 10
181.1074134834
 20
144.5139546635
 30
0.0
 11
181.1074134834
 21
137.008400889
 31
0.0
  0
LINE
  5
F1
330
1F
100
AcDbEntity
  8
0
  6
Continuous
 62
     7
370
    25
100
AcDbLine
 10
194.107411889
 20
144.5139546635
 30
0.0
 11
187.6074117549
 21
148.2667301538
 31
0.0
  0
CIRCLE
  5
F2
330
1F
100
AcDbEntity
  8
0
  6
Continuous
 62
     7
370
    25
100
AcDbCircle
 10
187.5952945776
 20
140.8096464355
 30
0.0
 40
8.0
  0
LINE
  5
F3
330
1F
100
AcDbEntity
  8
0
  6
Continuous
 62
     7
370
    25
100
AcDbLine
 10
254.1074124105
 20
137.008400889
 30
0.0
 11
254.1074124105
 21
144.5139546635
 31
0.0
  0
LINE
  5
F4
330
1F
100
AcDbEntity
  8
0
  6
Continuous
 62
     7
370
    25
100
AcDbLine
 10
247.6074122764
 20
133.2556244674
 30
0.0
 11
254.1074124105
 21
137.008400889
 31
0.0
  0
LINE
  5
F5
330
1F
100
AcDbEntity
  8
0
  6
Continuous
 62
     7
370
    25
100
AcDbLine
 10
241.1074121423
 20
137.008400889
 30
0.0
 11
247.6074122764
 21
133.2556244674
 31
0.0
  0
LINE
  5
F6
330
1F
100
AcDbEntity
  8
0
  6
Continuous
 62
     7
370
    25
100
AcDbLine
 10
254.1074124105
 20
144.5139546635
 30
0.0
 11
247.6074122764
 21
148.2667301538
 31
0.0
  0
LINE
  5
F7
330
1F
100
AcDbEntity
  8
0
  6
Continuous
 62
     7
370
    25
100
AcDbLine
 10
247.6074122764
 20
148.2667301538
 30
0.0
 11
241.1074121423
 21
144.5139546635
 31
0.0
  0
LINE
  5
F8
330
1F
100
AcDbEntity
  8
0
  6
Continuous
 62
     7
370
    25
100
AcDbLine
 10
241.1074121423
 20
144.5139546635
 30
0.0
 11
241.1074121423
 21
137.008400889
 31
0.0
  0
CIRCLE
  5
F9
330
1F
100
AcDbEntity
  8
0
  6
Continuous
 62
     7
370
    25
100
AcDbCircle
 10
247.5952945776
 20
140.8096464355
 30
0.0
 40
8.0
  0
LINE
  5
FA
330
1F
100
AcDbEntity
  8
0
  6
Continuous
 62
     7
370
    25
100
AcDbLine
 10
388.1952916212
 20
143.8740391972
 30
0.0
 11
388.1952916212
 21
148.8096465113
 31
0.0
  0
LINE
  5
FB
330
1F
100
AcDbEntity
  8
0
  6
Continuous
 62
     7
370
    25
100
AcDbLine
 10
388.1952916212
 20
132.8096466827
 30
0.0
 11
388.1952916212
 21
143.8740391972
 31
0.0
  0
LINE
  5
FC
330
1F
100
AcDbEntity
  8
0
  6
Continuous
 62
     7
370
    25
100
AcDbLine
 10
395.195290906
 20
139.7835065367
 30
0.0
 11
388.1952916212
 21
139.7835065367
 31
0.0
  0
LINE
  5
FD
330
1F
100
AcDbEntity
  8
0
  6
Continuous
 62
     7
370
    25
100
AcDbLine
 10
395.195290906
 20
133.8271426725
 30
0.0
 11
388.1952916212
 21
133.8271426725
 31
0.0
  0
LINE
  5
FE
330
1F
100
AcDbEntity
  8
0
  6
Continuous
 62
     7
370
    25
100
AcDbLine
 10
395.195290906
 20
139.7835065367
 30
0.0
 11
395.195290906
 21
133.8271426725
 31
0.0
  0
LINE
  5
FF
330
1F
100
AcDbEntity
  8
0
  6
Continuous
 62
     7
370
    25
100
AcDbLine
 10
395.195290906
 20
146.7165958824
 30
0.0
 11
388.1952916212
 21
146.7165958824
 31
0.0
  0
LINE
  5
100
330
1F
100
AcDbEntity
  8
0
  6
Continuous
 62
     7
370
    25
100
AcDbLine
 10
395.195290906
 20
146.7165958824
 30
0.0
 11
395.195290906
 21
139.7835065367
 31
0.0
  0
LINE
  5
101
330
1F
100
AcDbEntity
  8
0
  6
Continuous
 62
     7
370
    25
100
AcDbLine
 10
395.195290906
 20
147.6933222952
 30
0.0
 11
388.1952916212
 21
147.6933222952
 31
0.0
  0
LINE
  5
102
330
1F
100
AcDbEntity
  8
0
  6
Continuous
 62
     7
370
    25
100
AcDbLine
 10
395.195290906
 20
147.6933222952
 30
0.0
 11
395.195290906
 21
146.7165958824
 31
0.0
  0
ARC
  5
103
330
1F
100
AcDbEntity
  8
0
  6
Continuous
 62
     7
370
    25
100
AcDbCircle
 10
217.5952945776
 20
101.2073737082
 30
0.0
 40
60.60227272727278
100
AcDbArc
 50
51.5009482546
 51
128.4990517454
  0
ARC
  5
104
330
1F
100
AcDbEntity
  8
0
  6
Continuous
 62
     7
370
    25
100
AcDbCircle
 10
186.0952945776
 20
140.8096464355
 30
0.0
 40
10.0
100
AcDbArc
 50
128.4990517454
 51
231.5009482546
  0
ARC
  5
105
330
1F
100
AcDbEntity
  8
0
  6
Continuous
 62
     7
370
    25
100
AcDbCircle
 10
249.0952945776
 20
140.8096464355
 30
0.0
 40
10.00000000000006
100
AcDbArc
 50
308.4990517454
 51
51.5009482546
  0
ARC
  5
106
330
1F
100
AcDbEntity
  8
0
  6
Continuous
 62
     7
370
    25
100
AcDbCircle
 10
217.5952945776
 20
180.4119191628
 30
0.0
 40
60.60227272727276
100
AcDbArc
 50
231.5009482546
 51
308.4990517454
  0
ELLIPSE
  5
107
330
1F
100
AcDbEntity
  8
0
  6
Continuous
 62
     7
370
    25
100
AcDbEllipse
 10
165.3660416008
 20
98.8096464355
 30
0.0
 11
-0.2815134913797408
 21
0.9959520549206218
 31
0.0
210
0.0
220
0.0
230
1.0
 40
0.3192957554
 41
6.193177762965368
 42
7.763974089760309
  0
LINE
  5
108
330
1F
100
AcDbEntity
  8
0
  6
Continuous
 62
     7
370
    25
100
AcDbLine
 10
165.1142504938
 20
99.8096459302
 30
0.0
 11
167.614073021
 21
99.8096459302
 31
0.0
  0
LINE
  5
109
330
1F
100
AcDbEntity
  8
0
  6
Continuous
 62
     7
370
    25
100
AcDbLine
 10
167.614073021
 20
109.809646638
 30
0.0
 11
165.1142504938
 21
109.809646638
 31
0.0
  0
ELLIPSE
  5
10A
330
1F
100
AcDbEntity
  8
0
  6
Continuous
 62
     7
370
    25
100
AcDbEllipse
 10
165.3660416008
 20
110.8096464355
 30
0.0
 11
0.2815134913797693
 21
0.9959520549206219
 31
0.0
210
0.0
220
0.0
230
1.0
 40
0.3192957554
 41
1.660803871009079
 42
3.231600197804181
  0
ARC
  5
10B
330
1F
100
AcDbEntity
  8
0
  6
Continuous
 62
     7
370
    25
100
AcDbCircle
 10
174.0394323748
 20
112.9035866343
 30
0.0
 40
1.012775583585332
100
AcDbArc
 50
359.3755971305
 51
57.5867081647
  0
LINE
  5
10C
330
1F
100
AcDbEntity
  8
0
  6
Continuous
 62
     7
370
    25
100
AcDbLine
 10
168.6401334531
 20
109.809646638
 30
0.0
 11
167.614073021
 21
109.809646638
 31
0.0
  0
LINE
  5
10D
330
1F
100
AcDbEntity
  8
0
  6
Continuous
 62
     7
370
    25
100
AcDbLine
 10
167.614073021
 20
99.8096459302
 30
0.0
 11
168.6401334531
 21
99.8096459302
 31
0.0
  0
ARC
  5
10E
330
1F
100
AcDbEntity
  8
0
  6
Continuous
 62
     7
370
    25
100
AcDbCircle
 10
174.0394321734
 20
96.7157060431
 30
0.0
 40
1.012775783758527
100
AcDbArc
 50
302.4132981398
 51
0.624396565
  0
LINE
  5
10F
330
1F
100
AcDbEntity
  8
0
  6
Continuous
 62
     7
370
    25
100
AcDbLine
 10
175.0521478183
 20
96.7267428281
 30
0.0
 11
175.0521478183
 21
112.89254974
 31
0.0
  0
LINE
  5
110
330
1F
100
AcDbEntity
  8
0
  6
Continuous
 62
     7
370
    25
100
AcDbLine
 10
174.58230303
 20
113.7585754263
 30
0.0
 11
161.4266042538
 21
121.8414793479
 31
0.0
  0
LINE
  5
111
330
1F
100
AcDbEntity
  8
0
  6
Continuous
 62
     7
370
    25
100
AcDbLine
 10
161.4266042538
 20
87.7778132202
 30
0.0
 11
174.58230303
 21
95.8607171419
 31
0.0
  0
ELLIPSE
  5
112
330
1F
100
AcDbEntity
  8
0
  6
Continuous
 62
     7
370
    25
100
AcDbEllipse
 10
154.4583761197
 20
117.5113523577
 30
0.0
 11
0.0
 21
1.154700538379245
 31
0.0
210
0.0
220
0.0
230
1.0
 40
0.2961981327
 41
1.570796326794897
 42
2.961577565161398
  0
ELLIPSE
  5
113
330
1F
100
AcDbEntity
  8
0
  6
Continuous
 62
     7
370
    25
100
AcDbEllipse
 10
154.4583761197
 20
92.1079405133
 30
0.0
 11
0.0
 21
1.154700538379231
 31
0.0
210
0.0
220
0.0
230
1.0
 40
0.2961981327
 41
0.1800150884283921
 42
1.570796326794897
  0
ELLIPSE
  5
114
330
1F
100
AcDbEntity
  8
0
  6
Continuous
 62
     7
370
    25
100
AcDbEllipse
 10
165.888522273
 20
100.8096464355
 30
0.0
 11
-0.2815134913797693
 21
0.9959520549206219
 31
0.0
210
0.0
220
0.0
230
1.0
 40
0.3192957554
 41
3.051585109375456
 42
4.622381436170505
  0
ELLIPSE
  5
115
330
1F
100
AcDbEntity
  8
0
  6
Continuous
 62
     7
370
    25
100
AcDbEllipse
 10
165.888522273
 20
108.8096464355
 30
0.0
 11
0.2815134913797409
 21
0.9959520549206077
 31
0.0
210
0.0
220
0.0
230
1.0
 40
0.3192957554
 41
4.802396524598871
 42
6.373192851393775
  0
ELLIPSE
  5
116
330
1F
100
AcDbEntity
  8
0
  6
Continuous
 62
     7
370
    25
100
AcDbEllipse
 10
155.4844365497
 20
94.4173415901
 30
0.0
 11
0.0
 21
1.154700538379231
 31
0.0
210
0.0
220
0.0
230
1.0
 40
0.2961981327
 41
4.447303415780476
 42
4.712388980384693
  0
ELLIPSE
  5
117
330
1F
100
AcDbEntity
  8
0
  6
Continuous
 62
     7
370
    25
100
AcDbEllipse
 10
155.4844365497
 20
115.2019512809
 30
0.0
 11
0.0
 21
1.154700538379245
 31
0.0
210
0.0
220
0.0
230
1.0
 40
0.2961981327
 41
4.712388980384693
 42
4.977474544988958
  0
ELLIPSE
  5
118
330
1F
100
AcDbEntity
  8
0
  6
Continuous
 62
     7
370
    25
100
AcDbEllipse
 10
143.5507106386
 20
98.8096464355
 30
0.0
 11
0.2815134913797123
 21
0.9959520549206216
 31
0.0
210
0.0
220
0.0
230
1.0
 40
0.3192957554
 41
0.0900075442141039
 42
1.660803871009055
  0
ELLIPSE
  5
119
330
1F
100
AcDbEntity
  8
0
  6
Continuous
 62
     7
370
    25
100
AcDbEllipse
 10
143.5507106386
 20
110.8096464355
 30
0.0
 11
-0.2815134913797408
 21
0.9959520549206218
 31
0.0
210
0.0
220
0.0
230
1.0
 40
0.3192957554
 41
1.480788782580722
 42
3.051585109375614
  0
ARC
  5
11A
330
1F
100
AcDbEntity
  8
0
  6
Continuous
 62
     7
370
    25
100
AcDbCircle
 10
160.9550737972
 20
121.0786894338
 30
0.0
 40
0.8967660924258436
100
AcDbArc
 50
58.2770708951
 51
89.8922999684
  0
ARC
  5
11B
330
1F
100
AcDbEntity
  8
0
  6
Continuous
 62
     7
370
    25
100
AcDbCircle
 10
160.9550863005
 20
88.5405725319
 30
0.0
 40
0.896733487568214
100
AcDbArc
 50
270.1069050581
 51
301.723277695
  0
LINE
  5
11C
330
1F
100
AcDbEntity
  8
0
  6
Continuous
 62
     7
370
    25
100
AcDbLine
 10
144.8285584278
 20
109.809646638
 30
0.0
 11
143.8025017209
 21
109.809646638
 31
0.0
  0
LINE
  5
11D
330
1F
100
AcDbEntity
  8
0
  6
Continuous
 62
     7
370
    25
100
AcDbLine
 10
144.8285584278
 20
99.8096459302
 30
0.0
 11
143.8025017209
 21
99.8096459302
 31
0.0
  0
ELLIPSE
  5
11E
330
1F
100
AcDbEntity
  8
0
  6
Continuous
 62
     7
370
    25
100
AcDbEllipse
 10
145.0803508263
 20
108.8096464355
 30
0.0
 11
-0.2815134913797693
 21
0.9959520549206077
 31
0.0
210
0.0
220
0.0
230
1.0
 40
0.3192957554
 41
4.622381436170502
 42
6.193177762965448
  0
ELLIPSE
  5
11F
330
1F
100
AcDbEntity
  8
0
  6
Continuous
 62
     7
370
    25
100
AcDbEllipse
 10
145.0803508263
 20
100.8096464355
 30
0.0
 11
0.2815134913797123
 21
0.9959520549206216
 31
0.0
210
0.0
220
0.0
230
1.0
 40
0.3192957554
 41
3.23160019780385
 42
4.80239652459886
  0
LINE
  5
120
330
1F
100
AcDbEntity
  8
0
  6
Continuous
 62
     7
370
    25
100
AcDbLine
 10
143.8025017209
 20
109.809646638
 30
0.0
 11
141.302682919
 21
109.809646638
 31
0.0
  0
LINE
  5
121
330
1F
100
AcDbEntity
  8
0
  6
Continuous
 62
     7
370
    25
100
AcDbLine
 10
141.302682919
 20
99.8096459302
 30
0.0
 11
143.8025017209
 21
99.8096459302
 31
0.0
  0
LINE
  5
122
330
1F
100
AcDbEntity
  8
0
  6
Continuous
 62
     7
370
    25
100
AcDbLine
 10
92.8835798927
 20
194.3096455874
 30
0.0
 11
88.6721168585
 21
194.3096455874
 31
0.0
  0
LINE
  5
123
330
1F
100
AcDbEntity
  8
0
  6
Continuous
 62
     7
370
    25
100
AcDbLine
 10
40.3712992497
 20
194.3096455874
 30
0.0
 11
38.2452909775
 21
194.3096455874
 31
0.0
  0
SPLINE
  5
124
330
1F
100
AcDbEntity
  8
0
  6
Continuous
 62
     7
370
    25
100
AcDbSpline
210
0.0
220
0.0
230
1.0
 70
     8
 71
     3
 72
    26
 73
    22
 74
     0
 42
0.000000001
 43
0.00000001
 40
0.0
 40
0.0
 40
0.0
 40
0.0
 40
0.0418589355406257
 40
0.0902218199417231
 40
0.1385274462640702
 40
0.193930415723062
 40
0.2493754578007706
 40
0.3047821960131828
 40
0.3616123780198203
 40
0.4184824710156983
 40
0.4753181283992897
 40
0.5302041256386626
 40
0.5851436417678323
 40
0.6400903590118505
 40
0.6949861847463515
 40
0.7514421712172136
 40
0.8079408072644932
 40
0.8644456429227608
 40
0.9209100166451881
 40
0.9604434411653373
 40
1.0
 40
1.0
 40
1.0
 40
1.0
 10
390.9840141363314
 20
170.7025442960125
 30
0.0
 10
390.9798875980375
 20
170.6986941322319
 30
0.0
 10
390.9709933490526
 20
170.6903955747348
 30
0.0
 10
390.8578266960847
 20
170.5846918967669
 30
0.0
 10
390.6566523179411
 20
170.3967616812688
 30
0.0
 10
390.3481670741353
 20
170.1084959263797
 30
0.0
 10
389.9242403337804
 20
169.7121140918908
 30
0.0
 10
389.3964627703456
 20
169.2182225134958
 30
0.0
 10
388.7649872969654
 20
168.6268111470295
 30
0.0
 10
388.0326633840958
 20
167.9401554184104
 30
0.0
 10
387.2191929394656
 20
167.1764353910517
 30
0.0
 10
386.3323401768852
 20
166.3426653358796
 30
0.0
 10
385.3806566282423
 20
165.4465164003064
 30
0.0
 10
384.3589363878593
 20
164.4827939275907
 30
0.0
 10
383.2616944190598
 20
163.4459080468078
 30
0.0
 10
382.0909322973287
 20
162.3372677574805
 30
0.0
 10
380.8492272943388
 20
161.1587852656965
 30
0.0
 10
379.5524801414567
 20
159.9251028551484
 30
0.0
 10
378.3390773001939
 20
158.7676539035176
 30
0.0
 10
377.2302837713621
 20
157.7076201225481
 30
0.0
 10
376.5652523756037
 20
157.070184263151
 30
0.0
 10
376.2326394148043
 20
156.7513731064659
 30
0.0
  0
SPLINE
  5
125
330
1F
100
AcDbEntity
  8
0
  6
Continuous
 62
     7
370
    25
100
AcDbSpline
210
0.0
220
0.0
230
1.0
 70
     8
 71
     3
 72
    45
 73
    41
 74
     0
 42
0.000000001
 43
0.00000001
 40
0.0
 40
0.0
 40
0.0
 40
0.0
 40
0.0317559480061741
 40
0.0635755556752132
 40
0.0954177766937378
 40
0.1272485146987272
 40
0.1590415881203647
 40
0.1907797569949162
 40
0.2140343601697033
 40
0.2373058470302883
 40
0.2605753650186
 40
0.2838273737241853
 40
0.3077073007322151
 40
0.3316101447979612
 40
0.3555109454851282
 40
0.3793880993514518
 40
0.4026797829569446
 40
0.42599618841213
 40
0.4493115429312527
 40
0.4726018000674321
 40
0.4967542422270072
 40
0.5209354739260064
 40
0.545117067846795
 40
0.5692700034793194
 40
0.5972638218504934
 40
0.6253310839437508
 40
0.6534430055008719
 40
0.6815634836375701
 40
0.7096504899207629
 40
0.7376575356392293
 40
0.7651006503404117
 40
0.7925706134436531
 40
0.820044145792268
 40
0.8474922018787733
 40
0.8757203514695755
 40
0.9039698337567705
 40
0.9322224304686516
 40
0.9604547212313694
 40
0.9802273049061276
 40
1.0
 40
1.0
 40
1.0
 40
1.0
 10
259.2024845011405
 20
156.7513731064659
 30
0.0
 10
258.5126589487627
 20
157.2611922318711
 30
0.0
 10
257.1316249830045
 20
158.2818524932241
 30
0.0
 10
254.9512348108568
 20
159.7380945762848
 30
0.0
 10
252.6903444103847
 20
161.1346092249432
 30
0.0
 10
250.3437692975297
 20
162.4597360936617
 30
0.0
 10
247.916180797058
 20
163.7083439948429
 30
0.0
 10
245.631182719943
 20
164.770499827778
 30
0.0
 10
243.5130055569643
 20
165.6657233174228
 30
0.0
 10
241.5820003691739
 20
166.4148011392739
 30
0.0
 10
239.6105868008538
 20
167.1121163653332
 30
0.0
 10
237.5829202375695
 20
167.7607146207262
 30
0.0
 10
235.4989249614432
 20
168.3559822559715
 30
0.0
 10
233.3600901446093
 20
168.8940336092683
 30
0.0
 10
231.1888253243022
 20
169.3671216568482
 30
0.0
 10
229.0072842108754
 20
169.7692559272724
 30
0.0
 10
226.8191448170264
 20
170.0995955659446
 30
0.0
 10
224.628814733877
 20
170.3592903731685
 30
0.0
 10
222.423336883541
 20
170.5498626673694
 30
0.0
 10
220.1807121218305
 20
170.6714316762991
 30
0.0
 10
217.9044853704489
 20
170.7191661187388
 30
0.0
 10
215.5992551831946
 20
170.6906822314417
 30
0.0
 10
213.298750926802
 20
170.5858993594104
 30
0.0
 10
210.8879444196005
 20
170.3958070311005
 30
0.0
 10
208.3731450249872
 20
170.104348512553
 30
0.0
 10
205.763211200866
 20
169.6991828519681
 30
0.0
 10
203.1847849769163
 20
169.1986538753661
 30
0.0
 10
200.647237101798
 20
168.6071040977538
 30
0.0
 10
198.1598068268473
 20
167.9290649981965
 30
0.0
 10
195.7446173627048
 20
167.1725030255296
 30
0.0
 10
193.4031720237668
 20
166.3426160275101
 30
0.0
 10
191.1333513487366
 20
165.4465299079509
 30
0.0
 10
188.922369262906
 20
164.4827911027457
 30
0.0
 10
186.7524104395256
 20
163.4459087101307
 30
0.0
 10
184.6266253884298
 20
162.3372675017265
 30
0.0
 10
182.5470126370923
 20
161.1587845569346
 30
0.0
 10
180.533921960987
 20
159.9251054723882
 30
0.0
 10
178.7835153863934
 20
158.7675640715097
 30
0.0
 10
177.2707655780058
 20
157.7075302669595
 30
0.0
 10
176.4156590984853
 20
157.0700927586254
 30
0.0
 10
175.9881046540907
 20
156.7513731064659
 30
0.0
  0
LINE
  5
126
330
1F
100
AcDbEntity
  8
0
  6
Continuous
 62
     7
370
    25
100
AcDbLine
 10
175.4100848861
 20
156.3096468093
 30
0.0
 11
54.4220064707
 21
156.3096468093
 31
0.0
  0
SPLINE
  5
127
330
1F
100
AcDbEntity
  8
0
  6
Continuous
 62
     7
370
    25
100
AcDbSpline
210
0.0
220
0.0
230
1.0
 70
     8
 71
     3
 72
    11
 73
     7
 74
     0
 42
0.000000001
 43
0.00000001
 40
0.0
 40
0.0
 40
0.0
 40
0.0
 40
0.2674991687335149
 40
0.5433272223917248
 40
0.7860990279287344
 40
0.9999999999999999
 40
0.9999999999999999
 40
0.9999999999999999
 40
0.9999999999999999
 10
175.9881046540907
 20
156.7513731064659
 30
0.0
 10
175.9120779830591
 20
156.6937498219012
 30
0.0
 10
175.7576574658109
 20
156.5767090875473
 30
0.0
 10
175.5733457055388
 20
156.4355089246077
 30
0.0
 10
175.4388856844026
 20
156.331911427067
 30
0.0
 10
175.4192718230361
 20
156.3167488221617
 30
0.0
 10
175.4100848860911
 20
156.3096468093258
 30
0.0
  0
LINE
  5
128
330
1F
100
AcDbEntity
  8
0
  6
Continuous
 62
     7
370
    25
100
AcDbLine
 10
375.2212081976
 20
156.3096468093
 30
0.0
 11
259.7805042691
 21
156.3096468093
 31
0.0
  0
SPLINE
  5
129
330
1F
100
AcDbEntity
  8
0
  6
Continuous
 62
     7
370
    25
100
AcDbSpline
210
0.0
220
0.0
230
1.0
 70
     8
 71
     3
 72
    11
 73
     7
 74
     0
 42
0.000000001
 43
0.00000001
 40
0.0
 40
0.0
 40
0.0
 40
0.0
 40
0.2675031159475192
 40
0.5433270664137543
 40
0.786104723943644
 40
1.0
 40
1.0
 40
1.0
 40
1.0
 10
376.2326394148043
 20
156.7513731064659
 30
0.0
 10
376.1672843056202
 20
156.6937503072397
 30
0.0
 10
376.0345411799098
 20
156.576712319285
 30
0.0
 10
375.785803275471
 20
156.4355055291373
 30
0.0
 10
375.5108279347653
 20
156.3319134964593
 30
0.0
 10
375.3135899907516
 20
156.3167493518006
 30
0.0
 10
375.2212081976107
 20
156.3096468093258
 30
0.0
  0
SPLINE
  5
12A
330
1F
100
AcDbEntity
  8
0
  6
Continuous
 62
     7
370
    25
100
AcDbSpline
210
0.0
220
0.0
230
1.0
 70
     8
 71
     3
 72
    11
 73
     7
 74
     0
 42
0.000000001
 43
0.00000001
 40
0.0
 40
0.0
 40
0.0
 40
0.0
 40
0.2326543663434644
 40
0.5342466587505226
 40
0.7642756325725061
 40
1.0
 40
1.0
 40
1.0
 40
1.0
 10
259.7805042691401
 20
156.3096468093258
 30
0.0
 10
259.7695355774559
 20
156.3181282813663
 30
0.0
 10
259.7443480558323
 20
156.3376043744658
 30
0.0
 10
259.5888605529534
 20
156.4573248854632
 30
0.0
 10
259.4024102170068
 20
156.5998940992556
 30
0.0
 10
259.269667481187
 20
156.7004701444594
 30
0.0
 10
259.2024845011405
 20
156.7513731064659
 30
0.0
  0
LINE
  5
12B
330
1F
100
AcDbEntity
  8
0
  6
Continuous
 62
     7
370
    25
100
AcDbLine
 10
386.1952875681
 20
147.0705934557
 30
0.0
 11
386.1952875681
 21
134.548698807
 31
0.0
  0
LINE
  5
12C
330
1F
100
AcDbEntity
  8
0
  6
Continuous
 62
     7
370
    25
100
AcDbLine
 10
376.1952971049
 20
132.9834622087
 30
0.0
 11
376.1952971049
 21
148.6358319166
 31
0.0
  0
LINE
  5
12D
330
1F
100
AcDbEntity
  8
0
  6
Continuous
 62
     7
370
    25
100
AcDbLine
 10
386.1952875681
 20
134.548698807
 30
0.0
 11
386.1952875681
 21
132.3096466007
 31
0.0
  0
LINE
  5
12E
330
1F
100
AcDbEntity
  8
0
  6
Continuous
 62
     7
370
    25
100
AcDbLine
 10
376.1952971049
 20
119.8096464144
 30
0.0
 11
376.1952971049
 21
132.9834622087
 31
0.0
  0
LINE
  5
12F
330
1F
100
AcDbEntity
  8
0
  6
Continuous
 62
     7
370
    25
100
AcDbLine
 10
376.1952971049
 20
148.6358319166
 30
0.0
 11
376.1952971049
 21
156.7242045643
 31
0.0
  0
LINE
  5
130
330
1F
100
AcDbEntity
  8
0
  6
Continuous
 62
     7
370
    25
100
AcDbLine
 10
386.1952875681
 20
149.3096456619
 30
0.0
 11
386.1952875681
 21
147.0705934557
 31
0.0
  0
SPLINE
  5
131
330
1F
100
AcDbEntity
  8
0
  6
Continuous
 62
     7
370
    25
100
AcDbSpline
210
0.0
220
0.0
230
1.0
 70
     8
 71
     3
 72
    15
 73
    11
 74
     0
 42
0.000000001
 43
0.00000001
 40
0.0
 40
0.0
 40
0.0
 40
0.0
 40
0.0381699006089856
 40
0.0719161927318395
 40
0.1584698252063549
 40
0.23529536581711
 40
0.3135916186779846
 40
0.4838921628074018
 40
0.740312908523526
 40
1.0
 40
1.0
 40
1.0
 40
1.0
 10
383.7952916450671
 20
131.3096464367967
 30
0.0
 10
383.7516209534839
 20
131.3079294012774
 30
0.0
 10
383.6693406796945
 20
131.3046943219252
 30
0.0
 10
383.5098383866934
 20
131.2732916907848
 30
0.0
 10
383.3581325856714
 20
131.2147494391743
 30
0.0
 10
383.2226153016798
 20
131.1333753342591
 30
0.0
 10
383.0798138056849
 20
131.0182425868828
 30
0.0
 10
382.9291553466616
 20
130.8339913598971
 30
0.0
 10
382.816227153183
 20
130.5833925881066
 30
0.0
 10
382.8022981813152
 20
130.4012792312542
 30
0.0
 10
382.7952896185092
 20
130.309646272884
 30
0.0
  0
SPLINE
  5
132
330
1F
100
AcDbEntity
  8
0
  6
Continuous
 62
     7
370
    25
100
AcDbSpline
210
0.0
220
0.0
230
1.0
 70
     8
 71
     3
 72
    16
 73
    12
 74
     0
 42
0.000000001
 43
0.00000001
 40
0.0
 40
0.0
 40
0.0
 40
0.0
 40
0.193876359222043
 40
0.3876855832877135
 40
0.5345056969446959
 40
0.6811285436017257
 40
0.7604991571218186
 40
0.8396648870247163
 40
0.9261705275553481
 40
0.9667355003305564
 40
1.0
 40
1.0
 40
1.0
 40
1.0
 10
382.7952896185092
 20
151.3096459897619
 30
0.0
 10
382.7990263093292
 20
151.2413872046506
 30
0.0
 10
382.8064983970347
 20
151.1048932709572
 30
0.0
 10
382.8712407815401
 20
150.9115988587837
 30
0.0
 10
382.9688464583887
 20
150.7337373049771
 30
0.0
 10
383.085359505727
 20
150.5981151001036
 30
0.0
 10
383.2161138857599
 20
150.4897619820237
 30
0.0
 10
383.3530016889009
 20
150.4071072460425
 30
0.0
 10
383.5097843580575
 20
150.345509442106
 30
0.0
 10
383.6728237346398
 20
150.3138921770997
 30
0.0
 10
383.7572518405337
 20
150.3109647866364
 30
0.0
 10
383.7952916450671
 20
150.3096458258491
 30
0.0
  0
ARC
  5
133
330
1F
100
AcDbEntity
  8
0
  6
Continuous
 62
     7
370
    25
100
AcDbCircle
 10
385.1952945776
 20
132.3096464355
 30
0.0
 40
1.0
100
AcDbArc
 50
270.0
 51
0.0
  0
SPLINE
  5
134
330
1F
100
AcDbEntity
  8
0
  6
Continuous
 62
     7
370
    25
100
AcDbSpline
210
0.0
220
0.0
230
1.0
 70
    24
 71
     3
 72
    14
 73
    10
 74
     0
 42
0.000000001
 43
0.00000001
 40
0.0
 40
0.0
 40
0.0
 40
0.0
 40
0.162835913183297
 40
0.3255835063255487
 40
0.4665580880028886
 40
0.6072521619428292
 40
0.7789014606778234
 40
0.8890446586144487
 40
1.0
 40
1.0
 40
1.0
 40
1.0
 10
385.1953004427127
 20
131.3096464367967
 30
0.0
 10
385.1914494831617
 20
131.3096464367967
 30
0.0
 10
385.1837496527691
 20
131.3096464367967
 30
0.0
 10
385.1208386506549
 20
131.3096464367967
 30
0.0
 10
385.0229497641416
 20
131.3096464367967
 30
0.0
 10
384.8761320107715
 20
131.3096464367967
 30
0.0
 10
384.6802162476791
 20
131.3096464367967
 30
0.0
 10
384.4369555089301
 20
131.3096464367967
 30
0.0
 10
384.2760477968575
 20
131.3096464367967
 30
0.0
 10
384.1952984161547
 20
131.3096464367967
 30
0.0
  0
SPLINE
  5
135
330
1F
100
AcDbEntity
  8
0
  6
Continuous
 62
     7
370
    25
100
AcDbSpline
210
0.0
220
0.0
230
1.0
 70
    24
 71
     3
 72
    15
 73
    11
 74
     0
 42
0.000000001
 43
0.00000001
 40
0.0
 40
0.0
 40
0.0
 40
0.0
 40
0.0718364860042245
 40
0.1738267899838922
 40
0.266825246949226
 40
0.3601276042468787
 40
0.5438548533546594
 40
0.7455010725472125
 40
0.9475196340784799
 40
1.0
 40
1.0
 40
1.0
 40
1.0
 10
384.1952984161547
 20
150.3096458258491
 30
0.0
 10
384.2474700851907
 20
150.3096458258491
 30
0.0
 10
384.3737128103164
 20
150.3096458258491
 30
0.0
 10
384.5520215110655
 20
150.3096458258491
 30
0.0
 10
384.7128238971107
 20
150.3096458258491
 30
0.0
 10
384.8828523941521
 20
150.3096458258491
 30
0.0
 10
385.0413892381309
 20
150.3096458258491
 30
0.0
 10
385.1558992071717
 20
150.3096458258491
 30
0.0
 10
385.1926653004961
 20
150.3096458258491
 30
0.0
 10
385.1948499457874
 20
150.3096458258491
 30
0.0
 10
385.1953004427127
 20
150.3096458258491
 30
0.0
  0
ARC
  5
136
330
1F
100
AcDbEntity
  8
0
  6
Continuous
 62
     7
370
    25
100
AcDbCircle
 10
385.1952945776
 20
149.3096464355
 30
0.0
 40
1.0
100
AcDbArc
 50
0.0
 51
90.0
  0
LINE
  5
137
330
1F
100
AcDbEntity
  8
0
  6
Continuous
 62
     7
370
    25
100
AcDbLine
 10
384.1952984162
 20
131.3096464368
 30
0.0
 11
383.7952916451
 21
131.3096464368
 31
0.0
  0
LINE
  5
138
330
1F
100
AcDbEntity
  8
0
  6
Continuous
 62
     7
370
    25
100
AcDbLine
 10
383.7952916451
 20
150.3096458258
 30
0.0
 11
384.1952984162
 21
150.3096458258
 31
0.0
  0
LINE
  5
139
330
1F
100
AcDbEntity
  8
0
  6
Continuous
 62
     7
370
    25
100
AcDbLine
 10
382.7952896185
 20
130.3096462729
 30
0.0
 11
382.7952896185
 21
120.8096463455
 31
0.0
  0
LINE
  5
13A
330
1F
100
AcDbEntity
  8
0
  6
Continuous
 62
     7
370
    25
100
AcDbLine
 10
382.7952896185
 20
160.809644753
 30
0.0
 11
382.7952896185
 21
151.3096459898
 31
0.0
  0
LINE
  5
13B
330
1F
100
AcDbEntity
  8
0
  6
Continuous
 62
     7
370
    25
100
AcDbLine
 10
375.7952903338
 20
140.8096470626
 30
0.0
 11
375.7952903338
 21
156.4540986659
 31
0.0
  0
LINE
  5
13C
330
1F
100
AcDbEntity
  8
0
  6
Continuous
 62
     7
370
    25
100
AcDbLine
 10
375.7952903338
 20
120.8096463455
 30
0.0
 11
375.7952903338
 21
140.8096470626
 31
0.0
  0
LINE
  5
13D
330
1F
100
AcDbEntity
  8
0
  6
Continuous
 62
     7
370
    25
100
AcDbLine
 10
397.7952902146
 20
157.3096451106
 30
0.0
 11
397.7952902146
 21
124.3096464536
 31
0.0
  0
LINE
  5
13E
330
1F
100
AcDbEntity
  8
0
  6
Continuous
 62
     7
370
    25
100
AcDbLine
 10
386.1952875681
 20
132.3096466007
 30
0.0
 11
386.1952875681
 21
132.2559586483
 31
0.0
  0
LINE
  5
13F
330
1F
100
AcDbEntity
  8
0
  6
Continuous
 62
     7
370
    25
100
AcDbLine
 10
386.1952875681
 20
149.3633345457
 30
0.0
 11
386.1952875681
 21
149.3096456619
 31
0.0
  0
LWPOLYLINE
  5
140
330
1F
100
AcDbEntity
  8
0
  6
Continuous
 62
     7
370
    25
100
AcDbPolyline
 90
       23
 70
   128
 43
0.0
 10
79.590797884
 20
62.4144238176
 10
79.1631196566
 20
62.4067012908
 10
78.7393157311
 20
62.3993848207
 10
78.3232157059
 20
62.392548913
 10
77.918604476
 20
62.3862494471
 10
77.5291328259
 20
62.3805460276
 10
77.1583323307
 20
62.3754908087
 10
76.8095557518
 20
62.3711322191
 10
76.4859621353
 20
62.3675037863
 10
76.1905019112
 20
62.3646390381
 10
75.9258125849
 20
62.3625677767
 10
75.6943379469
 20
62.3613086285
 10
75.4981343575
 20
62.3608727696
 10
75.3389899559
 20
62.3612601998
 10
75.2183650561
 20
62.3624671938
 10
75.1373325415
 20
62.3644900265
 10
75.0966225691
 20
62.3673063459
 10
75.0966225691
 20
62.3708863499
 10
75.1373176403
 20
62.3752039614
 10
75.2183352537
 20
62.3802182021
 10
75.3389601536
 20
62.3858806434
 10
75.498089654
 20
62.3921465816
 10
75.5911176033
 20
62.3954658153
  0
LWPOLYLINE
  5
141
330
1F
100
AcDbEntity
  8
0
  6
Continuous
 62
     7
370
    25
100
AcDbPolyline
 90
       23
 70
   128
 43
0.0
 10
83.589762909
 20
62.5431474986
 10
83.6833869047
 20
62.5432667079
 10
83.8425164051
 20
62.5428792777
 10
83.9631562061
 20
62.5416685583
 10
84.0441887207
 20
62.5396457257
 10
84.0848986931
 20
62.5368331315
 10
84.0848986931
 20
62.5332494023
 10
84.0442036219
 20
62.5289317908
 10
83.9631711073
 20
62.5239175501
 10
83.8425462074
 20
62.5182551088
 10
83.6834167071
 20
62.5119891705
 10
83.4872280188
 20
62.5051830652
 10
83.2557533808
 20
62.4978963973
 10
82.9910789557
 20
62.4901962223
 10
82.6956187315
 20
62.48214587
 10
82.3720400162
 20
62.4738272967
 10
82.0232634373
 20
62.4653112831
 10
81.6524629421
 20
62.4566723349
 10
81.262991292
 20
62.4479961338
 10
80.8583800621
 20
62.4393534603
 10
80.4422949381
 20
62.4308262708
 10
80.0184761114
 20
62.4224927964
 10
79.590797884
 20
62.4144238176
  0
ARC
  5
142
330
1F
100
AcDbEntity
  8
0
  6
Continuous
 62
     7
370
    25
100
AcDbCircle
 10
76.0713135809
 20
188.8171691581
 30
0.0
 40
127.2516691787324
100
AcDbArc
 50
269.5654900831
 51
271.591521199
  0
ARC
  5
143
330
1F
100
AcDbEntity
  8
0
  6
Continuous
 62
     7
370
    25
100
AcDbCircle
 10
78.2793525667
 20
194.9505950748
 30
0.0
 40
133.3426013372168
100
AcDbArc
 50
270.5698675704
 51
272.5039082164
  0
ARC
  5
144
330
1F
100
AcDbEntity
  8
0
  6
Continuous
 62
     7
370
    25
100
AcDbCircle
 10
76.4249348227
 20
177.8948061638
 30
0.0
 40
115.5195879002743
100
AcDbArc
 50
269.5865996429
 51
271.5704116392
  0
ARC
  5
145
330
1F
100
AcDbEntity
  8
0
  6
Continuous
 62
     7
370
    25
100
AcDbCircle
 10
78.4912426702
 20
177.9816924549
 30
0.0
 40
115.5683160207441
100
AcDbArc
 50
270.545139237
 51
272.5286903157
  0
SPLINE
  5
146
330
1F
100
AcDbEntity
  8
0
  6
Continuous
 62
     7
370
    25
100
AcDbSpline
210
0.0
220
0.0
230
1.0
 70
     8
 71
     3
 72
     9
 73
     5
 74
     0
 42
0.000000001
 43
0.00000001
 40
0.0
 40
0.0
 40
0.0
 40
0.0
 40
0.4937158349074191
 40
1.0
 40
1.0
 40
1.0
 40
1.0
 10
79.04602633191857
 20
64.84297409080081
 30
0.0
 10
79.21019224978598
 20
64.86551215402383
 30
0.0
 10
79.54270319284329
 20
64.91116202309732
 30
0.0
 10
79.87674458059773
 20
64.8781500624529
 30
0.0
 10
80.04586444570336
 20
64.86143662951999
 30
0.0
  0
SPLINE
  5
147
330
1F
100
AcDbEntity
  8
0
  6
Continuous
 62
     7
370
    25
100
AcDbSpline
210
0.0
220
0.0
230
1.0
 70
     8
 71
     3
 72
    12
 73
     8
 74
     0
 42
0.000000001
 43
0.00000001
 40
0.0
 40
0.0
 40
0.0
 40
0.0
 40
0.1958637961983888
 40
0.39746906358394
 40
0.5933153043288665
 40
0.7947016867133434
 40
1.0
 40
1.0
 40
1.0
 40
1.0
 10
80.04586444570336
 20
64.86143662951999
 30
0.0
 10
80.04439306452215
 20
64.94157333442688
 30
0.0
 10
80.0414071706938
 20
65.1041958388216
 30
0.0
 10
80.03797853918887
 20
65.29233990139785
 30
0.0
 10
80.03542964153273
 20
65.43352424315712
 30
0.0
 10
80.0337656194193
 20
65.52485634066221
 30
0.0
 10
80.03356696316303
 20
65.53788444422389
 30
0.0
 10
80.03346667959005
 20
65.54446115516238
 30
0.0
  0
ARC
  5
148
330
1F
100
AcDbEntity
  8
0
  6
Continuous
 62
     7
370
    25
100
AcDbCircle
 10
78.5664352724
 20
148.3441615259
 30
0.0
 40
82.81269566093077
100
AcDbArc
 50
271.0150509458
 51
271.9686298928
  0
SPLINE
  5
149
330
1F
100
AcDbEntity
  8
0
  6
Continuous
 62
     7
370
    25
100
AcDbSpline
210
0.0
220
0.0
230
1.0
 70
     8
 71
     3
 72
    12
 73
     8
 74
     0
 42
0.000000001
 43
0.00000001
 40
0.0
 40
0.0
 40
0.0
 40
0.0
 40
0.2031287191450501
 40
0.4121864844265008
 40
0.6142428920034588
 40
0.8225127691001765
 40
0.9999999999999999
 40
0.9999999999999999
 40
0.9999999999999999
 40
0.9999999999999999
 10
81.46970020009789
 20
65.58299555800967
 30
0.0
 10
81.5857341528045
 20
65.57964042390913
 30
0.0
 10
81.8211889286804
 20
65.57283222398792
 30
0.0
 10
82.16395300146259
 20
65.48832524363318
 30
0.0
 10
82.48938276618875
 20
65.34859870161733
 30
0.0
 10
82.7736944199669
 20
65.16601718791121
 30
0.0
 10
82.93104826027786
 20
65.01175945154053
 30
0.0
 10
83.00344691945824
 20
64.94078531287722
 30
0.0
  0
SPLINE
  5
14A
330
1F
100
AcDbEntity
  8
0
  6
Continuous
 62
     7
370
    25
100
AcDbSpline
210
0.0
220
0.0
230
1.0
 70
     8
 71
     3
 72
     9
 73
     5
 74
     0
 42
0.000000001
 43
0.00000001
 40
0.0
 40
0.0
 40
0.0
 40
0.0
 40
0.9356181730780423
 40
1.0
 40
1.0
 40
1.0
 40
1.0
 10
83.00344691945824
 20
64.94078531287722
 30
0.0
 10
83.0029473138982
 20
64.96738209126379
 30
0.0
 10
83.00241332944344
 20
64.99580904913171
 30
0.0
 10
83.00274040812053
 20
64.98272858492291
 30
0.0
 10
83.00276146604332
 20
64.98188644074015
 30
0.0
  0
SPLINE
  5
14B
330
1F
100
AcDbEntity
  8
0
  6
Continuous
 62
     7
370
    25
100
AcDbSpline
210
0.0
220
0.0
230
1.0
 70
     8
 71
     3
 72
    12
 73
     8
 74
     0
 42
0.000000001
 43
0.00000001
 40
0.0
 40
0.0
 40
0.0
 40
0.0
 40
0.195867151529747
 40
0.3974671723681266
 40
0.5933109945394319
 40
0.7946972831421447
 40
1.0
 40
1.0
 40
1.0
 40
1.0
 10
83.00343201829702
 20
64.94914858959727
 30
0.0
 10
82.92316833443033
 20
65.02717171657862
 30
0.0
 10
82.76029171514432
 20
65.18550164284953
 30
0.0
 10
82.47101575315835
 20
65.36598229027612
 30
0.0
 10
82.1555052550518
 20
65.49877470624091
 30
0.0
 10
81.81930047715919
 20
65.58112402390678
 30
0.0
 10
81.58696947668975
 20
65.58792539863597
 30
0.0
 10
81.4696852989367
 20
65.59135883472972
 30
0.0
  0
ARC
  5
14C
330
1F
100
AcDbEntity
  8
0
  6
Continuous
 62
     7
370
    25
100
AcDbCircle
 10
81.9780154976
 20
-44.6047867454
 30
0.0
 40
110.198805458854
100
AcDbArc
 50
90.3603379792
 51
91.0111070111
  0
SPLINE
  5
14D
330
1F
100
AcDbEntity
  8
0
  6
Continuous
 62
     7
370
    25
100
AcDbSpline
210
0.0
220
0.0
230
1.0
 70
     8
 71
     3
 72
     9
 73
     5
 74
     0
 42
0.000000001
 43
0.00000001
 40
0.0
 40
0.0
 40
0.0
 40
0.0
 40
0.4937090223854763
 40
1.0
 40
1.0
 40
1.0
 40
1.0
 10
80.04578993989739
 20
64.9192903878551
 30
0.0
 10
79.88090619201299
 20
64.93575243974237
 30
0.0
 10
79.5469367071376
 20
64.96909607160012
 30
0.0
 10
79.21434168501348
 20
64.92377647652292
 30
0.0
 10
79.0459518261126
 20
64.90083157442622
 30
0.0
  0
LINE
  5
14E
330
1F
100
AcDbEntity
  8
0
  6
Continuous
 62
     7
370
    25
100
AcDbLine
 10
79.0339116879
 20
65.5428369286
 30
0.0
 11
79.0335987635
 21
65.5584011915
 31
0.0
  0
ARC
  5
14F
330
1F
100
AcDbEntity
  8
0
  6
Continuous
 62
     7
370
    25
100
AcDbCircle
 10
80.7181183678
 20
-26.6140694288
 30
0.0
 40
92.1878622516729
100
AcDbArc
 50
91.0470058991
 51
91.8588729619
  0
SPLINE
  5
150
330
1F
100
AcDbEntity
  8
0
  6
Continuous
 62
     7
370
    25
100
AcDbSpline
210
0.0
220
0.0
230
1.0
 70
     8
 71
     3
 72
    12
 73
     8
 74
     0
 42
0.000000001
 43
0.00000001
 40
0.0
 40
0.0
 40
0.0
 40
0.0
 40
0.2031369523790787
 40
0.4121872415756706
 40
0.614249680650958
 40
0.8225137065224015
 40
1.0
 40
1.0
 40
1.0
 40
1.0
 10
77.59736524297509
 20
65.51986678861194
 30
0.0
 10
77.48153003793071
 20
65.51223142136605
 30
0.0
 10
77.24648765354216
 20
65.49673842057696
 30
0.0
 10
76.90707599839806
 20
65.39963470049898
 30
0.0
 10
76.58702755949088
 20
65.24800072309644
 30
0.0
 10
76.30965873124416
 20
65.0550395633051
 30
0.0
 10
76.1581119416668
 20
64.89508092629634
 30
0.0
 10
76.08838425351891
 20
64.82148289106898
 30
0.0
  0
SPLINE
  5
151
330
1F
100
AcDbEntity
  8
0
  6
Continuous
 62
     7
370
    25
100
AcDbSpline
210
0.0
220
0.0
230
1.0
 70
     8
 71
     3
 72
     9
 73
     5
 74
     0
 42
0.000000001
 43
0.00000001
 40
0.0
 40
0.0
 40
0.0
 40
0.0
 40
0.4937156239227576
 40
1.0
 40
1.0
 40
1.0
 40
1.0
 10
76.08838425351888
 20
64.82148289106898
 30
0.0
 10
76.08802219615207
 20
64.83960692852663
 30
0.0
 10
76.08728886435287
 20
64.8763163956358
 30
0.0
 10
76.08801607707808
 20
64.83435851067004
 30
0.0
 10
76.08838425351891
 20
64.81311588905864
 30
0.0
  0
SPLINE
  5
152
330
1F
100
AcDbEntity
  8
0
  6
Continuous
 62
     7
370
    25
100
AcDbSpline
210
0.0
220
0.0
230
1.0
 70
     8
 71
     3
 72
    12
 73
     8
 74
     0
 42
0.000000001
 43
0.00000001
 40
0.0
 40
0.0
 40
0.0
 40
0.0
 40
0.1958651100908516
 40
0.3974725889272305
 40
0.5933097956984925
 40
0.7947028920677641
 40
0.9999999999999999
 40
0.9999999999999999
 40
0.9999999999999999
 40
0.9999999999999999
 10
76.08838425351891
 20
64.81311588905864
 30
0.0
 10
76.16571092105693
 20
64.89404932011325
 30
0.0
 10
76.32263131757477
 20
65.05828898667315
 30
0.0
 10
76.60505671120151
 20
65.24931030691333
 30
0.0
 10
76.91544965718015
 20
65.39366838547784
 30
0.0
 10
77.24838432125672
 20
65.48836617709419
 30
0.0
 10
77.48030609425754
 20
65.50374186745209
 30
0.0
 10
77.59738014413628
 20
65.51150351189189
 30
0.0
  0
ARC
  5
153
330
1F
100
AcDbEntity
  8
0
  6
Continuous
 62
     7
370
    25
100
AcDbCircle
 10
77.475275925
 20
146.0024790948
 30
0.0
 40
80.49156365721734
100
AcDbArc
 50
270.118048257
 51
271.1093518127
  0
SPLINE
  5
154
330
1F
100
AcDbEntity
  8
0
  6
Continuous
 62
     7
370
    25
100
AcDbSpline
210
0.0
220
0.0
230
1.0
 70
     8
 71
     3
 72
    12
 73
     8
 74
     0
 42
0.000000001
 43
0.00000001
 40
0.0
 40
0.0
 40
0.0
 40
0.0
 40
0.2031317800991616
 40
0.4121870075633096
 40
0.6142480374701582
 40
0.8225120865933048
 40
1.0
 40
1.0
 40
1.0
 40
1.0
 10
79.03364346696648
 20
65.5260023417335
 30
0.0
 10
79.03374197036756
 20
65.5195364628046
 30
0.0
 10
79.0339418495894
 20
65.50641615594924
 30
0.0
 10
79.03562662609451
 20
65.41275800508787
 30
0.0
 10
79.03833476583486
 20
65.26438180959165
 30
0.0
 10
79.04178449364913
 20
65.07425738405543
 30
0.0
 10
79.04468964562267
 20
64.91585598513994
 30
0.0
 10
79.04602633191857
 20
64.84297409080081
 30
0.0
  0
LINE
  5
155
330
1F
100
AcDbEntity
  8
0
  6
Continuous
 62
     7
370
    25
100
AcDbLine
 10
79.0336285658
 20
65.5380201282
 30
0.0
 11
79.0464584656
 21
64.8430187943
 31
0.0
  0
LINE
  5
156
330
1F
100
AcDbEntity
  8
0
  6
Continuous
 62
     7
370
    25
100
AcDbLine
 10
79.0336285658
 20
65.5380201282
 30
0.0
 11
79.033643467
 21
65.5260023417
 31
0.0
  0
LINE
  5
157
330
1F
100
AcDbEntity
  8
0
  6
Continuous
 62
     7
370
    25
100
AcDbLine
 10
80.0334517784
 20
65.5564789417
 30
0.0
 11
81.4697002001
 21
65.582995558
 31
0.0
  0
LINE
  5
158
330
1F
100
AcDbEntity
  8
0
  6
Continuous
 62
     7
370
    25
100
AcDbLine
 10
80.0334666796
 20
65.5444611552
 30
0.0
 11
80.0334517784
 21
65.5564789417
 31
0.0
  0
LINE
  5
159
330
1F
100
AcDbEntity
  8
0
  6
Continuous
 62
     7
370
    25
100
AcDbLine
 10
77.5973801441
 20
65.5115035119
 30
0.0
 11
79.0336285658
 21
65.5380201282
 31
0.0
  0
LINE
  5
15A
330
1F
100
AcDbEntity
  8
0
  6
Continuous
 62
     7
370
    25
100
AcDbLine
 10
80.0334368773
 20
65.5648422184
 30
0.0
 11
80.03360079
 21
65.556482667
 31
0.0
  0
LINE
  5
15B
330
1F
100
AcDbEntity
  8
0
  6
Continuous
 62
     7
370
    25
100
AcDbLine
 10
81.4696852989
 20
65.5913588347
 30
0.0
 11
80.0334368773
 21
65.5648422184
 31
0.0
  0
LINE
  5
15C
330
1F
100
AcDbEntity
  8
0
  6
Continuous
 62
     7
370
    25
100
AcDbLine
 10
80.0334368773
 20
65.5648422184
 30
0.0
 11
80.0334219761
 21
65.5768600049
 31
0.0
  0
LINE
  5
15D
330
1F
100
AcDbEntity
  8
0
  6
Continuous
 62
     7
370
    25
100
AcDbLine
 10
272.5952942796
 20
44.3096470775
 30
0.0
 11
336.8675415344
 21
44.3096470775
 31
0.0
  0
LINE
  5
15E
330
1F
100
AcDbEntity
  8
0
  6
Continuous
 62
     7
370
    25
100
AcDbLine
 10
272.5952942796
 20
54.3096449914
 30
0.0
 11
272.5952942796
 21
44.3096470775
 31
0.0
  0
SPLINE
  5
15F
330
1F
100
AcDbEntity
  8
0
  6
Continuous
 62
     7
370
    25
100
AcDbSpline
210
0.0
220
0.0
230
1.0
 70
     8
 71
     3
 72
    25
 73
    21
 74
     0
 42
0.000000001
 43
0.00000001
 40
0.0
 40
0.0
 40
0.0
 40
0.0
 40
0.05594594092707
 40
0.1120934524513375
 40
0.1682444104369016
 40
0.2241950928673439
 40
0.2801314559428457
 40
0.3362668576143549
 40
0.3923990834791262
 40
0.4483309786445635
 40
0.5043514888964316
 40
0.5605870564292256
 40
0.6168115787240626
 40
0.6728167219972856
 40
0.7267591177802325
 40
0.780917582172105
 40
0.8350656992036103
 40
0.888994047270883
 40
0.9444971988307875
 40
1.0
 40
1.0
 40
1.0
 40
1.0
 10
255.0952960677317
 20
71.80964692853503
 30
0.0
 10
255.6038247371804
 20
71.7965099779973
 30
0.0
 10
256.6227142809866
 20
71.77018874510615
 30
0.0
 10
258.1360731974378
 20
71.56222935331336
 30
0.0
 10
259.6247573894275
 20
71.23547467925262
 30
0.0
 10
261.076258289368
 20
70.7796525704641
 30
0.0
 10
262.4810802280974
 20
70.1978856437545
 30
0.0
 10
263.8324626381698
 20
69.49577008615165
 30
0.0
 10
265.1202281547405
 20
68.67937915556868
 30
0.0
 10
266.3342018639219
 20
67.75337074236984
 30
0.0
 10
267.4644816519891
 20
66.71919773724916
 30
0.0
 10
268.5055562430485
 20
65.58478179060126
 30
0.0
 10
269.4478782986921
 20
64.35993758991066
 30
0.0
 10
270.2712371473655
 20
63.06951133427358
 30
0.0
 10
270.9701982831548
 20
61.72203738868887
 30
0.0
 10
271.5471661563263
 20
60.33052666323141
 30
0.0
 10
272.0067632559062
 20
58.89047979216133
 30
0.0
 10
272.3419206976008
 20
57.39970849843706
 30
0.0
 10
272.5547906343478
 20
55.8689137159491
 30
0.0
 10
272.5817930929219
 20
54.82940013916298
 30
0.0
 10
272.5952942795924
 20
54.30964499138408
 30
0.0
  0
SPLINE
  5
160
330
1F
100
AcDbEntity
  8
0
  6
Continuous
 62
     7
370
    25
100
AcDbSpline
210
0.0
220
0.0
230
1.0
 70
     8
 71
     3
 72
    27
 73
    23
 74
     0
 42
0.000000001
 43
0.00000001
 40
0.0
 40
0.0
 40
0.0
 40
0.0
 40
0.0260523981924234
 40
0.0755191929974339
 40
0.1251615733324573
 40
0.1748089011295914
 40
0.2242825576610259
 40
0.2739814614454557
 40
0.3238429188341783
 40
0.3737125661701955
 40
0.4234226577469
 40
0.4754892319263061
 40
0.5277241179971568
 40
0.5799652696254947
 40
0.6320403852824859
 40
0.6868939453224402
 40
0.7419347633777928
 40
0.79697600499464
 40
0.8518302994606319
 40
0.9011980249567325
 40
0.9506339793255719
 40
1.0
 40
1.0
 40
1.0
 40
1.0
 10
162.5952948756388
 20
54.30964499138408
 30
0.0
 10
162.5983424571656
 20
54.55355565460762
 30
0.0
 10
162.6071766111577
 20
55.26058985215293
 30
0.0
 10
162.7075099888996
 20
56.42934043969453
 30
0.0
 10
162.9304828274863
 20
57.80290292728655
 30
0.0
 10
163.2607457153466
 20
59.15214576236399
 30
0.0
 10
163.6948006727171
 20
60.46824281451313
 30
0.0
 10
164.2330706649974
 20
61.74247381421979
 30
0.0
 10
164.8690876207576
 20
62.96934133191117
 30
0.0
 10
165.5958602671615
 20
64.13894081276462
 30
0.0
 10
166.4207051399352
 20
65.26056925140186
 30
0.0
 10
167.3453265030138
 20
66.32377441853122
 30
0.0
 10
168.3663056404855
 20
67.32133665502879
 30
0.0
 10
169.4611687967522
 20
68.2311768620548
 30
0.0
 10
170.6427770824323
 20
69.06159382502646
 30
0.0
 10
171.9106007527262
 20
69.8006016475419
 30
0.0
 10
173.2594740129195
 20
70.44045209698204
 30
0.0
 10
174.6570731315884
 20
70.9644274747639
 30
0.0
 10
176.0454655453213
 20
71.35492531761786
 30
0.0
 10
177.412634356591
 20
71.61855292197886
 30
0.0
 10
178.7483512540192
 20
71.77938040247783
 30
0.0
 10
179.6465243903408
 20
71.79956284834049
 30
0.0
 10
180.0952930874995
 20
71.80964692853503
 30
0.0
  0
LINE
  5
161
330
1F
100
AcDbEntity
  8
0
  6
Continuous
 62
     7
370
    25
100
AcDbLine
 10
162.5952948756
 20
44.3096470775
 30
0.0
 11
162.5952948756
 21
54.3096449914
 31
0.0
  0
LINE
  5
162
330
1F
100
AcDbEntity
  8
0
  6
Continuous
 62
     7
370
    25
100
AcDbLine
 10
98.3230476208
 20
44.3096470775
 30
0.0
 11
162.5952948756
 21
44.3096470775
 31
0.0
  0
SPLINE
  5
163
330
1F
100
AcDbEntity
  8
0
  6
Continuous
 62
     7
370
    25
100
AcDbSpline
210
0.0
220
0.0
230
1.0
 70
     8
 71
     3
 72
    10
 73
     6
 74
     0
 42
0.000000001
 43
0.00000001
 40
0.0
 40
0.0
 40
0.0
 40
0.0
 40
0.413723173616445
 40
0.9941859219481125
 40
1.0
 40
1.0
 40
1.0
 40
1.0
 10
70.244774682062
 20
64.86362710021548
 30
0.0
 10
70.32041689036589
 20
65.13266413487642
 30
0.0
 10
70.50218678723542
 20
65.77916606998568
 30
0.0
 10
70.71584990444549
 20
66.36701934161496
 30
0.0
 10
70.84307610794188
 20
66.70596091193725
 30
0.0
 10
70.84433780385766
 20
66.70932217858844
 30
0.0
  0
LINE
  5
164
330
1F
100
AcDbEntity
  8
0
  6
Continuous
 62
     7
370
    25
100
AcDbLine
 10
272.5952942796
 20
44.3096470775
 30
0.0
 11
242.0018357165
 21
44.3096470775
 31
0.0
  0
LINE
  5
165
330
1F
100
AcDbEntity
  8
0
  6
Continuous
 62
     7
370
    25
100
AcDbLine
 10
242.0018357165
 20
44.3096470775
 30
0.0
 11
242.0018357165
 21
54.5800861659
 31
0.0
  0
SPLINE
  5
166
330
1F
100
AcDbEntity
  8
0
  6
Continuous
 62
     7
370
    25
100
AcDbSpline
210
0.0
220
0.0
230
1.0
 70
     8
 71
     3
 72
    17
 73
    13
 74
     0
 42
0.000000001
 43
0.00000001
 40
0.0
 40
0.0
 40
0.0
 40
0.0
 40
0.1117032441231462
 40
0.2234031881486464
 40
0.3351726511260552
 40
0.4469268716056403
 40
0.5572186036886466
 40
0.6674909897806436
 40
0.774309873267333
 40
0.8811174276270652
 40
0.9405587728952135
 40
1.0
 40
1.0
 40
1.0
 40
1.0
 10
236.9146649666003
 20
59.55579250477366
 30
0.0
 10
237.208039348029
 20
59.54116367350731
 30
0.0
 10
237.7947794435991
 20
59.51190644316057
 30
0.0
 10
238.6500685078234
 20
59.28292272051783
 30
0.0
 10
239.4548439151733
 20
58.92008660019149
 30
0.0
 10
240.1846376928693
 20
58.42603663099239
 30
0.0
 10
240.81432577567
 20
57.81397146570083
 30
0.0
 10
241.3241133685087
 20
57.11290097789998
 30
0.0
 10
241.6990137440854
 20
56.34001645108144
 30
0.0
 10
241.8994762874578
 20
55.64324065328002
 30
0.0
 10
241.9884978849644
 20
55.05188629083524
 30
0.0
 10
241.9973897756028
 20
54.73735276999567
 30
0.0
 10
242.001835716503
 20
54.58008616589122
 30
0.0
  0
LINE
  5
167
330
1F
100
AcDbEntity
  8
0
  6
Continuous
 62
     7
370
    25
100
AcDbLine
 10
236.9146649666
 20
59.5557925048
 30
0.0
 11
198.2759241886
 21
59.5557925048
 31
0.0
  0
SPLINE
  5
168
330
1F
100
AcDbEntity
  8
0
  6
Continuous
 62
     7
370
    25
100
AcDbSpline
210
0.0
220
0.0
230
1.0
 70
     8
 71
     3
 72
    17
 73
    13
 74
     0
 42
0.000000001
 43
0.00000001
 40
0.0
 40
0.0
 40
0.0
 40
0.0
 40
0.1031014336908288
 40
0.2062076894908194
 40
0.3092427893833258
 40
0.4122914770654519
 40
0.5167382731411994
 40
0.6211999815271616
 40
0.7289972183946566
 40
0.8368046122766909
 40
0.9184019906667821
 40
1.0
 40
1.0
 40
1.0
 40
1.0
 10
193.1887534387282
 20
54.58008616589122
 30
0.0
 10
193.2023071344535
 20
54.85306124216355
 30
0.0
 10
193.2294151598178
 20
55.39902416189852
 30
0.0
 10
193.4404841946511
 20
56.19471090436262
 30
0.0
 10
193.7730740619782
 20
56.94323225728073
 30
0.0
 10
194.2259008121391
 20
57.62975515121155
 30
0.0
 10
194.7880611824149
 20
58.23283357249414
 30
0.0
 10
195.448402441928
 20
58.74502168218854
 30
0.0
 10
196.1919149313385
 20
59.14458595864355
 30
0.0
 10
196.9327212295572
 20
59.39703149357639
 30
0.0
 10
197.6331914509948
 20
59.5325714544496
 30
0.0
 10
198.061679390548
 20
59.54805213471526
 30
0.0
 10
198.2759241886309
 20
59.55579250477366
 30
0.0
  0
LINE
  5
169
330
1F
100
AcDbEntity
  8
0
  6
Continuous
 62
     7
370
    25
100
AcDbLine
 10
193.1887534387
 20
54.5800861659
 30
0.0
 11
193.1887534387
 21
44.3096470775
 31
0.0
  0
LINE
  5
16A
330
1F
100
AcDbEntity
  8
0
  6
Continuous
 62
     7
370
    25
100
AcDbLine
 10
193.1887534387
 20
44.3096470775
 30
0.0
 11
162.5952948756
 21
44.3096470775
 31
0.0
  0
LINE
  5
16B
330
1F
100
AcDbEntity
  8
0
  6
Continuous
 62
     7
370
    25
100
AcDbLine
 10
380.420029623
 20
44.3096470775
 30
0.0
 11
370.6139777727
 21
44.3096470775
 31
0.0
  0
LINE
  5
16C
330
1F
100
AcDbEntity
  8
0
  6
Continuous
 62
     7
370
    25
100
AcDbLine
 10
64.5766113825
 20
44.3096470775
 30
0.0
 11
54.7705595322
 21
44.3096470775
 31
0.0
  0
LINE
  5
16D
330
1F
100
AcDbEntity
  8
0
  6
Continuous
 62
     7
370
    25
100
AcDbLine
 10
370.6139777727
 20
44.3096470775
 30
0.0
 11
342.6486109324
 21
44.3096470775
 31
0.0
  0
LINE
  5
16E
330
1F
100
AcDbEntity
  8
0
  6
Continuous
 62
     7
370
    25
100
AcDbLine
 10
92.5419782229
 20
44.3096470775
 30
0.0
 11
64.5766113825
 21
44.3096470775
 31
0.0
  0
LINE
  5
16F
330
1F
100
AcDbEntity
  8
0
  6
Continuous
 62
     7
370
    25
100
AcDbLine
 10
395.8103810377
 20
44.3096470775
 30
0.0
 11
380.420029623
 21
44.3096470775
 31
0.0
  0
SPLINE
  5
170
330
1F
100
AcDbEntity
  8
0
  6
Continuous
 62
     7
370
    25
100
AcDbSpline
210
0.0
220
0.0
230
1.0
 70
     8
 71
     3
 72
    11
 73
     7
 74
     0
 42
0.000000001
 43
0.00000001
 40
0.0
 40
0.0
 40
0.0
 40
0.0
 40
0.3009844014790373
 40
0.6106881477565039
 40
0.8042185518582495
 40
1.0
 40
1.0
 40
1.0
 40
1.0
 10
378.0688797063998
 20
61.10826625846438
 30
0.0
 10
378.3093910906234
 20
61.0893874324987
 30
0.0
 10
378.797381335381
 20
61.05108287184985
 30
0.0
 10
379.4187448897658
 20
60.84194390963999
 30
0.0
 10
379.9333837339306
 20
60.58823261529939
 30
0.0
 10
380.2002583155439
 20
60.40286793819849
 30
0.0
 10
380.3344671554736
 20
60.30964970015101
 30
0.0
  0
LINE
  5
171
330
1F
100
AcDbEntity
  8
0
  6
Continuous
 62
     7
370
    25
100
AcDbLine
 10
380.3344671555
 20
60.3096497002
 30
0.0
 11
392.3344616718
 21
60.3096497002
 31
0.0
  0
SPLINE
  5
172
330
1F
100
AcDbEntity
  8
0
  6
Continuous
 62
     7
370
    25
100
AcDbSpline
210
0.0
220
0.0
230
1.0
 70
     8
 71
     3
 72
    11
 73
     7
 74
     0
 42
0.000000001
 43
0.00000001
 40
0.0
 40
0.0
 40
0.0
 40
0.0
 40
0.300972626722945
 40
0.6106794857671605
 40
0.8042156884238878
 40
1.0
 40
1.0
 40
1.0
 40
1.0
 10
392.3344616718463
 20
60.30964970015101
 30
0.0
 10
392.1258418201211
 20
60.44910810141047
 30
0.0
 10
391.702547963934
 20
60.73207198983557
 30
0.0
 10
391.0859442236006
 20
60.95923720593502
 30
0.0
 10
390.536324907326
 20
61.08063236986649
 30
0.0
 10
390.2252898023988
 20
61.09901957032121
 30
0.0
 10
390.0688742227725
 20
61.10826625846438
 30
0.0
  0
LINE
  5
173
330
1F
100
AcDbEntity
  8
0
  6
Continuous
 62
     7
370
    25
100
AcDbLine
 10
54.7705595322
 20
44.3096470775
 30
0.0
 11
39.3802081175
 21
44.3096470775
 31
0.0
  0
SPLINE
  5
174
330
1F
100
AcDbEntity
  8
0
  6
Continuous
 62
     7
370
    25
100
AcDbSpline
210
0.0
220
0.0
230
1.0
 70
     8
 71
     3
 72
    11
 73
     7
 74
     0
 42
0.000000001
 43
0.00000001
 40
0.0
 40
0.0
 40
0.0
 40
0.0
 40
0.3009844014790373
 40
0.6106881477565039
 40
0.8042185518582495
 40
1.0
 40
1.0
 40
1.0
 40
1.0
 10
45.12171493245873
 20
61.10826625846438
 30
0.0
 10
44.88120354823499
 20
61.0893874324987
 30
0.0
 10
44.39321330347748
 20
61.05108287184985
 30
0.0
 10
43.77184974909268
 20
60.84194390963999
 30
0.0
 10
43.25721090492782
 20
60.58823261529939
 30
0.0
 10
42.99033632331456
 20
60.40286793819849
 30
0.0
 10
42.85612748338494
 20
60.30964970015101
 30
0.0
  0
LINE
  5
175
330
1F
100
AcDbEntity
  8
0
  6
Continuous
 62
     7
370
    25
100
AcDbLine
 10
42.8561274834
 20
60.3096497002
 30
0.0
 11
54.8561219998
 21
60.3096497002
 31
0.0
  0
SPLINE
  5
176
330
1F
100
AcDbEntity
  8
0
  6
Continuous
 62
     7
370
    25
100
AcDbSpline
210
0.0
220
0.0
230
1.0
 70
     8
 71
     3
 72
    11
 73
     7
 74
     0
 42
0.000000001
 43
0.00000001
 40
0.0
 40
0.0
 40
0.0
 40
0.0
 40
0.3009720192745521
 40
0.6106795031648896
 40
0.8042156971729835
 40
1.0
 40
1.0
 40
1.0
 40
1.0
 10
54.85612199975762
 20
60.30964970015101
 30
0.0
 10
55.06474214529592
 20
60.44910819895227
 30
0.0
 10
55.4880374640255
 20
60.73207286445628
 30
0.0
 10
56.10463858284528
 20
60.95923691787269
 30
0.0
 10
56.65425883786973
 20
61.08063240578149
 30
0.0
 10
56.96529389382993
 20
61.0990195823389
 30
0.0
 10
57.12170944883141
 20
61.10826625846438
 30
0.0
  0
LINE
  5
177
330
1F
100
AcDbEntity
  8
0
  6
Continuous
 62
     7
370
    25
100
AcDbLine
 10
390.0688742228
 20
61.1082662585
 30
0.0
 11
377.3148064442
 21
61.4061628225
 31
0.0
  0
SPLINE
  5
178
330
1F
100
AcDbEntity
  8
0
  6
Continuous
 62
     7
370
    25
100
AcDbSpline
210
0.0
220
0.0
230
1.0
 70
     8
 71
     3
 72
    35
 73
    31
 74
     0
 42
0.000000001
 43
0.00000001
 40
0.0
 40
0.0
 40
0.0
 40
0.0
 40
0.0357654395591198
 40
0.0716447828255987
 40
0.1074100693583605
 40
0.1431772014454647
 40
0.1790587987935776
 40
0.2148263533603273
 40
0.2505908367036178
 40
0.2864694501242928
 40
0.3222341037829742
 40
0.3579911977272042
 40
0.3938627349807146
 40
0.4296199474136734
 40
0.4653695549131231
 40
0.5012334237858266
 40
0.5369831396158267
 40
0.5727287856903663
 40
0.6085886055146904
 40
0.6443343164902721
 40
0.6800819186368519
 40
0.7159435197026127
 40
0.7516911922803892
 40
0.7874453359274051
 40
0.8233135119679279
 40
0.8590675961158101
 40
0.8948295798032917
 40
0.9307057686195548
 40
0.9664679369171131
 40
1.0
 40
1.0
 40
1.0
 40
1.0
 10
377.3148064441851
 20
61.40616282247119
 30
0.0
 10
376.9181664742681
 20
61.41527239910188
 30
0.0
 10
376.1236233383539
 20
61.43352056401707
 30
0.0
 10
374.851867272538
 20
61.46078862073468
 30
0.0
 10
373.5412247594186
 20
61.487561086631
 30
0.0
 10
372.2002356814539
 20
61.51348252267002
 30
0.0
 10
370.8488313660078
 20
61.53821675032464
 30
0.0
 10
369.5028518046601
 20
61.56143600175329
 30
0.0
 10
368.1803554093058
 20
61.58275277013411
 30
0.0
 10
366.8972783761408
 20
61.60191920841718
 30
0.0
 10
365.6691416465069
 20
61.61867023832618
 30
0.0
 10
364.5141139439691
 20
61.63264981984079
 30
0.0
 10
363.4442697006965
 20
61.64375660075363
 30
0.0
 10
362.4725109776177
 20
61.65181716914348
 30
0.0
 10
361.6151955857983
 20
61.65660018456634
 30
0.0
 10
360.8791247931524
 20
61.6581354374299
 30
0.0
 10
360.2731657920083
 20
61.65642347410807
 30
0.0
 10
359.8100280464316
 20
61.65133746294438
 30
0.0
 10
359.4904956327464
 20
61.64311364904074
 30
0.0
 10
359.3184726482583
 20
61.63184644682848
 30
0.0
 10
359.3015019474809
 20
61.61761322787163
 30
0.0
 10
359.4344342402956
 20
61.60073874309718
 30
0.0
 10
359.7156058063169
 20
61.58145204549192
 30
0.0
 10
360.1467868493687
 20
61.55996744502107
 30
0.0
 10
360.7172139760538
 20
61.53667210409252
 30
0.0
 10
361.4201388979392
 20
61.51186792484273
 30
0.0
 10
362.2507392019241
 20
61.48586478222351
 30
0.0
 10
363.1956742655561
 20
61.45906957417169
 30
0.0
 10
364.215595317716
 20
61.43234198155847
 30
0.0
 10
364.9563429829924
 20
61.4146999502414
 30
0.0
 10
365.3147970266513
 20
61.40616282247119
 30
0.0
  0
LINE
  5
179
330
1F
100
AcDbEntity
  8
0
  6
Continuous
 62
     7
370
    25
100
AcDbLine
 10
365.3147970267
 20
61.4061628225
 30
0.0
 11
378.0688797064
 21
61.1082662585
 31
0.0
  0
LINE
  5
17A
330
1F
100
AcDbEntity
  8
0
  6
Continuous
 62
     7
370
    25
100
AcDbLine
 10
57.1217094488
 20
61.1082662585
 30
0.0
 11
69.8757921286
 21
61.4061628225
 31
0.0
  0
SPLINE
  5
17B
330
1F
100
AcDbEntity
  8
0
  6
Continuous
 62
     7
370
    25
100
AcDbSpline
210
0.0
220
0.0
230
1.0
 70
     8
 71
     3
 72
    14
 73
    10
 74
     0
 42
0.000000001
 43
0.00000001
 40
0.0
 40
0.0
 40
0.0
 40
0.0
 40
0.1604927553003198
 40
0.321499248756301
 40
0.481993166669396
 40
0.6425030160377594
 40
0.8035261760357639
 40
0.9640362166469518
 40
1.0
 40
1.0
 40
1.0
 40
1.0
 10
69.87579212857995
 20
61.40616282247119
 30
0.0
 10
70.25743698573406
 20
61.41527071104694
 30
0.0
 10
71.02194834724155
 20
61.43351564259772
 30
0.0
 10
72.0580887291472
 20
61.46078693600215
 30
0.0
 10
72.99704669544214
 20
61.48755069634215
 30
0.0
 10
73.81978119086988
 20
61.51350633151581
 30
0.0
 10
74.50647673515803
 20
61.53810954305538
 30
0.0
 10
74.95094208229786
 20
61.55569194807362
 30
0.0
 10
75.11675608339216
 20
61.56430443574168
 30
0.0
 10
75.14710770322594
 20
61.56588091872744
 30
0.0
  0
SPLINE
  5
17C
330
1F
100
AcDbEntity
  8
0
  6
Continuous
 62
     7
370
    25
100
AcDbSpline
210
0.0
220
0.0
230
1.0
 70
     8
 71
     3
 72
    23
 73
    19
 74
     0
 42
0.000000001
 43
0.00000001
 40
0.0
 40
0.0
 40
0.0
 40
0.0
 40
0.0337412554576718
 40
0.0985584555460266
 40
0.1631698880599137
 40
0.2277740265305536
 40
0.2925843741844175
 40
0.3571882094443877
 40
0.4217959162427375
 40
0.4866090564510569
 40
0.5512171813581005
 40
0.6158365167780147
 40
0.680661610486682
 40
0.7452813481980692
 40
0.8099146894946007
 40
0.87475436741548
 40
0.9393878751104078
 40
1.0
 40
1.0
 40
1.0
 40
1.0
 10
75.10472880079064
 20
61.65355562590175
 30
0.0
 10
75.02586361929114
 20
61.6544726974724
 30
0.0
 10
74.79549784364004
 20
61.65715147028045
 30
0.0
 10
74.26185618769296
 20
61.65803309169163
 30
0.0
 10
73.52443372188827
 20
61.6564491665389
 30
0.0
 10
72.65509887062102
 20
61.65133685319296
 30
0.0
 10
71.67839270255433
 20
61.64311269339148
 30
0.0
 10
70.60362096033593
 20
61.63185093821746
 30
0.0
 10
69.44199262232503
 20
61.61761841667959
 30
0.0
 10
68.21115591873588
 20
61.60073605562499
 30
0.0
 10
66.92591601641159
 20
61.58145711845769
 30
0.0
 10
65.60119487441216
 20
61.55997249085321
 30
0.0
 10
64.25515789296024
 20
61.53666940199298
 30
0.0
 10
62.90412112626969
 20
61.51187307249572
 30
0.0
 10
61.56520878495189
 20
61.48586975714304
 30
0.0
 10
60.25670643909656
 20
61.45906702729103
 30
0.0
 10
59.01431959291667
 20
61.43234584542331
 30
0.0
 10
58.24708354138649
 20
61.41470165710866
 30
0.0
 10
57.87578271104607
 20
61.40616282247119
 30
0.0
  0
LINE
  5
17D
330
1F
100
AcDbEntity
  8
0
  6
Continuous
 62
     7
370
    25
100
AcDbLine
 10
57.875782711
 20
61.4061628225
 30
0.0
 11
45.1217149325
 21
61.1082662585
 31
0.0
  0
LWPOLYLINE
  5
17E
330
1F
100
AcDbEntity
  8
0
  6
Continuous
 62
     7
370
    25
100
AcDbPolyline
 90
        3
 70
   128
 43
0.0
 10
67.2564809151
 20
61.7103476765
 10
59.2035804815
 20
61.5131233575
 10
44.7292630501
 20
61.1572128477
  0
LINE
  5
17F
330
1F
100
AcDbEntity
  8
0
  6
Continuous
 62
     7
370
    25
100
AcDbLine
 10
342.6486109324
 20
44.3096470775
 30
0.0
 11
336.8675415344
 21
44.3096470775
 31
0.0
  0
LINE
  5
180
330
1F
100
AcDbEntity
  8
0
  6
Continuous
 62
     7
370
    25
100
AcDbLine
 10
98.3230476208
 20
44.3096470775
 30
0.0
 11
92.5419782229
 21
44.3096470775
 31
0.0
  0
LINE
  5
181
330
1F
100
AcDbEntity
  8
0
  6
Continuous
 62
     7
370
    25
100
AcDbLine
 10
396.591544611
 20
44.3096470775
 30
0.0
 11
395.8103810377
 21
44.3096470775
 31
0.0
  0
LINE
  5
182
330
1F
100
AcDbEntity
  8
0
  6
Continuous
 62
     7
370
    25
100
AcDbLine
 10
44.7029326983
 20
61.1568328681
 30
0.0
 11
44.7292630501
 21
61.1572128477
 31
0.0
  0
LINE
  5
183
330
1F
100
AcDbEntity
  8
0
  6
Continuous
 62
     7
370
    25
100
AcDbLine
 10
39.3802081175
 20
44.3096470775
 30
0.0
 11
38.5990445442
 21
44.3096470775
 31
0.0
  0
LINE
  5
184
330
1F
100
AcDbEntity
  8
0
  6
Continuous
 62
     7
370
    25
100
AcDbLine
 10
237.9635726042
 20
44.3096470775
 30
0.0
 11
242.0018357165
 21
44.3096470775
 31
0.0
  0
LINE
  5
185
330
1F
100
AcDbEntity
  8
0
  6
Continuous
 62
     7
370
    25
100
AcDbLine
 10
193.1887534387
 20
44.3096470775
 30
0.0
 11
197.227016551
 21
44.3096470775
 31
0.0
  0
SPLINE
  5
186
330
1F
100
AcDbEntity
  8
0
  6
Continuous
 62
     7
370
    25
100
AcDbSpline
210
0.0
220
0.0
230
1.0
 70
     8
 71
     3
 72
    44
 73
    40
 74
     0
 42
0.000000001
 43
0.00000001
 40
0.0
 40
0.0
 40
0.0
 40
0.0
 40
0.0268053554186061
 40
0.0537061958051576
 40
0.0806071892583428
 40
0.1074126775979543
 40
0.1342190234577061
 40
0.1611212792794117
 40
0.1880234511970676
 40
0.2148298507230609
 40
0.2416342680938106
 40
0.2685344683397625
 40
0.2954345522068113
 40
0.3222390414164911
 40
0.3490377514844586
 40
0.3759323961742623
 40
0.4028270557924443
 40
0.4296259320264513
 40
0.4564189525309266
 40
0.4833077447105467
 40
0.5101965273965354
 40
0.5369895342250303
 40
0.5637794730747941
 40
0.5906651992277246
 40
0.6175508319373789
 40
0.6443408616176076
 40
0.6711322884295757
 40
0.69801940511222
 40
0.7249064285272696
 40
0.7516978221504724
 40
0.7784943118034569
 40
0.8053864855892133
 40
0.832278881296332
 40
0.8590751942425522
 40
0.8858776564902949
 40
0.9127759429067259
 40
0.939674102653053
 40
0.9664768150272462
 40
1.0
 40
1.0
 40
1.0
 40
1.0
 10
231.8952945001296
 20
59.10224586151652
 30
0.0
 10
231.8852717166232
 20
59.11037266866992
 30
0.0
 10
231.8651904468508
 20
59.12665523196497
 30
0.0
 10
231.7061202772963
 20
59.15112570388109
 30
0.0
 10
231.4555599232976
 20
59.17539371770519
 30
0.0
 10
231.1052600648267
 20
59.19929501589605
 30
0.0
 10
230.6570903742799
 20
59.22262902443068
 30
0.0
 10
230.1158430959165
 20
59.24528071418261
 30
0.0
 10
229.4867739598739
 20
59.267047624116
 30
0.0
 10
228.7742742776379
 20
59.28772909639513
 30
0.0
 10
227.9803685675603
 20
59.30714773120393
 30
0.0
 10
227.1121246582272
 20
59.32518109097823
 30
0.0
 10
226.1770823196188
 20
59.34170245195936
 30
0.0
 10
225.1824111894799
 20
59.35651368984074
 30
0.0
 10
224.1325142783931
 20
59.36947177692512
 30
0.0
 10
223.0353265152166
 20
59.38049692186964
 30
0.0
 10
221.8999601737405
 20
59.38954742994995
 30
0.0
 10
220.7354298686678
 20
59.39647619270255
 30
0.0
 10
219.5481105140481
 20
59.40116744226642
 30
0.0
 10
218.3458112331741
 20
59.40367212257047
 30
0.0
 10
217.1382463654681
 20
59.4039555368131
 30
0.0
 10
215.9352268538694
 20
59.40202025606095
 30
0.0
 10
214.7443379448446
 20
59.39780149494639
 30
0.0
 10
213.5724232242088
 20
59.39140162181433
 30
0.0
 10
212.4287076755083
 20
59.38291084806357
 30
0.0
 10
211.3226989404316
 20
59.37238817475166
 30
0.0
 10
210.2623253284965
 20
59.35985507004343
 30
0.0
 10
209.2527000766671
 20
59.34547880525928
 30
0.0
 10
208.3015665319514
 20
59.32939820635041
 30
0.0
 10
207.4170474577889
 20
59.31176367024654
 30
0.0
 10
206.6065632610116
 20
59.29264380630411
 30
0.0
 10
205.8729110440321
 20
59.27225063088659
 30
0.0
 10
205.2214863674598
 20
59.25075635063553
 30
0.0
 10
204.6580888610384
 20
59.2283376849056
 30
0.0
 10
204.188987090097
 20
59.20515685004202
 30
0.0
 10
203.8136813217703
 20
59.18135491170323
 30
0.0
 10
203.5370806463131
 20
59.15715854930711
 30
0.0
 10
203.337132775991
 20
59.13071238402615
 30
0.0
 10
203.3102393624
 20
59.11241419216007
 30
0.0
 10
203.2952946551016
 20
59.10224586151652
 30
0.0
  0
LINE
  5
187
330
1F
100
AcDbEntity
  8
0
  6
Continuous
 62
     7
370
    25
100
AcDbLine
 10
203.2952946551
 20
58.0096480193
 30
0.0
 11
231.8952945001
 21
58.0096480193
 31
0.0
  0
LINE
  5
188
330
1F
100
AcDbEntity
  8
0
  6
Continuous
 62
     7
370
    25
100
AcDbLine
 10
203.2952946551
 20
58.0096480193
 30
0.0
 11
203.2952946551
 21
59.1022458615
 31
0.0
  0
LINE
  5
189
330
1F
100
AcDbEntity
  8
0
  6
Continuous
 62
     7
370
    25
100
AcDbLine
 10
231.8952945001
 20
58.0096480193
 30
0.0
 11
231.8952945001
 21
59.1022458615
 31
0.0
  0
LINE
  5
18A
330
1F
100
AcDbEntity
  8
0
  6
Continuous
 62
     7
370
    25
100
AcDbLine
 10
237.9635726042
 20
44.3096470775
 30
0.0
 11
233.3989483245
 21
44.3096470775
 31
0.0
  0
LINE
  5
18B
330
1F
100
AcDbEntity
  8
0
  6
Continuous
 62
     7
370
    25
100
AcDbLine
 10
201.7916408308
 20
44.3096470775
 30
0.0
 11
197.227016551
 21
44.3096470775
 31
0.0
  0
LINE
  5
18C
330
1F
100
AcDbEntity
  8
0
  6
Continuous
 62
     7
370
    25
100
AcDbLine
 10
201.7916408308
 20
44.3096470775
 30
0.0
 11
233.3989483245
 21
44.3096470775
 31
0.0
  0
LINE
  5
18D
330
1F
100
AcDbEntity
  8
0
  6
Continuous
 62
     7
370
    25
100
AcDbLine
 10
374.2670123406
 20
156.3096468093
 30
0.0
 11
374.1952930517
 21
155.968320811
 31
0.0
  0
SPLINE
  5
18E
330
1F
100
AcDbEntity
  8
0
  6
Continuous
 62
     7
370
    25
100
AcDbSpline
210
0.0
220
0.0
230
1.0
 70
     8
 71
     3
 72
    11
 73
     7
 74
     0
 42
0.000000001
 43
0.00000001
 40
0.0
 40
0.0
 40
0.0
 40
0.0
 40
0.2491821370028915
 40
0.4983639540833915
 40
0.7491825238243391
 40
1.0
 40
1.0
 40
1.0
 40
1.0
 10
374.1952930517367
 20
155.9683208110195
 30
0.0
 10
374.028890651004
 20
155.5684729161974
 30
0.0
 10
373.6960860631808
 20
154.7687776399138
 30
0.0
 10
373.1588904582089
 20
153.4452655274777
 30
0.0
 10
372.5988134007648
 20
152.0386884767537
 30
0.0
 10
372.206554310447
 20
151.0192239175748
 30
0.0
 10
372.01042519285
 20
150.5094927492004
 30
0.0
  0
SPLINE
  5
18F
330
1F
100
AcDbEntity
  8
0
  6
Continuous
 62
     7
370
    25
100
AcDbSpline
210
0.0
220
0.0
230
1.0
 70
     8
 71
     3
 72
    27
 73
    23
 74
     0
 42
0.000000001
 43
0.00000001
 40
0.0
 40
0.0
 40
0.0
 40
0.0
 40
0.0264726947049113
 40
0.0778014417154168
 40
0.1293515236471609
 40
0.1808734622784435
 40
0.2321633793528897
 40
0.2786714038910413
 40
0.3253951466933386
 40
0.3720972767159232
 40
0.4185757000902715
 40
0.4727728071830373
 40
0.527164803020596
 40
0.5813619688110891
 40
0.6323749672735174
 40
0.683545607968582
 40
0.7345779322977892
 40
0.7878766519478448
 40
0.8413243179281785
 40
0.8946471393522465
 40
0.947321406552868
 40
1.0
 40
1.0
 40
1.0
 40
1.0
 10
372.01042519285
 20
150.5094927492004
 30
0.0
 10
371.9673974562804
 20
150.3938553938731
 30
0.0
 10
371.8409418771946
 20
150.0540051043234
 30
0.0
 10
371.6381084799393
 20
149.423870090125
 30
0.0
 10
371.4093336885568
 20
148.5950438559065
 30
0.0
 10
371.1979570136883
 20
147.6893215338817
 30
0.0
 10
371.0140070154241
 20
146.7444219833181
 30
0.0
 10
370.8594917199966
 20
145.7703369325435
 30
0.0
 10
370.7337313808573
 20
144.7808680372332
 30
0.0
 10
370.6339394378324
 20
143.7534465015646
 30
0.0
 10
370.5590371827432
 20
142.6395797310831
 30
0.0
 10
370.5186428041844
 20
141.4428242034062
 30
0.0
 10
370.5186015489801
 20
140.1780700025112
 30
0.0
 10
370.5601639752466
 20
138.9463583764175
 30
0.0
 10
370.6411794498215
 20
137.765290457556
 30
0.0
 10
370.7544431556527
 20
136.6448956860499
 30
0.0
 10
370.9009310997897
 20
135.5565172595564
 30
0.0
 10
371.0794371287065
 20
134.5152280728739
 30
0.0
 10
371.2858869666491
 20
133.5305726505706
 30
0.0
 10
371.5127668358323
 20
132.6304034110094
 30
0.0
 10
371.7547142483633
 20
131.8129839842405
 30
0.0
 10
371.925185877919
 20
131.3442013746762
 30
0.0
 10
372.01042519285
 20
131.109800444768
 30
0.0
  0
SPLINE
  5
190
330
1F
100
AcDbEntity
  8
0
  6
Continuous
 62
     7
370
    25
100
AcDbSpline
210
0.0
220
0.0
230
1.0
 70
     8
 71
     3
 72
    11
 73
     7
 74
     0
 42
0.000000001
 43
0.00000001
 40
0.0
 40
0.0
 40
0.0
 40
0.0
 40
0.2491773977680581
 40
0.4983559290315901
 40
0.7491780737321264
 40
1.0
 40
1.0
 40
1.0
 40
1.0
 10
372.01042519285
 20
131.109800444768
 30
0.0
 10
372.2052814698442
 20
130.6033452455974
 30
0.0
 10
372.594994910224
 20
129.5904325434169
 30
0.0
 10
373.1540815990288
 20
128.1859759618115
 30
0.0
 10
373.6927572834481
 20
126.8585922587591
 30
0.0
 10
374.0277811776007
 20
126.0535128455812
 30
0.0
 10
374.1952930517367
 20
125.6509733142715
 30
0.0
  0
SPLINE
  5
191
330
1F
100
AcDbEntity
  8
0
  6
Continuous
 62
     7
370
    25
100
AcDbSpline
210
0.0
220
0.0
230
1.0
 70
     8
 71
     3
 72
    23
 73
    19
 74
     0
 42
0.000000001
 43
0.00000001
 40
0.0
 40
0.0
 40
0.0
 40
0.0
 40
0.0653493455456135
 40
0.1307291867486065
 40
0.1960751468869221
 40
0.262682138935721
 40
0.32932609358198
 40
0.3959286867287499
 40
0.4557403772112341
 40
0.5156173180036131
 40
0.5754896254820584
 40
0.6352951096319716
 40
0.6974678045192292
 40
0.7597237757415932
 40
0.8219762322445149
 40
0.8841441771018926
 40
0.9526735984807846
 40
1.0
 40
1.0
 40
1.0
 40
1.0
 10
374.1952930517367
 20
125.6509733142715
 30
0.0
 10
374.3003918655112
 20
125.1464389338236
 30
0.0
 10
374.5106385380415
 20
124.1371347289845
 30
0.0
 10
374.8185384076468
 20
122.7152318512706
 30
0.0
 10
375.1198828019373
 20
121.3571933692678
 30
0.0
 10
375.4116410236405
 20
120.0759728400259
 30
0.0
 10
375.6911051014915
 20
118.8760295253348
 30
0.0
 10
375.9450029017688
 20
117.808128825284
 30
0.0
 10
376.1728038810554
 20
116.8661557957104
 30
0.0
 10
376.3751738785181
 20
116.0416997615334
 30
0.0
 10
376.5587096527779
 20
115.3036427413403
 30
0.0
 10
376.7238941133036
 20
114.6469991582234
 30
0.0
 10
376.8679084825677
 20
114.079757055386
 30
0.0
 10
376.9886003205127
 20
113.6082685785575
 30
0.0
 10
377.0834790494717
 20
113.2404966675395
 30
0.0
 10
377.1521215642824
 20
112.9757952871631
 30
0.0
 10
377.1910061572272
 20
112.8259385393883
 30
0.0
 10
377.1913245644156
 20
112.8247445317946
 30
0.0
 10
377.1914546318225
 20
112.8242567869287
 30
0.0
  0
LINE
  5
192
330
1F
100
AcDbEntity
  8
0
  6
Continuous
 62
     7
370
    25
100
AcDbLine
 10
57.9952900238
 20
71.8096469285
 30
0.0
 11
377.1952991314
 21
71.8096469285
 31
0.0
  0
LINE
  5
193
330
1F
100
AcDbEntity
  8
0
  6
Continuous
 62
     7
370
    25
100
AcDbLine
 10
374.1952930517
 20
132.6038467454
 30
0.0
 11
374.1952930517
 21
149.0154464486
 31
0.0
  0
LINE
  5
194
330
1F
100
AcDbEntity
  8
0
  6
Continuous
 62
     7
370
    25
100
AcDbLine
 10
374.1952930517
 20
125.6509733143
 30
0.0
 11
374.1952930517
 21
132.6038467454
 31
0.0
  0
LINE
  5
195
330
1F
100
AcDbEntity
  8
0
  6
Continuous
 62
     7
370
    25
100
AcDbLine
 10
374.1952930517
 20
149.0154464486
 30
0.0
 11
374.1952930517
 21
155.968320811
 31
0.0
  0
LINE
  5
196
330
1F
100
AcDbEntity
  8
SLD-0
100
AcDbLine
 10
368.5027319802
 20
140.8096464355
 30
0.0
 11
405.7339043002
 21
140.8096464355
 31
0.0
  0
LINE
  5
197
330
1F
100
AcDbEntity
  8
0
  6
Continuous
 62
     7
370
    25
100
AcDbLine
 10
139.1660687394
 20
607.2472744222
 30
0.0
 11
139.1660687394
 21
606.0729362602
 31
0.0
  0
LINE
  5
198
330
1F
100
AcDbEntity
  8
0
  6
Continuous
 62
     7
370
    25
100
AcDbLine
 10
319.1660758919
 20
606.0686223741
 30
0.0
 11
319.1660758919
 21
607.2431542511
 31
0.0
  0
SPLINE
  5
199
330
1F
100
AcDbEntity
  8
0
  6
Continuous
 62
     7
370
    25
100
AcDbSpline
210
0.0
220
0.0
230
1.0
 70
     8
 71
     3
 72
    17
 73
    13
 74
     0
 42
0.000000001
 43
0.00000001
 40
0.0
 40
0.0
 40
0.0
 40
0.0
 40
0.0831961532587336
 40
0.2084349912248227
 40
0.3334792779321049
 40
0.4578576647949995
 40
0.5808802086673696
 40
0.7014215076774101
 40
0.8040885403309456
 40
0.8957933868751191
 40
0.9726865347445981
 40
1.0
 40
1.0
 40
1.0
 40
1.0
 10
53.94468874401739
 20
732.7294536466817
 30
0.0
 10
53.95056346900154
 20
732.6526780742403
 30
0.0
 10
53.96528167654554
 20
732.4603288472471
 30
0.0
 10
53.98482845085878
 20
732.1905330847333
 30
0.0
 10
54.00362694031519
 20
731.9165205414655
 30
0.0
 10
54.01837308329191
 20
731.6799127621297
 30
0.0
 10
54.02912897483539
 20
731.4808154669261
 30
0.0
 10
54.03555078677885
 20
731.328207109459
 30
0.0
 10
54.038227380793
 20
731.2201221755829
 30
0.0
 10
54.03855588070161
 20
731.1570866009823
 30
0.0
 10
54.03747508873352
 20
731.1269901421772
 30
0.0
 10
54.03765471149236
 20
731.1296673430093
 30
0.0
 10
54.03770179218939
 20
731.1303690607766
 30
0.0
  0
SPLINE
  5
19A
330
1F
100
AcDbEntity
  8
0
  6
Continuous
 62
     7
370
    25
100
AcDbSpline
210
0.0
220
0.0
230
1.0
 70
     8
 71
     3
 72
    17
 73
    13
 74
     0
 42
0.000000001
 43
0.00000001
 40
0.0
 40
0.0
 40
0.0
 40
0.0
 40
0.0419871387198678
 40
0.1163569104815056
 40
0.2052268323383528
 40
0.3070873324450689
 40
0.4189003684625754
 40
0.5374281555976642
 40
0.6601217264863142
 40
0.785270271117163
 40
0.9117841087911204
 40
1.0
 40
1.0
 40
1.0
 40
1.0
 10
54.03744847244909
 20
775.8199982876996
 30
0.0
 10
54.03746383819089
 20
775.8198192271908
 30
0.0
 10
54.03750642052188
 20
775.8193230055329
 30
0.0
 10
54.03837001942957
 20
775.7869702832282
 30
0.0
 10
54.0379991323594
 20
775.7236178906193
 30
0.0
 10
54.03537948548725
 20
775.620903335563
 30
0.0
 10
54.02945126685849
 20
775.4780240546133
 30
0.0
 10
54.01972429881513
 20
775.2937826053865
 30
0.0
 10
54.00604410701879
 20
775.0698989135169
 30
0.0
 10
53.98824141743078
 20
774.8065238830484
 30
0.0
 10
53.96921969439744
 20
774.5414581952131
 30
0.0
 10
53.9546520684715
 20
774.3499882816793
 30
0.0
 10
53.94866735405615
 20
774.2713280554036
 30
0.0
  0
SPLINE
  5
19B
330
1F
100
AcDbEntity
  8
0
  6
Continuous
 62
     7
370
    25
100
AcDbSpline
210
0.0
220
0.0
230
1.0
 70
     8
 71
     3
 72
    14
 73
    10
 74
     0
 42
0.000000001
 43
0.00000001
 40
0.0
 40
0.0
 40
0.0
 40
0.0
 40
0.0708978696609481
 40
0.2828182438872588
 40
0.4935288206347161
 40
0.6775214051327467
 40
0.8406948263915307
 40
0.9719921802267653
 40
1.0
 40
1.0
 40
1.0
 40
1.0
 10
104.9229544467419
 20
882.4804388518552
 30
0.0
 10
104.904906160524
 20
882.4642184471682
 30
0.0
 10
104.8329098560128
 20
882.399513733322
 30
0.0
 10
104.7311074476241
 20
882.3096073862282
 30
0.0
 10
104.6242130040948
 20
882.2163750343144
 30
0.0
 10
104.5487181983995
 20
882.1524055903363
 30
0.0
 10
104.5059511919465
 20
882.1171475163047
 30
0.0
 10
104.4860191159019
 20
882.101924674745
 30
0.0
 10
104.4891079718828
 20
882.1041634554106
 30
0.0
 10
104.4896510309665
 20
882.1045570607404
 30
0.0
  0
SPLINE
  5
19C
330
1F
100
AcDbEntity
  8
0
  6
Continuous
 62
     7
370
    25
100
AcDbSpline
210
0.0
220
0.0
230
1.0
 70
     8
 71
     3
 72
    14
 73
    10
 74
     0
 42
0.000000001
 43
0.00000001
 40
0.0
 40
0.0
 40
0.0
 40
0.0
 40
0.0657751963068359
 40
0.1931173466492095
 40
0.3494937916636291
 40
0.5305898055826395
 40
0.7285049074698051
 40
0.9358958764118283
 40
1.0
 40
1.0
 40
1.0
 40
1.0
 10
114.2757427758663
 20
890.915881895564
 30
0.0
 10
114.2757328565586
 20
890.9158702494528
 30
0.0
 10
114.2757037332645
 20
890.915836056228
 30
0.0
 10
114.2549609982113
 20
890.8944675691132
 30
0.0
 10
114.2121652268817
 20
890.8525920042179
 30
0.0
 10
114.1408388156662
 20
890.7847454721901
 30
0.0
 10
114.0383669859702
 20
890.6896701332093
 30
0.0
 10
113.9427971331167
 20
890.6020343241095
 30
0.0
 10
113.8737663902223
 20
890.5397585078488
 30
0.0
 10
113.857467181155
 20
890.5250542397717
 30
0.0
  0
LINE
  5
19D
330
1F
100
AcDbEntity
  8
0
  6
Continuous
 62
     7
370
    25
100
AcDbLine
 10
361.3024023241
 20
875.7118695016
 30
0.0
 11
364.1308364338
 21
879.2474084134
 31
0.0
  0
LINE
  5
19E
330
1F
100
AcDbEntity
  8
0
  6
Continuous
 62
     7
370
    25
100
AcDbLine
 10
354.9384442038
 20
888.4397857423
 30
0.0
 11
351.4029127426
 21
885.6113665338
 31
0.0
  0
ARC
  5
19F
330
1F
100
AcDbEntity
  8
0
  6
Continuous
 62
     7
370
    25
100
AcDbCircle
 10
344.9505650942
 20
869.2595214629
 30
0.0
 40
21.62500000000001
100
AcDbArc
 50
27.5076754749
 51
62.4923245251
  0
LINE
  5
1A0
330
1F
100
AcDbEntity
  8
0
  6
Continuous
 62
     7
370
    25
100
AcDbLine
 10
352.4635773963
 20
884.55070188
 30
0.0
 11
352.1100175447
 21
884.1971569295
 31
0.0
  0
LINE
  5
1A1
330
1F
100
AcDbEntity
  8
0
  6
Continuous
 62
     7
370
    25
100
AcDbLine
 10
359.8881927199
 20
876.4189743037
 30
0.0
 11
360.2417525715
 21
876.7725341554
 31
0.0
  0
LINE
  5
1A2
330
1F
100
AcDbEntity
  8
0
  6
Continuous
 62
     7
370
    25
100
AcDbLine
 10
97.0297423071
 20
631.2381886478
 30
0.0
 11
94.2013081974
 21
627.7026497359
 31
0.0
  0
LINE
  5
1A3
330
1F
100
AcDbEntity
  8
0
  6
Continuous
 62
     7
370
    25
100
AcDbLine
 10
103.3937004275
 20
618.5102649565
 30
0.0
 11
106.9292318887
 21
621.3386916156
 31
0.0
  0
ARC
  5
1A4
330
1F
100
AcDbEntity
  8
0
  6
Continuous
 62
     7
370
    25
100
AcDbCircle
 10
113.3815795371
 20
637.6905359055
 30
0.0
 40
21.625
100
AcDbArc
 50
207.5076754749
 51
242.4923245251
  0
LINE
  5
1A5
330
1F
100
AcDbEntity
  8
0
  6
Continuous
 62
     7
370
    25
100
AcDbLine
 10
105.8685672349
 20
622.3993488188
 30
0.0
 11
106.2221270866
 21
622.7529086704
 31
0.0
  0
LINE
  5
1A6
330
1F
100
AcDbEntity
  8
0
  6
Continuous
 62
     7
370
    25
100
AcDbLine
 10
98.4439519114
 20
630.5310763951
 30
0.0
 11
98.0903920598
 21
630.177523994
 31
0.0
  0
ARC
  5
1A7
330
1F
100
AcDbEntity
  8
0
  6
Continuous
 62
     7
370
    25
100
AcDbCircle
 10
408.3660723156
 20
769.9750286842
 30
0.0
 40
1.0
100
AcDbArc
 50
0.0
 51
90.0
  0
ARC
  5
1A8
330
1F
100
AcDbEntity
  8
0
  6
Continuous
 62
     7
370
    25
100
AcDbCircle
 10
408.3660723156
 20
736.9750286842
 30
0.0
 40
1.0
100
AcDbArc
 50
270.0
 51
0.0
  0
LINE
  5
1A9
330
1F
100
AcDbEntity
  8
0
  6
Continuous
 62
     7
370
    25
100
AcDbLine
 10
407.6789584822
 20
735.9750290002
 30
0.0
 11
408.366065926
 21
735.9750290002
 31
0.0
  0
LINE
  5
1AA
330
1F
100
AcDbEntity
  8
0
  6
Continuous
 62
     7
370
    25
100
AcDbLine
 10
408.366065926
 20
770.9750272866
 30
0.0
 11
407.6789584822
 21
770.9750272866
 31
0.0
  0
CIRCLE
  5
1AB
330
1F
100
AcDbEntity
  8
0
  6
Continuous
 62
     7
370
    25
100
AcDbCircle
 10
229.1660723156
 20
753.4750286842
 30
0.0
 40
8.0
  0
CIRCLE
  5
1AC
330
1F
100
AcDbEntity
  8
0
  6
Continuous
 62
     7
370
    25
100
AcDbCircle
 10
229.1660723156
 20
753.4750286842
 30
0.0
 40
168.425313701264
  0
CIRCLE
  5
1AD
330
1F
100
AcDbEntity
  8
0
  6
Continuous
 62
     7
370
    25
100
AcDbCircle
 10
229.1660723156
 20
753.4750286842
 30
0.0
 40
176.1816650351536
  0
SPLINE
  5
1AE
330
1F
100
AcDbEntity
  8
0
  6
Continuous
 62
     7
370
    25
100
AcDbSpline
210
0.0
220
0.0
230
1.0
 70
     8
 71
     3
 72
    20
 73
    16
 74
     0
 42
0.000000001
 43
0.00000001
 40
0.0
 40
0.0
 40
0.0
 40
0.0
 40
0.0824289313149128
 40
0.1651275018731677
 40
0.2477916976718341
 40
0.3301736651335195
 40
0.4130706626785248
 40
0.4963369114144996
 40
0.5795519889304932
 40
0.6623793767675664
 40
0.7360853335609978
 40
0.8101172554965428
 40
0.8841350940072044
 40
0.9578232057303704
 40
1.0
 40
1.0
 40
1.0
 40
1.0
 10
313.0662110514133
 20
604.2966954941968
 30
0.0
 10
313.3489966244713
 20
604.4462218349972
 30
0.0
 10
313.915492810943
 20
604.745763643034
 30
0.0
 10
314.71777429287
 20
605.16998632432
 30
0.0
 10
315.477861179826
 20
605.5705183843022
 30
0.0
 10
316.1869148546406
 20
605.9417065442924
 30
0.0
 10
316.8377520650267
 20
606.2783425145084
 30
0.0
 10
317.4246884221998
 20
606.5761203652094
 30
0.0
 10
317.93929054676
 20
606.829461522943
 30
0.0
 10
318.3573170637364
 20
607.0253746405386
 30
0.0
 10
318.6798871813134
 20
607.1639837528434
 30
0.0
 10
318.9187070230805
 20
607.2525173775427
 30
0.0
 10
319.078216349147
 20
607.291621384652
 30
0.0
 10
319.1637947242668
 20
607.2932229366443
 30
0.0
 10
319.1549140767731
 20
607.2565161463999
 30
0.0
 10
319.1516813702075
 20
607.2431542511205
 30
0.0
  0
SPLINE
  5
1AF
330
1F
100
AcDbEntity
  8
0
  6
Continuous
 62
     7
370
    25
100
AcDbSpline
210
0.0
220
0.0
230
1.0
 70
     8
 71
     3
 72
    51
 73
    47
 74
     0
 42
0.000000001
 43
0.00000001
 40
0.0
 40
0.0
 40
0.0
 40
0.0
 40
0.0212122484285311
 40
0.042430377259872
 40
0.0636481296774473
 40
0.0848597818223736
 40
0.1060768533864146
 40
0.127300837317787
 40
0.1485243160038664
 40
0.1697407055683832
 40
0.1918452593379549
 40
0.2139588818227417
 40
0.2360719100433421
 40
0.2581756824378207
 40
0.2794028722038709
 40
0.3006391374632955
 40
0.321875014484864
 40
0.3431016321125575
 40
0.3643325890553187
 40
0.3855734300788652
 40
0.4068139839664397
 40
0.4280445833849483
 40
0.4505777978243168
 40
0.4731233159992584
 40
0.4956687473021201
 40
0.5182018411111501
 40
0.5414637182936274
 40
0.5647455131713286
 40
0.5880343964690659
 40
0.6113169635999602
 40
0.6345794890625468
 40
0.65851886513754
 40
0.6824778389395832
 40
0.7064443353974539
 40
0.730405166699588
 40
0.7543460639173524
 40
0.7786196624791791
 40
0.8029104173692349
 40
0.8272082222268441
 40
0.8515013485123359
 40
0.8757768832353116
 40
0.9006105160264745
 40
0.9254589485380529
 40
0.9503135938347859
 40
0.9751644276313285
 40
1.0
 40
1.0
 40
1.0
 40
1.0
 10
145.265933579871
 20
604.2966954941968
 30
0.0
 10
146.2876136342712
 20
603.7639801897417
 30
0.0
 10
148.3312569704854
 20
602.6984019029185
 30
0.0
 10
151.4646496698514
 20
601.1606302212905
 30
0.0
 10
154.646775377215
 20
599.6697961401868
 30
0.0
 10
157.8817546174155
 20
598.2321749967741
 30
0.0
 10
161.1678604103313
 20
596.8487379711603
 30
0.0
 10
164.504547297262
 20
595.5216047022594
 30
0.0
 10
167.8898032687587
 20
594.2530016419455
 30
0.0
 10
171.3697982240592
 20
593.0283699392306
 30
0.0
 10
174.9459404232421
 20
591.852924586441
 30
0.0
 10
178.618714604398
 20
590.7318041501501
 30
0.0
 10
182.3368382648632
 20
589.6832939177233
 30
0.0
 10
186.0477445765781
 20
588.7226570431261
 30
0.0
 10
189.7476596848954
 20
587.8487448053555
 30
0.0
 10
193.4325970659601
 20
587.0593963935166
 30
0.0
 10
197.1494968769162
 20
586.3444635909615
 30
0.0
 10
200.89528763315
 20
585.7056746654566
 30
0.0
 10
204.6676547082485
 20
585.1448177105488
 30
0.0
 10
208.4637819085868
 20
584.6627304222013
 30
0.0
 10
212.2794684360108
 20
584.2605384647125
 30
0.0
 10
216.1890291539707
 20
583.9327979442121
 30
0.0
 10
220.1906878589037
 20
583.6868157158909
 30
0.0
 10
224.2814625024637
 20
583.528779693504
 30
0.0
 10
228.3775720768369
 20
583.4638216164653
 30
0.0
 10
232.5179637129445
 20
583.4925791535056
 30
0.0
 10
236.6991914442639
 20
583.6194699965674
 30
0.0
 10
240.9173283116318
 20
583.8471063624528
 30
0.0
 10
245.1231141594296
 20
584.1729823499751
 30
0.0
 10
249.3094584787898
 20
584.5959891168446
 30
0.0
 10
253.5116308065394
 20
585.1202779092954
 30
0.0
 10
257.7255611508126
 20
585.7486548875797
 30
0.0
 10
261.9475396292037
 20
586.4818834191234
 30
0.0
 10
266.1329599089952
 20
587.3115113600728
 30
0.0
 10
270.2754889823698
 20
588.2347582710953
 30
0.0
 10
274.3897659058535
 20
589.2541227344348
 30
0.0
 10
278.4724125307362
 20
590.3693311580838
 30
0.0
 10
282.5212476431827
 20
591.578651235514
 30
0.0
 10
286.5143641666547
 20
592.8737342520701
 30
0.0
 10
290.4472482831207
 20
594.2509303007973
 30
0.0
 10
294.3466430669363
 20
595.7183747329838
 30
0.0
 10
298.2093766046982
 20
597.2758676045135
 30
0.0
 10
302.0338313931313
 20
598.9217633325023
 30
0.0
 10
305.7873003493818
 20
600.6423806041182
 30
0.0
 10
309.4736777983792
 20
602.4279000299699
 30
0.0
 10
311.8689452065187
 20
603.6738912435965
 30
0.0
 10
313.0662110514133
 20
604.2966954941968
 30
0.0
  0
SPLINE
  5
1B0
330
1F
100
AcDbEntity
  8
0
  6
Continuous
 62
     7
370
    25
100
AcDbSpline
210
0.0
220
0.0
230
1.0
 70
     8
 71
     3
 72
    19
 73
    15
 74
     0
 42
0.000000001
 43
0.00000001
 40
0.0
 40
0.0
 40
0.0
 40
0.0
 40
0.0167010673420375
 40
0.1077738634797427
 40
0.1991646796837008
 40
0.2902500164850892
 40
0.3778983468411599
 40
0.4658073116044474
 40
0.5534954560000327
 40
0.64756170755808
 40
0.7418834532972104
 40
0.8359969090798895
 40
0.9179956695056587
 40
1.0
 40
1.0
 40
1.0
 40
1.0
 10
139.1738098926037
 20
607.2472744221906
 30
0.0
 10
139.1714226783865
 20
607.2532387261429
 30
0.0
 10
139.1560177169027
 20
607.291727049478
 30
0.0
 10
139.2371871207503
 20
607.2954567956644
 30
0.0
 10
139.4309923077544
 20
607.2491471676457
 30
0.0
 10
139.7442782820599
 20
607.1273311908875
 30
0.0
 10
140.1585970474164
 20
606.9410275439708
 30
0.0
 10
140.6609753564794
 20
606.6989339972939
 30
0.0
 10
141.2624994682079
 20
606.3972173897639
 30
0.0
 10
141.9640169837769
 20
606.0361514677563
 30
0.0
 10
142.7588882201772
 20
605.6207641551343
 30
0.0
 10
143.5852827928527
 20
605.1852930470114
 30
0.0
 10
144.4218105084599
 20
604.7429954813041
 30
0.0
 10
144.9845528518917
 20
604.4454655249216
 30
0.0
 10
145.265933579871
 20
604.2966954941968
 30
0.0
  0
SPLINE
  5
1B1
330
1F
100
AcDbEntity
  8
0
  6
Continuous
 62
     7
370
    25
100
AcDbSpline
210
0.0
220
0.0
230
1.0
 70
     8
 71
     3
 72
    51
 73
    47
 74
     0
 42
0.000000001
 43
0.00000001
 40
0.0
 40
0.0
 40
0.0
 40
0.0
 40
0.0212523622996613
 40
0.0425106814202804
 40
0.0637685879902127
 40
0.0850203838117838
 40
0.1062775245991616
 40
0.1275416480010597
 40
0.1488053041119962
 40
0.1700618236015783
 40
0.1922081673925706
 40
0.21436355798872
 40
0.2365183762670945
 40
0.2586639708745936
 40
0.2799312277391564
 40
0.3012075810295906
 40
0.3224835212051919
 40
0.3437502534772416
 40
0.36502128038524
 40
0.3863021693874774
 40
0.4075827890647394
 40
0.4288534485935241
 40
0.4514263681166732
 40
0.4740115848305625
 40
0.496596718818592
 40
0.5191695314694631
 40
0.5425014464825254
 40
0.5658533128306196
 40
0.5892122775998374
 40
0.612564920307259
 40
0.6358975066173678
 40
0.6599079246779576
 40
0.6839379829502518
 40
0.7079756107125119
 40
0.732007521919364
 40
0.7560195167969289
 40
0.7801334343095406
 40
0.8042641605127144
 40
0.8284016635006335
 40
0.8525346627144881
 40
0.8766504835588155
 40
0.9013096564322213
 40
0.9259833228617647
 40
0.9506629825348772
 40
0.9753389045757794
 40
1.0
 40
1.0
 40
1.0
 40
1.0
 10
145.265933579871
 20
603.1488664980153
 30
0.0
 10
146.2904632017034
 20
602.6189397292246
 30
0.0
 10
148.3398096105991
 20
601.5589376585607
 30
0.0
 10
151.48169529343
 20
600.0292709570376
 30
0.0
 10
154.6722676923706
 20
598.5463432752011
 30
0.0
 10
157.915614965064
 20
597.1164606447404
 30
0.0
 10
161.2100370219135
 20
595.7405838920499
 30
0.0
 10
164.5549382357633
 20
594.4208274559184
 30
0.0
 10
167.9483182606609
 20
593.1594526882548
 30
0.0
 10
171.4364529246716
 20
591.9419518085673
 30
0.0
 10
175.0207080659425
 20
590.7735868291511
 30
0.0
 10
178.7015800989279
 20
589.6594424291036
 30
0.0
 10
182.4276534413201
 20
588.6177241846333
 30
0.0
 10
186.1462350696413
 20
587.6636178042544
 30
0.0
 10
189.8535825986516
 20
586.7959480076071
 30
0.0
 10
193.5456639018439
 20
586.0125855203322
 30
0.0
 10
197.269564347782
 20
585.3034418441057
 30
0.0
 10
201.022163545143
 20
584.6702344471013
 30
0.0
 10
204.8011658043841
 20
584.1147606406549
 30
0.0
 10
208.6037466463652
 20
583.6378380856818
 30
0.0
 10
212.4257027228246
 20
583.2405740797376
 30
0.0
 10
216.3413101614541
 20
582.9176558915883
 30
0.0
 10
220.3487744233149
 20
582.676299089852
 30
0.0
 10
224.4450991632245
 20
582.522693631028
 30
0.0
 10
228.5465654997951
 20
582.4618346647972
 30
0.0
 10
232.6939418722901
 20
582.4944013071812
 30
0.0
 10
236.8837785400832
 20
582.6249489443876
 30
0.0
 10
241.1121299391215
 20
582.8561785437834
 30
0.0
 10
245.3279235170869
 20
583.1855201263661
 30
0.0
 10
249.5240606395934
 20
583.6118088131064
 30
0.0
 10
253.7358354441484
 20
584.1392384405842
 30
0.0
 10
257.9591825016381
 20
584.7705835016382
 30
0.0
 10
262.1903792816061
 20
585.5065591311868
 30
0.0
 10
266.3847926428332
 20
586.338705945229
 30
0.0
 10
270.536102769691
 20
587.2642328830898
 30
0.0
 10
274.645766238067
 20
588.2823379565677
 30
0.0
 10
278.7109962064302
 20
589.3917398012164
 30
0.0
 10
282.7301899800539
 20
590.5897345888621
 30
0.0
 10
286.6945862615209
 20
591.871627338453
 30
0.0
 10
290.599741549908
 20
593.2338518679036
 30
0.0
 10
294.4717301977724
 20
594.6842572725592
 30
0.0
 10
298.3074448053681
 20
596.222633108002
 30
0.0
 10
302.1053488596968
 20
597.8473092573115
 30
0.0
 10
305.8335671644962
 20
599.5450411169401
 30
0.0
 10
309.4959441109052
 20
601.306241343743
 30
0.0
 10
311.8763605231779
 20
602.5347811789948
 30
0.0
 10
313.0662110514133
 20
603.1488664980153
 30
0.0
  0
SPLINE
  5
1B2
330
1F
100
AcDbEntity
  8
0
  6
Continuous
 62
     7
370
    25
100
AcDbSpline
210
0.0
220
0.0
230
1.0
 70
     8
 71
     3
 72
    31
 73
    27
 74
     0
 42
0.000000001
 43
0.00000001
 40
0.0
 40
0.0
 40
0.0
 40
0.0
 40
0.0407164542429324
 40
0.0815660451317354
 40
0.1223993009632489
 40
0.1630931082438667
 40
0.204036642102996
 40
0.2451625517895574
 40
0.2862637189194785
 40
0.3271738241425014
 40
0.3636472963580116
 40
0.4002808533631992
 40
0.4369075564095083
 40
0.4733720574711453
 40
0.5171525104429128
 40
0.5610765287090322
 40
0.6048707207651955
 40
0.6490636272428385
 40
0.693381996764478
 40
0.7375967032143242
 40
0.786389469925905
 40
0.835312570087892
 40
0.8841287243356408
 40
0.9227344195920509
 40
0.9613899345930863
 40
0.9999999999999999
 40
0.9999999999999999
 40
0.9999999999999999
 40
0.9999999999999999
 10
313.0662110514133
 20
603.1488664980153
 30
0.0
 10
313.3489523182991
 20
603.2971651365681
 30
0.0
 10
313.915359373241
 20
603.5942473277873
 30
0.0
 10
314.7174143008024
 20
604.0148861551031
 30
0.0
 10
315.4772279224813
 20
604.4119384658428
 30
0.0
 10
316.1859404290345
 20
604.77978729558
 30
0.0
 10
316.8363740243472
 20
605.1133075064043
 30
0.0
 10
317.4229223814462
 20
605.408250008074
 30
0.0
 10
317.9372461619195
 20
605.659166399446
 30
0.0
 10
318.3552794684495
 20
605.8532458100062
 30
0.0
 10
318.678496658217
 20
605.990829701758
 30
0.0
 10
318.91681565113
 20
606.0780041836043
 30
0.0
 10
319.0805932952207
 20
606.1190292979895
 30
0.0
 10
319.1723358456455
 20
606.1116952587339
 30
0.0
 10
319.1683943340269
 20
606.0415525408692
 30
0.0
 10
319.0538572092394
 20
605.9008470664558
 30
0.0
 10
318.8315353908778
 20
605.6962511653056
 30
0.0
 10
318.5020986454178
 20
605.4296232357052
 30
0.0
 10
318.075285351026
 20
605.108595407163
 30
0.0
 10
317.5416342817463
 20
604.7272461687048
 30
0.0
 10
316.8966678297987
 20
604.2856246131231
 30
0.0
 10
316.1427975754756
 20
603.7879438324823
 30
0.0
 10
315.3686338873731
 20
603.2930965240683
 30
0.0
 10
314.5983315518191
 20
602.8144093108151
 30
0.0
 10
313.8537962941894
 20
602.3614354999472
 30
0.0
 10
313.3286364948554
 20
602.0509595913966
 30
0.0
 10
313.0662110514133
 20
601.8958129520635
 30
0.0
  0
SPLINE
  5
1B3
330
1F
100
AcDbEntity
  8
0
  6
Continuous
 62
     7
370
    25
100
AcDbSpline
210
0.0
220
0.0
230
1.0
 70
     8
 71
     3
 72
    52
 73
    48
 74
     0
 42
0.000000001
 43
0.00000001
 40
0.0
 40
0.0
 40
0.0
 40
0.0
 40
0.0245501779525653
 40
0.0491159421896129
 40
0.0736855412052157
 40
0.0982487102165857
 40
0.1227967716770078
 40
0.1437352048363683
 40
0.1646900392862262
 40
0.1856520965901396
 40
0.2066128809755197
 40
0.2275648312675286
 40
0.248501314512267
 40
0.2689407891370235
 40
0.2893888835572798
 40
0.3098365699085415
 40
0.3302754288761375
 40
0.3507189457525925
 40
0.3711719592732292
 40
0.3916246728138101
 40
0.4120677538350297
 40
0.4337632700598211
 40
0.4554707757793807
 40
0.4771781342399428
 40
0.49887344649982
 40
0.5212480007389495
 40
0.5436421843296586
 40
0.5660432462716481
 40
0.5884380023617487
 40
0.6108130534678167
 40
0.6338585001778613
 40
0.656923547114977
 40
0.6799960850547326
 40
0.7030628355138929
 40
0.7261097609902085
 40
0.7482908263956398
 40
0.7704867933607965
 40
0.7926887330712671
 40
0.8148865785105879
 40
0.8370692087285573
 40
0.8597359548772379
 40
0.8824157076086379
 40
0.9051007786484377
 40
0.9277824580169705
 40
0.9504508564312723
 40
0.9752253466919346
 40
1.0
 40
1.0
 40
1.0
 40
1.0
 10
313.0662110514133
 20
601.8958129520635
 30
0.0
 10
311.8977684141648
 20
601.2205747467282
 30
0.0
 10
309.5601413251123
 20
599.86966964447
 30
0.0
 10
305.9563388595125
 20
597.9336248914099
 30
0.0
 10
302.2824126762741
 20
596.0674458536146
 30
0.0
 10
298.5340793427505
 20
594.2814720125829
 30
0.0
 10
294.9019851155703
 20
592.6610323050747
 30
0.0
 10
291.3976227232404
 20
591.1958630973938
 30
0.0
 10
288.032239236737
 20
589.8740963094924
 30
0.0
 10
284.6171557610642
 20
588.6181402192084
 30
0.0
 10
281.1554273094296
 20
587.4305556784094
 30
0.0
 10
277.6501314582513
 20
586.3139157357888
 30
0.0
 10
274.1311729711074
 20
585.2787537122185
 30
0.0
 10
270.6008587293111
 20
584.3249988748236
 30
0.0
 10
267.0619846301354
 20
583.4517268226916
 30
0.0
 10
263.4891953542489
 20
582.6530663222837
 30
0.0
 10
259.8853231962112
 20
581.9307935047923
 30
0.0
 10
256.2524801596884
 20
581.2867750566242
 30
0.0
 10
252.5933167103024
 20
580.7219514136832
 30
0.0
 10
248.9118709852534
 20
580.2375822283915
 30
0.0
 10
245.136424411037
 20
579.8267769492766
 30
0.0
 10
241.2683976426893
 20
579.496928654211
 30
0.0
 10
237.310424940263
 20
579.2545779046266
 30
0.0
 10
233.3434338686453
 20
579.1066324323883
 30
0.0
 10
229.3310770493162
 20
579.0531722451111
 30
0.0
 10
225.2765634720133
 20
579.0987563054185
 30
0.0
 10
221.1836657275356
 20
579.246145070978
 30
0.0
 10
217.0989651236829
 20
579.4940082400976
 30
0.0
 10
213.0295524785146
 20
579.8414816633829
 30
0.0
 10
208.9401012628073
 20
580.2923982147552
 30
0.0
 10
204.8345863162669
 20
580.8500568671919
 30
0.0
 10
200.7167540208677
 20
581.5155647768244
 30
0.0
 10
196.6314716356723
 20
582.2812318326274
 30
0.0
 10
192.5852143997364
 20
583.1444940567452
 30
0.0
 10
188.6326246334415
 20
584.091368544833
 30
0.0
 10
184.7744974461427
 20
585.1162031144074
 30
0.0
 10
181.0100405305154
 20
586.2123775456993
 30
0.0
 10
177.2925623555051
 20
587.3904445986719
 30
0.0
 10
173.626201682707
 20
588.6474043686196
 30
0.0
 10
169.9873467647872
 20
589.9905597940889
 30
0.0
 10
166.3787235902281
 20
591.4199382743524
 30
0.0
 10
162.8021697342636
 20
592.9347541646083
 30
0.0
 10
159.2854041335506
 20
594.5220184811491
 30
0.0
 10
155.8306717612474
 20
596.178029006479
 30
0.0
 10
152.3362710851753
 20
597.9550214056729
 30
0.0
 10
148.8034126413919
 20
599.8516793517639
 30
0.0
 10
146.4450958538194
 20
601.2144335905282
 30
0.0
 10
145.2659335798709
 20
601.8958129520635
 30
0.0
  0
SPLINE
  5
1B4
330
1F
100
AcDbEntity
  8
0
  6
Continuous
 62
     7
370
    25
100
AcDbSpline
210
0.0
220
0.0
230
1.0
 70
     8
 71
     3
 72
    30
 73
    26
 74
     0
 42
0.000000001
 43
0.00000001
 40
0.0
 40
0.0
 40
0.0
 40
0.0
 40
0.0443178028028157
 40
0.0887843229985758
 40
0.1332354441510118
 40
0.1775317740503659
 40
0.2221020809128424
 40
0.2668747684675944
 40
0.3116152843046873
 40
0.3561407651109453
 40
0.3953820547122652
 40
0.4348105639310085
 40
0.4742225239578533
 40
0.5134411049888798
 40
0.5585800650813727
 40
0.6038781213463472
 40
0.6490237146233434
 40
0.6924700810379989
 40
0.7360460989596161
 40
0.7795117042484765
 40
0.8260839748358382
 40
0.8727829138800723
 40
0.9193777741935215
 40
0.9596874547624207
 40
1.0
 40
1.0
 40
1.0
 40
1.0
 10
145.2659335798709
 20
601.8958129520635
 30
0.0
 10
144.9652644698417
 20
602.0737647286251
 30
0.0
 10
144.3629172934866
 20
602.4302654350954
 30
0.0
 10
143.5167654951747
 20
602.9479837061332
 30
0.0
 10
142.7204491894913
 20
603.4471402795214
 30
0.0
 10
141.9838446585765
 20
603.9222607724005
 30
0.0
 10
141.3144290232704
 20
604.3677647969749
 30
0.0
 10
140.7184457693479
 20
604.7783021062228
 30
0.0
 10
140.205236235001
 20
605.1464994656822
 30
0.0
 10
139.8008549576674
 20
605.4525334815527
 30
0.0
 10
139.5029022429016
 20
605.6956178515806
 30
0.0
 10
139.2996674356283
 20
605.8811671148693
 30
0.0
 10
139.1813398606591
 20
606.0167784147062
 30
0.0
 10
139.1507140154076
 20
606.1028651133627
 30
0.0
 10
139.2302234682874
 20
606.1247376095713
 30
0.0
 10
139.4310376625806
 20
606.075105868819
 30
0.0
 10
139.7424871753468
 20
605.9559302666243
 30
0.0
 10
140.1580060343429
 20
605.7709266545118
 30
0.0
 10
140.6614329595897
 20
605.5306202843929
 30
0.0
 10
141.2645083700406
 20
605.2308346199572
 30
0.0
 10
141.9677246097556
 20
604.8720148314627
 30
0.0
 10
142.7644492053347
 20
604.4592002734348
 30
0.0
 10
143.5911209137371
 20
604.027191738278
 30
0.0
 10
144.4259255069845
 20
603.5894239991317
 30
0.0
 10
144.9859242562842
 20
603.295722476988
 30
0.0
 10
145.265933579871
 20
603.1488664980153
 30
0.0
  0
SPLINE
  5
1B5
330
1F
100
AcDbEntity
  8
0
  6
Continuous
 62
     7
370
    25
100
AcDbSpline
210
0.0
220
0.0
230
1.0
 70
     8
 71
     3
 72
    42
 73
    38
 74
     0
 42
0.000000001
 43
0.00000001
 40
0.0
 40
0.0
 40
0.0
 40
0.0
 40
0.018459827716212
 40
0.0470213486326108
 40
0.0756791079506415
 40
0.1043705300327077
 40
0.1330298237142667
 40
0.1615925473073573
 40
0.1903972086327271
 40
0.2192996337320615
 40
0.248235422049844
 40
0.2771383133958419
 40
0.3059433319148921
 40
0.3389538284367925
 40
0.3720131982276326
 40
0.4050235771685744
 40
0.4337203337714448
 40
0.4625140853573674
 40
0.4913407462400565
 40
0.5201344023988963
 40
0.5488310531026949
 40
0.5775145162213305
 40
0.6062946438251482
 40
0.635107707429698
 40
0.6638881838227341
 40
0.6925719243844447
 40
0.7212682133328172
 40
0.7500612254314021
 40
0.7788867983489972
 40
0.8076796208944174
 40
0.8363754656308342
 40
0.8651714701740163
 40
0.8940664740647737
 40
0.9229945658668074
 40
0.9518880654225885
 40
0.9806829057595098
 40
1.0
 40
1.0
 40
1.0
 40
1.0
 10
53.9528992838352
 20
774.3077315922002
 30
0.0
 10
53.94313442337243
 20
774.1813845899246
 30
0.0
 10
53.91826111928599
 20
773.8595502513804
 30
0.0
 10
53.86732430049512
 20
773.2349791906338
 30
0.0
 10
53.80334945561205
 20
772.4518784289687
 30
0.0
 10
53.73280768163968
 20
771.5802344467635
 30
0.0
 10
53.65787238425834
 20
770.6307619248818
 30
0.0
 10
53.57976371660947
 20
769.6032231104402
 30
0.0
 10
53.4999845635665
 20
768.4987275277539
 30
0.0
 10
53.42026675523903
 20
767.3216747421485
 30
0.0
 10
53.34236512886803
 20
766.081395812419
 30
0.0
 10
53.26805037471235
 20
764.7861756831479
 30
0.0
 10
53.19556970574024
 20
763.3763236148537
 30
0.0
 10
53.12767181185429
 20
761.8478780217613
 30
0.0
 10
53.06712423261506
 20
760.2025861008119
 30
0.0
 10
53.02051246070491
 20
758.590885973606
 30
0.0
 10
52.98782081037257
 20
757.0258734839108
 30
0.0
 10
52.96741292685361
 20
755.5172754284507
 30
0.0
 10
52.95784179148905
 20
753.9979512383676
 30
0.0
 10
52.95928920310286
 20
752.4779467190751
 30
0.0
 10
52.9720367592458
 20
750.9648003142454
 30
0.0
 10
52.99636183638257
 20
749.4634666571525
 30
0.0
 10
53.03122314137484
 20
747.9782975531261
 30
0.0
 10
53.07574696543468
 20
746.5159669055694
 30
0.0
 10
53.12892313049367
 20
745.0861303200246
 30
0.0
 10
53.18996364806664
 20
743.6956874225804
 30
0.0
 10
53.25802867522714
 20
742.3499458766908
 30
0.0
 10
53.33142306401595
 20
741.0520108881858
 30
0.0
 10
53.40860635773731
 20
739.8077982037964
 30
0.0
 10
53.48783596171685
 20
738.6255643069002
 30
0.0
 10
53.56765338792674
 20
737.5101682829351
 30
0.0
 10
53.64645379213687
 20
736.4669939604386
 30
0.0
 10
53.72252680619957
 20
735.4983051115349
 30
0.0
 10
53.79438858353105
 20
734.6081674465366
 30
0.0
 10
53.85979532821067
 20
733.8073228111841
 30
0.0
 10
53.9124813772498
 20
733.1625216382431
 30
0.0
 10
53.93850279457771
 20
732.8276348691053
 30
0.0
 10
53.94895047611883
 20
732.6931767697553
 30
0.0
  0
ARC
  5
1B6
330
1F
100
AcDbEntity
  8
0
  6
Continuous
 62
     7
370
    25
100
AcDbCircle
 10
229.1660723156
 20
753.4750286842
 30
0.0
 40
176.5828268956153
100
AcDbArc
 50
170.989172931
 51
172.6449298585
  0
ARC
  5
1B7
330
1F
100
AcDbEntity
  8
0
  6
Continuous
 62
     7
370
    25
100
AcDbCircle
 10
229.1660723156
 20
753.4750286842
 30
0.0
 40
176.5828268956153
100
AcDbArc
 50
187.3550701415
 51
189.010827069
  0
SPLINE
  5
1B8
330
1F
100
AcDbEntity
  8
0
  6
Continuous
 62
     7
370
    25
100
AcDbSpline
210
0.0
220
0.0
230
1.0
 70
     8
 71
     3
 72
     9
 73
     5
 74
     0
 42
0.000000001
 43
0.00000001
 40
0.0
 40
0.0
 40
0.0
 40
0.0
 40
0.0169469363464669
 40
1.0
 40
1.0
 40
1.0
 40
1.0
 10
54.03619677490881
 20
776.0807909603337
 30
0.0
 10
54.03598078031638
 20
776.0793408257006
 30
0.0
 10
54.02323543283985
 20
775.9937716936995
 30
0.0
 10
54.03567768928752
 20
775.9056427694552
 30
0.0
 10
54.04790908760717
 20
775.8190073604802
 30
0.0
  0
SPLINE
  5
1B9
330
1F
100
AcDbEntity
  8
0
  6
Continuous
 62
     7
370
    25
100
AcDbSpline
210
0.0
220
0.0
230
1.0
 70
     8
 71
     3
 72
     9
 73
     5
 74
     0
 42
0.000000001
 43
0.00000001
 40
0.0
 40
0.0
 40
0.0
 40
0.0
 40
0.0170706385819268
 40
1.0
 40
1.0
 40
1.0
 40
1.0
 10
54.03619677490881
 20
730.8692634637574
 30
0.0
 10
54.03598076263388
 20
730.8707135966214
 30
0.0
 10
54.02332673836202
 20
730.9556625489992
 30
0.0
 10
54.0356786368989
 20
731.0431525436405
 30
0.0
 10
54.04781968063999
 20
731.1291490282039
 30
0.0
  0
ARC
  5
1BA
330
1F
100
AcDbEntity
  8
0
  6
Continuous
 62
     7
370
    25
100
AcDbCircle
 10
55.3683054156
 20
780.9750297188
 30
0.0
 40
1.000115445795824
100
AcDbArc
 50
171.0109372667
 51
222.6164492304
  0
ARC
  5
1BB
330
1F
100
AcDbEntity
  8
0
  6
Continuous
 62
     7
370
    25
100
AcDbCircle
 10
55.3683567911
 20
725.9750147686
 30
0.0
 40
1.000163764902325
100
AcDbArc
 50
137.3848890431
 51
188.9877244597
  0
LINE
  5
1BC
330
1F
100
AcDbEntity
  8
0
  6
Continuous
 62
     7
370
    25
100
AcDbLine
 10
54.5961824126
 20
779.9750306244
 30
0.0
 11
53.3291664786
 21
779.9750306244
 31
0.0
  0
LINE
  5
1BD
330
1F
100
AcDbEntity
  8
0
  6
Continuous
 62
     7
370
    25
100
AcDbLine
 10
53.3291664786
 20
726.9750293876
 30
0.0
 11
54.5961824126
 21
726.9750293876
 31
0.0
  0
SPLINE
  5
1BE
330
1F
100
AcDbEntity
  8
0
  6
Continuous
 62
     7
370
    25
100
AcDbSpline
210
0.0
220
0.0
230
1.0
 70
     8
 71
     3
 72
    13
 73
     9
 74
     0
 42
0.000000001
 43
0.00000001
 40
0.0
 40
0.0
 40
0.0
 40
0.0
 40
0.2342018497965417
 40
0.4744519893558428
 40
0.6037145628853001
 40
0.7329797379356495
 40
0.8664831918879548
 40
1.0
 40
1.0
 40
1.0
 40
1.0
 10
354.2916891045062
 20
881.0314499373654
 30
0.0
 10
354.4381021331318
 20
880.8070473809584
 30
0.0
 10
354.7347093237213
 20
880.3524470462627
 30
0.0
 10
355.2026375895966
 20
879.8204639181012
 30
0.0
 10
355.6219799830117
 20
879.4158813530785
 30
0.0
 10
355.9702714260818
 20
879.1204673882013
 30
0.0
 10
356.3370090325675
 20
878.8448347089878
 30
0.0
 10
356.5939991459428
 20
878.6820398921985
 30
0.0
 10
356.7225006288974
 20
878.6006384129743
 30
0.0
  0
SPLINE
  5
1BF
330
1F
100
AcDbEntity
  8
0
  6
Continuous
 62
     7
370
    25
100
AcDbSpline
210
0.0
220
0.0
230
1.0
 70
     8
 71
     3
 72
    13
 73
     9
 74
     0
 42
0.000000001
 43
0.00000001
 40
0.0
 40
0.0
 40
0.0
 40
0.0
 40
0.2342062849643691
 40
0.4744562267967911
 40
0.6037171620701032
 40
0.7329822307346676
 40
0.8664855748130668
 40
1.0
 40
1.0
 40
1.0
 40
1.0
 10
101.6096440023868
 20
628.3494122858266
 30
0.0
 10
101.8340520391349
 20
628.2029973366427
 30
0.0
 10
102.288658927223
 20
627.9063892232142
 30
0.0
 10
102.8206408221902
 20
627.4384549395696
 30
0.0
 10
103.2252301253936
 20
627.0191213998202
 30
0.0
 10
103.5206403459653
 20
626.6708291656194
 30
0.0
 10
103.7962755486897
 20
626.304096319203
 30
0.0
 10
103.9590599489239
 20
626.0471028357264
 30
0.0
 10
104.040455526778
 20
625.9186007614354
 30
0.0
  0
SPLINE
  5
1C0
330
1F
100
AcDbEntity
  8
0
  6
Continuous
 62
     7
370
    25
100
AcDbSpline
210
0.0
220
0.0
230
1.0
 70
     8
 71
     3
 72
    10
 73
     6
 74
     0
 42
0.000000001
 43
0.00000001
 40
0.0
 40
0.0
 40
0.0
 40
0.0
 40
0.3945685992721962
 40
0.799391989433643
 40
1.0
 40
1.0
 40
1.0
 40
1.0
 10
353.2636132902591
 20
882.4384473796109
 30
0.0
 10
353.4113666503792
 20
882.2756320797652
 30
0.0
 10
353.7107134628466
 20
881.9457699298271
 30
0.0
 10
354.0358169290166
 20
881.4480500283355
 30
0.0
 10
354.2280073448243
 20
881.1351338444799
 30
0.0
 10
354.2916891045062
 20
881.0314499373654
 30
0.0
  0
SPLINE
  5
1C1
330
1F
100
AcDbEntity
  8
0
  6
Continuous
 62
     7
370
    25
100
AcDbSpline
210
0.0
220
0.0
230
1.0
 70
     8
 71
     3
 72
    20
 73
    16
 74
     0
 42
0.000000001
 43
0.00000001
 40
0.0
 40
0.0
 40
0.0
 40
0.0
 40
0.0785979175773314
 40
0.1571969812656006
 40
0.2380782063244066
 40
0.3189598294086352
 40
0.3975652470705125
 40
0.4761698423879318
 40
0.557058429123049
 40
0.6379467914345185
 40
0.7165646597356172
 40
0.7951842939872569
 40
0.8760850100874676
 40
0.9569864189621669
 40
1.0
 40
1.0
 40
1.0
 40
1.0
 10
350.7486549086063
 20
884.9571012492398
 30
0.0
 10
350.7496983763432
 20
884.951537439143
 30
0.0
 10
350.7517853270327
 20
884.9404097378178
 30
0.0
 10
350.8001662248205
 20
884.8817727133276
 30
0.0
 10
350.8828756511385
 20
884.7913669293441
 30
0.0
 10
351.0022199810884
 20
884.6671460254157
 30
0.0
 10
351.1547458226151
 20
884.512315512452
 30
0.0
 10
351.3398339864507
 20
884.3272485655442
 30
0.0
 10
351.5588548811465
 20
884.1103161374803
 30
0.0
 10
351.8084345175712
 20
883.8645687635902
 30
0.0
 10
352.0838760703747
 20
883.5943574681637
 30
0.0
 10
352.3846954598143
 20
883.2996726403652
 30
0.0
 10
352.7126745704523
 20
882.9785592480359
 30
0.0
 10
353.009731079069
 20
882.68754624556
 30
0.0
 10
353.1981937937468
 20
882.5026343201445
 30
0.0
 10
353.2636132902591
 20
882.4384473796109
 30
0.0
  0
LINE
  5
1C2
330
1F
100
AcDbEntity
  8
0
  6
Continuous
 62
     7
370
    25
100
AcDbLine
 10
350.7486549086
 20
884.9571012492
 30
0.0
 11
351.0493603415
 21
885.2578066821
 31
0.0
  0
LWPOLYLINE
  5
1C3
330
1F
100
AcDbEntity
  8
0
  6
Continuous
 62
     7
370
    25
100
AcDbPolyline
 90
       42
 70
   128
 43
0.0
 10
351.0493603415
 20
885.2578066821
 10
351.0638815231
 20
885.2432929511
 10
351.107370562
 20
885.1997964616
 10
351.1795592374
 20
885.1276152368
 10
351.2800377674
 20
885.0271367069
 10
351.4082026548
 20
884.8989718194
 10
351.5633162922
 20
884.7438507314
 10
351.7444548077
 20
884.5627122159
 10
351.9505676693
 20
884.3566142555
 10
352.1804329819
 20
884.1267489429
 10
352.4327096409
 20
883.8744722839
 10
352.7059149808
 20
883.6012594934
 10
352.9984471268
 20
883.308734798
 10
353.3085849947
 20
882.9985820289
 10
353.6345180935
 20
882.6726638313
 10
353.9743241734
 20
882.3328577514
 10
354.3260064787
 20
881.9811605449
 10
354.6875235505
 20
881.6196583743
 10
355.0567147202
 20
881.2504523034
 10
355.4314491219
 20
880.8757179017
 10
355.8095213837
 20
880.4976605411
 10
356.1886963315
 20
880.1184706922
 10
356.5667685933
 20
879.7404133315
 10
356.941502995
 20
879.3656789298
 10
357.3106941647
 20
878.9964728589
 10
357.6722112364
 20
878.6349706884
 10
358.0238935418
 20
878.2832734819
 10
358.3636996216
 20
877.943467402
 10
358.6896327204
 20
877.6175492044
 10
358.9997705883
 20
877.3073964353
 10
359.2923101849
 20
877.0148717399
 10
359.5655080742
 20
876.7416589494
 10
359.8177847332
 20
876.4893822904
 10
360.0476500458
 20
876.2595169778
 10
360.2537629075
 20
876.0534190173
 10
360.4349014229
 20
875.8722656007
 10
360.5900076098
 20
875.7171594138
 10
360.7181724972
 20
875.5889945264
 10
360.8186510272
 20
875.4885159965
 10
360.8908471531
 20
875.4163198705
 10
360.9343287415
 20
875.3728382821
 10
360.9488573737
 20
875.3583245511
  0
LINE
  5
1C4
330
1F
100
AcDbEntity
  8
0
  6
Continuous
 62
     7
370
    25
100
AcDbLine
 10
360.6481519408
 20
875.0576191182
 30
0.0
 11
360.9488573737
 21
875.3583245511
 31
0.0
  0
SPLINE
  5
1C5
330
1F
100
AcDbEntity
  8
0
  6
Continuous
 62
     7
370
    25
100
AcDbSpline
210
0.0
220
0.0
230
1.0
 70
     8
 71
     3
 72
    20
 73
    16
 74
     0
 42
0.000000001
 43
0.00000001
 40
0.0
 40
0.0
 40
0.0
 40
0.0
 40
0.0786354872569939
 40
0.1572722736133735
 40
0.238190038255322
 40
0.3191094761408279
 40
0.397758634489907
 40
0.4764070580253594
 40
0.557342424316528
 40
0.6382774507136033
 40
0.7169030134208915
 40
0.7955279451610027
 40
0.8764382539643891
 40
0.9573493922982649
 40
0.9999999999999999
 40
0.9999999999999999
 40
0.9999999999999999
 40
0.9999999999999999
 10
358.1294831699817
 20
877.5725774998883
 30
0.0
 10
358.2461394412045
 20
877.4536454787494
 30
0.0
 10
358.4794539108727
 20
877.2157794716522
 30
0.0
 10
358.8088871752141
 20
876.8793778504536
 30
0.0
 10
359.1205542059012
 20
876.5610761526057
 30
0.0
 10
359.4075691847584
 20
876.2682279178454
 30
0.0
 10
359.6660341813978
 20
876.0051277460885
 30
0.0
 10
359.8975929939236
 20
875.7704302093063
 30
0.0
 10
360.102092968723
 20
875.5647210712458
 30
0.0
 10
360.2757894375403
 20
875.3919729060747
 30
0.0
 10
360.4163380080966
 20
875.2548802727647
 30
0.0
 10
360.5254341585839
 20
875.151749008966
 30
0.0
 10
360.6018005908024
 20
875.0843027387721
 30
0.0
 10
360.6392969425833
 20
875.0566424570926
 30
0.0
 10
360.6458797206544
 20
875.0573685039441
 30
0.0
 10
360.6481519407718
 20
875.0576191182355
 30
0.0
  0
SPLINE
  5
1C6
330
1F
100
AcDbEntity
  8
0
  6
Continuous
 62
     7
370
    25
100
AcDbSpline
210
0.0
220
0.0
230
1.0
 70
     8
 71
     3
 72
    10
 73
     6
 74
     0
 42
0.000000001
 43
0.00000001
 40
0.0
 40
0.0
 40
0.0
 40
0.0
 40
0.4927295445359097
 40
0.746468790431733
 40
0.9999999999999999
 40
0.9999999999999999
 40
0.9999999999999999
 40
0.9999999999999999
 10
356.7225006288974
 20
878.6006384129743
 30
0.0
 10
356.9756129298982
 20
878.4435819439952
 30
0.0
 10
357.3590696056074
 20
878.2056466431219
 30
0.0
 10
357.8234552130499
 20
877.8617296622696
 30
0.0
 10
358.0275017447973
 20
877.668935198415
 30
0.0
 10
358.1294831699817
 20
877.5725774998883
 30
0.0
  0
LINE
  5
1C7
330
1F
100
AcDbEntity
  8
0
  6
Continuous
 62
     7
370
    25
100
AcDbLine
 10
107.5834897227
 20
621.9929494496
 30
0.0
 11
107.2827842898
 21
621.6922440167
 31
0.0
  0
LWPOLYLINE
  5
1C8
330
1F
100
AcDbEntity
  8
0
  6
Continuous
 62
     7
370
    25
100
AcDbPolyline
 90
       42
 70
   128
 43
0.0
 10
97.3832872576
 20
631.5917410488
 10
97.3978158898
 20
631.5772198673
 10
97.4412974781
 20
631.5337308283
 10
97.5134936041
 20
631.4615421529
 10
97.6139721341
 20
631.361063623
 10
97.7421370215
 20
631.2328987355
 10
97.8972432084
 20
631.0777850981
 10
98.0783817238
 20
630.8966465826
 10
98.2844945855
 20
630.690533721
 10
98.514359898
 20
630.4606684084
 10
98.7666365571
 20
630.2083917494
 10
99.0398344464
 20
629.9351864095
 10
99.3323740429
 20
629.6426542635
 10
99.6425119109
 20
629.3325163956
 10
99.9684450097
 20
629.0065832968
 10
100.3082510895
 20
628.6667772169
 10
100.6599333949
 20
628.315087461
 10
101.0214504666
 20
627.9535852905
 10
101.3906416363
 20
627.5843792196
 10
101.765376038
 20
627.2096448179
 10
102.1434482998
 20
626.8315800066
 10
102.5226232476
 20
626.4524050589
 10
102.9006955094
 20
626.0743402477
 10
103.2754299111
 20
625.699605846
 10
103.6446210808
 20
625.3303997751
 10
104.0061381525
 20
624.9688976045
 10
104.3578204579
 20
624.6172078486
 10
104.6976265377
 20
624.2774017687
 10
105.0235596365
 20
623.9514686699
 10
105.3336975045
 20
623.641330802
 10
105.6262296504
 20
623.348798656
 10
105.8994349904
 20
623.0755933161
 10
106.1517116494
 20
622.8233166571
 10
106.3815769619
 20
622.5934513445
 10
106.5876898236
 20
622.3873384829
 10
106.768828339
 20
622.2061999674
 10
106.9239419765
 20
622.05108633
 10
107.0521068639
 20
621.9229214425
 10
107.1525853939
 20
621.8224429126
 10
107.2247740693
 20
621.7502542372
 10
107.2682631082
 20
621.7067651983
 10
107.2827842898
 20
621.6922440167
  0
LINE
  5
1C9
330
1F
100
AcDbEntity
  8
0
  6
Continuous
 62
     7
370
    25
100
AcDbLine
 10
97.6839926905
 20
631.8924464817
 30
0.0
 11
97.3832872576
 21
631.5917410488
 31
0.0
  0
SPLINE
  5
1CA
330
1F
100
AcDbEntity
  8
0
  6
Continuous
 62
     7
370
    25
100
AcDbSpline
210
0.0
220
0.0
230
1.0
 70
     8
 71
     3
 72
    20
 73
    16
 74
     0
 42
0.000000001
 43
0.00000001
 40
0.0
 40
0.0
 40
0.0
 40
0.0
 40
0.0785979757198396
 40
0.1571970157861018
 40
0.2380782165370247
 40
0.3189598153132504
 40
0.3975649400282984
 40
0.476169829101982
 40
0.5570583915270038
 40
0.6379458950716582
 40
0.7165646658128186
 40
0.7951832661837869
 40
0.8760850473286332
 40
0.9569864318893833
 40
1.0
 40
1.0
 40
1.0
 40
1.0
 10
97.68399269051245
 20
631.8924464817266
 30
0.0
 10
97.68956275283233
 20
631.8914029967206
 30
0.0
 10
97.7007029528999
 20
631.8893160125778
 30
0.0
 10
97.75933549586335
 20
631.8409354335754
 30
0.0
 10
97.84974038705121
 20
631.7582247025091
 30
0.0
 10
97.97396932031144
 20
631.638885363276
 30
0.0
 10
98.12876888748018
 20
631.4863419176793
 30
0.0
 10
98.31386521476423
 20
631.3012711896253
 30
0.0
 10
98.53079618389879
 20
631.0822476825372
 30
0.0
 10
98.7765173472843
 20
630.8326625698838
 30
0.0
 10
99.04675944991607
 20
630.5572308142449
 30
0.0
 10
99.34141454070294
 20
630.2563997850309
 30
0.0
 10
99.66255359504855
 20
629.9284305195912
 30
0.0
 10
99.95356193283763
 20
629.6313700582244
 30
0.0
 10
100.1384743500542
 20
629.4429075313836
 30
0.0
 10
100.2026614613025
 20
629.3774881000737
 30
0.0
  0
SPLINE
  5
1CB
330
1F
100
AcDbEntity
  8
0
  6
Continuous
 62
     7
370
    25
100
AcDbSpline
210
0.0
220
0.0
230
1.0
 70
     8
 71
     3
 72
    10
 73
     6
 74
     0
 42
0.000000001
 43
0.00000001
 40
0.0
 40
0.0
 40
0.0
 40
0.0
 40
0.3945710263380012
 40
0.7993907554559682
 40
0.9999999999999999
 40
0.9999999999999999
 40
0.9999999999999999
 40
0.9999999999999999
 10
100.2026614613025
 20
629.3774881000737
 30
0.0
 10
100.3654774101442
 20
629.2297354321122
 30
0.0
 10
100.6953383367124
 20
628.93039232535
 30
0.0
 10
101.1930461697591
 20
628.6052815713741
 30
0.0
 10
101.5059598660836
 20
628.4130938122311
 30
0.0
 10
101.6096440023868
 20
628.3494122858266
 30
0.0
  0
SPLINE
  5
1CC
330
1F
100
AcDbEntity
  8
0
  6
Continuous
 62
     7
370
    25
100
AcDbSpline
210
0.0
220
0.0
230
1.0
 70
     8
 71
     3
 72
    10
 73
     6
 74
     0
 42
0.000000001
 43
0.00000001
 40
0.0
 40
0.0
 40
0.0
 40
0.0
 40
0.4927292735747578
 40
0.7464702250848338
 40
1.0
 40
1.0
 40
1.0
 40
1.0
 10
104.040455526778
 20
625.9186007614354
 30
0.0
 10
104.1975163809883
 20
625.6654901784423
 30
0.0
 10
104.4354589134945
 20
625.2820351576203
 30
0.0
 10
104.7793675043388
 20
624.8176370565843
 30
0.0
 10
104.9721701500171
 20
624.6135961850518
 30
0.0
 10
105.0685313410251
 20
624.5116182203511
 30
0.0
  0
SPLINE
  5
1CD
330
1F
100
AcDbEntity
  8
0
  6
Continuous
 62
     7
370
    25
100
AcDbSpline
210
0.0
220
0.0
230
1.0
 70
     8
 71
     3
 72
    20
 73
    16
 74
     0
 42
0.000000001
 43
0.00000001
 40
0.0
 40
0.0
 40
0.0
 40
0.0
 40
0.0786355253187906
 40
0.1572717955462831
 40
0.2381901511991003
 40
0.3191091533644992
 40
0.3977579109340953
 40
0.4764063791207417
 40
0.5573417987829303
 40
0.6382771711845588
 40
0.7169027778559895
 40
0.7955275831127577
 40
0.8764380585002626
 40
0.9573493931053126
 40
1.0
 40
1.0
 40
1.0
 40
1.0
 10
105.0685313410251
 20
624.5116182203511
 30
0.0
 10
105.1874600873893
 20
624.3949582332466
 30
0.0
 10
105.4253187067212
 20
624.1616371539259
 30
0.0
 10
105.7617248696148
 20
623.8322149501952
 30
0.0
 10
106.0800319359427
 20
623.5205466006403
 30
0.0
 10
106.3728824599193
 20
623.2335411710603
 30
0.0
 10
106.6359753551696
 20
622.9750768016867
 30
0.0
 10
106.8706585813852
 20
622.7435023595791
 30
0.0
 10
107.0763851384578
 20
622.5390223741016
 30
0.0
 10
107.2491234681301
 20
622.3653058663402
 30
0.0
 10
107.3862348141159
 20
622.2247750958381
 30
0.0
 10
107.4893462959741
 20
622.1156715921062
 30
0.0
 10
107.5568098650848
 20
622.0393157238691
 30
0.0
 10
107.5844659291038
 20
622.0017904793385
 30
0.0
 10
107.5837402199895
 20
621.9952180826409
 30
0.0
 10
107.583489722678
 20
621.992949449561
 30
0.0
  0
ARC
  5
1CE
330
1F
100
AcDbEntity
  8
0
  6
Continuous
 62
     7
370
    25
100
AcDbCircle
 10
53.329262959
 20
780.9749833639
 30
0.0
 40
0.99995274415949
100
AcDbArc
 50
171.109627315
 51
269.9944718175
  0
SPLINE
  5
1CF
330
1F
100
AcDbEntity
  8
0
  6
Continuous
 62
     7
370
    25
100
AcDbSpline
210
0.0
220
0.0
230
1.0
 70
     8
 71
     3
 72
    12
 73
     8
 74
     0
 42
0.000000001
 43
0.00000001
 40
0.0
 40
0.0
 40
0.0
 40
0.0
 40
0.195605230758306
 40
0.3912030094767587
 40
0.5867896738343183
 40
0.7823486876344085
 40
1.0
 40
1.0
 40
1.0
 40
1.0
 10
52.93027729458502
 20
779.9750306244115
 30
0.0
 10
52.81782774665167
 20
779.9860849852511
 30
0.0
 10
52.59293293481415
 20
780.0081932857883
 30
0.0
 10
52.29306592591348
 20
780.1806835344742
 30
0.0
 10
52.06732465986266
 20
780.4343457092825
 30
0.0
 10
51.92525255547029
 20
780.7642431266619
 30
0.0
 10
51.93627245064464
 20
781.0032729395633
 30
0.0
 10
51.94207698769262
 20
781.1291777129392
 30
0.0
  0
LINE
  5
1D0
330
1F
100
AcDbEntity
  8
0
  6
Continuous
 62
     7
370
    25
100
AcDbLine
 10
53.3291664786
 20
779.9750306244
 30
0.0
 11
52.9302772946
 21
779.9750306244
 31
0.0
  0
SPLINE
  5
1D1
330
1F
100
AcDbEntity
  8
0
  6
Continuous
 62
     7
370
    25
100
AcDbSpline
210
0.0
220
0.0
230
1.0
 70
     8
 71
     3
 72
    12
 73
     8
 74
     0
 42
0.000000001
 43
0.00000001
 40
0.0
 40
0.0
 40
0.0
 40
0.0
 40
0.1955195040794333
 40
0.39103861616373
 40
0.5865637008675986
 40
0.7821182456749229
 40
0.9999999999999999
 40
0.9999999999999999
 40
0.9999999999999999
 40
0.9999999999999999
 10
51.94207698769262
 20
725.820876711152
 30
0.0
 10
51.93566624902851
 20
725.9336368645411
 30
0.0
 10
51.92284478455303
 20
726.1591569452473
 30
0.0
 10
52.04699119968417
 20
726.4819064953432
 30
0.0
 10
52.26274239841863
 20
726.7440086218388
 30
0.0
 10
52.56684938721726
 20
726.9353254359422
 30
0.0
 10
52.80485032541418
 20
726.9613266800864
 30
0.0
 10
52.93027729458502
 20
726.9750293876151
 30
0.0
  0
LINE
  5
1D2
330
1F
100
AcDbEntity
  8
0
  6
Continuous
 62
     7
370
    25
100
AcDbLine
 10
52.9302772946
 20
726.9750293876
 30
0.0
 11
53.3291664786
 21
726.9750293876
 31
0.0
  0
SPLINE
  5
1D3
330
1F
100
AcDbEntity
  8
0
  6
Continuous
 62
     7
370
    25
100
AcDbSpline
210
0.0
220
0.0
230
1.0
 70
     8
 71
     3
 72
    27
 73
    23
 74
     0
 42
0.000000001
 43
0.00000001
 40
0.0
 40
0.0
 40
0.0
 40
0.0
 40
0.0420823003764371
 40
0.0929388950730555
 40
0.1438929746444285
 40
0.1950093239742396
 40
0.2459649610264258
 40
0.2970241164210506
 40
0.3482452373451671
 40
0.39930467851501
 40
0.4504036582345931
 40
0.501663957523503
 40
0.5527625583340469
 40
0.6038313812354973
 40
0.655060964155741
 40
0.7061288737554777
 40
0.7571301222508557
 40
0.8082922905165878
 40
0.8592915042639523
 40
0.9102062930122548
 40
0.9612835040614316
 40
1.0
 40
1.0
 40
1.0
 40
1.0
 10
113.8841700620144
 20
890.547599696658
 30
0.0
 10
113.8113491012915
 20
890.4821086061343
 30
0.0
 10
113.6505237764589
 20
890.3374713230969
 30
0.0
 10
113.3348299415652
 20
890.0571709453227
 30
0.0
 10
112.9534994242764
 20
889.7199265848785
 30
0.0
 10
112.5254045613889
 20
889.3420505910657
 30
0.0
 10
112.0580957288152
 20
888.929477259997
 30
0.0
 10
111.5561134105438
 20
888.4853690849802
 30
0.0
 10
111.0273578824813
 20
888.0162589608452
 30
0.0
 10
110.4785807349164
 20
887.5276559924956
 30
0.0
 10
109.9165161333315
 20
887.0249121140207
 30
0.0
 10
109.3487131331643
 20
886.5147865956163
 30
0.0
 10
108.7822251977894
 20
886.0035659684755
 30
0.0
 10
108.2245355057423
 20
885.4977783085437
 30
0.0
 10
107.6820998745249
 20
885.0038531791427
 30
0.0
 10
107.1613847639348
 20
884.5279956855055
 30
0.0
 10
106.6696901411737
 20
884.0772510178712
 30
0.0
 10
106.2120015695716
 20
883.6570055440478
 30
0.0
 10
105.7929585066492
 20
883.2721581880506
 30
0.0
 10
105.421405444419
 20
882.9316404336918
 30
0.0
 10
105.1178392035199
 20
882.6545197132651
 30
0.0
 10
104.9640039978864
 20
882.5159131655024
 30
0.0
 10
104.8976746267765
 20
882.4561499591092
 30
0.0
  0
ARC
  5
1D4
330
1F
100
AcDbEntity
  8
0
  6
Continuous
 62
     7
370
    25
100
AcDbCircle
 10
229.1660723156
 20
753.4750286842
 30
0.0
 40
179.3686094502729
100
AcDbArc
 50
47.2365804891
 51
129.8312408705
  0
ARC
  5
1D5
330
1F
100
AcDbEntity
  8
0
  6
Continuous
 62
     7
370
    25
100
AcDbCircle
 10
229.1660723156
 20
753.4750286842
 30
0.0
 40
179.368609450273
100
AcDbArc
 50
134.1687591295
 51
171.1310491458
  0
ARC
  5
1D6
330
1F
100
AcDbEntity
  8
0
  6
Continuous
 62
     7
370
    25
100
AcDbCircle
 10
229.1660723156
 20
753.4750286842
 30
0.0
 40
179.3686094502729
100
AcDbArc
 50
227.2365804891
 51
42.7634195109
  0
ARC
  5
1D7
330
1F
100
AcDbEntity
  8
0
  6
Continuous
 62
     7
370
    25
100
AcDbCircle
 10
229.1660723156
 20
753.4750286842
 30
0.0
 40
179.3686094502729
100
AcDbArc
 50
188.8689508542
 51
222.7634195109
  0
SPLINE
  5
1D8
330
1F
100
AcDbEntity
  8
0
  6
Continuous
 62
     7
370
    25
100
AcDbSpline
210
0.0
220
0.0
230
1.0
 70
     8
 71
     3
 72
    10
 73
     6
 74
     0
 42
0.000000001
 43
0.00000001
 40
0.0
 40
0.0
 40
0.0
 40
0.0
 40
0.1751320997371617
 40
0.6413673552093431
 40
1.0
 40
1.0
 40
1.0
 40
1.0
 10
113.9407348699062
 20
890.600632929347
 30
0.0
 10
113.9437483086564
 20
890.6427106999357
 30
0.0
 10
113.9547840996063
 20
890.796807570105
 30
0.0
 10
114.0736699378697
 20
891.0188813074511
 30
0.0
 10
114.2142444101759
 20
891.1579025752229
 30
0.0
 10
114.2753627962558
 20
891.2183456654767
 30
0.0
  0
SPLINE
  5
1D9
330
1F
100
AcDbEntity
  8
0
  6
Continuous
 62
     7
370
    25
100
AcDbSpline
210
0.0
220
0.0
230
1.0
 70
     8
 71
     3
 72
    10
 73
     6
 74
     0
 42
0.000000001
 43
0.00000001
 40
0.0
 40
0.0
 40
0.0
 40
0.0
 40
0.4619934608587569
 40
0.9239832703697978
 40
1.0
 40
1.0
 40
1.0
 40
1.0
 10
104.1866731709926
 20
882.1344487900952
 30
0.0
 10
104.2749092493484
 20
882.2028994939923
 30
0.0
 10
104.4513807086896
 20
882.339800360789
 30
0.0
 10
104.6941530484681
 20
882.422298586981
 30
0.0
 10
104.8241045461233
 20
882.4102178712023
 30
0.0
 10
104.8424658245533
 20
882.4085109467725
 30
0.0
  0
LWPOLYLINE
  5
1DA
330
1F
100
AcDbEntity
  8
0
  6
Continuous
 62
     7
370
    25
100
AcDbPolyline
 90
       31
 70
   128
 43
0.0
 10
356.2846449084
 20
887.0935999389
 10
356.549647159
 20
886.8285827871
 10
356.833067245
 20
886.5451776023
 10
357.1331319279
 20
886.2450980182
 10
357.4480083651
 20
885.930221581
 10
357.7757594056
 20
885.6024854417
 10
358.1143435902
 20
885.2639012571
 10
358.4616896576
 20
884.9165551896
 10
358.8156369395
 20
884.5626079078
 10
359.1740247673
 20
884.2042051788
 10
359.5346477694
 20
883.8435970779
 10
359.8952558703
 20
883.482988977
 10
360.2536436982
 20
883.1246011491
 10
360.6076058812
 20
882.7706389661
 10
360.9549519486
 20
882.4232928987
 10
361.2935361332
 20
882.084708714
 10
361.6212722725
 20
881.7569725747
 10
361.9361487097
 20
881.4420961375
 10
362.2362133927
 20
881.1420165534
 10
362.5196334786
 20
880.8586113687
 10
362.7846357293
 20
880.5935942168
 10
363.0296108193
 20
880.3486191268
 10
363.2530388302
 20
880.125206017
 10
363.4535488553
 20
879.924695992
 10
363.6298742957
 20
879.7483556504
 10
363.7809720702
 20
879.5972727771
 10
363.9058885045
 20
879.4723563428
 10
364.0038487381
 20
879.3743961091
 10
364.0742567248
 20
879.3039881225
 10
364.1166654295
 20
879.2615794177
 10
364.1308364338
 20
879.2474084134
  0
LWPOLYLINE
  5
1DB
330
1F
100
AcDbEntity
  8
0
  6
Continuous
 62
     7
370
    25
100
AcDbPolyline
 90
       11
 70
   128
 43
0.0
 10
354.9384442038
 20
888.4397857423
 10
354.9526152081
 20
888.4256296392
 10
354.995038814
 20
888.3832060333
 10
355.0654468007
 20
888.3127980466
 10
355.1634070343
 20
888.2148378129
 10
355.2883085675
 20
888.0899213786
 10
355.439406342
 20
887.9388385053
 10
355.6157466835
 20
887.7624981637
 10
355.8162418074
 20
887.5620030399
 10
356.0396698184
 20
887.3385750289
 10
356.2846449084
 20
887.0935999389
  0
LWPOLYLINE
  5
1DC
330
1F
100
AcDbEntity
  8
0
  6
Continuous
 62
     7
370
    25
100
AcDbPolyline
 90
       33
 70
   128
 43
0.0
 10
352.8526616163
 20
884.1616176601
 10
353.1273868746
 20
883.8868998523
 10
353.4205821223
 20
883.5936897035
 10
353.7305784292
 20
883.2837008472
 10
354.055587656
 20
882.9586916204
 10
354.3937620587
 20
882.6205246682
 10
354.7431495852
 20
882.2711371417
 10
355.1017609305
 20
881.9125257964
 10
355.4675397343
 20
881.5467469926
 10
355.8383849329
 20
881.175901794
 10
356.2121656603
 20
880.8021061654
 10
356.5867659516
 20
880.4275207753
 10
356.9600102372
 20
880.0542615886
 10
357.3297974534
 20
879.6844892736
 10
357.6939669318
 20
879.320304894
 10
358.0504623122
 20
878.9638095136
 10
358.3972421355
 20
878.6170445914
 10
358.7322947449
 20
878.281991982
 10
359.053727693
 20
877.9605590339
 10
359.3596783347
 20
877.6545934911
 10
359.6484181351
 20
877.3658685918
 10
359.9182632632
 20
877.0960085626
 10
360.1677087016
 20
876.8465780254
 10
360.3952792353
 20
876.6189925904
 10
360.5997082657
 20
876.4145784612
 10
360.7798036999
 20
876.234483027
 10
360.9345373578
 20
876.079734468
 10
361.0630449719
 20
875.951241755
 10
361.1645516819
 20
875.849735045
 10
361.2385061449
 20
875.775780582
 10
361.2844762272
 20
875.7298104997
 10
361.3021937079
 20
875.712093019
 10
361.3024023241
 20
875.7118695016
  0
LWPOLYLINE
  5
1DD
330
1F
100
AcDbEntity
  8
0
  6
Continuous
 62
     7
370
    25
100
AcDbPolyline
 90
       12
 70
   128
 43
0.0
 10
351.4029127426
 20
885.6113665338
 10
351.4049094982
 20
885.6093697782
 10
351.4297050304
 20
885.584574246
 10
351.4827010102
 20
885.5315857167
 10
351.5635845131
 20
885.4506873126
 10
351.6719085044
 20
885.3423707719
 10
351.8070396847
 20
885.2072470422
 10
351.9682031936
 20
885.0460760827
 10
352.1544900603
 20
884.8597966666
 10
352.3648124999
 20
884.6494667764
 10
352.5979858703
 20
884.416293406
 10
352.8526616163
 20
884.1616176601
  0
LWPOLYLINE
  5
1DE
330
1F
100
AcDbEntity
  8
0
  6
Continuous
 62
     7
370
    25
100
AcDbPolyline
 90
       42
 70
   128
 43
0.0
 10
103.3937004275
 20
618.5102649565
 10
103.3795294232
 20
618.5244359608
 10
103.3371058173
 20
618.5668521161
 10
103.2666978306
 20
618.6372601028
 10
103.1687375969
 20
618.7352203365
 10
103.0438360638
 20
618.8601293202
 10
102.8927382893
 20
619.0112196441
 10
102.7163979477
 20
619.1875599857
 10
102.5159028239
 20
619.3880625601
 10
102.2924748129
 20
619.6114831205
 10
102.0474997229
 20
619.8564582105
 10
101.7824974722
 20
620.1214679117
 10
101.4990773863
 20
620.4048805471
 10
101.1990127034
 20
620.7049526806
 10
100.8841362662
 20
621.0198291178
 10
100.5563852257
 20
621.3475727077
 10
100.2178010411
 20
621.6861568923
 10
99.8704549736
 20
622.0334955092
 10
99.5165076918
 20
622.3874576922
 10
99.1581198639
 20
622.74584552
 10
98.7974968619
 20
623.1064610715
 10
98.436888761
 20
623.4670691724
 10
98.0785009331
 20
623.8254644509
 10
97.7245387501
 20
624.1794191833
 10
97.3771926827
 20
624.5267578001
 10
97.038608498
 20
624.8653494354
 10
96.7108723587
 20
625.1930855746
 10
96.3959959216
 20
625.5079620118
 10
96.0959312386
 20
625.8080341454
 10
95.8125111527
 20
626.0914467807
 10
95.547508902
 20
626.356456482
 10
95.302533812
 20
626.601431572
 10
95.0791058011
 20
626.8248595829
 10
94.878595776
 20
627.0253547068
 10
94.7022703356
 20
627.2016950484
 10
94.5511725611
 20
627.3527853723
 10
94.4262561268
 20
627.4777018066
 10
94.3282958931
 20
627.5756620403
 10
94.2578879065
 20
627.6460625763
 10
94.2154792017
 20
627.6884861822
 10
94.2013081974
 20
627.7026497359
 10
94.2013081974
 20
627.7026497359
  0
LWPOLYLINE
  5
1DF
330
1F
100
AcDbEntity
  8
0
  6
Continuous
 62
     7
370
    25
100
AcDbPolyline
 90
       43
 70
   128
 43
0.0
 10
106.9292318887
 20
621.3386916156
 10
106.9183763928
 20
621.3495471115
 10
106.8794545598
 20
621.3884689446
 10
106.8124663896
 20
621.4554571147
 10
106.717791862
 20
621.5501316424
 10
106.5959823198
 20
621.6719411845
 10
106.4477232165
 20
621.8202002878
 10
106.2738713688
 20
621.9940446849
 10
106.0754251546
 20
622.1924908991
 10
105.8535170621
 20
622.4143989916
 10
105.6094211406
 20
622.6585023637
 10
105.3445306487
 20
622.9233928557
 10
105.0603655047
 20
623.2075579996
 10
104.7585499353
 20
623.5093661185
 10
104.4408199257
 20
623.827096128
 10
104.1090008683
 20
624.1589300866
 10
103.7649628586
 20
624.5029531951
 10
103.4107175536
 20
624.8572059508
 10
103.0482617087
 20
625.2196617956
 10
102.6796963877
 20
625.5882345672
 10
102.3071077532
 20
625.9608157511
 10
101.9326415724
 20
626.3352744813
 10
101.5584585137
 20
626.7094649906
 10
101.1866745419
 20
627.0812489624
 10
100.8194354243
 20
627.44848808
 10
100.4588422245
 20
627.8090812798
 10
100.106951303
 20
628.1609647508
 10
99.7657892174
 20
628.5021268363
 10
99.4373080201
 20
628.8306080337
 10
99.1234001584
 20
629.144523346
 10
98.8258388705
 20
629.4420846338
 10
98.54633779
 20
629.7215782638
 10
98.2865211434
 20
629.9814098115
 10
98.0478343434
 20
630.2200817104
 10
97.8316780991
 20
630.4362454052
 10
97.6392743058
 20
630.628641748
 10
97.4717405505
 20
630.7961755033
 10
97.3300305075
 20
630.9379004474
 10
97.2149339385
 20
631.0529821153
 10
97.1271362967
 20
631.140779757
 10
97.0671442217
 20
631.2007792826
 10
97.0352706379
 20
631.2326454158
 10
97.0297423071
 20
631.2381886478
  0
LINE
  5
1E0
330
1F
100
AcDbEntity
  8
0
  6
Continuous
 62
     7
370
    25
100
AcDbLine
 10
406.766068644
 20
726.3426501836
 30
0.0
 11
406.4706978268
 21
726.3426501836
 31
0.0
  0
LINE
  5
1E1
330
1F
100
AcDbEntity
  8
0
  6
Continuous
 62
     7
370
    25
100
AcDbLine
 10
406.766068644
 20
718.9009208764
 30
0.0
 11
405.1709887452
 21
718.9009208764
 31
0.0
  0
LINE
  5
1E2
330
1F
100
AcDbEntity
  8
0
  6
Continuous
 62
     7
370
    25
100
AcDbLine
 10
406.766068644
 20
726.3426501836
 30
0.0
 11
406.766068644
 21
718.9009208764
 31
0.0
  0
LINE
  5
1E3
330
1F
100
AcDbEntity
  8
0
  6
Continuous
 62
     7
370
    25
100
AcDbLine
 10
406.766068644
 20
728.3485867615
 30
0.0
 11
406.766068644
 21
726.3426501836
 31
0.0
  0
LINE
  5
1E4
330
1F
100
AcDbEntity
  8
0
  6
Continuous
 62
     7
370
    25
100
AcDbLine
 10
406.766068644
 20
716.0259262259
 30
0.0
 11
404.5817521281
 21
716.0259262259
 31
0.0
  0
LINE
  5
1E5
330
1F
100
AcDbEntity
  8
0
  6
Continuous
 62
     7
370
    25
100
AcDbLine
 10
406.766068644
 20
718.9009208764
 30
0.0
 11
406.766068644
 21
716.0259262259
 31
0.0
  0
LINE
  5
1E6
330
1F
100
AcDbEntity
  8
0
  6
Continuous
 62
     7
370
    25
100
AcDbLine
 10
406.766068644
 20
786.3426469798
 30
0.0
 11
405.4976221985
 21
786.3426469798
 31
0.0
  0
LINE
  5
1E7
330
1F
100
AcDbEntity
  8
0
  6
Continuous
 62
     7
370
    25
100
AcDbLine
 10
406.766068644
 20
778.9009176727
 30
0.0
 11
406.723451323
 21
778.9009176727
 31
0.0
  0
LINE
  5
1E8
330
1F
100
AcDbEntity
  8
0
  6
Continuous
 62
     7
370
    25
100
AcDbLine
 10
406.766068644
 20
786.3426469798
 30
0.0
 11
406.766068644
 21
778.9009176727
 31
0.0
  0
LINE
  5
1E9
330
1F
100
AcDbEntity
  8
0
  6
Continuous
 62
     7
370
    25
100
AcDbLine
 10
406.766068644
 20
790.9093834992
 30
0.0
 11
404.5849111742
 21
790.9093834992
 31
0.0
  0
LINE
  5
1EA
330
1F
100
AcDbEntity
  8
0
  6
Continuous
 62
     7
370
    25
100
AcDbLine
 10
406.766068644
 20
790.9093834992
 30
0.0
 11
406.766068644
 21
786.3426469798
 31
0.0
  0
LINE
  5
1EB
330
1F
100
AcDbEntity
  8
0
  6
Continuous
 62
     7
370
    25
100
AcDbLine
 10
406.766068644
 20
778.9009176727
 30
0.0
 11
406.766068644
 21
778.6014713879
 31
0.0
  0
LINE
  5
1EC
330
1F
100
AcDbEntity
  8
0
  6
Continuous
 62
     7
370
    25
100
AcDbLine
 10
165.6871330804
 20
579.0680759187
 30
0.0
 11
152.5314343042
 21
583.8563629027
 31
0.0
  0
LINE
  5
1ED
330
1F
100
AcDbEntity
  8
0
  6
Continuous
 62
     7
370
    25
100
AcDbLine
 10
178.8428318567
 20
574.2797963853
 30
0.0
 11
165.6871330804
 21
579.0680759187
 31
0.0
  0
LINE
  5
1EE
330
1F
100
AcDbEntity
  8
0
  6
Continuous
 62
     7
370
    25
100
AcDbLine
 10
151.9337636299
 20
585.1380713816
 30
0.0
 11
153.9378953046
 21
590.6443782683
 31
0.0
  0
LINE
  5
1EF
330
1F
100
AcDbEntity
  8
0
  6
Continuous
 62
     7
370
    25
100
AcDbLine
 10
182.1286757357
 20
580.3837739463
 30
0.0
 11
180.1245440609
 21
574.8774670596
 31
0.0
  0
ARC
  5
1F0
330
1F
100
AcDbEntity
  8
0
  6
Continuous
 62
     7
370
    25
100
AcDbCircle
 10
152.8734571667
 20
584.7960528936
 30
0.0
 40
1.000000000000017
100
AcDbArc
 50
160.0
 51
250.0
  0
ARC
  5
1F1
330
1F
100
AcDbEntity
  8
0
  6
Continuous
 62
     7
370
    25
100
AcDbCircle
 10
179.1848505487
 20
575.2194888805
 30
0.0
 40
1.000000000000004
100
AcDbArc
 50
250.0
 51
340.0
  0
ARC
  5
1F2
330
1F
100
AcDbEntity
  8
0
  6
Continuous
 62
     7
370
    25
100
AcDbCircle
 10
229.1660723156
 20
753.4750286842
 30
0.0
 40
179.3500000000001
100
AcDbArc
 50
171.1669068396
 51
188.8074429018
  0
ARC
  5
1F3
330
1F
100
AcDbEntity
  8
0
  6
Continuous
 62
     7
370
    25
100
AcDbCircle
 10
229.1660723156
 20
753.4750286842
 30
0.0
 40
179.3500000000002
100
AcDbArc
 50
129.8928183258
 51
134.107251181
  0
LINE
  5
1F4
330
1F
100
AcDbEntity
  8
0
  6
Continuous
 62
     7
370
    25
100
AcDbLine
 10
409.3660679526
 20
769.97502526
 30
0.0
 11
409.3660679526
 21
736.9750291641
 31
0.0
  0
LINE
  5
1F5
330
1F
100
AcDbEntity
  8
0
  6
Continuous
 62
     7
370
    25
100
AcDbLine
 10
217.1660722113
 20
945.7021616931
 30
0.0
 11
217.1660722113
 21
932.4388020272
 31
0.0
  0
LINE
  5
1F6
330
1F
100
AcDbEntity
  8
0
  6
Continuous
 62
     7
370
    25
100
AcDbLine
 10
241.16607242
 20
932.4217849012
 30
0.0
 11
241.16607242
 21
945.7021616931
 31
0.0
  0
LINE
  5
1F7
330
1F
100
AcDbEntity
  8
0
  6
Continuous
 62
     7
370
    25
100
AcDbLine
 10
205.1068399913
 20
931.2086664672
 30
0.0
 11
206.4480283178
 21
943.2820492025
 31
0.0
  0
LINE
  5
1F8
330
1F
100
AcDbEntity
  8
0
  6
Continuous
 62
     7
370
    25
100
AcDbLine
 10
251.8841163135
 20
943.2820492025
 30
0.0
 11
253.2252450354
 21
931.209202909
 31
0.0
  0
LINE
  5
1F9
330
1F
100
AcDbEntity
  8
0
  6
Continuous
 62
     7
370
    25
100
AcDbLine
 10
395.1275762982
 20
685.4367275323
 30
0.0
 11
404.902797646
 21
678.2459226037
 31
0.0
  0
LINE
  5
1FA
330
1F
100
AcDbEntity
  8
0
  6
Continuous
 62
     7
370
    25
100
AcDbLine
 10
53.4293469853
 20
678.2459226037
 30
0.0
 11
63.2052537865
 21
685.4372285838
 31
0.0
  0
LINE
  5
1FB
330
1F
100
AcDbEntity
  8
0
  6
Continuous
 62
     7
370
    25
100
AcDbLine
 10
68.6924871869
 20
646.9691545303
 30
0.0
 11
80.1881370015
 21
653.6061727042
 31
0.0
  0
LINE
  5
1FC
330
1F
100
AcDbEntity
  8
0
  6
Continuous
 62
     7
370
    25
100
AcDbLine
 10
68.1908246941
 20
674.3923370327
 30
0.0
 11
56.6924926705
 21
667.7537635501
 31
0.0
  0
LINE
  5
1FD
330
1F
100
AcDbEntity
  8
0
  6
Continuous
 62
     7
370
    25
100
AcDbLine
 10
401.6396519608
 20
667.7537635501
 30
0.0
 11
390.1416328616
 21
674.3921544935
 31
0.0
  0
LINE
  5
1FE
330
1F
100
AcDbEntity
  8
0
  6
Continuous
 62
     7
370
    25
100
AcDbLine
 10
378.1435754961
 20
653.6064185734
 30
0.0
 11
389.6396574444
 21
646.9691545303
 31
0.0
  0
LINE
  5
1FF
330
1F
100
AcDbEntity
  8
0
  6
Continuous
 62
     7
370
    25
100
AcDbLine
 10
87.2639384932
 20
643.7679641481
 30
0.0
 11
76.1473891205
 21
638.8971172805
 31
0.0
  0
LINE
  5
200
330
1F
100
AcDbEntity
  8
0
  6
Continuous
 62
     7
370
    25
100
AcDbLine
 10
382.1847555108
 20
638.8971172805
 30
0.0
 11
371.0689660973
 21
643.7676288719
 31
0.0
  0
ARC
  5
201
330
1F
100
AcDbEntity
  8
0
  6
Continuous
 62
     7
370
    25
100
AcDbCircle
 10
229.1660723156
 20
753.4750286842
 30
0.0
 40
195.2123878561547
100
AcDbArc
 50
86.4757200497
 51
93.5242799503
  0
ARC
  5
202
330
1F
100
AcDbEntity
  8
0
  6
Continuous
 62
     7
370
    25
100
AcDbCircle
 10
229.1660723156
 20
753.4750286842
 30
0.0
 40
197.5000000000001
100
AcDbArc
 50
85.5306451794
 51
94.4693548206
  0
SPLINE
  5
203
330
1F
100
AcDbEntity
  8
0
  6
Continuous
 62
     7
370
    25
100
AcDbSpline
210
0.0
220
0.0
230
1.0
 70
    24
 71
     3
 72
    11
 73
     7
 74
     0
 42
0.000000001
 43
0.00000001
 40
0.0
 40
0.0
 40
0.0
 40
0.0
 40
0.30097291257218
 40
0.61068235135504
 40
0.8042139637540898
 40
1.0
 40
1.0
 40
1.0
 40
1.0
 10
217.166072211334
 20
948.3182393546323
 30
0.0
 10
217.166072211334
 20
948.0773451329687
 30
0.0
 10
217.166072211334
 20
947.5885641046159
 30
0.0
 10
217.166072211334
 20
946.8765691059282
 30
0.0
 10
217.166072211334
 20
946.2419267643284
 30
0.0
 10
217.166072211334
 20
945.8827766277445
 30
0.0
 10
217.166072211334
 20
945.702161693118
 30
0.0
  0
SPLINE
  5
204
330
1F
100
AcDbEntity
  8
0
  6
Continuous
 62
     7
370
    25
100
AcDbSpline
210
0.0
220
0.0
230
1.0
 70
    24
 71
     3
 72
    11
 73
     7
 74
     0
 42
0.000000001
 43
0.00000001
 40
0.0
 40
0.0
 40
0.0
 40
0.0
 40
0.3009837483138266
 40
0.6106880024654519
 40
0.8042182127862262
 40
1.0
 40
1.0
 40
1.0
 40
1.0
 10
241.1660724199503
 20
945.702161693118
 30
0.0
 10
241.1660724199503
 20
945.9798796815141
 30
0.0
 10
241.1660724199503
 20
946.5433620772665
 30
0.0
 10
241.1660724199503
 20
947.260855229888
 30
0.0
 10
241.1660724199503
 20
947.8551049695822
 30
0.0
 10
241.1660724199503
 20
948.163267143358
 30
0.0
 10
241.1660724199503
 20
948.3182393546323
 30
0.0
  0
ARC
  5
205
330
1F
100
AcDbEntity
  8
0
  6
Continuous
 62
     7
370
    25
100
AcDbCircle
 10
229.1660723156
 20
753.4750286842
 30
0.0
 40
195.2123878561545
100
AcDbArc
 50
206.4757200497
 51
213.5242799503
  0
ARC
  5
206
330
1F
100
AcDbEntity
  8
0
  6
Continuous
 62
     7
370
    25
100
AcDbCircle
 10
229.1660723156
 20
753.4750286842
 30
0.0
 40
197.5
100
AcDbArc
 50
205.5306451794
 51
214.4693548206
  0
SPLINE
  5
207
330
1F
100
AcDbEntity
  8
0
  6
Continuous
 62
     7
370
    25
100
AcDbSpline
210
0.0
220
0.0
230
1.0
 70
     8
 71
     3
 72
    11
 73
     7
 74
     0
 42
0.000000001
 43
0.00000001
 40
0.0
 40
0.0
 40
0.0
 40
0.0
 40
0.3009720192745521
 40
0.6106795031648896
 40
0.8042156971729835
 40
1.0
 40
1.0
 40
1.0
 40
1.0
 10
66.42689973778418
 20
645.6611194248418
 30
0.0
 10
66.63551988332247
 20
645.7815646370797
 30
0.0
 10
67.05881520205206
 20
646.0259508844968
 30
0.0
 10
67.67541632087185
 20
646.381955760063
 30
0.0
 10
68.2250365758963
 20
646.6992722288041
 30
0.0
 10
68.53607163185649
 20
646.8788481129354
 30
0.0
 10
68.69248718685797
 20
646.9691545303086
 30
0.0
  0
SPLINE
  5
208
330
1F
100
AcDbEntity
  8
0
  6
Continuous
 62
     7
370
    25
100
AcDbSpline
210
0.0
220
0.0
230
1.0
 70
     8
 71
     3
 72
    11
 73
     7
 74
     0
 42
0.000000001
 43
0.00000001
 40
0.0
 40
0.0
 40
0.0
 40
0.0
 40
0.3009844014790373
 40
0.6106881477565039
 40
0.8042185518582495
 40
1.0
 40
1.0
 40
1.0
 40
1.0
 10
56.69249267048529
 20
667.753763550065
 30
0.0
 10
56.45198128626156
 20
667.6149049382082
 30
0.0
 10
55.96399104150404
 20
667.3331650604665
 30
0.0
 10
55.34262748711924
 20
666.9744138909001
 30
0.0
 10
54.82798864295438
 20
666.6772972839632
 30
0.0
 10
54.56111406134112
 20
666.5232150312426
 30
0.0
 10
54.4269052214115
 20
666.4457284445981
 30
0.0
  0
ARC
  5
209
330
1F
100
AcDbEntity
  8
0
  6
Continuous
 62
     7
370
    25
100
AcDbCircle
 10
229.1660723156
 20
753.4750286842
 30
0.0
 40
195.2123878552544
100
AcDbArc
 50
326.4757200497
 51
333.5242799503
  0
ARC
  5
20A
330
1F
100
AcDbEntity
  8
0
  6
Continuous
 62
     7
370
    25
100
AcDbCircle
 10
229.1660723156
 20
753.4750286842
 30
0.0
 40
197.5000000000001
100
AcDbArc
 50
325.5306451794
 51
334.4693548206
  0
SPLINE
  5
20B
330
1F
100
AcDbEntity
  8
0
  6
Continuous
 62
     7
370
    25
100
AcDbSpline
210
0.0
220
0.0
230
1.0
 70
     8
 71
     3
 72
    11
 73
     7
 74
     0
 42
0.000000001
 43
0.00000001
 40
0.0
 40
0.0
 40
0.0
 40
0.0
 40
0.3009844014790373
 40
0.6106881477565039
 40
0.8042185518582495
 40
1.0
 40
1.0
 40
1.0
 40
1.0
 10
389.6396574444263
 20
646.9691545303086
 30
0.0
 10
389.8801688286501
 20
646.8302959184518
 30
0.0
 10
390.3681590734075
 20
646.5485560407102
 30
0.0
 10
390.9895226277924
 20
646.1898048711438
 30
0.0
 10
391.5041614719572
 20
645.8926882642069
 30
0.0
 10
391.7710360535705
 20
645.7386060114862
 30
0.0
 10
391.9052448935001
 20
645.6611194248418
 30
0.0
  0
SPLINE
  5
20C
330
1F
100
AcDbEntity
  8
0
  6
Continuous
 62
     7
370
    25
100
AcDbSpline
210
0.0
220
0.0
230
1.0
 70
     8
 71
     3
 72
    11
 73
     7
 74
     0
 42
0.000000001
 43
0.00000001
 40
0.0
 40
0.0
 40
0.0
 40
0.0
 40
0.300972626722945
 40
0.6106794857671605
 40
0.8042156884238878
 40
1.0
 40
1.0
 40
1.0
 40
1.0
 10
403.9052394098728
 20
666.4457284445981
 30
0.0
 10
403.6966195581477
 20
666.5661754908655
 30
0.0
 10
403.2733257019605
 20
666.8105649593616
 30
0.0
 10
402.6567219616271
 20
667.1665643100455
 30
0.0
 10
402.1071026453525
 20
667.4838814025836
 30
0.0
 10
401.7960675404254
 20
667.66345718423
 30
0.0
 10
401.639651960799
 20
667.753763550065
 30
0.0
  0
SPLINE
  5
20D
330
1F
100
AcDbEntity
  8
0
  6
Continuous
 62
     7
370
    25
100
AcDbSpline
210
0.0
220
0.0
230
1.0
 70
     8
 71
     3
 72
    23
 73
    19
 74
     0
 42
0.000000001
 43
0.00000001
 40
0.0
 40
0.0
 40
0.0
 40
0.0
 40
0.0601396650723592
 40
0.120279041594741
 40
0.1821654524506575
 40
0.2440517641997116
 40
0.3041891837015268
 40
0.3643265932994301
 40
0.4262102522246277
 40
0.4880937771746671
 40
0.5482336938379805
 40
0.6083730151266785
 40
0.6702582161034544
 40
0.7321439938157104
 40
0.7979518803647775
 40
0.8637603020334184
 40
0.9318801580527379
 40
0.9999999999999999
 40
0.9999999999999999
 40
0.9999999999999999
 40
0.9999999999999999
 10
244.5564321122258
 20
950.3744654889325
 30
0.0
 10
244.7769953881972
 20
950.3518556929092
 30
0.0
 10
245.2181208818778
 20
950.3066362093444
 30
0.0
 10
245.8761333536018
 20
950.1683655867848
 30
0.0
 10
246.5268776286443
 20
949.9770032603262
 30
0.0
 10
247.1588440483145
 20
949.7299575878417
 30
0.0
 10
247.7618262785964
 20
949.4334450735869
 30
0.0
 10
248.3382437829864
 20
949.0880825848233
 30
0.0
 10
248.8886164542345
 20
948.6913772353771
 30
0.0
 10
249.4032988629755
 20
948.2493343309459
 30
0.0
 10
249.8741457744121
 20
947.7699154621093
 30
0.0
 10
250.3037983059042
 20
947.2532552346211
 30
0.0
 10
250.6918990450035
 20
946.6967460167348
 30
0.0
 10
251.0416737669868
 20
946.0911718508055
 30
0.0
 10
251.3428894443978
 20
945.4437630126085
 30
0.0
 10
251.5908802723111
 20
944.7500536219841
 30
0.0
 10
251.780461150818
 20
944.028403233557
 30
0.0
 10
251.8495645950025
 20
943.5308338623638
 30
0.0
 10
251.8841163135259
 20
943.282049202464
 30
0.0
  0
SPLINE
  5
20E
330
1F
100
AcDbEntity
  8
0
  6
Continuous
 62
     7
370
    25
100
AcDbSpline
210
0.0
220
0.0
230
1.0
 70
     8
 71
     3
 72
    23
 73
    19
 74
     0
 42
0.000000001
 43
0.00000001
 40
0.0
 40
0.0
 40
0.0
 40
0.0
 40
0.0601396423657223
 40
0.1202792839609175
 40
0.1821654758661499
 40
0.2440518902911844
 40
0.3041891269210575
 40
0.3643263315161076
 40
0.4262102385682716
 40
0.4880938329918853
 40
0.5482334342599796
 40
0.6083726407590591
 40
0.6702584089904641
 40
0.7321443189504255
 40
0.7979524953566215
 40
0.8637603973657407
 40
0.9318806428413481
 40
1.0
 40
1.0
 40
1.0
 40
1.0
 10
50.9509858555286
 20
668.3537550802449
 30
0.0
 10
50.86027836592658
 20
668.5560707403939
 30
0.0
 10
50.67886338788477
 20
668.9607020580996
 30
0.0
 10
50.46962907857966
 20
669.5997015980013
 30
0.0
 10
50.30995243522008
 20
670.2589371594987
 30
0.0
 10
50.20793472419266
 20
670.9297615514913
 30
0.0
 10
50.1632247836159
 20
671.600213516849
 30
0.0
 10
50.17410087290556
 20
672.2720874689998
 30
0.0
 10
50.24248763441796
 20
672.9470756226418
 30
0.0
 10
50.36795669911196
 20
673.6138269734413
 30
0.0
 10
50.54772596440984
 20
674.2612995636597
 30
0.0
 10
50.78033228562853
 20
674.8917236141846
 30
0.0
 10
51.06824438257296
 20
675.5060805208834
 30
0.0
 10
51.41779381701547
 20
676.111789278804
 30
0.0
 10
51.8278710312528
 20
676.696344992856
 30
0.0
 10
52.30463590028034
 20
677.2579751044292
 30
0.0
 10
52.8348209300509
 20
677.7829714017063
 30
0.0
 10
53.231172494981
 20
678.0916062071934
 30
0.0
 10
53.42934698528936
 20
678.2459226037482
 30
0.0
  0
SPLINE
  5
20F
330
1F
100
AcDbEntity
  8
0
  6
Continuous
 62
     7
370
    25
100
AcDbSpline
210
0.0
220
0.0
230
1.0
 70
     8
 71
     3
 72
    23
 73
    19
 74
     0
 42
0.000000001
 43
0.00000001
 40
0.0
 40
0.0
 40
0.0
 40
0.0
 40
0.060139537226002
 40
0.1202795559627417
 40
0.1821652497867955
 40
0.2440519556371706
 40
0.3041895146030708
 40
0.3643269909042922
 40
0.4262112440693052
 40
0.4880944882072047
 40
0.5482336742409062
 40
0.6083733073788123
 40
0.6702585656563577
 40
0.7321444700766567
 40
0.7979523307557813
 40
0.8637609918286387
 40
0.9318801501767071
 40
1.0
 40
1.0
 40
1.0
 40
1.0
 10
391.9908073610752
 20
641.6968666548947
 30
0.0
 10
391.8609483234416
 20
641.5171561523803
 30
0.0
 10
391.6012292084502
 20
641.1577337084884
 30
0.0
 10
391.1524600341664
 20
640.657030062276
 30
0.0
 10
390.6613793464174
 20
640.1891323910326
 30
0.0
 10
390.1314443131687
 20
639.7653612574644
 30
0.0
 10
389.5731628101342
 20
639.3914205806103
 30
0.0
 10
388.9858568694123
 20
639.0649121497174
 30
0.0
 10
388.3671136131238
 20
638.7866240756351
 30
0.0
 10
387.726949386577
 20
638.5619310422026
 30
0.0
 10
387.0763449618979
 20
638.3938560746116
 30
0.0
 10
386.4140774654391
 20
638.2801018215807
 30
0.0
 10
385.7380734204173
 20
638.2222633368594
 30
0.0
 10
385.0387432926561
 20
638.2221374178059
 30
0.0
 10
384.3274611947675
 20
638.2849748076934
 30
0.0
 10
383.6026973474749
 20
638.4170625273813
 30
0.0
 10
382.8829421473906
 20
638.6137091992749
 30
0.0
 10
382.4174851771033
 20
638.8026476004454
 30
0.0
 10
382.1847555107562
 20
638.8971172805051
 30
0.0
  0
SPLINE
  5
210
330
1F
100
AcDbEntity
  8
0
  6
Continuous
 62
     7
370
    25
100
AcDbSpline
210
0.0
220
0.0
230
1.0
 70
     8
 71
     3
 72
    23
 73
    19
 74
     0
 42
0.000000001
 43
0.00000001
 40
0.0
 40
0.0
 40
0.0
 40
0.0
 40
0.060155913076712
 40
0.1203117871163692
 40
0.1822166794295633
 40
0.2441204042157266
 40
0.3042800250129897
 40
0.3644392500310438
 40
0.426347021700749
 40
0.4882554660301036
 40
0.5484110203259517
 40
0.6085655800532841
 40
0.67046959000911
 40
0.732372724682158
 40
0.7981262695631743
 40
0.8638796416597182
 40
0.9319398472004139
 40
1.0
 40
1.0
 40
1.0
 40
1.0
 10
206.4480283177583
 20
943.282049202464
 30
0.0
 10
206.4778258760042
 20
943.501811472192
 30
0.0
 10
206.5374209731595
 20
943.9413358690372
 30
0.0
 10
206.6971642233298
 20
944.5946454812906
 30
0.0
 10
206.9097269729417
 20
945.2389634503554
 30
0.0
 10
207.1773894289548
 20
945.8626972029172
 30
0.0
 10
207.4935733511135
 20
946.4558458714869
 30
0.0
 10
207.8577657387031
 20
947.0208449106825
 30
0.0
 10
208.2724612646372
 20
947.5581171263182
 30
0.0
 10
208.7313181012935
 20
948.0581879287
 30
0.0
 10
209.2260780172197
 20
948.5131951129717
 30
0.0
 10
209.7567481989084
 20
948.9257249399326
 30
0.0
 10
210.325875159934
 20
949.2954360658166
 30
0.0
 10
210.9425919491799
 20
949.6250499292231
 30
0.0
 10
211.5992535622052
 20
949.9046856948046
 30
0.0
 10
212.3001527052123
 20
950.1295786905765
 30
0.0
 10
213.0270086103669
 20
950.2952998845823
 30
0.0
 10
213.5261446139596
 20
950.3480769609655
 30
0.0
 10
213.7757125190585
 20
950.3744654889325
 30
0.0
  0
SPLINE
  5
211
330
1F
100
AcDbEntity
  8
0
  6
Continuous
 62
     7
370
    25
100
AcDbSpline
210
0.0
220
0.0
230
1.0
 70
     8
 71
     3
 72
    23
 73
    19
 74
     0
 42
0.000000001
 43
0.00000001
 40
0.0
 40
0.0
 40
0.0
 40
0.0
 40
0.0601555675333207
 40
0.1203123762384782
 40
0.1822160655058931
 40
0.2441204124438459
 40
0.3042801119343902
 40
0.3644395732213584
 40
0.4263476172334137
 40
0.4882555360652161
 40
0.548410862612362
 40
0.60856602436132
 40
0.6704693150212563
 40
0.7323727670025293
 40
0.7981264106162872
 40
0.8638798529926852
 40
0.9319397546264224
 40
1.0
 40
1.0
 40
1.0
 40
1.0
 10
404.9027976459949
 20
678.2459226037482
 30
0.0
 10
405.0782154861815
 20
678.1102344348002
 30
0.0
 10
405.4290547858984
 20
677.8388552972909
 30
0.0
 10
405.9149765521847
 20
677.3738730321954
 30
0.0
 10
406.3666769968174
 20
676.8676150105945
 30
0.0
 10
406.7730224247347
 20
676.3239542666595
 30
0.0
 10
407.1286140314054
 20
675.7535532714927
 30
0.0
 10
407.4358230066871
 20
675.155652606364
 30
0.0
 10
407.6937716354176
 20
674.5278819292516
 30
0.0
 10
407.8974159502184
 20
673.8804656567216
 30
0.0
 10
408.0440660547189
 20
673.2244847944341
 30
0.0
 10
408.1360104624408
 20
672.5586494353586
 30
0.0
 10
408.1715981666868
 20
671.8809135873553
 30
0.0
 10
408.148722340551
 20
671.1820147506553
 30
0.0
 10
408.0625434861159
 20
670.4735114258365
 30
0.0
 10
407.9068725921217
 20
669.7540660828536
 30
0.0
 10
407.6869496439966
 20
669.0417342104894
 30
0.0
 10
407.48308923677
 20
668.5830818430665
 30
0.0
 10
407.3811587757556
 20
668.3537550802449
 30
0.0
  0
SPLINE
  5
212
330
1F
100
AcDbEntity
  8
0
  6
Continuous
 62
     7
370
    25
100
AcDbSpline
210
0.0
220
0.0
230
1.0
 70
     8
 71
     3
 72
    23
 73
    19
 74
     0
 42
0.000000001
 43
0.00000001
 40
0.0
 40
0.0
 40
0.0
 40
0.0
 40
0.060155670655446
 40
0.1203125141335471
 40
0.1822156726032274
 40
0.2441200490715647
 40
0.3042800185477745
 40
0.3644399839423246
 40
0.4263475021280965
 40
0.4882557321006304
 40
0.548410896758141
 40
0.6085662424236856
 40
0.6704691853947643
 40
0.7323727027433413
 40
0.7981259907216713
 40
0.8638799180827941
 40
0.9319400512859978
 40
1.0
 40
1.0
 40
1.0
 40
1.0
 10
76.14738912052802
 20
638.8971172805051
 30
0.0
 10
75.94217118346266
 20
638.813042778203
 30
0.0
 10
75.53173130830854
 20
638.6448921344435
 30
0.0
 10
74.88608356618978
 20
638.4565701398004
 30
0.0
 10
74.22180644411297
 20
638.3184959869636
 30
0.0
 10
73.54780826478714
 20
638.238437300195
 30
0.0
 10
72.87602835533427
 20
638.2156774104325
 30
0.0
 10
72.20462555045681
 20
638.2485842761597
 30
0.0
 10
71.53198602784059
 20
638.3390865151483
 30
0.0
 10
70.86948551545352
 20
638.4864299506564
 30
0.0
 10
70.22806274572446
 20
638.6874159874695
 30
0.0
 10
69.6054557807538
 20
638.9406940041756
 30
0.0
 10
69.00072857419804
 20
639.2487485819001
 30
0.0
 10
68.40690760390686
 20
639.6180125354557
 30
0.0
 10
67.83641144112207
 20
640.0468934742564
 30
0.0
 10
67.29118595823128
 20
640.5414299478857
 30
0.0
 10
66.78424556535414
 20
641.0880531431419
 30
0.0
 10
66.48897323519249
 20
641.4939290010107
 30
0.0
 10
66.34133727020911
 20
641.6968666548947
 30
0.0
  0
ARC
  5
213
330
1F
100
AcDbEntity
  8
0
  6
Continuous
 62
     7
370
    25
100
AcDbCircle
 10
229.1660723156
 20
930.9750286842
 30
0.0
 40
5.500000000000006
100
AcDbArc
 50
18.8216610686
 51
161.1783389314
  0
ARC
  5
214
330
1F
100
AcDbEntity
  8
0
  6
Continuous
 62
     7
370
    25
100
AcDbCircle
 10
382.8855814874
 20
664.7250286842
 30
0.0
 40
5.499999999999992
100
AcDbArc
 50
258.8216610686
 51
41.1783389314
  0
ARC
  5
215
330
1F
100
AcDbEntity
  8
0
  6
Continuous
 62
     7
370
    25
100
AcDbCircle
 10
75.4465631439
 20
664.7250286842
 30
0.0
 40
5.50000000000006
100
AcDbArc
 50
138.8216610686
 51
281.1783389314
  0
ENDSEC
  0
SECTION
  2
OBJECTS
  0
DICTIONARY
  5
C
330
0
100
AcDbDictionary
281
     1
  3
ACAD_GROUP
350
D
  3
ACAD_LAYOUT
350
1A
  3
ACAD_MLINESTYLE
350
17
  3
ACAD_PLOTSETTINGS
350
19
  3
ACAD_PLOTSTYLENAME
350
E
  3
ACAD_SCALELIST
350
47
  0
DICTIONARY
  5
D
102
{ACAD_REACTORS
330
C
102
}
330
C
100
AcDbDictionary
281
     1
  0
DICTIONARY
  5
1A
102
{ACAD_REACTORS
330
C
102
}
330
C
100
AcDbDictionary
281
     1
  3
Layout1
350
1E
  3
Layout2
350
26
  3
Model
350
22
  0
DICTIONARY
  5
17
102
{ACAD_REACTORS
330
C
102
}
330
C
100
AcDbDictionary
281
     1
  3
Standard
350
18
  0
DICTIONARY
  5
19
102
{ACAD_REACTORS
330
C
102
}
330
C
100
AcDbDictionary
281
     1
  0
ACDBDICTIONARYWDFLT
  5
E
102
{ACAD_REACTORS
330
C
102
}
330
C
100
AcDbDictionary
281
     1
  3
Normal
350
F
100
AcDbDictionaryWithDefault
340
F
  0
DICTIONARY
  5
47
102
{ACAD_REACTORS
330
C
102
}
330
C
100
AcDbDictionary
281
     1
  3
A0
350
48
  3
A1
350
49
  3
A2
350
4A
  3
A3
350
4B
  3
A4
350
4C
  3
A5
350
4D
  3
A6
350
4E
  3
A7
350
4F
  3
A8
350
50
  3
A9
350
51
  3
B0
350
52
  3
B1
350
53
  3
B2
350
54
  3
B3
350
55
  3
B4
350
56
  3
B5
350
57
  3
B6
350
58
  3
B7
350
59
  3
B8
350
5A
  3
B9
350
5B
  3
C0
350
5C
  3
C1
350
5D
  3
C2
350
5E
  3
C3
350
5F
  3
C4
350
60
  3
C5
350
61
  3
C6
350
62
  3
C7
350
63
  3
C8
350
64
  3
C9
350
65
  3
D0
350
66
  3
D1
350
67
  3
D2
350
68
  0
LAYOUT
  5
1E
102
{ACAD_REACTORS
330
1A
102
}
330
1A
100
AcDbPlotSettings
  1

  2
none_device
  4

  6

 40
0.0
 41
0.0
 42
0.0
 43
0.0
 44
0.0
 45
0.0
 46
0.0
 47
0.0
 48
0.0
 49
0.0
140
0.0
141
0.0
142
1.0
143
1.0
 70
   688
 72
     1
 73
     0
 74
     5
  7

 75
    16
147
1.0
148
0.0
149
0.0
100
AcDbLayout
  1
Layout1
 70
     1
 71
     1
 10
0.0
 20
0.0
 11
420.0
 21
297.0
 12
0.0
 22
0.0
 32
0.0
 14
1.0000000000E+20
 24
1.0000000000E+20
 34
1.0000000000E+20
 15
-1.0000000000E+20
 25
-1.0000000000E+20
 35
-1.0000000000E+20
146
0.0
 13
0.0
 23
0.0
 33
0.0
 16
1.0
 26
0.0
 36
0.0
 17
0.0
 27
1.0
 37
0.0
 76
     0
330
1B
  0
LAYOUT
  5
26
102
{ACAD_REACTORS
330
1A
102
}
330
1A
100
AcDbPlotSettings
  1

  2
none_device
  4

  6

 40
0.0
 41
0.0
 42
0.0
 43
0.0
 44
0.0
 45
0.0
 46
0.0
 47
0.0
 48
0.0
 49
0.0
140
0.0
141
0.0
142
1.0
143
1.0
 70
   688
 72
     1
 73
     0
 74
     5
  7

 75
    16
147
1.0
148
0.0
149
0.0
100
AcDbLayout
  1
Layout2
 70
     1
 71
     2
 10
0.0
 20
0.0
 11
0.0
 21
0.0
 12
0.0
 22
0.0
 32
0.0
 14
0.0
 24
0.0
 34
0.0
 15
0.0
 25
0.0
 35
0.0
146
0.0
 13
0.0
 23
0.0
 33
0.0
 16
1.0
 26
0.0
 36
0.0
 17
0.0
 27
1.0
 37
0.0
 76
     0
330
23
  0
LAYOUT
  5
22
102
{ACAD_REACTORS
330
1A
102
}
330
1A
100
AcDbPlotSettings
  1

  2
none_device
  4
Letter_(8.50_x_11.00_Inches)
  6

 40
6.35
 41
6.35
 42
6.35000508
 43
6.35000508
 44
215.9
 45
279.4
 46
0.0
 47
0.0
 48
0.0
 49
0.0
140
0.0
141
0.0
142
1.0
143
1.0
 70
  1712
 72
     1
 73
     0
 74
     0
  7

 75
     0
147
1.0
148
0.0
149
0.0
100
AcDbLayout
  1
Model
 70
     1
 71
     0
 10
0.0
 20
0.0
 11
210.0
 21
297.0
 12
0.0
 22
0.0
 32
0.0
 14
0.0
 24
0.0
 34
0.0
 15
210.0
 25
297.0
 35
0.0
146
0.0
 13
0.0
 23
0.0
 33
0.0
 16
1.0
 26
0.0
 36
0.0
 17
0.0
 27
1.0
 37
0.0
 76
     0
330
1F
331
29
  0
MLINESTYLE
  5
18
102
{ACAD_REACTORS
330
17
102
}
330
17
100
AcDbMlineStyle
  2
Standard
 70
     0
  3

 62
   256
 51
90.0
 52
90.0
 71
     2
 49
0.5
 62
   256
  6
BYLAYER
 49
-0.5
 62
   256
  6
BYLAYER
  0
ACDBPLACEHOLDER
  5
F
102
{ACAD_REACTORS
330
E
102
}
330
E
  0
SCALE
  5
48
102
{ACAD_REACTORS
330
47
102
}
330
47
100
AcDbScale
 70
     0
300
1:1
140
1.0
141
1.0
290
     1
  0
SCALE
  5
49
102
{ACAD_REACTORS
330
47
102
}
330
47
100
AcDbScale
 70
     0
300
1:2
140
1.0
141
2.0
290
     0
  0
SCALE
  5
4A
102
{ACAD_REACTORS
330
47
102
}
330
47
100
AcDbScale
 70
     0
300
1:4
140
1.0
141
4.0
290
     0
  0
SCALE
  5
4B
102
{ACAD_REACTORS
330
47
102
}
330
47
100
AcDbScale
 70
     0
300
1:5
140
1.0
141
5.0
290
     0
  0
SCALE
  5
4C
102
{ACAD_REACTORS
330
47
102
}
330
47
100
AcDbScale
 70
     0
300
1:8
140
1.0
141
8.0
290
     0
  0
SCALE
  5
4D
102
{ACAD_REACTORS
330
47
102
}
330
47
100
AcDbScale
 70
     0
300
1:10
140
1.0
141
10.0
290
     0
  0
SCALE
  5
4E
102
{ACAD_REACTORS
330
47
102
}
330
47
100
AcDbScale
 70
     0
300
1:16
140
1.0
141
16.0
290
     0
  0
SCALE
  5
4F
102
{ACAD_REACTORS
330
47
102
}
330
47
100
AcDbScale
 70
     0
300
1:20
140
1.0
141
20.0
290
     0
  0
SCALE
  5
50
102
{ACAD_REACTORS
330
47
102
}
330
47
100
AcDbScale
 70
     0
300
1:30
140
1.0
141
30.0
290
     0
  0
SCALE
  5
51
102
{ACAD_REACTORS
330
47
102
}
330
47
100
AcDbScale
 70
     0
300
1:40
140
1.0
141
40.0
290
     0
  0
SCALE
  5
52
102
{ACAD_REACTORS
330
47
102
}
330
47
100
AcDbScale
 70
     0
300
1:50
140
1.0
141
50.0
290
     0
  0
SCALE
  5
53
102
{ACAD_REACTORS
330
47
102
}
330
47
100
AcDbScale
 70
     0
300
1:100
140
1.0
141
100.0
290
     0
  0
SCALE
  5
54
102
{ACAD_REACTORS
330
47
102
}
330
47
100
AcDbScale
 70
     0
300
2:1
140
2.0
141
1.0
290
     0
  0
SCALE
  5
55
102
{ACAD_REACTORS
330
47
102
}
330
47
100
AcDbScale
 70
     0
300
4:1
140
4.0
141
1.0
290
     0
  0
SCALE
  5
56
102
{ACAD_REACTORS
330
47
102
}
330
47
100
AcDbScale
 70
     0
300
8:1
140
8.0
141
1.0
290
     0
  0
SCALE
  5
57
102
{ACAD_REACTORS
330
47
102
}
330
47
100
AcDbScale
 70
     0
300
10:1
140
10.0
141
1.0
290
     0
  0
SCALE
  5
58
102
{ACAD_REACTORS
330
47
102
}
330
47
100
AcDbScale
 70
     0
300
100:1
140
100.0
141
1.0
290
     0
  0
SCALE
  5
59
102
{ACAD_REACTORS
330
47
102
}
330
47
100
AcDbScale
 70
     0
300
1/128" = 1'-0"
140
0.0078125
141
12.0
290
     0
  0
SCALE
  5
5A
102
{ACAD_REACTORS
330
47
102
}
330
47
100
AcDbScale
 70
     0
300
1/64" = 1'-0"
140
0.015625
141
12.0
290
     0
  0
SCALE
  5
5B
102
{ACAD_REACTORS
330
47
102
}
330
47
100
AcDbScale
 70
     0
300
1/32" = 1'-0"
140
0.03125
141
12.0
290
     0
  0
SCALE
  5
5C
102
{ACAD_REACTORS
330
47
102
}
330
47
100
AcDbScale
 70
     0
300
1/16" = 1'-0"
140
0.0625
141
12.0
290
     0
  0
SCALE
  5
5D
102
{ACAD_REACTORS
330
47
102
}
330
47
100
AcDbScale
 70
     0
300
3/32" = 1'-0"
140
0.09375
141
12.0
290
     0
  0
SCALE
  5
5E
102
{ACAD_REACTORS
330
47
102
}
330
47
100
AcDbScale
 70
     0
300
1/8" = 1'-0"
140
0.125
141
12.0
290
     0
  0
SCALE
  5
5F
102
{ACAD_REACTORS
330
47
102
}
330
47
100
AcDbScale
 70
     0
300
3/16" = 1'-0"
140
0.1875
141
12.0
290
     0
  0
SCALE
  5
60
102
{ACAD_REACTORS
330
47
102
}
330
47
100
AcDbScale
 70
     0
300
1/4" = 1'-0"
140
0.25
141
12.0
290
     0
  0
SCALE
  5
61
102
{ACAD_REACTORS
330
47
102
}
330
47
100
AcDbScale
 70
     0
300
3/8" = 1'-0"
140
0.375
141
12.0
290
     0
  0
SCALE
  5
62
102
{ACAD_REACTORS
330
47
102
}
330
47
100
AcDbScale
 70
     0
300
1/2" = 1'-0"
140
0.5
141
12.0
290
     0
  0
SCALE
  5
63
102
{ACAD_REACTORS
330
47
102
}
330
47
100
AcDbScale
 70
     0
300
3/4" = 1'-0"
140
0.75
141
12.0
290
     0
  0
SCALE
  5
64
102
{ACAD_REACTORS
330
47
102
}
330
47
100
AcDbScale
 70
     0
300
1" = 1'-0"
140
1.0
141
12.0
290
     0
  0
SCALE
  5
65
102
{ACAD_REACTORS
330
47
102
}
330
47
100
AcDbScale
 70
     0
300
1-1/2" = 1'-0"
140
1.5
141
12.0
290
     0
  0
SCALE
  5
66
102
{ACAD_REACTORS
330
47
102
}
330
47
100
AcDbScale
 70
     0
300
3" = 1'-0"
140
3.0
141
12.0
290
     0
  0
SCALE
  5
67
102
{ACAD_REACTORS
330
47
102
}
330
47
100
AcDbScale
 70
     0
300
6" = 1'-0"
140
6.0
141
12.0
290
     0
  0
SCALE
  5
68
102
{ACAD_REACTORS
330
47
102
}
330
47
100
AcDbScale
 70
     0
300
1'-0" = 1'-0"
140
12.0
141
12.0
290
     0
  0
ENDSEC
  0
EOF
