  0
SECTION
  2
HEADER
  9
$ACADVER
  1
AC1015
  9
$ACADMAINTVER
 70
     6
  9
$DWGCODEPAGE
  3
DOS932
  9
$INSBASE
 10
0.0
 20
0.0
 30
0.0
  9
$EXTMIN
 10
0.0
 20
0.0
 30
0.0
  9
$EXTMAX
 10
44.0
 20
34.0
 30
0.0
  9
$LIMMIN
 10
0.0
 20
0.0
  9
$LIMMAX
 10
44.0
 20
34.0
  9
$ORTHOMODE
 70
     0
  9
$REGENMODE
 70
     1
  9
$FILLMODE
 70
     1
  9
$QTEXTMODE
 70
     0
  9
$MIRRTEXT
 70
     1
  9
$LTSCALE
 40
1.0
  9
$ATTMODE
 70
     1
  9
$TEXTSIZE
 40
0.1377952756
  9
$TRACEWID
 40
0.05
  9
$TEXTSTYLE
  7
STANDARD
  9
$CLAYER
  8
0
  9
$CELTYPE
  6
ByLayer
  9
$CECOLOR
 62
   256
  9
$CELTSCALE
 40
1.0
  9
$DISPSILH
 70
     0
  9
$DIMSCALE
 40
1.0
  9
$DIMASZ
 40
0.14
  9
$DIMEXO
 40
0.0393700787
  9
$DIMDLI
 40
0.38
  9
$DIMRND
 40
0.0
  9
$DIMDLE
 40
0.0
  9
$DIMEXE
 40
0.0393700787
  9
$DIMTP
 40
0.0
  9
$DIMTM
 40
0.0
  9
$DIMTXT
 40
0.1377952756
  9
$DIMCEN
 40
0.09
  9
$DIMTSZ
 40
0.0
  9
$DIMTOL
 70
     0
  9
$DIMLIM
 70
     0
  9
$DIMTIH
 70
     1
  9
$DIMTOH
 70
     1
  9
$DIMSE1
 70
     0
  9
$DIMSE2
 70
     0
  9
$DIMTAD
 70
     1
  9
$DIMZIN
 70
     1
  9
$DIMBLK
  1

  9
$DIMASO
 70
     1
  9
$DIMSHO
 70
     1
  9
$DIMPOST
  1

  9
$DIMAPOST
  1

  9
$DIMALT
 70
     0
  9
$DIMALTD
 70
     2
  9
$DIMALTF
 40
25.4
  9
$DIMLFAC
 40
1.0
  9
$DIMTOFL
 70
     0
  9
$DIMTVP
 40
0.0
  9
$DIMTIX
 70
     0
  9
$DIMSOXD
 70
     0
  9
$DIMSAH
 70
     0
  9
$DIMBLK1
  1

  9
$DIMBLK2
  1

  9
$DIMSTYLE
  2
Standard
  9
$DIMCLRD
 70
     0
  9
$DIMCLRE
 70
     0
  9
$DIMCLRT
 70
     0
  9
$DIMTFAC
 40
1.0
  9
$DIMGAP
 40
0.06
  9
$DIMJUST
 70
     0
  9
$DIMSD1
 70
     0
  9
$DIMSD2
 70
     0
  9
$DIMTOLJ
 70
     1
  9
$DIMTZIN
 70
     1
  9
$DIMALTZ
 70
     0
  9
$DIMALTTZ
 70
     0
  9
$DIMUPT
 70
     0
  9
$DIMDEC
 70
     4
  9
$DIMTDEC
 70
     4
  9
$DIMALTU
 70
     2
  9
$DIMALTTD
 70
     2
  9
$DIMTXSTY
  7
STANDARD
  9
$DIMAUNIT
 70
     0
  9
$DIMADEC
 70
     0
  9
$DIMALTRND
 40
0.0
  9
$DIMAZIN
 70
     0
  9
$DIMDSEP
 70
    46
  9
$DIMATFIT
 70
     3
  9
$DIMFRAC
 70
     0
  9
$DIMLDRBLK
  1

  9
$DIMLUNIT
 70
     2
  9
$DIMLWD
 70
    -2
  9
$DIMLWE
 70
    -2
  9
$DIMTMOVE
 70
     0
  9
$LUNITS
 70
     2
  9
$LUPREC
 70
     3
  9
$SKETCHINC
 40
0.1
  9
$FILLETRAD
 40
0.5
  9
$AUNITS
 70
     0
  9
$AUPREC
 70
     0
  9
$MENU
  1
.
  9
$ELEVATION
 40
0.0
  9
$PELEVATION
 40
0.0
  9
$THICKNESS
 40
0.0
  9
$LIMCHECK
 70
     0
  9
$CHAMFERA
 40
0.0
  9
$CHAMFERB
 40
0.0
  9
$CHAMFERC
 40
0.0
  9
$CHAMFERD
 40
0.0
  9
$SKPOLY
 70
     0
  9
$TDCREATE
 40
2460104.787501389
  9
$TDUCREATE
 40
2460104.412501389
  9
$TDUPDATE
 40
2460104.787505012
  9
$TDUUPDATE
 40
2460104.412505012
  9
$TDINDWG
 40
0.0000000116
  9
$TDUSRTIMER
 40
0.0000000116
  9
$USRTIMER
 70
     1
  9
$ANGBASE
 50
0.0
  9
$ANGDIR
 70
     0
  9
$PDMODE
 70
     0
  9
$PDSIZE
 40
-1.0
  9
$PLINEWID
 40
0.0
  9
$SPLFRAME
 70
     0
  9
$SPLINETYPE
 70
     6
  9
$SPLINESEGS
 70
     8
  9
$HANDSEED
  5
1EA
  9
$SURFTAB1
 70
     6
  9
$SURFTAB2
 70
     6
  9
$SURFTYPE
 70
     6
  9
$SURFU
 70
     6
  9
$SURFV
 70
     6
  9
$UCSBASE
  2

  9
$UCSNAME
  2

  9
$UCSORG
 10
0.0
 20
0.0
 30
0.0
  9
$UCSXDIR
 10
1.0
 20
0.0
 30
0.0
  9
$UCSYDIR
 10
0.0
 20
1.0
 30
0.0
  9
$UCSORTHOREF
  2

  9
$UCSORTHOVIEW
 70
     0
  9
$UCSORGTOP
 10
0.0
 20
0.0
 30
0.0
  9
$UCSORGBOTTOM
 10
0.0
 20
0.0
 30
0.0
  9
$UCSORGLEFT
 10
0.0
 20
0.0
 30
0.0
  9
$UCSORGRIGHT
 10
0.0
 20
0.0
 30
0.0
  9
$UCSORGFRONT
 10
0.0
 20
0.0
 30
0.0
  9
$UCSORGBACK
 10
0.0
 20
0.0
 30
0.0
  9
$PUCSBASE
  2

  9
$PUCSNAME
  2

  9
$PUCSORG
 10
0.0
 20
0.0
 30
0.0
  9
$PUCSXDIR
 10
1.0
 20
0.0
 30
0.0
  9
$PUCSYDIR
 10
0.0
 20
1.0
 30
0.0
  9
$PUCSORTHOREF
  2

  9
$PUCSORTHOVIEW
 70
     0
  9
$PUCSORGTOP
 10
0.0
 20
0.0
 30
0.0
  9
$PUCSORGBOTTOM
 10
0.0
 20
0.0
 30
0.0
  9
$PUCSORGLEFT
 10
0.0
 20
0.0
 30
0.0
  9
$PUCSORGRIGHT
 10
0.0
 20
0.0
 30
0.0
  9
$PUCSORGFRONT
 10
0.0
 20
0.0
 30
0.0
  9
$PUCSORGBACK
 10
0.0
 20
0.0
 30
0.0
  9
$USERI1
 70
     0
  9
$USERI2
 70
     0
  9
$USERI3
 70
     0
  9
$USERI4
 70
     0
  9
$USERI5
 70
     0
  9
$USERR1
 40
0.0
  9
$USERR2
 40
0.0
  9
$USERR3
 40
0.0
  9
$USERR4
 40
0.0
  9
$USERR5
 40
0.0
  9
$WORLDVIEW
 70
     1
  9
$SHADEDGE
 70
     3
  9
$SHADEDIF
 70
    70
  9
$TILEMODE
 70
     0
  9
$MAXACTVP
 70
    64
  9
$PINSBASE
 10
0.0
 20
0.0
 30
0.0
  9
$PLIMCHECK
 70
     0
  9
$PEXTMIN
 10
0.0
 20
0.0
 30
0.0
  9
$PEXTMAX
 10
44.0
 20
34.0
 30
0.0
  9
$PLIMMIN
 10
0.0
 20
0.0
  9
$PLIMMAX
 10
44.0
 20
34.0
  9
$UNITMODE
 70
     0
  9
$VISRETAIN
 70
     1
  9
$PLINEGEN
 70
     0
  9
$PSLTSCALE
 70
     1
  9
$TREEDEPTH
 70
  3020
  9
$CMLSTYLE
  2
Standard
  9
$CMLJUST
 70
     0
  9
$CMLSCALE
 40
1.0
  9
$PROXYGRAPHICS
 70
     1
  9
$MEASUREMENT
 70
     0
  9
$CELWEIGHT
370
    -1
  9
$ENDCAPS
280
     0
  9
$JOINSTYLE
280
     0
  9
$LWDISPLAY
290
     1
  9
$INSUNITS
 70
     1
  9
$HYPERLINKBASE
  1

  9
$STYLESHEET
  1

  9
$XEDIT
290
     1
  9
$CEPSNTYPE
380
     0
  9
$PSTYLEMODE
290
     1
  9
$FINGERPRINTGUID
  2
{88c0176e-3b22-4497-a028-df0f84782b39}
  9
$VERSIONGUID
  2
{FAEB1C32-E019-11D5-929B-00C0DF256EC4}
  9
$EXTNAMES
290
     1
  9
$PSVPSCALE
 40
0.0
  9
$OLESTARTUP
290
     0
  0
ENDSEC
  0
SECTION
  2
CLASSES
  0
CLASS
  1
ACDBDICTIONARYWDFLT
  2
AcDbDictionaryWithDefault
  3
ObjectDBX Classes
 90
        0
280
     0
281
     0
  0
CLASS
  1
VISUALSTYLE
  2
AcDbVisualStyle
  3
ObjectDBX Classes
 90
     4095
280
     0
281
     0
  0
CLASS
  1
MATERIAL
  2
AcDbMaterial
  3
ObjectDBX Classes
 90
     1153
280
     0
281
     0
  0
CLASS
  1
SCALE
  2
AcDbScale
  3
ObjectDBX Classes
 90
     1153
280
     0
281
     0
  0
CLASS
  1
TABLESTYLE
  2
AcDbTableStyle
  3
ObjectDBX Classes
 90
     4095
280
     0
281
     0
  0
CLASS
  1
MLEADERSTYLE
  2
AcDbMLeaderStyle
  3
ACDB_MLEADERSTYLE_CLASS
 90
     4095
280
     0
281
     0
  0
CLASS
  1
SUN
  2
AcDbSun
  3
SCENEOE
 90
     1153
280
     0
281
     0
  0
CLASS
  1
ACDBPLACEHOLDER
  2
AcDbPlaceHolder
  3
ObjectDBX Classes
 90
        0
280
     0
281
     0
  0
CLASS
  1
LAYOUT
  2
AcDbLayout
  3
ObjectDBX Classes
 90
        0
280
     0
281
     0
  0
ENDSEC
  0
SECTION
  2
TABLES
  0
TABLE
  2
VPORT
  5
8
330
0
100
AcDbSymbolTable
 70
     1
  0
VPORT
  5
29
330
8
100
AcDbSymbolTableRecord
100
AcDbViewportTableRecord
  2
*Active
 70
     0
 10
0.0
 20
0.0
 11
1.0
 21
1.0
 12
22.0
 22
17.0
 13
0.0
 23
0.0
 14
0.5
 24
0.5
 15
0.5
 25
0.5
 16
0.0
 26
0.0
 36
1.0
 17
0.0
 27
0.0
 37
0.0
 40
34.0
 41
1.2941176471
 42
50.0
 43
0.0
 44
0.0
 50
0.0
 51
0.0
 71
     0
 72
  2000
 73
     1
 74
     3
 75
     0
 76
     0
 77
     0
 78
     0
281
     0
 65
     1
110
0.0
120
0.0
130
0.0
111
1.0
121
0.0
131
0.0
112
0.0
122
1.0
132
0.0
 79
     0
146
0.0
  0
ENDTAB
  0
TABLE
  2
LTYPE
  5
5
330
0
100
AcDbSymbolTable
 70
     8
  0
LTYPE
  5
14
330
5
100
AcDbSymbolTableRecord
100
AcDbLinetypeTableRecord
  2
ByBlock
 70
     0
  3

 72
    65
 73
     0
 40
0.0
  0
LTYPE
  5
15
330
5
100
AcDbSymbolTableRecord
100
AcDbLinetypeTableRecord
  2
ByLayer
 70
     0
  3

 72
    65
 73
     0
 40
0.0
  0
LTYPE
  5
16
330
5
100
AcDbSymbolTableRecord
100
AcDbLinetypeTableRecord
  2
Continuous
 70
     0
  3
Solid line
 72
    65
 73
     0
 40
0.0
  0
LTYPE
  5
6E
330
5
100
AcDbSymbolTableRecord
100
AcDbLinetypeTableRecord
  2
SLD-実線
 70
     0
  3
SolidWorks Line Style
 72
    65
 73
     0
 40
0.0
  0
LTYPE
  5
6F
330
5
100
AcDbSymbolTableRecord
100
AcDbLinetypeTableRecord
  2
SLD-破線
 70
     0
  3
SolidWorks Line Style
 72
    65
 73
     2
 40
0.075
 49
0.05
 74
     0
 49
-0.025
 74
     0
  0
LTYPE
  5
70
330
5
100
AcDbSymbolTableRecord
100
AcDbLinetypeTableRecord
  2
SLD-2点鎖線
 70
     0
  3
SolidWorks Line Style
 72
    65
 73
     6
 40
0.5
 49
0.25
 74
     0
 49
-0.05
 74
     0
 49
0.05
 74
     0
 49
-0.05
 74
     0
 49
0.05
 74
     0
 49
-0.05
 74
     0
  0
LTYPE
  5
71
330
5
100
AcDbSymbolTableRecord
100
AcDbLinetypeTableRecord
  2
SLD-鎖線
 70
     0
  3
SolidWorks Line Style
 72
    65
 73
     4
 40
0.4
 49
0.25
 74
     0
 49
-0.05
 74
     0
 49
0.05
 74
     0
 49
-0.05
 74
     0
  0
LTYPE
  5
72
330
5
100
AcDbSymbolTableRecord
100
AcDbLinetypeTableRecord
  2
SLD-1点鎖線(中心線)
 70
     0
  3
SolidWorks Line Style
 72
    65
 73
     4
 40
1.35
 49
1.2
 74
     0
 49
-0.05
 74
     0
 49
0.05
 74
     0
 49
-0.05
 74
     0
  0
LTYPE
  5
73
330
5
100
AcDbSymbolTableRecord
100
AcDbLinetypeTableRecord
  2
SLD-点線
 70
     0
  3
SolidWorks Line Style
 72
    65
 73
     2
 40
0.025
 49
0.0
 74
     0
 49
-0.025
 74
     0
  0
LTYPE
  5
74
330
5
100
AcDbSymbolTableRecord
100
AcDbLinetypeTableRecord
  2
SLD-細-太鎖線(切断面)
 70
     0
  3
SolidWorks Line Style
 72
    65
 73
     4
 40
0.4
 49
0.25
 74
     0
 49
-0.05
 74
     0
 49
0.05
 74
     0
 49
-0.05
 74
     0
  0
ENDTAB
  0
TABLE
  2
LAYER
  5
2
330
0
100
AcDbSymbolTable
 70
     4
  0
LAYER
  5
10
330
2
100
AcDbSymbolTableRecord
100
AcDbLayerTableRecord
  2
0
 70
     0
 62
     7
  6
Continuous
370
    -3
390
F
  0
LAYER
  5
75
330
2
100
AcDbSymbolTableRecord
100
AcDbLayerTableRecord
  2
SLD-0
 70
     0
 62
   179
  6
SLD-実線
370
    -3
390
F
  0
LAYER
  5
76
330
2
100
AcDbSymbolTableRecord
100
AcDbLayerTableRecord
  2
100
 70
     0
 62
   179
  6
SLD-実線
370
    -3
390
F
  0
LAYER
  5
77
330
2
100
AcDbSymbolTableRecord
100
AcDbLayerTableRecord
  2
1
 70
     0
 62
   179
  6
SLD-実線
370
    -3
390
F
  0
ENDTAB
  0
TABLE
  2
STYLE
  5
3
330
0
100
AcDbSymbolTable
 70
     4
  0
STYLE
  5
11
330
3
100
AcDbSymbolTableRecord
100
AcDbTextStyleTableRecord
  2
STANDARD
 70
     0
 40
0.0
 41
1.0
 50
0.0
 71
     0
 42
0.1377952756
  3
GOTHIC.TTF
  4

1001
ACAD
1000
CENTURY GOTHIC
1071
       34
  0
STYLE
  5
81
330
3
100
AcDbSymbolTableRecord
100
AcDbTextStyleTableRecord
  2
SLDTEXTSTYLE0
 70
     0
 40
0.0
 41
0.6696428571
 50
0.0
 71
     0
 42
0.1377952756
  3
SWMONO.TTF
  4

1001
ACAD
1000
SWMONO
1071
      258
  0
STYLE
  5
93
330
3
100
AcDbSymbolTableRecord
100
AcDbTextStyleTableRecord
  2
SLDTEXTSTYLE1
 70
     0
 40
0.0
 41
0.5952377551
 50
0.0
 71
     0
 42
0.1377952756
  3
SWMONO.TTF
  4
bigfont
1001
ACAD
1000
SWMONO
1071
      258
  0
STYLE
  5
99
330
3
100
AcDbSymbolTableRecord
100
AcDbTextStyleTableRecord
  2
SLDTEXTSTYLE2
 70
     0
 40
0.0
 41
0.7142857143
 50
0.0
 71
     0
 42
0.1377952756
  3
SWMONO.TTF
  4

1001
ACAD
1000
SWMONO
1071
      258
  0
ENDTAB
  0
TABLE
  2
VIEW
  5
6
330
0
100
AcDbSymbolTable
 70
     0
  0
ENDTAB
  0
TABLE
  2
UCS
  5
7
330
0
100
AcDbSymbolTable
 70
     0
  0
ENDTAB
  0
TABLE
  2
APPID
  5
9
330
0
100
AcDbSymbolTable
 70
     1
  0
APPID
  5
12
330
9
100
AcDbSymbolTableRecord
100
AcDbRegAppTableRecord
  2
ACAD
 70
     0
  0
ENDTAB
  0
TABLE
  2
DIMSTYLE
  5
A
330
0
100
AcDbSymbolTable
 70
     1
100
AcDbDimStyleTable
  0
DIMSTYLE
105
27
330
A
100
AcDbSymbolTableRecord
100
AcDbDimStyleTableRecord
  2
Standard
 70
     0
178
     0
340
11
  0
ENDTAB
  0
TABLE
  2
BLOCK_RECORD
  5
1
330
0
100
AcDbSymbolTable
 70
    20
  0
BLOCK_RECORD
  5
1F
330
1
100
AcDbSymbolTableRecord
100
AcDbBlockTableRecord
  2
*Model_Space
340
22
  0
BLOCK_RECORD
  5
1B
330
1
100
AcDbSymbolTableRecord
100
AcDbBlockTableRecord
  2
*Paper_Space
340
1E
  0
BLOCK_RECORD
  5
78
330
1
100
AcDbSymbolTableRecord
100
AcDbBlockTableRecord
  2
ZU_DIM_00024
340
0
  0
BLOCK_RECORD
  5
7E
330
1
100
AcDbSymbolTableRecord
100
AcDbBlockTableRecord
  2
SW_NOTE_0
340
0
102
{BLKREFS
331
83
102
}
  0
BLOCK_RECORD
  5
84
330
1
100
AcDbSymbolTableRecord
100
AcDbBlockTableRecord
  2
_OPEN30
340
0
102
{BLKREFS
331
E7
331
E8
331
E9
331
EA
331
EB
331
EC
331
ED
331
EE
331
EF
331
F0
331
F1
331
F2
331
F3
331
F4
102
}
  0
BLOCK_RECORD
  5
8A
330
1
100
AcDbSymbolTableRecord
100
AcDbBlockTableRecord
  2
ZU_DIM_00025
340
0
  0
BLOCK_RECORD
  5
90
330
1
100
AcDbSymbolTableRecord
100
AcDbBlockTableRecord
  2
SW_NOTE_0_1
340
0
102
{BLKREFS
331
95
102
}
  0
BLOCK_RECORD
  5
96
330
1
100
AcDbSymbolTableRecord
100
AcDbBlockTableRecord
  2
SW_NOTE_0_2
340
0
102
{BLKREFS
331
9B
102
}
  0
BLOCK_RECORD
  5
9C
330
1
100
AcDbSymbolTableRecord
100
AcDbBlockTableRecord
  2
ZU_DIM_00026
340
0
  0
BLOCK_RECORD
  5
A2
330
1
100
AcDbSymbolTableRecord
100
AcDbBlockTableRecord
  2
SW_NOTE_0_3
340
0
102
{BLKREFS
331
A6
102
}
  0
BLOCK_RECORD
  5
A7
330
1
100
AcDbSymbolTableRecord
100
AcDbBlockTableRecord
  2
SW_NOTE_0_4
340
0
102
{BLKREFS
331
AB
102
}
  0
BLOCK_RECORD
  5
AC
330
1
100
AcDbSymbolTableRecord
100
AcDbBlockTableRecord
  2
ZU_DIM_00029
340
0
  0
BLOCK_RECORD
  5
B2
330
1
100
AcDbSymbolTableRecord
100
AcDbBlockTableRecord
  2
SW_NOTE_0_5
340
0
102
{BLKREFS
331
B6
102
}
  0
BLOCK_RECORD
  5
B7
330
1
100
AcDbSymbolTableRecord
100
AcDbBlockTableRecord
  2
SW_NOTE_0_6
340
0
102
{BLKREFS
331
BB
102
}
  0
BLOCK_RECORD
  5
BC
330
1
100
AcDbSymbolTableRecord
100
AcDbBlockTableRecord
  2
ZU_DIM_00030
340
0
  0
BLOCK_RECORD
  5
C2
330
1
100
AcDbSymbolTableRecord
100
AcDbBlockTableRecord
  2
SW_NOTE_0_7
340
0
102
{BLKREFS
331
C6
102
}
  0
BLOCK_RECORD
  5
C7
330
1
100
AcDbSymbolTableRecord
100
AcDbBlockTableRecord
  2
ZU_DIM_00028
340
0
  0
BLOCK_RECORD
  5
CD
330
1
100
AcDbSymbolTableRecord
100
AcDbBlockTableRecord
  2
SW_NOTE_0_8
340
0
102
{BLKREFS
331
D1
102
}
  0
BLOCK_RECORD
  5
D2
330
1
100
AcDbSymbolTableRecord
100
AcDbBlockTableRecord
  2
SW_NOTE_0_9
340
0
102
{BLKREFS
331
D6
102
}
  0
BLOCK_RECORD
  5
D7
330
1
100
AcDbSymbolTableRecord
100
AcDbBlockTableRecord
  2
ZU_DIM_00027
340
0
  0
BLOCK_RECORD
  5
DD
330
1
100
AcDbSymbolTableRecord
100
AcDbBlockTableRecord
  2
SW_NOTE_0_10
340
0
102
{BLKREFS
331
E1
102
}
  0
BLOCK_RECORD
  5
E2
330
1
100
AcDbSymbolTableRecord
100
AcDbBlockTableRecord
  2
SW_NOTE_0_11
340
0
102
{BLKREFS
331
E6
102
}
  0
ENDTAB
  0
ENDSEC
  0
SECTION
  2
BLOCKS
  0
BLOCK
  5
20
330
1F
100
AcDbEntity
  8
0
100
AcDbBlockBegin
  2
*Model_Space
 70
     0
 10
0.0
 20
0.0
 30
0.0
  3
*Model_Space
  1

  0
ENDBLK
  5
21
330
1F
100
AcDbEntity
  8
0
100
AcDbBlockEnd
  0
BLOCK
  5
1C
330
1B
100
AcDbEntity
 67
     1
  8
0
100
AcDbBlockBegin
  2
*Paper_Space
 70
     0
 10
0.0
 20
0.0
 30
0.0
  3
*Paper_Space
  1

  0
ENDBLK
  5
1D
330
1B
100
AcDbEntity
 67
     1
  8
0
100
AcDbBlockEnd
  0
BLOCK
  5
79
330
78
100
AcDbEntity
  8
0
100
AcDbBlockBegin
  2
ZU_DIM_00024
 70
     0
 10
0.0
 20
0.0
 30
0.0
  3
ZU_DIM_00024
  1

  0
ARC
  5
7B
330
78
100
AcDbEntity
  8
SLD-0
  6
SLD-実線
370
    18
100
AcDbCircle
 10
-271.487152
 20
-42.270184
 30
0.0
 40
27.8355
100
AcDbArc
 50
314.999978
 51
0.0
  0
LINE
  5
7C
330
78
100
AcDbEntity
  8
SLD-0
  6
SLD-実線
370
    18
100
AcDbLine
 10
-253.170945
 20
-60.586406
 30
0.0
 11
-250.197433
 21
-63.559917
 31
0.0
  0
LINE
  5
7D
330
78
100
AcDbEntity
  8
SLD-0
  6
SLD-実線
370
    18
100
AcDbLine
 10
-247.474182
 20
-42.270184
 30
0.0
 11
-241.378937
 21
-42.270184
 31
0.0
  0
INSERT
  5
83
330
78
100
AcDbEntity
  8
SLD-0
 62
   179
100
AcDbBlockReference
  2
SW_NOTE_0
 10
-245.2109096448
 20
-54.0633736708
 30
0.0
  0
INSERT
  5
E7
330
78
100
AcDbEntity
  8
0
  6
Continuous
 62
     7
100
AcDbBlockReference
  2
_OPEN30
 10
-243.651657
 20
-42.270184
 30
0.0
 41
2.0
 42
2.0
 43
2.0
 50
90.0
  0
INSERT
  5
E8
330
78
100
AcDbEntity
  8
0
  6
Continuous
 62
     7
100
AcDbBlockReference
  2
_OPEN30
 10
-251.804489
 20
-61.952862
 30
0.0
 41
2.0
 42
2.0
 43
2.0
 50
224.999978
  0
ENDBLK
  5
7A
330
78
100
AcDbEntity
  8
0
100
AcDbBlockEnd
  0
BLOCK
  5
7F
330
7E
100
AcDbEntity
  8
0
100
AcDbBlockBegin
  2
SW_NOTE_0
 70
     0
 10
0.0
 20
0.0
 30
0.0
  3
SW_NOTE_0
  1

  0
MTEXT
  5
82
330
7E
100
AcDbEntity
  8
SLD-0
 62
     0
100
AcDbMText
 10
-4.0341850927
 20
1.6710145085
 30
0.0
 40
3.2
 41
0.0
 71
     1
 72
     1
  1
45°
  7
SLDTEXTSTYLE0
 11
0.3826834968640478
 21
0.9238795057949409
 31
0.0
 73
     1
 44
1.0
  0
ENDBLK
  5
80
330
7E
100
AcDbEntity
  8
0
100
AcDbBlockEnd
  0
BLOCK
  5
85
330
84
100
AcDbEntity
  8
0
100
AcDbBlockBegin
  2
_OPEN30
 70
     0
 10
0.0
 20
0.0
 30
0.0
  3
_OPEN30
  1

  0
LINE
  5
87
330
84
100
AcDbEntity
  8
SLD-0
  6
SLD-実線
370
    18
100
AcDbLine
 10
-1.0
 20
0.267949
 30
0.0
 11
0.0
 21
0.0
 31
0.0
  0
LINE
  5
88
330
84
100
AcDbEntity
  8
SLD-0
  6
SLD-実線
370
    18
100
AcDbLine
 10
0.0
 20
0.0
 30
0.0
 11
-1.0
 21
-0.267949
 31
0.0
  0
LINE
  5
89
330
84
100
AcDbEntity
  8
SLD-0
  6
SLD-実線
370
    18
100
AcDbLine
 10
0.0
 20
0.0
 30
0.0
 11
-1.0
 21
0.0
 31
0.0
  0
ENDBLK
  5
86
330
84
100
AcDbEntity
  8
0
100
AcDbBlockEnd
  0
BLOCK
  5
8B
330
8A
100
AcDbEntity
  8
0
100
AcDbBlockBegin
  2
ZU_DIM_00025
 70
     0
 10
0.0
 20
0.0
 30
0.0
  3
ZU_DIM_00025
  1

  0
ARC
  5
8D
330
8A
100
AcDbEntity
  8
SLD-0
  6
SLD-実線
370
    18
100
AcDbCircle
 10
-271.487183
 20
-42.270187
 30
0.0
 40
23.749992
100
AcDbArc
 50
211.775158
 51
222.740875
  0
ARC
  5
8E
330
8A
100
AcDbEntity
  8
SLD-0
  6
SLD-実線
370
    18
100
AcDbCircle
 10
-271.487183
 20
-42.270187
 30
0.0
 40
23.750017
100
AcDbArc
 50
31.775116
 51
42.740819
  0
LINE
  5
8F
330
8A
100
AcDbEntity
  8
SLD-0
  6
SLD-実線
370
    18
100
AcDbLine
 10
-294.912476
 20
-60.088352
 30
0.0
 11
-242.285339
 21
-20.058182
 31
0.0
  0
INSERT
  5
95
330
8A
100
AcDbEntity
  8
SLD-0
 62
   179
100
AcDbBlockReference
  2
SW_NOTE_0_1
 10
-251.0928719011
 20
-28.3004980913
 30
0.0
  0
INSERT
  5
9B
330
8A
100
AcDbEntity
  8
SLD-0
 62
   179
100
AcDbBlockReference
  2
SW_NOTE_0_2
 10
-250.6471629011
 20
-27.9614700913
 30
0.0
  0
INSERT
  5
E9
330
8A
100
AcDbEntity
  8
0
  6
Continuous
 62
     7
100
AcDbBlockReference
  2
_OPEN30
 10
-252.584137
 20
-27.89183
 30
0.0
 41
2.0
 42
2.0
 43
2.0
 50
217.25798
  0
INSERT
  5
EA
330
8A
100
AcDbEntity
  8
0
  6
Continuous
 62
     7
100
AcDbBlockReference
  2
_OPEN30
 10
-290.390228
 20
-56.648548
 30
0.0
 41
2.0
 42
2.0
 43
2.0
 50
37.257968
  0
ENDBLK
  5
8C
330
8A
100
AcDbEntity
  8
0
100
AcDbBlockEnd
  0
BLOCK
  5
91
330
90
100
AcDbEntity
  8
0
100
AcDbBlockBegin
  2
SW_NOTE_0_1
 70
     0
 10
0.0
 20
0.0
 30
0.0
  3
SW_NOTE_0_1
  1

  0
MTEXT
  5
94
330
90
100
AcDbEntity
  8
SLD-0
 62
     0
100
AcDbMText
 10
-2.6435422213
 20
3.475431394
 30
0.0
 40
3.2
 41
0.0
 71
     1
 72
     1
  1
φ
  7
SLDTEXTSTYLE1
 11
0.7959178284795796
 21
0.6054046665729877
 31
0.0
 73
     1
 44
1.0
  0
ENDBLK
  5
92
330
90
100
AcDbEntity
  8
0
100
AcDbBlockEnd
  0
BLOCK
  5
97
330
96
100
AcDbEntity
  8
0
100
AcDbBlockBegin
  2
SW_NOTE_0_2
 70
     0
 10
0.0
 20
0.0
 30
0.0
  3
SW_NOTE_0_2
  1

  0
MTEXT
  5
9A
330
96
100
AcDbEntity
  8
SLD-0
 62
     0
100
AcDbMText
 10
-2.6435422213
 20
3.475431394
 30
0.0
 40
3.2
 41
0.0
 71
     1
 72
     1
  1
190
  7
SLDTEXTSTYLE2
 11
0.7959178284795796
 21
0.6054046665729877
 31
0.0
 73
     1
 44
1.0
  0
ENDBLK
  5
98
330
96
100
AcDbEntity
  8
0
100
AcDbBlockEnd
  0
BLOCK
  5
9D
330
9C
100
AcDbEntity
  8
0
100
AcDbBlockBegin
  2
ZU_DIM_00026
 70
     0
 10
0.0
 20
0.0
 30
0.0
  3
ZU_DIM_00026
  1

  0
ARC
  5
9F
330
9C
100
AcDbEntity
  8
SLD-0
  6
SLD-実線
370
    18
100
AcDbCircle
 10
-271.487183
 20
-42.270187
 30
0.0
 40
20.000009
100
AcDbArc
 50
319.578291
 51
332.600044
  0
ARC
  5
A0
330
9C
100
AcDbEntity
  8
SLD-0
  6
SLD-実線
370
    18
100
AcDbCircle
 10
-271.487183
 20
-42.270187
 30
0.0
 40
19.99998300000002
100
AcDbArc
 50
139.578242
 51
152.600054
  0
LINE
  5
A1
330
9C
100
AcDbEntity
  8
SLD-0
  6
SLD-実線
370
    18
100
AcDbLine
 10
-254.889038
 20
-53.428242
 30
0.0
 11
-288.085297
 21
-31.112139
 31
0.0
  0
INSERT
  5
A6
330
9C
100
AcDbEntity
  8
SLD-0
 62
   179
100
AcDbBlockReference
  2
SW_NOTE_0_3
 10
-283.9006570029
 20
-35.4050333229
 30
0.0
  0
INSERT
  5
AB
330
9C
100
AcDbEntity
  8
SLD-0
 62
   179
100
AcDbBlockReference
  2
SW_NOTE_0_4
 10
-283.4359360029
 20
-35.7174563229
 30
0.0
  0
INSERT
  5
EB
330
9C
100
AcDbEntity
  8
0
  6
Continuous
 62
     7
100
AcDbBlockReference
  2
_OPEN30
 10
-288.085297
 20
-31.112139
 30
0.0
 41
2.0
 42
2.0
 43
2.0
 50
146.08913
  0
INSERT
  5
EC
330
9C
100
AcDbEntity
  8
0
  6
Continuous
 62
     7
100
AcDbBlockReference
  2
_OPEN30
 10
-254.889038
 20
-53.428242
 30
0.0
 41
2.0
 42
2.0
 43
2.0
 50
326.08913
  0
ENDBLK
  5
9E
330
9C
100
AcDbEntity
  8
0
100
AcDbBlockEnd
  0
BLOCK
  5
A3
330
A2
100
AcDbEntity
  8
0
100
AcDbBlockBegin
  2
SW_NOTE_0_3
 70
     0
 10
0.0
 20
0.0
 30
0.0
  3
SW_NOTE_0_3
  1

  0
MTEXT
  5
A5
330
A2
100
AcDbEntity
  8
SLD-0
 62
     0
100
AcDbMText
 10
2.436118924
 20
3.6238464976
 30
0.0
 40
3.2
 41
0.0
 71
     1
 72
     1
  1
φ
  7
SLDTEXTSTYLE1
 11
0.8299067678598613
 21
-0.5579021031152315
 31
0.0
 73
     1
 44
1.0
  0
ENDBLK
  5
A4
330
A2
100
AcDbEntity
  8
0
100
AcDbBlockEnd
  0
BLOCK
  5
A8
330
A7
100
AcDbEntity
  8
0
100
AcDbBlockBegin
  2
SW_NOTE_0_4
 70
     0
 10
0.0
 20
0.0
 30
0.0
  3
SW_NOTE_0_4
  1

  0
MTEXT
  5
AA
330
A7
100
AcDbEntity
  8
SLD-0
 62
     0
100
AcDbMText
 10
2.436118924
 20
3.6238464976
 30
0.0
 40
3.2
 41
0.0
 71
     1
 72
     1
  1
160
  7
SLDTEXTSTYLE2
 11
0.8299067678598613
 21
-0.5579021031152315
 31
0.0
 73
     1
 44
1.0
  0
ENDBLK
  5
A9
330
A7
100
AcDbEntity
  8
0
100
AcDbBlockEnd
  0
BLOCK
  5
AD
330
AC
100
AcDbEntity
  8
0
100
AcDbBlockBegin
  2
ZU_DIM_00029
 70
     0
 10
0.0
 20
0.0
 30
0.0
  3
ZU_DIM_00029
  1

  0
ARC
  5
AF
330
AC
100
AcDbEntity
  8
SLD-0
  6
SLD-実線
370
    18
100
AcDbCircle
 10
-44.289642
 20
-23.882578
 30
0.0
 40
25.374993
100
AcDbArc
 50
200.417686
 51
207.944221
  0
ARC
  5
B0
330
AC
100
AcDbEntity
  8
SLD-0
  6
SLD-実線
370
    18
100
AcDbCircle
 10
-44.289642
 20
-23.882578
 30
0.0
 40
25.375
100
AcDbArc
 50
20.417684
 51
27.944223
  0
LINE
  5
B1
330
AC
100
AcDbEntity
  8
SLD-0
  6
SLD-実線
370
    18
100
AcDbLine
 10
-71.239212
 20
-35.983429
 30
0.0
 11
-9.633781
 21
-8.321464
 31
0.0
  0
INSERT
  5
B6
330
AC
100
AcDbEntity
  8
SLD-0
 62
   179
100
AcDbBlockReference
  2
SW_NOTE_0_5
 10
-17.1027384724
 20
-13.170840805
 30
0.0
  0
INSERT
  5
BB
330
AC
100
AcDbEntity
  8
SLD-0
 62
   179
100
AcDbBlockReference
  2
SW_NOTE_0_6
 10
-16.5918734724
 20
-12.941453805
 30
0.0
  0
INSERT
  5
ED
330
AC
100
AcDbEntity
  8
0
  6
Continuous
 62
     7
100
AcDbBlockReference
  2
_OPEN30
 10
-67.438141
 20
-34.27668
 30
0.0
 41
2.0
 42
2.0
 43
2.0
 50
24.180954
  0
INSERT
  5
EE
330
AC
100
AcDbEntity
  8
0
  6
Continuous
 62
     7
100
AcDbBlockReference
  2
_OPEN30
 10
-21.141136
 20
-13.488475
 30
0.0
 41
2.0
 42
2.0
 43
2.0
 50
204.180954
  0
ENDBLK
  5
AE
330
AC
100
AcDbEntity
  8
0
100
AcDbBlockEnd
  0
BLOCK
  5
B3
330
B2
100
AcDbEntity
  8
0
100
AcDbBlockBegin
  2
SW_NOTE_0_5
 70
     0
 10
0.0
 20
0.0
 30
0.0
  3
SW_NOTE_0_5
  1

  0
MTEXT
  5
B5
330
B2
100
AcDbEntity
  8
SLD-0
 62
     0
100
AcDbMText
 10
-1.7886338843
 20
3.983431646
 30
0.0
 40
3.2
 41
0.0
 71
     1
 72
     1
  1
φ
  7
SLDTEXTSTYLE1
 11
0.9122563233590013
 21
0.409619824339005
 31
0.0
 73
     1
 44
1.0
  0
ENDBLK
  5
B4
330
B2
100
AcDbEntity
  8
0
100
AcDbBlockEnd
  0
BLOCK
  5
B8
330
B7
100
AcDbEntity
  8
0
100
AcDbBlockBegin
  2
SW_NOTE_0_6
 70
     0
 10
0.0
 20
0.0
 30
0.0
  3
SW_NOTE_0_6
  1

  0
MTEXT
  5
BA
330
B7
100
AcDbEntity
  8
SLD-0
 62
     0
100
AcDbMText
 10
-1.7886338843
 20
3.983431646
 30
0.0
 40
3.2
 41
0.0
 71
     1
 72
     1
  1
203
  7
SLDTEXTSTYLE2
 11
0.9122563233590013
 21
0.409619824339005
 31
0.0
 73
     1
 44
1.0
  0
ENDBLK
  5
B9
330
B7
100
AcDbEntity
  8
0
100
AcDbBlockEnd
  0
BLOCK
  5
BD
330
BC
100
AcDbEntity
  8
0
100
AcDbBlockBegin
  2
ZU_DIM_00030
 70
     0
 10
0.0
 20
0.0
 30
0.0
  3
ZU_DIM_00030
  1

  0
ARC
  5
BF
330
BC
100
AcDbEntity
  8
SLD-0
  6
SLD-実線
370
    18
100
AcDbCircle
 10
-44.289635
 20
-23.882578
 30
0.0
 40
30.531413
100
AcDbArc
 50
315.000033
 51
0.0
  0
LINE
  5
C0
330
BC
100
AcDbEntity
  8
SLD-0
  6
SLD-実線
370
    18
100
AcDbLine
 10
-25.904862
 20
-42.26735
 30
0.0
 11
-21.522141
 21
-46.650043
 31
0.0
  0
LINE
  5
C1
330
BC
100
AcDbEntity
  8
SLD-0
  6
SLD-実線
370
    18
100
AcDbLine
 10
-17.957336
 20
-23.882578
 30
0.0
 11
-12.091553
 21
-23.882578
 31
0.0
  0
INSERT
  5
C6
330
BC
100
AcDbEntity
  8
SLD-0
 62
   179
100
AcDbBlockReference
  2
SW_NOTE_0_7
 10
-15.3902616352
 20
-37.3460501154
 30
0.0
  0
INSERT
  5
EF
330
BC
100
AcDbEntity
  8
0
  6
Continuous
 62
     7
100
AcDbBlockReference
  2
_OPEN30
 10
-22.700653
 20
-45.471535
 30
0.0
 41
2.0
 42
2.0
 43
2.0
 50
225.000033
  0
INSERT
  5
F0
330
BC
100
AcDbEntity
  8
0
  6
Continuous
 62
     7
100
AcDbBlockReference
  2
_OPEN30
 10
-13.758224
 20
-23.882578
 30
0.0
 41
2.0
 42
2.0
 43
2.0
 50
90.0
  0
ENDBLK
  5
BE
330
BC
100
AcDbEntity
  8
0
100
AcDbBlockEnd
  0
BLOCK
  5
C3
330
C2
100
AcDbEntity
  8
0
100
AcDbBlockBegin
  2
SW_NOTE_0_7
 70
     0
 10
0.0
 20
0.0
 30
0.0
  3
SW_NOTE_0_7
  1

  0
MTEXT
  5
C5
330
C2
100
AcDbEntity
  8
SLD-0
 62
     0
100
AcDbMText
 10
-4.130408012
 20
1.4165692728
 30
0.0
 40
3.2
 41
0.0
 71
     1
 72
     1
  1
45°
  7
SLDTEXTSTYLE0
 11
0.3244123136661811
 21
0.9459157735981335
 31
0.0
 73
     1
 44
1.0
  0
ENDBLK
  5
C4
330
C2
100
AcDbEntity
  8
0
100
AcDbBlockEnd
  0
BLOCK
  5
C8
330
C7
100
AcDbEntity
  8
0
100
AcDbBlockBegin
  2
ZU_DIM_00028
 70
     0
 10
0.0
 20
0.0
 30
0.0
  3
ZU_DIM_00028
  1

  0
ARC
  5
CA
330
C7
100
AcDbEntity
  8
SLD-0
  6
SLD-実線
370
    18
100
AcDbCircle
 10
-44.289642
 20
-23.882578
 30
0.0
 40
22.499997
100
AcDbArc
 50
321.296742
 51
329.785012
  0
ARC
  5
CB
330
C7
100
AcDbEntity
  8
SLD-0
  6
SLD-実線
370
    18
100
AcDbCircle
 10
-44.289642
 20
-23.882578
 30
0.0
 40
22.5
100
AcDbArc
 50
141.296739
 51
149.784985
  0
LINE
  5
CC
330
C7
100
AcDbEntity
  8
SLD-0
  6
SLD-実線
370
    18
100
AcDbLine
 10
-25.737719
 20
-36.613483
 30
0.0
 11
-62.841568
 21
-11.151668
 31
0.0
  0
INSERT
  5
D1
330
C7
100
AcDbEntity
  8
SLD-0
 62
   179
100
AcDbBlockReference
  2
SW_NOTE_0_8
 10
-58.9024340442
 20
-15.5096332784
 30
0.0
  0
INSERT
  5
D6
330
C7
100
AcDbEntity
  8
SLD-0
 62
   179
100
AcDbBlockReference
  2
SW_NOTE_0_9
 10
-58.4406950442
 20
-15.8264922784
 30
0.0
  0
INSERT
  5
F1
330
C7
100
AcDbEntity
  8
0
  6
Continuous
 62
     7
100
AcDbBlockReference
  2
_OPEN30
 10
-25.737719
 20
-36.613483
 30
0.0
 41
2.0
 42
2.0
 43
2.0
 50
325.540874
  0
INSERT
  5
F2
330
C7
100
AcDbEntity
  8
0
  6
Continuous
 62
     7
100
AcDbBlockReference
  2
_OPEN30
 10
-62.841568
 20
-11.151668
 30
0.0
 41
2.0
 42
2.0
 43
2.0
 50
145.540874
  0
ENDBLK
  5
C9
330
C7
100
AcDbEntity
  8
0
100
AcDbBlockEnd
  0
BLOCK
  5
CE
330
CD
100
AcDbEntity
  8
0
100
AcDbBlockBegin
  2
SW_NOTE_0_8
 70
     0
 10
0.0
 20
0.0
 30
0.0
  3
SW_NOTE_0_8
  1

  0
MTEXT
  5
D0
330
CD
100
AcDbEntity
  8
SLD-0
 62
     0
100
AcDbMText
 10
2.4706858184
 20
3.6003680974
 30
0.0
 40
3.2
 41
0.0
 71
     1
 72
     1
  1
φ
  7
SLDTEXTSTYLE1
 11
0.824529916711646
 21
-0.5658183599420278
 31
0.0
 73
     1
 44
1.0
  0
ENDBLK
  5
CF
330
CD
100
AcDbEntity
  8
0
100
AcDbBlockEnd
  0
BLOCK
  5
D3
330
D2
100
AcDbEntity
  8
0
100
AcDbBlockBegin
  2
SW_NOTE_0_9
 70
     0
 10
0.0
 20
0.0
 30
0.0
  3
SW_NOTE_0_9
  1

  0
MTEXT
  5
D5
330
D2
100
AcDbEntity
  8
SLD-0
 62
     0
100
AcDbMText
 10
2.4706858184
 20
3.6003680974
 30
0.0
 40
3.2
 41
0.0
 71
     1
 72
     1
  1
180
  7
SLDTEXTSTYLE2
 11
0.824529916711646
 21
-0.5658183599420278
 31
0.0
 73
     1
 44
1.0
  0
ENDBLK
  5
D4
330
D2
100
AcDbEntity
  8
0
100
AcDbBlockEnd
  0
BLOCK
  5
D8
330
D7
100
AcDbEntity
  8
0
100
AcDbBlockBegin
  2
ZU_DIM_00027
 70
     0
 10
0.0
 20
0.0
 30
0.0
  3
ZU_DIM_00027
  1

  0
ARC
  5
DA
330
D7
100
AcDbEntity
  8
SLD-0
  6
SLD-実線
370
    18
100
AcDbCircle
 10
-271.487183
 20
-42.270187
 30
0.0
 40
21.24999299999999
100
AcDbArc
 50
225.708204
 51
237.963942
  0
ARC
  5
DB
330
D7
100
AcDbEntity
  8
SLD-0
  6
SLD-実線
370
    18
100
AcDbCircle
 10
-271.487183
 20
-42.270187
 30
0.0
 40
21.25001100000001
100
AcDbArc
 50
45.708138
 51
57.963867
  0
LINE
  5
DC
330
D7
100
AcDbEntity
  8
SLD-0
  6
SLD-実線
370
    18
100
AcDbLine
 10
-284.617859
 20
-58.977909
 30
0.0
 11
-258.356506
 21
-25.562469
 31
0.0
  0
INSERT
  5
E1
330
D7
100
AcDbEntity
  8
SLD-0
 62
   179
100
AcDbBlockReference
  2
SW_NOTE_0_10
 10
-267.6418367597
 20
-39.364801759
 30
0.0
  0
INSERT
  5
E6
330
D7
100
AcDbEntity
  8
SLD-0
 62
   179
100
AcDbBlockReference
  2
SW_NOTE_0_11
 10
-267.2958277597
 20
-38.924505759
 30
0.0
  0
INSERT
  5
F3
330
D7
100
AcDbEntity
  8
0
  6
Continuous
 62
     7
100
AcDbBlockReference
  2
_OPEN30
 10
-284.617859
 20
-58.977909
 30
0.0
 41
2.0
 42
2.0
 43
2.0
 50
231.836027
  0
INSERT
  5
F4
330
D7
100
AcDbEntity
  8
0
  6
Continuous
 62
     7
100
AcDbBlockReference
  2
_OPEN30
 10
-258.356506
 20
-25.562469
 30
0.0
 41
2.0
 42
2.0
 43
2.0
 50
51.836027
  0
ENDBLK
  5
D9
330
D7
100
AcDbEntity
  8
0
100
AcDbBlockEnd
  0
BLOCK
  5
DE
330
DD
100
AcDbEntity
  8
0
100
AcDbBlockBegin
  2
SW_NOTE_0_10
 70
     0
 10
0.0
 20
0.0
 30
0.0
  3
SW_NOTE_0_10
  1

  0
MTEXT
  5
E0
330
DD
100
AcDbEntity
  8
SLD-0
 62
     0
100
AcDbMText
 10
-3.4331966317
 20
2.6981659952
 30
0.0
 40
3.2
 41
0.0
 71
     1
 72
     1
  1
φ
  7
SLDTEXTSTYLE1
 11
0.6179142029760814
 21
0.7862455327443419
 31
0.0
 73
     1
 44
1.0
  0
ENDBLK
  5
DF
330
DD
100
AcDbEntity
  8
0
100
AcDbBlockEnd
  0
BLOCK
  5
E3
330
E2
100
AcDbEntity
  8
0
100
AcDbBlockBegin
  2
SW_NOTE_0_11
 70
     0
 10
0.0
 20
0.0
 30
0.0
  3
SW_NOTE_0_11
  1

  0
MTEXT
  5
E5
330
E2
100
AcDbEntity
  8
SLD-0
 62
     0
100
AcDbMText
 10
-3.4331966317
 20
2.6981659952
 30
0.0
 40
3.2
 41
0.0
 71
     1
 72
     1
  1
170
  7
SLDTEXTSTYLE2
 11
0.6179142029760814
 21
0.7862455327443419
 31
0.0
 73
     1
 44
1.0
  0
ENDBLK
  5
E4
330
E2
100
AcDbEntity
  8
0
100
AcDbBlockEnd
  0
ENDSEC
  0
SECTION
  2
ENTITIES
  0
VIEWPORT
  5
F5
330
1B
100
AcDbEntity
 67
     1
  8
0
100
AcDbViewport
 10
22.0
 20
17.0
 30
0.0
 40
46.552
 41
35.972
 68
     1
 69
     1
 12
22.0
 22
17.0
 13
0.0
 23
0.0
 14
0.5
 24
0.5
 15
0.5
 25
0.5
 16
0.0
 26
0.0
 36
1.0
 17
0.0
 27
0.0
 37
0.0
 42
50.0
 43
0.0
 44
0.0
 45
35.972
 50
0.0
 51
0.0
 72
   100
 90
   557152
  1

281
     0
 71
     1
 74
     0
110
0.0
120
0.0
130
0.0
111
1.0
121
0.0
131
0.0
112
0.0
122
1.0
132
0.0
 79
     0
146
0.0
  0
LINE
  5
F7
330
1B
100
AcDbEntity
 67
     1
  8
SLD-0
  6
SLD-実線
 62
   179
370
    18
100
AcDbLine
 10
22.0199956463
 20
11.8671183502
 30
0.0
 11
22.0199956463
 21
12.5305167756
 31
0.0
  0
LINE
  5
F8
330
1B
100
AcDbEntity
 67
     1
  8
SLD-0
  6
SLD-実線
 62
   179
370
    18
100
AcDbLine
 10
19.2483421023
 20
11.8671183502
 30
0.0
 11
19.2483421023
 21
12.5305167756
 31
0.0
  0
LINE
  5
F9
330
1B
100
AcDbEntity
 67
     1
  8
1
  6
SLD-実線
 62
   179
370
    18
100
AcDbLine
 10
19.2483421023
 20
22.7459925261
 30
0.0
 11
19.2483421023
 21
25.8203972513
 31
0.0
  0
LINE
  5
FA
330
1B
100
AcDbEntity
 67
     1
  8
1
  6
SLD-実線
 62
   179
370
    18
100
AcDbLine
 10
19.6302318662
 20
22.3641027623
 30
0.0
 11
21.6381058824
 21
22.3641027623
 31
0.0
  0
LINE
  5
FB
330
1B
100
AcDbEntity
 67
     1
  8
1
  6
SLD-実線
 62
   179
370
    18
100
AcDbLine
 10
22.0199956463
 20
22.7459925261
 30
0.0
 11
22.0199956463
 21
25.8203972513
 31
0.0
  0
LINE
  5
FC
330
1B
100
AcDbEntity
 67
     1
  8
1
  6
SLD-実線
 62
   179
370
    18
100
AcDbLine
 10
19.6302318662
 20
26.2022870152
 30
0.0
 11
21.6381058824
 21
26.2022870152
 31
0.0
  0
LINE
  5
FD
330
1B
100
AcDbEntity
 67
     1
  8
SLD-0
  6
SLD-鎖線
 62
   179
370
    18
100
AcDbLine
 10
19.7140003702
 20
22.6553808726
 30
0.0
 11
19.443241315
 21
22.6553808726
 31
0.0
  0
LINE
  5
FE
330
1B
100
AcDbEntity
 67
     1
  8
SLD-0
  6
SLD-鎖線
 62
   179
370
    18
100
AcDbLine
 10
19.5711767481
 20
22.5005194552
 30
0.0
 11
19.5711767481
 21
22.8013189829
 31
0.0
  0
LINE
  5
FF
330
1B
100
AcDbEntity
 67
     1
  8
SLD-0
  6
SLD-実線
 62
   179
370
    18
100
AcDbLine
 10
19.8664523387
 20
22.7663682742
 30
0.0
 11
21.4018854099
 21
22.7663682742
 31
0.0
  0
LINE
  5
100
330
1B
100
AcDbEntity
 67
     1
  8
SLD-0
  6
SLD-鎖線
 62
   179
370
    18
100
AcDbLine
 10
21.8399846227
 20
22.6553808726
 30
0.0
 11
21.5692255675
 21
22.6553808726
 31
0.0
  0
LINE
  5
101
330
1B
100
AcDbEntity
 67
     1
  8
SLD-0
  6
SLD-鎖線
 62
   179
370
    18
100
AcDbLine
 10
21.6971610006
 20
22.5005194552
 30
0.0
 11
21.6971610006
 21
22.8013189829
 31
0.0
  0
LINE
  5
102
330
1B
100
AcDbEntity
 67
     1
  8
SLD-0
  6
SLD-実線
 62
   179
370
    18
100
AcDbLine
 10
21.5987358037
 20
22.9632186679
 30
0.0
 11
21.5987358037
 21
25.6031711095
 31
0.0
  0
LINE
  5
103
330
1B
100
AcDbEntity
 67
     1
  8
SLD-0
  6
SLD-鎖線
 62
   179
370
    18
100
AcDbLine
 10
21.6971610006
 20
25.7376495348
 30
0.0
 11
21.6971610006
 21
26.0384490624
 31
0.0
  0
LINE
  5
104
330
1B
100
AcDbEntity
 67
     1
  8
SLD-0
  6
SLD-鎖線
 62
   179
370
    18
100
AcDbLine
 10
21.8399846227
 20
25.8925109521
 30
0.0
 11
21.5692255675
 21
25.8925109521
 31
0.0
  0
LINE
  5
105
330
1B
100
AcDbEntity
 67
     1
  8
SLD-0
  6
SLD-実線
 62
   179
370
    18
100
AcDbLine
 10
19.6696019449
 20
22.9632186679
 30
0.0
 11
19.6696019449
 21
25.6031711095
 31
0.0
  0
LINE
  5
106
330
1B
100
AcDbEntity
 67
     1
  8
SLD-0
  6
SLD-実線
 62
   179
370
    18
100
AcDbLine
 10
21.4018854099
 20
25.8000215033
 30
0.0
 11
19.8664523387
 21
25.8000215033
 31
0.0
  0
LINE
  5
107
330
1B
100
AcDbEntity
 67
     1
  8
SLD-0
  6
SLD-鎖線
 62
   179
370
    18
100
AcDbLine
 10
19.5711767481
 20
25.7376495348
 30
0.0
 11
19.5711767481
 21
26.0384490624
 31
0.0
  0
LINE
  5
108
330
1B
100
AcDbEntity
 67
     1
  8
SLD-0
  6
SLD-鎖線
 62
   179
370
    18
100
AcDbLine
 10
19.7140003702
 20
25.8925109521
 30
0.0
 11
19.443241315
 21
25.8925109521
 31
0.0
  0
LINE
  5
109
330
1B
100
AcDbEntity
 67
     1
  8
SLD-0
  6
SLD-鎖線
 62
   179
370
    18
100
AcDbLine
 10
23.036596434
 20
26.0065257553
 30
0.0
 11
23.2516273002
 21
26.0065257553
 31
0.0
  0
LINE
  5
10A
330
1B
100
AcDbEntity
 67
     1
  8
SLD-0
  6
SLD-実線
 62
   179
370
    18
100
AcDbLine
 10
22.0711767487
 20
25.4356596134
 30
0.0
 11
23.1262948592
 21
25.4356596134
 31
0.0
  0
LINE
  5
10B
330
1B
100
AcDbEntity
 67
     1
  8
SLD-0
  6
SLD-実線
 62
   179
370
    18
100
AcDbLine
 10
20.6341688743
 20
27.4041635509
 30
0.0
 11
22.3613342291
 21
27.4041635509
 31
0.0
  0
LINE
  5
10C
330
1B
100
AcDbEntity
 67
     1
  8
SLD-0
  6
SLD-実線
 62
   179
370
    18
100
AcDbLine
 10
22.4058224181
 20
27.25693048
 30
0.0
 11
22.4058224181
 21
27.3596753619
 31
0.0
  0
LINE
  5
10D
330
1B
100
AcDbEntity
 67
     1
  8
SLD-0
  6
SLD-実線
 62
   179
370
    18
100
AcDbLine
 10
22.4142165913
 20
27.2408054407
 30
0.0
 11
23.0243117096
 21
26.8136123697
 31
0.0
  0
LINE
  5
10E
330
1B
100
AcDbEntity
 67
     1
  8
SLD-0
  6
SLD-実線
 62
   179
370
    18
100
AcDbLine
 10
20.6341688743
 20
27.2466832359
 30
0.0
 11
22.4086998984
 21
27.2466832359
 31
0.0
  0
LINE
  5
10F
330
1B
100
AcDbEntity
 67
     1
  8
SLD-0
  6
SLD-実線
 62
   179
370
    18
100
AcDbLine
 10
23.1262948592
 20
25.4356596134
 30
0.0
 11
23.1262948592
 21
26.7691241807
 31
0.0
  0
LINE
  5
110
330
1B
100
AcDbEntity
 67
     1
  8
SLD-0
  6
SLD-実線
 62
   179
370
    18
100
AcDbLine
 10
20.6341688743
 20
26.8136123697
 30
0.0
 11
23.0818066702
 21
26.8136123697
 31
0.0
  0
LINE
  5
111
330
1B
100
AcDbEntity
 67
     1
  8
SLD-0
  6
SLD-実線
 62
   179
370
    18
100
AcDbLine
 10
20.6341688743
 20
27.2466832359
 30
0.0
 11
18.8596376928
 21
27.2466832359
 31
0.0
  0
LINE
  5
112
330
1B
100
AcDbEntity
 67
     1
  8
SLD-0
  6
SLD-実線
 62
   179
370
    18
100
AcDbLine
 10
20.6341688743
 20
26.8136123697
 30
0.0
 11
18.1865310784
 21
26.8136123697
 31
0.0
  0
LINE
  5
113
330
1B
100
AcDbEntity
 67
     1
  8
SLD-0
  6
SLD-実線
 62
   179
370
    18
100
AcDbLine
 10
18.8541211659
 20
27.2408054398
 30
0.0
 11
18.2440260391
 21
26.8136123697
 31
0.0
  0
LINE
  5
114
330
1B
100
AcDbEntity
 67
     1
  8
SLD-0
  6
SLD-実線
 62
   179
370
    18
100
AcDbLine
 10
18.8625153306
 20
27.25693048
 30
0.0
 11
18.8625153306
 21
27.3596753619
 31
0.0
  0
LINE
  5
115
330
1B
100
AcDbEntity
 67
     1
  8
SLD-0
  6
SLD-実線
 62
   179
370
    18
100
AcDbLine
 10
18.1420428894
 20
25.4356596134
 30
0.0
 11
18.1420428894
 21
26.7691241807
 31
0.0
  0
LINE
  5
116
330
1B
100
AcDbEntity
 67
     1
  8
SLD-0
  6
SLD-実線
 62
   179
370
    18
100
AcDbLine
 10
20.6341688743
 20
27.4041635509
 30
0.0
 11
18.9070035196
 21
27.4041635509
 31
0.0
  0
LINE
  5
117
330
1B
100
AcDbEntity
 67
     1
  8
SLD-0
  6
SLD-実線
 62
   179
370
    18
100
AcDbLine
 10
19.1971609999
 20
25.4356596134
 30
0.0
 11
18.1420428894
 21
25.4356596134
 31
0.0
  0
LINE
  5
118
330
1B
100
AcDbEntity
 67
     1
  8
SLD-0
  6
SLD-実線
 62
   179
370
    18
100
AcDbLine
 10
22.7345257093
 20
25.272349088
 30
0.0
 11
22.6147602293
 21
25.381663997
 31
0.0
  0
LINE
  5
119
330
1B
100
AcDbEntity
 67
     1
  8
SLD-0
  6
SLD-実線
 62
   179
370
    18
100
AcDbLine
 10
22.8088882449
 20
25.381551267
 30
0.0
 11
22.9470784838
 21
25.2724617018
 31
0.0
  0
LINE
  5
11A
330
1B
100
AcDbEntity
 67
     1
  8
SLD-0
  6
SLD-実線
 62
   179
370
    18
100
AcDbLine
 10
22.7939124969
 20
25.4124531567
 30
0.0
 11
22.7939124969
 21
25.4356596134
 31
0.0
  0
LINE
  5
11B
330
1B
100
AcDbEntity
 67
     1
  8
SLD-0
  6
SLD-実線
 62
   179
370
    18
100
AcDbLine
 10
22.6920564339
 20
25.4356596134
 30
0.0
 11
22.6920564339
 21
25.3111125268
 31
0.0
  0
LINE
  5
11C
330
1B
100
AcDbEntity
 67
     1
  8
SLD-0
  6
SLD-実線
 62
   179
370
    18
100
AcDbLine
 10
22.9620542292
 20
21.8136123684
 30
0.0
 11
22.9620542292
 21
25.2415599283
 31
0.0
  0
LINE
  5
11D
330
1B
100
AcDbEntity
 67
     1
  8
SLD-0
  6
SLD-実線
 62
   179
370
    18
100
AcDbLine
 10
19.6708890316
 20
22.3641027623
 30
0.0
 11
19.6708890316
 21
21.8136123684
 31
0.0
  0
LINE
  5
11E
330
1B
100
AcDbEntity
 67
     1
  8
SLD-0
  6
SLD-実線
 62
   179
370
    18
100
AcDbLine
 10
19.8118964332
 20
22.3641027623
 30
0.0
 11
19.8118964332
 21
21.8136123684
 31
0.0
  0
LINE
  5
11F
330
1B
100
AcDbEntity
 67
     1
  8
SLD-0
  6
SLD-実線
 62
   179
370
    18
100
AcDbLine
 10
19.4451540709
 20
21.8136123684
 30
0.0
 11
19.4451540709
 21
22.4119476442
 31
0.0
  0
LINE
  5
120
330
1B
100
AcDbEntity
 67
     1
  8
SLD-0
  6
SLD-実線
 62
   179
370
    18
100
AcDbLine
 10
19.1040091889
 20
25.4356596134
 30
0.0
 11
19.1040091889
 21
21.8136123684
 31
0.0
  0
LINE
  5
121
330
1B
100
AcDbEntity
 67
     1
  8
SLD-0
  6
SLD-実線
 62
   179
370
    18
100
AcDbLine
 10
18.8394540707
 20
25.4356596134
 30
0.0
 11
18.8394540707
 21
21.8136123684
 31
0.0
  0
LINE
  5
122
330
1B
100
AcDbEntity
 67
     1
  8
SLD-0
  6
SLD-実線
 62
   179
370
    18
100
AcDbLine
 10
18.9508095038
 20
25.4356596134
 30
0.0
 11
18.9508095038
 21
21.8136123684
 31
0.0
  0
LINE
  5
123
330
1B
100
AcDbEntity
 67
     1
  8
SLD-0
  6
SLD-実線
 62
   179
370
    18
100
AcDbLine
 10
19.2627233622
 20
21.8136123684
 30
0.0
 11
19.2627233622
 21
22.6421789828
 31
0.0
  0
LINE
  5
124
330
1B
100
AcDbEntity
 67
     1
  8
SLD-0
  6
SLD-実線
 62
   179
370
    18
100
AcDbLine
 10
22.6019313945
 20
25.4107426056
 30
0.0
 11
22.6019313945
 21
25.4356596134
 31
0.0
  0
LINE
  5
125
330
1B
100
AcDbEntity
 67
     1
  8
SLD-0
  6
SLD-実線
 62
   179
370
    18
100
AcDbLine
 10
22.4944926543
 20
25.4356596134
 30
0.0
 11
22.4944926543
 21
21.8136123684
 31
0.0
  0
LINE
  5
126
330
1B
100
AcDbEntity
 67
     1
  8
SLD-0
  6
SLD-実線
 62
   179
370
    18
100
AcDbLine
 10
22.7473545441
 20
25.2432704795
 30
0.0
 11
22.7473545441
 21
21.8136123684
 31
0.0
  0
LINE
  5
127
330
1B
100
AcDbEntity
 67
     1
  8
SLD-0
  6
SLD-実線
 62
   179
370
    18
100
AcDbLine
 10
22.1643284023
 20
25.4356596134
 30
0.0
 11
22.1643284023
 21
21.8136123684
 31
0.0
  0
LINE
  5
128
330
1B
100
AcDbEntity
 67
     1
  8
SLD-0
  6
SLD-実線
 62
   179
370
    18
100
AcDbLine
 10
22.3175282448
 20
25.4356596134
 30
0.0
 11
22.3175282448
 21
21.8136123684
 31
0.0
  0
LINE
  5
129
330
1B
100
AcDbEntity
 67
     1
  8
SLD-0
  6
SLD-実線
 62
   179
370
    18
100
AcDbLine
 10
22.4288835204
 20
25.4356596134
 30
0.0
 11
22.4288835204
 21
21.8136123684
 31
0.0
  0
LINE
  5
12A
330
1B
100
AcDbEntity
 67
     1
  8
SLD-0
  6
SLD-実線
 62
   179
370
    18
100
AcDbLine
 10
21.4564413155
 20
22.3641027623
 30
0.0
 11
21.4564413155
 21
21.8136123684
 31
0.0
  0
LINE
  5
12B
330
1B
100
AcDbEntity
 67
     1
  8
SLD-0
  6
SLD-実線
 62
   179
370
    18
100
AcDbLine
 10
21.5974485596
 20
22.3641027623
 30
0.0
 11
21.5974485596
 21
21.8136123684
 31
0.0
  0
LINE
  5
12C
330
1B
100
AcDbEntity
 67
     1
  8
SLD-0
  6
SLD-実線
 62
   179
370
    18
100
AcDbLine
 10
22.0056143865
 20
21.8136123684
 30
0.0
 11
22.0056143865
 21
22.6421789828
 31
0.0
  0
LINE
  5
12D
330
1B
100
AcDbEntity
 67
     1
  8
SLD-0
  6
SLD-実線
 62
   179
370
    18
100
AcDbLine
 10
21.8231836778
 20
21.8136123684
 30
0.0
 11
21.8231836778
 21
22.4119476442
 31
0.0
  0
LINE
  5
12E
330
1B
100
AcDbEntity
 67
     1
  8
SLD-0
  6
SLD-実線
 62
   179
370
    18
100
AcDbLine
 10
22.9766885599
 20
25.3849243378
 30
0.0
 11
23.1347954891
 21
25.2936411882
 31
0.0
  0
LINE
  5
12F
330
1B
100
AcDbEntity
 67
     1
  8
SLD-0
  6
SLD-実線
 62
   179
370
    18
100
AcDbLine
 10
22.9570035206
 20
25.4190197709
 30
0.0
 11
22.9570035206
 21
25.4356596134
 31
0.0
  0
LINE
  5
130
330
1B
100
AcDbEntity
 67
     1
  8
SLD-0
  6
SLD-実線
 62
   179
370
    18
100
AcDbLine
 10
18.3113342281
 20
25.4190197709
 30
0.0
 11
18.3113342281
 21
25.4356596134
 31
0.0
  0
LINE
  5
131
330
1B
100
AcDbEntity
 67
     1
  8
SLD-0
  6
SLD-実線
 62
   179
370
    18
100
AcDbLine
 10
18.3707472989
 20
25.4356596134
 30
0.0
 11
18.2875657241
 21
22.385673156
 31
0.0
  0
LINE
  5
132
330
1B
100
AcDbEntity
 67
     1
  8
SLD-0
  6
SLD-実線
 62
   179
370
    18
100
AcDbLine
 10
19.9255074568
 20
21.4592816597
 30
0.0
 11
19.9255074568
 21
22.3641027623
 31
0.0
  0
LINE
  5
133
330
1B
100
AcDbEntity
 67
     1
  8
SLD-0
  6
SLD-実線
 62
   179
370
    18
100
AcDbLine
 10
21.3428302918
 20
21.4592816597
 30
0.0
 11
21.3428302918
 21
22.3641027623
 31
0.0
  0
LINE
  5
134
330
1B
100
AcDbEntity
 67
     1
  8
SLD-0
  6
SLD-実線
 62
   179
370
    18
100
AcDbLine
 10
23.3864254104
 20
21.9317226047
 30
0.0
 11
23.2423405285
 21
22.0993215024
 31
0.0
  0
LINE
  5
135
330
1B
100
AcDbEntity
 67
     1
  8
SLD-0
  6
SLD-実線
 62
   179
370
    18
100
AcDbLine
 10
23.3864254104
 20
21.9317226047
 30
0.0
 11
23.3864254104
 21
21.0262107934
 31
0.0
  0
LINE
  5
136
330
1B
100
AcDbEntity
 67
     1
  8
SLD-0
  6
SLD-実線
 62
   179
370
    18
100
AcDbLine
 10
18.2875657241
 20
22.385673156
 30
0.0
 11
17.9019391099
 21
21.9541337858
 31
0.0
  0
LINE
  5
137
330
1B
100
AcDbEntity
 67
     1
  8
SLD-0
  6
SLD-実線
 62
   179
370
    18
100
AcDbLine
 10
18.5752817872
 20
22.4041635497
 30
0.0
 11
18.1731321808
 21
21.9541337858
 31
0.0
  0
LINE
  5
138
330
1B
100
AcDbEntity
 67
     1
  8
SLD-0
  6
SLD-実線
 62
   179
370
    18
100
AcDbLine
 10
17.8819123382
 20
21.9016670141
 30
0.0
 11
17.8819123382
 21
21.0262107934
 31
0.0
  0
LINE
  5
139
330
1B
100
AcDbEntity
 67
     1
  8
SLD-0
  6
SLD-実線
 62
   179
370
    18
100
AcDbLine
 10
18.1531052517
 20
21.9016670141
 30
0.0
 11
18.1531052517
 21
20.9474706359
 31
0.0
  0
LINE
  5
13A
330
1B
100
AcDbEntity
 67
     1
  8
SLD-0
  6
SLD-実線
 62
   179
370
    18
100
AcDbLine
 10
18.5752817872
 20
22.7368191403
 30
0.0
 11
18.5752817872
 21
21.4199115809
 31
0.0
  0
LINE
  5
13B
330
1B
100
AcDbEntity
 67
     1
  8
SLD-0
  6
SLD-実線
 62
   179
370
    18
100
AcDbLine
 10
18.1590671414
 20
21.9317226047
 30
0.0
 11
17.887874228
 21
21.9317226047
 31
0.0
  0
LINE
  5
13C
330
1B
100
AcDbEntity
 67
     1
  8
SLD-0
  6
SLD-鎖線
 62
   179
370
    18
100
AcDbLine
 10
20.6341688743
 20
7.8411443334
 30
0.0
 11
20.6341688743
 21
27.7194597715
 31
0.0
  0
LINE
  5
13D
330
1B
100
AcDbEntity
 67
     1
  8
SLD-0
  6
SLD-実線
 62
   179
370
    18
100
AcDbLine
 10
19.9255074568
 20
21.8136123684
 30
0.0
 11
18.5752817872
 21
21.8136123684
 31
0.0
  0
LINE
  5
13E
330
1B
100
AcDbEntity
 67
     1
  8
SLD-0
  6
SLD-実線
 62
   179
370
    18
100
AcDbLine
 10
18.1138723383
 20
25.2606396134
 30
0.0
 11
18.0258147004
 21
22.0927580378
 31
0.0
  0
LINE
  5
13F
330
1B
100
AcDbEntity
 67
     1
  8
SLD-0
  6
SLD-実線
 62
   179
370
    18
100
AcDbLine
 10
18.2916491887
 20
25.3849242826
 30
0.0
 11
18.133542102
 21
25.2936411882
 31
0.0
  0
LINE
  5
140
330
1B
100
AcDbEntity
 67
     1
  8
SLD-0
  6
SLD-実線
 62
   179
370
    18
100
AcDbLine
 10
23.1544654104
 20
25.2606396134
 30
0.0
 11
23.2516269852
 21
21.7652353605
 31
0.0
  0
LINE
  5
141
330
1B
100
AcDbEntity
 67
     1
  8
SLD-0
  6
SLD-実線
 62
   179
370
    18
100
AcDbLine
 10
23.0357436781
 20
21.6167619747
 30
0.0
 11
23.2319572214
 21
21.7300458565
 31
0.0
  0
LINE
  5
142
330
1B
100
AcDbEntity
 67
     1
  8
SLD-0
  6
SLD-実線
 62
   179
370
    18
100
AcDbLine
 10
18.3016893462
 20
22.9035353608
 30
0.0
 11
18.2875657241
 21
22.385673156
 31
0.0
  0
LINE
  5
143
330
1B
100
AcDbEntity
 67
     1
  8
SLD-0
  6
SLD-実線
 62
   179
370
    18
100
AcDbLine
 10
22.8975904497
 20
25.4356596134
 30
0.0
 11
22.9010502922
 21
25.3087970937
 31
0.0
  0
LINE
  5
144
330
1B
100
AcDbEntity
 67
     1
  8
SLD-0
  6
SLD-実線
 62
   179
370
    18
100
AcDbLine
 10
21.3428302918
 20
21.8136123684
 30
0.0
 11
23.0357436781
 21
21.8136123684
 31
0.0
  0
LINE
  5
145
330
1B
100
AcDbEntity
 67
     1
  8
SLD-0
  6
SLD-実線
 62
   179
370
    18
100
AcDbLine
 10
21.6459798982
 20
12.4247800826
 30
0.0
 11
20.6341688743
 21
12.4247800826
 31
0.0
  0
LINE
  5
146
330
1B
100
AcDbEntity
 67
     1
  8
SLD-0
  6
SLD-実線
 62
   179
370
    18
100
AcDbLine
 10
21.6459798982
 20
12.4247800826
 30
0.0
 11
21.6459798982
 21
11.8671183502
 31
0.0
  0
LINE
  5
147
330
1B
100
AcDbEntity
 67
     1
  8
SLD-0
  6
SLD-実線
 62
   179
370
    18
100
AcDbLine
 10
20.6341688743
 20
12.6938900039
 30
0.0
 11
21.5199956462
 21
12.6938900039
 31
0.0
  0
LINE
  5
148
330
1B
100
AcDbEntity
 67
     1
  8
SLD-0
  6
SLD-実線
 62
   179
370
    18
100
AcDbLine
 10
21.9333814731
 20
12.6171309488
 30
0.0
 11
20.6341688743
 21
12.6171309488
 31
0.0
  0
LINE
  5
149
330
1B
100
AcDbEntity
 67
     1
  8
SLD-0
  6
SLD-実線
 62
   179
370
    18
100
AcDbLine
 10
19.6223578504
 20
12.4247800826
 30
0.0
 11
20.6341688743
 21
12.4247800826
 31
0.0
  0
LINE
  5
14A
330
1B
100
AcDbEntity
 67
     1
  8
SLD-0
  6
SLD-実線
 62
   179
370
    18
100
AcDbLine
 10
19.6223578504
 20
12.4247800826
 30
0.0
 11
19.6223578504
 21
11.8671183502
 31
0.0
  0
LINE
  5
14B
330
1B
100
AcDbEntity
 67
     1
  8
SLD-0
  6
SLD-実線
 62
   179
370
    18
100
AcDbLine
 10
20.6341688743
 20
12.6938900039
 30
0.0
 11
19.7483421024
 21
12.6938900039
 31
0.0
  0
LINE
  5
14C
330
1B
100
AcDbEntity
 67
     1
  8
SLD-0
  6
SLD-実線
 62
   179
370
    18
100
AcDbLine
 10
19.3349562756
 20
12.6171309488
 30
0.0
 11
20.6341688743
 21
12.6171309488
 31
0.0
  0
LINE
  5
14D
330
1B
100
AcDbEntity
 67
     1
  8
SLD-0
  6
SLD-鎖線
 62
   179
370
    18
100
AcDbLine
 10
19.9045998978
 20
11.6953133108
 30
0.0
 11
21.3356517091
 21
11.6953133108
 31
0.0
  0
LINE
  5
14E
330
1B
100
AcDbEntity
 67
     1
  8
SLD-0
  6
SLD-鎖線
 62
   179
370
    18
100
AcDbLine
 10
24.6235084029
 20
8.4616065383
 30
0.0
 11
16.124658322
 21
8.4616065383
 31
0.0
  0
LINE
  5
14F
330
1B
100
AcDbEntity
 67
     1
  8
SLD-0
  6
SLD-鎖線
 62
   179
370
    18
100
AcDbLine
 10
23.4470466703
 20
10.0856222868
 30
0.0
 11
23.1060917096
 21
9.888771893
 31
0.0
  0
LINE
  5
150
330
1B
100
AcDbEntity
 67
     1
  8
SLD-0
  6
SLD-鎖線
 62
   179
370
    18
100
AcDbLine
 10
23.4470466703
 20
6.8375907899
 30
0.0
 11
23.1060917096
 21
7.0344411836
 31
0.0
  0
LINE
  5
151
330
1B
100
AcDbEntity
 67
     1
  8
SLD-0
  6
SLD-鎖線
 62
   179
370
    18
100
AcDbLine
 10
20.6341688743
 20
5.2135750414
 30
0.0
 11
20.6341688743
 21
5.6072758289
 31
0.0
  0
LINE
  5
152
330
1B
100
AcDbEntity
 67
     1
  8
SLD-0
  6
SLD-鎖線
 62
   179
370
    18
100
AcDbLine
 10
17.8212910783
 20
6.8375907899
 30
0.0
 11
18.1622458816
 21
7.0344411836
 31
0.0
  0
LINE
  5
153
330
1B
100
AcDbEntity
 67
     1
  8
SLD-0
  6
SLD-鎖線
 62
   179
370
    18
100
AcDbLine
 10
17.8212910783
 20
10.0856222868
 30
0.0
 11
18.1622458816
 21
9.888771893
 31
0.0
  0
LINE
  5
154
330
1B
100
AcDbEntity
 67
     1
  8
SLD-0
  6
SLD-鎖線
 62
   179
370
    18
100
AcDbLine
 10
20.6341688743
 20
11.7096380352
 30
0.0
 11
20.6341688743
 21
11.3159372477
 31
0.0
  0
LINE
  5
155
330
1B
100
AcDbEntity
 67
     1
  8
SLD-0
  6
SLD-実線
 62
   179
370
    18
100
AcDbLine
 10
24.1774759618
 20
8.4616065383
 30
0.0
 11
24.1774759618
 21
7.4773545696
 31
0.0
  0
LINE
  5
156
330
1B
100
AcDbEntity
 67
     1
  8
SLD-0
  6
SLD-実線
 62
   179
370
    18
100
AcDbLine
 10
22.7248646229
 20
5.0560947264
 30
0.0
 11
20.6341688743
 21
5.0560947264
 31
0.0
  0
LINE
  5
157
330
1B
100
AcDbEntity
 67
     1
  8
SLD-0
  6
SLD-実線
 62
   179
370
    18
100
AcDbLine
 10
24.0396806862
 20
7.4773545696
 30
0.0
 11
24.0396806862
 21
6.3709107898
 31
0.0
  0
LINE
  5
158
330
1B
100
AcDbEntity
 67
     1
  8
SLD-0
  6
SLD-実線
 62
   179
370
    18
100
AcDbLine
 10
24.1774759618
 20
7.4773545696
 30
0.0
 11
24.0396806862
 21
7.4773545696
 31
0.0
  0
LINE
  5
159
330
1B
100
AcDbEntity
 67
     1
  8
SLD-0
  6
SLD-実線
 62
   179
370
    18
100
AcDbLine
 10
24.0396806862
 20
7.1820789789
 30
0.0
 11
23.8428302924
 21
7.1820789789
 31
0.0
  0
LINE
  5
15A
330
1B
100
AcDbEntity
 67
     1
  8
SLD-0
  6
SLD-実線
 62
   179
370
    18
100
AcDbLine
 10
23.8428302924
 20
7.1820789789
 30
0.0
 11
23.8428302924
 21
6.4272742544
 31
0.0
  0
LINE
  5
15B
330
1B
100
AcDbEntity
 67
     1
  8
SLD-0
  6
SLD-実線
 62
   179
370
    18
100
AcDbLine
 10
22.6685011583
 20
5.2529451202
 30
0.0
 11
21.9136964337
 21
5.2529451202
 31
0.0
  0
LINE
  5
15C
330
1B
100
AcDbEntity
 67
     1
  8
SLD-0
  6
SLD-実線
 62
   179
370
    18
100
AcDbLine
 10
21.9136964337
 20
5.2529451202
 30
0.0
 11
21.9136964337
 21
5.0560947264
 31
0.0
  0
LINE
  5
15D
330
1B
100
AcDbEntity
 67
     1
  8
SLD-0
  6
SLD-実線
 62
   179
370
    18
100
AcDbLine
 10
24.1774759618
 20
8.4616065383
 30
0.0
 11
24.1774759618
 21
9.4458585071
 31
0.0
  0
LINE
  5
15E
330
1B
100
AcDbEntity
 67
     1
  8
SLD-0
  6
SLD-実線
 62
   179
370
    18
100
AcDbLine
 10
24.0396806862
 20
9.7411340977
 30
0.0
 11
23.8428302924
 21
9.7411340977
 31
0.0
  0
LINE
  5
15F
330
1B
100
AcDbEntity
 67
     1
  8
SLD-0
  6
SLD-実線
 62
   179
370
    18
100
AcDbLine
 10
24.0396806862
 20
9.4458585071
 30
0.0
 11
24.0396806862
 21
10.5523022869
 31
0.0
  0
LINE
  5
160
330
1B
100
AcDbEntity
 67
     1
  8
SLD-0
  6
SLD-実線
 62
   179
370
    18
100
AcDbLine
 10
24.1774759618
 20
9.4458585071
 30
0.0
 11
24.0396806862
 21
9.4458585071
 31
0.0
  0
LINE
  5
161
330
1B
100
AcDbEntity
 67
     1
  8
SLD-0
  6
SLD-実線
 62
   179
370
    18
100
AcDbLine
 10
23.8428302924
 20
9.7411340977
 30
0.0
 11
23.8428302924
 21
10.4959389798
 31
0.0
  0
LINE
  5
162
330
1B
100
AcDbEntity
 67
     1
  8
SLD-0
  6
SLD-実線
 62
   179
370
    18
100
AcDbLine
 10
22.6685011583
 20
11.6702679564
 30
0.0
 11
21.9136964337
 21
11.6702679564
 31
0.0
  0
LINE
  5
163
330
1B
100
AcDbEntity
 67
     1
  8
SLD-0
  6
SLD-実線
 62
   179
370
    18
100
AcDbLine
 10
21.9136964337
 20
11.6702679564
 30
0.0
 11
21.9136964337
 21
11.8671183502
 31
0.0
  0
LINE
  5
164
330
1B
100
AcDbEntity
 67
     1
  8
SLD-0
  6
SLD-実線
 62
   179
370
    18
100
AcDbLine
 10
22.7248646331
 20
11.8671183485
 30
0.0
 11
20.6341688743
 21
11.8671183485
 31
0.0
  0
LINE
  5
165
330
1B
100
AcDbEntity
 67
     1
  8
SLD-0
  6
SLD-実線
 62
   179
370
    18
100
AcDbLine
 10
17.0908617868
 20
8.4616065383
 30
0.0
 11
17.0908617868
 21
9.4458585071
 31
0.0
  0
LINE
  5
166
330
1B
100
AcDbEntity
 67
     1
  8
SLD-0
  6
SLD-実線
 62
   179
370
    18
100
AcDbLine
 10
17.2286570624
 20
9.7411340977
 30
0.0
 11
17.4255074562
 21
9.7411340977
 31
0.0
  0
LINE
  5
167
330
1B
100
AcDbEntity
 67
     1
  8
SLD-0
  6
SLD-実線
 62
   179
370
    18
100
AcDbLine
 10
17.2286570624
 20
9.4458585071
 30
0.0
 11
17.2286570624
 21
10.5523022869
 31
0.0
  0
LINE
  5
168
330
1B
100
AcDbEntity
 67
     1
  8
SLD-0
  6
SLD-実線
 62
   179
370
    18
100
AcDbLine
 10
17.0908617868
 20
9.4458585071
 30
0.0
 11
17.2286570624
 21
9.4458585071
 31
0.0
  0
LINE
  5
169
330
1B
100
AcDbEntity
 67
     1
  8
SLD-0
  6
SLD-実線
 62
   179
370
    18
100
AcDbLine
 10
17.4255074562
 20
9.7411340977
 30
0.0
 11
17.4255074562
 21
10.4959389798
 31
0.0
  0
LINE
  5
16A
330
1B
100
AcDbEntity
 67
     1
  8
SLD-0
  6
SLD-実線
 62
   179
370
    18
100
AcDbLine
 10
18.5998364329
 20
11.6702679564
 30
0.0
 11
19.3546413149
 21
11.6702679564
 31
0.0
  0
LINE
  5
16B
330
1B
100
AcDbEntity
 67
     1
  8
SLD-0
  6
SLD-実線
 62
   179
370
    18
100
AcDbLine
 10
19.3546413149
 20
11.6702679564
 30
0.0
 11
19.3546413149
 21
11.8671183502
 31
0.0
  0
LINE
  5
16C
330
1B
100
AcDbEntity
 67
     1
  8
SLD-0
  6
SLD-実線
 62
   179
370
    18
100
AcDbLine
 10
18.5434731156
 20
11.8671183485
 30
0.0
 11
20.6341688743
 21
11.8671183485
 31
0.0
  0
LINE
  5
16D
330
1B
100
AcDbEntity
 67
     1
  8
SLD-0
  6
SLD-実線
 62
   179
370
    18
100
AcDbLine
 10
17.0908617868
 20
8.4616065383
 30
0.0
 11
17.0908617868
 21
7.4773545696
 31
0.0
  0
LINE
  5
16E
330
1B
100
AcDbEntity
 67
     1
  8
SLD-0
  6
SLD-実線
 62
   179
370
    18
100
AcDbLine
 10
17.2286570624
 20
7.1820789789
 30
0.0
 11
17.4255074562
 21
7.1820789789
 31
0.0
  0
LINE
  5
16F
330
1B
100
AcDbEntity
 67
     1
  8
SLD-0
  6
SLD-実線
 62
   179
370
    18
100
AcDbLine
 10
17.2286570624
 20
7.4773545696
 30
0.0
 11
17.2286570624
 21
6.3709107898
 31
0.0
  0
LINE
  5
170
330
1B
100
AcDbEntity
 67
     1
  8
SLD-0
  6
SLD-実線
 62
   179
370
    18
100
AcDbLine
 10
17.0908617868
 20
7.4773545696
 30
0.0
 11
17.2286570624
 21
7.4773545696
 31
0.0
  0
LINE
  5
171
330
1B
100
AcDbEntity
 67
     1
  8
SLD-0
  6
SLD-実線
 62
   179
370
    18
100
AcDbLine
 10
17.4255074562
 20
7.1820789789
 30
0.0
 11
17.4255074562
 21
6.4272742544
 31
0.0
  0
LINE
  5
172
330
1B
100
AcDbEntity
 67
     1
  8
SLD-0
  6
SLD-実線
 62
   179
370
    18
100
AcDbLine
 10
18.5998364329
 20
5.2529451202
 30
0.0
 11
19.3546413149
 21
5.2529451202
 31
0.0
  0
LINE
  5
173
330
1B
100
AcDbEntity
 67
     1
  8
SLD-0
  6
SLD-実線
 62
   179
370
    18
100
AcDbLine
 10
19.3546413149
 20
5.2529451202
 30
0.0
 11
19.3546413149
 21
5.0560947264
 31
0.0
  0
LINE
  5
174
330
1B
100
AcDbEntity
 67
     1
  8
SLD-0
  6
SLD-実線
 62
   179
370
    18
100
AcDbLine
 10
18.5434731156
 20
5.0560947281
 30
0.0
 11
20.6341688743
 21
5.0560947281
 31
0.0
  0
LINE
  5
175
330
1B
100
AcDbEntity
 67
     1
  8
SLD-0
  6
SLD-鎖線
 62
   179
370
    18
100
AcDbLine
 10
23.4180537569
 20
5.6777216557
 30
0.0
 11
22.8612767489
 21
6.2344986638
 31
0.0
  0
LINE
  5
176
330
1B
100
AcDbEntity
 67
     1
  8
SLD-0
  6
SLD-鎖線
 62
   179
370
    18
100
AcDbLine
 10
17.8502838343
 20
11.2454915784
 30
0.0
 11
18.4070608423
 21
10.6887145704
 31
0.0
  0
LINE
  5
177
330
1B
100
AcDbEntity
 67
     1
  8
SLD-0
  6
SLD-破線
 62
   179
370
    18
100
AcDbLine
 10
24.1774759618
 20
9.1161144125
 30
0.0
 11
23.3900743868
 21
9.1161144125
 31
0.0
  0
LINE
  5
178
330
1B
100
AcDbEntity
 67
     1
  8
SLD-0
  6
SLD-破線
 62
   179
370
    18
100
AcDbLine
 10
24.1774759618
 20
9.057886066
 30
0.0
 11
23.3900743868
 21
9.057886066
 31
0.0
  0
LINE
  5
179
330
1B
100
AcDbEntity
 67
     1
  8
SLD-0
  6
SLD-破線
 62
   179
370
    18
100
AcDbLine
 10
24.1774759618
 20
7.8653270106
 30
0.0
 11
23.3900743868
 21
7.8653270106
 31
0.0
  0
LINE
  5
17A
330
1B
100
AcDbEntity
 67
     1
  8
SLD-0
  6
SLD-破線
 62
   179
370
    18
100
AcDbLine
 10
24.1774759618
 20
7.8070986641
 30
0.0
 11
23.3900743868
 21
7.8070986641
 31
0.0
  0
LINE
  5
17B
330
1B
100
AcDbEntity
 67
     1
  8
SLD-0
  6
SLD-破線
 62
   179
370
    18
100
AcDbLine
 10
17.0908617868
 20
9.057886066
 30
0.0
 11
17.8782633618
 21
9.057886066
 31
0.0
  0
LINE
  5
17C
330
1B
100
AcDbEntity
 67
     1
  8
SLD-0
  6
SLD-破線
 62
   179
370
    18
100
AcDbLine
 10
17.0908617868
 20
9.1161144125
 30
0.0
 11
17.8782633618
 21
9.1161144125
 31
0.0
  0
LINE
  5
17D
330
1B
100
AcDbEntity
 67
     1
  8
SLD-0
  6
SLD-破線
 62
   179
370
    18
100
AcDbLine
 10
17.0908617868
 20
7.8653270106
 30
0.0
 11
17.8782633618
 21
7.8653270106
 31
0.0
  0
LINE
  5
17E
330
1B
100
AcDbEntity
 67
     1
  8
SLD-0
  6
SLD-破線
 62
   179
370
    18
100
AcDbLine
 10
17.0908617868
 20
7.8070986641
 30
0.0
 11
17.8782633618
 21
7.8070986641
 31
0.0
  0
LINE
  5
17F
330
1B
100
AcDbEntity
 67
     1
  8
SLD-0
  6
SLD-実線
 62
   179
370
    18
100
AcDbLine
 10
21.9136964337
 20
17.0104627609
 30
0.0
 11
24.0396806862
 21
17.0104627609
 31
0.0
  0
LINE
  5
180
330
1B
100
AcDbEntity
 67
     1
  8
SLD-0
  6
SLD-実線
 62
   179
370
    18
100
AcDbLine
 10
24.1774759618
 20
21.2624312659
 30
0.0
 11
24.1774759618
 21
17.2348722098
 31
0.0
  0
LINE
  5
181
330
1B
100
AcDbEntity
 67
     1
  8
SLD-0
  6
SLD-実線
 62
   179
370
    18
100
AcDbLine
 10
24.0396806862
 20
17.5222737847
 30
0.0
 11
24.0396806862
 21
17.0104627609
 31
0.0
  0
LINE
  5
182
330
1B
100
AcDbEntity
 67
     1
  8
SLD-0
  6
SLD-実線
 62
   179
370
    18
100
AcDbLine
 10
20.6341688743
 20
17.5222737847
 30
0.0
 11
24.0396806862
 21
17.5222737847
 31
0.0
  0
LINE
  5
183
330
1B
100
AcDbEntity
 67
     1
  8
SLD-0
  6
SLD-実線
 62
   179
370
    18
100
AcDbLine
 10
24.0396806862
 20
17.2348722098
 30
0.0
 11
24.1774759618
 21
17.2348722098
 31
0.0
  0
LINE
  5
184
330
1B
100
AcDbEntity
 67
     1
  8
SLD-0
  6
SLD-実線
 62
   179
370
    18
100
AcDbLine
 10
23.0357436781
 20
21.8136123684
 30
0.0
 11
23.0357436781
 21
21.2624312659
 31
0.0
  0
LINE
  5
185
330
1B
100
AcDbEntity
 67
     1
  8
SLD-0
  6
SLD-実線
 62
   179
370
    18
100
AcDbLine
 10
22.8247873001
 20
21.2624312659
 30
0.0
 11
24.1774759618
 21
21.2624312659
 31
0.0
  0
LINE
  5
186
330
1B
100
AcDbEntity
 67
     1
  8
SLD-0
  6
SLD-実線
 62
   179
370
    18
100
AcDbLine
 10
18.2325940706
 20
21.4592816597
 30
0.0
 11
18.2325940706
 21
21.4199115809
 31
0.0
  0
LINE
  5
187
330
1B
100
AcDbEntity
 67
     1
  8
SLD-0
  6
SLD-実線
 62
   179
370
    18
100
AcDbLine
 10
17.8819247791
 20
21.2624312659
 30
0.0
 11
17.0908617868
 21
21.2624312659
 31
0.0
  0
LINE
  5
188
330
1B
100
AcDbEntity
 67
     1
  8
SLD-0
  6
SLD-実線
 62
   179
370
    18
100
AcDbLine
 10
17.0908617868
 20
21.2624312659
 30
0.0
 11
17.0908617868
 21
17.2348722098
 31
0.0
  0
LINE
  5
189
330
1B
100
AcDbEntity
 67
     1
  8
SLD-0
  6
SLD-実線
 62
   179
370
    18
100
AcDbLine
 10
17.2286570624
 20
17.2348722098
 30
0.0
 11
17.0908617868
 21
17.2348722098
 31
0.0
  0
LINE
  5
18A
330
1B
100
AcDbEntity
 67
     1
  8
SLD-0
  6
SLD-実線
 62
   179
370
    18
100
AcDbLine
 10
17.2286570624
 20
17.5222737847
 30
0.0
 11
17.2286570624
 21
17.0104627609
 31
0.0
  0
LINE
  5
18B
330
1B
100
AcDbEntity
 67
     1
  8
SLD-0
  6
SLD-実線
 62
   179
370
    18
100
AcDbLine
 10
20.6341688743
 20
17.5222737847
 30
0.0
 11
17.2286570624
 21
17.5222737847
 31
0.0
  0
LINE
  5
18C
330
1B
100
AcDbEntity
 67
     1
  8
SLD-0
  6
SLD-実線
 62
   179
370
    18
100
AcDbLine
 10
21.9136964337
 20
17.0104627609
 30
0.0
 11
17.2286570624
 21
17.0104627609
 31
0.0
  0
LINE
  5
18D
330
1B
100
AcDbEntity
 67
     1
  8
SLD-0
  6
SLD-実線
 62
   179
370
    18
100
AcDbLine
 10
18.1531058816
 20
21.4199115809
 30
0.0
 11
18.1531058816
 21
20.0419588247
 31
0.0
  0
LINE
  5
18E
330
1B
100
AcDbEntity
 67
     1
  8
SLD-0
  6
SLD-実線
 62
   179
370
    18
100
AcDbLine
 10
17.8819247791
 20
21.4199115809
 30
0.0
 11
17.8819247791
 21
19.8991637065
 31
0.0
  0
LINE
  5
18F
330
1B
100
AcDbEntity
 67
     1
  8
SLD-0
  6
SLD-実線
 62
   179
370
    18
100
AcDbLine
 10
20.6341688743
 20
19.9632186672
 30
0.0
 11
18.072309976
 21
19.9632186672
 31
0.0
  0
LINE
  5
190
330
1B
100
AcDbEntity
 67
     1
  8
SLD-0
  6
SLD-実線
 62
   179
370
    18
100
AcDbLine
 10
17.7598636767
 20
19.687975675
 30
0.0
 11
17.4845625743
 21
17.5222737847
 31
0.0
  0
LINE
  5
191
330
1B
100
AcDbEntity
 67
     1
  8
SLD-0
  6
SLD-実線
 62
   179
370
    18
100
AcDbLine
 10
20.6341688743
 20
19.9632186672
 30
0.0
 11
23.0362354891
 21
19.9632186672
 31
0.0
  0
LINE
  5
192
330
1B
100
AcDbEntity
 67
     1
  8
SLD-0
  6
SLD-実線
 62
   179
370
    18
100
AcDbLine
 10
23.348644623
 20
19.6882670136
 30
0.0
 11
23.6260350168
 21
17.5222737847
 31
0.0
  0
LINE
  5
193
330
1B
100
AcDbEntity
 67
     1
  8
SLD-0
  6
SLD-実線
 62
   179
370
    18
100
AcDbLine
 10
22.8247873001
 20
21.2624312659
 30
0.0
 11
22.9108342292
 21
19.9632186672
 31
0.0
  0
LINE
  5
194
330
1B
100
AcDbEntity
 67
     1
  8
SLD-0
  6
SLD-破線
 62
   179
370
    18
100
AcDbLine
 10
24.1774759618
 20
20.9531989824
 30
0.0
 11
23.3900743868
 21
20.9531989824
 31
0.0
  0
LINE
  5
195
330
1B
100
AcDbEntity
 67
     1
  8
SLD-0
  6
SLD-破線
 62
   179
370
    18
100
AcDbLine
 10
24.1774759618
 20
21.0114273289
 30
0.0
 11
23.3900743868
 21
21.0114273289
 31
0.0
  0
LINE
  5
196
330
1B
100
AcDbEntity
 67
     1
  8
SLD-0
  6
SLD-破線
 62
   179
370
    18
100
AcDbLine
 10
24.1774759618
 20
19.760639927
 30
0.0
 11
23.3900743868
 21
19.760639927
 31
0.0
  0
LINE
  5
197
330
1B
100
AcDbEntity
 67
     1
  8
SLD-0
  6
SLD-破線
 62
   179
370
    18
100
AcDbLine
 10
24.1774759618
 20
19.7024115805
 30
0.0
 11
23.3900743868
 21
19.7024115805
 31
0.0
  0
LINE
  5
198
330
1B
100
AcDbEntity
 67
     1
  8
SLD-0
  6
SLD-破線
 62
   179
370
    18
100
AcDbLine
 10
17.0908617868
 20
19.760639927
 30
0.0
 11
17.8782633618
 21
19.760639927
 31
0.0
  0
LINE
  5
199
330
1B
100
AcDbEntity
 67
     1
  8
SLD-0
  6
SLD-破線
 62
   179
370
    18
100
AcDbLine
 10
17.0908617868
 20
19.7024115805
 30
0.0
 11
17.8782633618
 21
19.7024115805
 31
0.0
  0
LINE
  5
19A
330
1B
100
AcDbEntity
 67
     1
  8
SLD-0
  6
SLD-破線
 62
   179
370
    18
100
AcDbLine
 10
17.0908617868
 20
20.9531989824
 30
0.0
 11
17.8782633618
 21
20.9531989824
 31
0.0
  0
LINE
  5
19B
330
1B
100
AcDbEntity
 67
     1
  8
SLD-0
  6
SLD-破線
 62
   179
370
    18
100
AcDbLine
 10
17.0908617868
 20
21.0114273289
 30
0.0
 11
17.8782633618
 21
21.0114273289
 31
0.0
  0
LINE
  5
19C
330
1B
100
AcDbEntity
 67
     1
  8
SLD-0
  6
SLD-実線
 62
   179
370
    18
100
AcDbLine
 10
23.0357436781
 20
21.4592816597
 30
0.0
 11
17.8819123382
 21
21.4592816597
 31
0.0
  0
LINE
  5
19D
330
1B
100
AcDbEntity
 67
     1
  8
SLD-0
  6
SLD-実線
 62
   179
370
    18
100
AcDbLine
 10
18.3507043068
 20
21.4592816597
 30
0.0
 11
18.2325940706
 21
21.4592816597
 31
0.0
  0
LINE
  5
19E
330
1B
100
AcDbEntity
 67
     1
  8
SLD-0
  6
SLD-実線
 62
   179
370
    18
100
AcDbLine
 10
18.5753106061
 20
21.4199115809
 30
0.0
 11
17.8819123382
 21
21.4199115809
 31
0.0
  0
LINE
  5
19F
330
1B
100
AcDbEntity
 67
     1
  8
SLD-0
  6
SLD-実線
 62
   179
370
    18
100
AcDbLine
 10
18.5753106061
 20
21.4199115809
 30
0.0
 11
18.5129295037
 21
20.037820242
 31
0.0
  0
LINE
  5
1A0
330
1B
100
AcDbEntity
 67
     1
  8
SLD-0
  6
SLD-実線
 62
   179
370
    18
100
AcDbLine
 10
23.3864129695
 20
21.4199115809
 30
0.0
 11
23.3864129695
 21
21.2624312659
 31
0.0
  0
LINE
  5
1A1
330
1B
100
AcDbEntity
 67
     1
  8
SLD-0
  6
SLD-実線
 62
   179
370
    18
100
AcDbLine
 10
23.0357436781
 20
21.4199115809
 30
0.0
 11
23.3864254104
 21
21.4199115809
 31
0.0
  0
LINE
  5
1A2
330
1B
100
AcDbEntity
 67
     1
  8
SLD-0
  6
SLD-鎖線
 62
   179
370
    18
100
AcDbLine
 10
16.9451632041
 20
20.3569194547
 30
0.0
 11
17.9286958028
 21
20.3569194547
 31
0.0
  0
LINE
  5
1A3
330
1B
100
AcDbEntity
 67
     1
  8
SLD-0
  6
SLD-鎖線
 62
   179
370
    18
100
AcDbLine
 10
20.3020666695
 20
20.1206989822
 30
0.0
 11
21.028040213
 21
20.1206989822
 31
0.0
  0
LINE
  5
1A4
330
1B
100
AcDbEntity
 67
     1
  8
SLD-0
  6
SLD-鎖線
 62
   179
370
    18
100
AcDbLine
 10
23.138256434
 20
20.3569194547
 30
0.0
 11
24.3331276154
 21
20.3569194547
 31
0.0
  0
ARC
  5
1A5
330
1B
100
AcDbEntity
 67
     1
  8
SLD-0
  6
SLD-実線
 62
   179
370
    18
100
AcDbCircle
 10
20.6341688743
 20
11.6953133108
 30
0.0
 40
0.4330708662500053
100
AcDbArc
 50
23.372884
 51
156.627116
  0
ARC
  5
1A6
330
1B
100
AcDbEntity
 67
     1
  8
1
  6
SLD-実線
 62
   179
370
    18
100
AcDbCircle
 10
19.6302318662
 20
22.7459925261
 30
0.0
 40
0.3818897638749981
100
AcDbArc
 50
180.0
 51
270.0
  0
ARC
  5
1A7
330
1B
100
AcDbEntity
 67
     1
  8
1
  6
SLD-実線
 62
   179
370
    18
100
AcDbCircle
 10
21.6381058824
 20
22.7459925261
 30
0.0
 40
0.3818897638749981
100
AcDbArc
 50
270.0
 51
0.0
  0
ARC
  5
1A8
330
1B
100
AcDbEntity
 67
     1
  8
1
  6
SLD-実線
 62
   179
370
    18
100
AcDbCircle
 10
21.6381058824
 20
25.8203972513
 30
0.0
 40
0.3818897638750016
100
AcDbArc
 50
0.0
 51
90.0
  0
ARC
  5
1A9
330
1B
100
AcDbEntity
 67
     1
  8
1
  6
SLD-実線
 62
   179
370
    18
100
AcDbCircle
 10
19.6302318662
 20
25.8203972513
 30
0.0
 40
0.3818897638750016
100
AcDbArc
 50
90.0
 51
180.0
  0
ARC
  5
1AA
330
1B
100
AcDbEntity
 67
     1
  8
SLD-0
  6
SLD-実線
 62
   179
370
    18
100
AcDbCircle
 10
19.8664523387
 20
22.9632186679
 30
0.0
 40
0.196850393750001
100
AcDbArc
 50
180.0
 51
270.0
  0
ARC
  5
1AB
330
1B
100
AcDbEntity
 67
     1
  8
SLD-0
  6
SLD-実線
 62
   179
370
    18
100
AcDbCircle
 10
21.4018854099
 20
22.9632186679
 30
0.0
 40
0.196850393750001
100
AcDbArc
 50
270.0
 51
0.0
  0
ARC
  5
1AC
330
1B
100
AcDbEntity
 67
     1
  8
SLD-0
  6
SLD-実線
 62
   179
370
    18
100
AcDbCircle
 10
21.4018854099
 20
25.6031711095
 30
0.0
 40
0.1968503937500046
100
AcDbArc
 50
0.0
 51
90.0
  0
ARC
  5
1AD
330
1B
100
AcDbEntity
 67
     1
  8
SLD-0
  6
SLD-実線
 62
   179
370
    18
100
AcDbCircle
 10
19.8664523387
 20
25.6031711095
 30
0.0
 40
0.1968503937500046
100
AcDbArc
 50
90.0
 51
180.0
  0
ARC
  5
1AE
330
1B
100
AcDbEntity
 67
     1
  8
SLD-0
  6
SLD-実線
 62
   179
370
    18
100
AcDbCircle
 10
22.0711767487
 20
25.6325100072
 30
0.0
 40
0.1968503937499975
100
AcDbArc
 50
254.929938
 51
270.0
  0
ARC
  5
1AF
330
1B
100
AcDbEntity
 67
     1
  8
SLD-0
  6
SLD-実線
 62
   179
370
    18
100
AcDbCircle
 10
22.3613342291
 20
27.3596753619
 30
0.0
 40
0.0444881889875006
100
AcDbArc
 50
0.0
 51
90.0
  0
ARC
  5
1B0
330
1B
100
AcDbEntity
 67
     1
  8
SLD-0
  6
SLD-実線
 62
   179
370
    18
100
AcDbCircle
 10
23.0818066702
 20
26.7691241807
 30
0.0
 40
0.0444881889875006
100
AcDbArc
 50
0.0
 51
90.0
  0
ARC
  5
1B1
330
1B
100
AcDbEntity
 67
     1
  8
SLD-0
  6
SLD-実線
 62
   179
370
    18
100
AcDbCircle
 10
22.4255074574
 20
27.25693048
 30
0.0
 40
0.0196850365545238
100
AcDbArc
 50
180.0
 51
235.0000190242
  0
ARC
  5
1B2
330
1B
100
AcDbEntity
 67
     1
  8
SLD-0
  6
SLD-実線
 62
   179
370
    18
100
AcDbCircle
 10
19.1971609999
 20
25.6325100072
 30
0.0
 40
0.1968503937499975
100
AcDbArc
 50
270.0
 51
285.070062
  0
ARC
  5
1B3
330
1B
100
AcDbEntity
 67
     1
  8
SLD-0
  6
SLD-実線
 62
   179
370
    18
100
AcDbCircle
 10
18.8428302912
 20
27.25693048
 30
0.0
 40
0.0196850393749983
100
AcDbArc
 50
305.0
 51
0.0
  0
ARC
  5
1B4
330
1B
100
AcDbEntity
 67
     1
  8
SLD-0
  6
SLD-実線
 62
   179
370
    18
100
AcDbCircle
 10
18.1865310784
 20
26.7691241807
 30
0.0
 40
0.0444881889875077
100
AcDbArc
 50
90.0
 51
180.0
  0
ARC
  5
1B5
330
1B
100
AcDbEntity
 67
     1
  8
SLD-0
  6
SLD-実線
 62
   179
370
    18
100
AcDbCircle
 10
18.9070035196
 20
27.3596753619
 30
0.0
 40
0.0444881889875113
100
AcDbArc
 50
90.0
 51
180.0
  0
ARC
  5
1B6
330
1B
100
AcDbEntity
 67
     1
  8
SLD-0
  6
SLD-実線
 62
   179
370
    18
100
AcDbCircle
 10
22.9226841505
 20
25.2415599283
 30
0.0
 40
0.0393700787499971
100
AcDbArc
 50
0.0
 51
51.711897
  0
ARC
  5
1B7
330
1B
100
AcDbEntity
 67
     1
  8
SLD-0
  6
SLD-実線
 62
   179
370
    18
100
AcDbCircle
 10
22.8332825757
 20
25.4124531567
 30
0.0
 40
0.0393700787499999
100
AcDbArc
 50
180.0
 51
231.711897
  0
ARC
  5
1B8
330
1B
100
AcDbEntity
 67
     1
  8
SLD-0
  6
SLD-実線
 62
   179
370
    18
100
AcDbCircle
 10
22.7079844654
 20
25.2432704795
 30
0.0
 40
0.0393700787500144
100
AcDbArc
 50
0.0
 51
47.612009
  0
ARC
  5
1B9
330
1B
100
AcDbEntity
 67
     1
  8
SLD-0
  6
SLD-実線
 62
   179
370
    18
100
AcDbCircle
 10
22.6413014732
 20
25.4107426056
 30
0.0
 40
0.0393700787500029
100
AcDbArc
 50
180.0
 51
227.612009
  0
ARC
  5
1BA
330
1B
100
AcDbEntity
 67
     1
  8
SLD-0
  6
SLD-実線
 62
   179
370
    18
100
AcDbCircle
 10
19.3020934409
 20
25.2516999283
 30
0.0
 40
0.0393700787499967
100
AcDbArc
 50
154.413842
 51
180.0
  0
ARC
  5
1BB
330
1B
100
AcDbEntity
 67
     1
  8
SLD-0
  6
SLD-実線
 62
   179
370
    18
100
AcDbCircle
 10
22.9963735993
 20
25.4190197709
 30
0.0
 40
0.039370054818658
100
AcDbArc
 50
180.0
 51
239.9999597845
  0
ARC
  5
1BC
330
1B
100
AcDbEntity
 67
     1
  8
SLD-0
  6
SLD-実線
 62
   179
370
    18
100
AcDbCircle
 10
18.2719641493
 20
25.4190197709
 30
0.0
 40
0.0393700787499997
100
AcDbArc
 50
300.0
 51
0.0
  0
ARC
  5
1BD
330
1B
100
AcDbEntity
 67
     1
  8
SLD-0
  6
SLD-実線
 62
   179
370
    18
100
AcDbCircle
 10
18.2318454092
 20
21.9016670141
 30
0.0
 40
0.0787401575000069
100
AcDbArc
 50
138.215806
 51
180.0
  0
ARC
  5
1BE
330
1B
100
AcDbEntity
 67
     1
  8
SLD-0
  6
SLD-実線
 62
   179
370
    18
100
AcDbCircle
 10
17.9606524957
 20
21.9016670141
 30
0.0
 40
0.0787401575000042
100
AcDbArc
 50
138.215806
 51
180.0
  0
ARC
  5
1BF
330
1B
100
AcDbEntity
 67
     1
  8
SLD-0
  6
SLD-実線
 62
   179
370
    18
100
AcDbCircle
 10
18.1532271414
 20
25.2595457551
 30
0.0
 40
0.0393700548186465
100
AcDbArc
 50
120.0000402155
 51
178.40776
  0
ARC
  5
1C0
330
1B
100
AcDbEntity
 67
     1
  8
SLD-0
  6
SLD-実線
 62
   179
370
    18
100
AcDbCircle
 10
23.212272182
 20
21.7641413448
 30
0.0
 40
0.0393700787499967
100
AcDbArc
 50
300.0
 51
1.59224
  0
ARC
  5
1C1
330
1B
100
AcDbEntity
 67
     1
  8
SLD-0
  6
SLD-実線
 62
   179
370
    18
100
AcDbCircle
 10
23.1151104497
 20
25.2595457551
 30
0.0
 40
0.0393700548186465
100
AcDbArc
 50
1.59224
 51
59.9999597845
  0
ARC
  5
1C2
330
1B
100
AcDbEntity
 67
     1
  8
SLD-0
  6
SLD-破線
 62
   179
370
    18
100
AcDbCircle
 10
20.6341688743
 20
11.6953133108
 30
0.0
 40
0.4330708662500053
100
AcDbArc
 50
156.627116
 51
23.372884
  0
ARC
  5
1C3
330
1B
100
AcDbEntity
 67
     1
  8
SLD-0
  6
SLD-実線
 62
   179
370
    18
100
AcDbCircle
 10
21.5199956462
 20
12.5679057519
 30
0.0
 40
0.1259842520000056
100
AcDbArc
 50
22.999613
 51
90.0
  0
ARC
  5
1C4
330
1B
100
AcDbEntity
 67
     1
  8
SLD-0
  6
SLD-実線
 62
   179
370
    18
100
AcDbCircle
 10
21.9333814731
 20
12.5305167756
 30
0.0
 40
0.0866141732500001
100
AcDbArc
 50
0.0
 51
90.0
  0
ARC
  5
1C5
330
1B
100
AcDbEntity
 67
     1
  8
SLD-0
  6
SLD-実線
 62
   179
370
    18
100
AcDbCircle
 10
19.7483421024
 20
12.5679057519
 30
0.0
 40
0.1259842520000138
100
AcDbArc
 50
90.0
 51
157.000387
  0
ARC
  5
1C6
330
1B
100
AcDbEntity
 67
     1
  8
SLD-0
  6
SLD-実線
 62
   179
370
    18
100
AcDbCircle
 10
19.3349562756
 20
12.5305167756
 30
0.0
 40
0.0866141732500001
100
AcDbArc
 50
90.0
 51
180.0
  0
ARC
  5
1C7
330
1B
100
AcDbEntity
 67
     1
  8
SLD-0
  6
SLD-実線
 62
   179
370
    18
100
AcDbCircle
 10
20.6341688743
 20
8.4616065383
 30
0.0
 40
1.673228346875
100
AcDbArc
 50
153.465735
 51
116.660761
  0
ARC
  5
1C8
330
1B
100
AcDbEntity
 67
     1
  8
SLD-0
  6
SLD-実線
 62
   179
370
    18
100
AcDbCircle
 10
20.6341688743
 20
8.4616065383
 30
0.0
 40
2.066929134375009
100
AcDbArc
 50
151.867711
 51
120.769644
  0
CIRCLE
  5
1C9
330
1B
100
AcDbEntity
 67
     1
  8
SLD-0
  6
SLD-実線
 62
   179
370
    18
100
AcDbCircle
 10
20.6341688743
 20
8.4616065383
 30
0.0
 40
3.28740157562499
  0
CIRCLE
  5
1CA
330
1B
100
AcDbEntity
 67
     1
  8
SLD-0
  6
SLD-実線
 62
   179
370
    18
100
AcDbCircle
 10
20.6341688743
 20
8.4616065383
 30
0.0
 40
0.4921259843749937
  0
ARC
  5
1CB
330
1B
100
AcDbEntity
 67
     1
  8
SLD-0
  6
SLD-鎖線
 62
   179
370
    18
100
AcDbCircle
 10
20.6341688743
 20
8.4616065383
 30
0.0
 40
3.051181103124999
100
AcDbArc
 50
26.300929
 51
33.699071
  0
CIRCLE
  5
1CC
330
1B
100
AcDbEntity
 67
     1
  8
SLD-0
  6
SLD-実線
 62
   179
370
    18
100
AcDbCircle
 10
23.2765691899
 20
9.9871970899
 30
0.0
 40
0.1082677165624908
  0
ARC
  5
1CD
330
1B
100
AcDbEntity
 67
     1
  8
SLD-0
  6
SLD-鎖線
 62
   179
370
    18
100
AcDbCircle
 10
20.6341688743
 20
8.4616065383
 30
0.0
 40
3.051181103125
100
AcDbArc
 50
326.300929
 51
333.699071
  0
CIRCLE
  5
1CE
330
1B
100
AcDbEntity
 67
     1
  8
SLD-0
  6
SLD-実線
 62
   179
370
    18
100
AcDbCircle
 10
23.2765691899
 20
6.9360159868
 30
0.0
 40
0.1082677165624908
  0
ARC
  5
1CF
330
1B
100
AcDbEntity
 67
     1
  8
SLD-0
  6
SLD-鎖線
 62
   179
370
    18
100
AcDbCircle
 10
20.6341688743
 20
8.4616065383
 30
0.0
 40
3.051181103125002
100
AcDbArc
 50
266.300929
 51
273.699071
  0
CIRCLE
  5
1D0
330
1B
100
AcDbEntity
 67
     1
  8
SLD-0
  6
SLD-実線
 62
   179
370
    18
100
AcDbCircle
 10
20.6341688743
 20
5.4104254352
 30
0.0
 40
0.1082677165624908
  0
ARC
  5
1D1
330
1B
100
AcDbEntity
 67
     1
  8
SLD-0
  6
SLD-鎖線
 62
   179
370
    18
100
AcDbCircle
 10
20.6341688743
 20
8.4616065383
 30
0.0
 40
3.051181103125012
100
AcDbArc
 50
206.300929
 51
213.699071
  0
CIRCLE
  5
1D2
330
1B
100
AcDbEntity
 67
     1
  8
SLD-0
  6
SLD-実線
 62
   179
370
    18
100
AcDbCircle
 10
17.9917685587
 20
6.9360159868
 30
0.0
 40
0.1082677165624908
  0
ARC
  5
1D3
330
1B
100
AcDbEntity
 67
     1
  8
SLD-0
  6
SLD-鎖線
 62
   179
370
    18
100
AcDbCircle
 10
20.6341688743
 20
8.4616065383
 30
0.0
 40
3.051181103125011
100
AcDbArc
 50
146.300929
 51
153.699071
  0
CIRCLE
  5
1D4
330
1B
100
AcDbEntity
 67
     1
  8
SLD-0
  6
SLD-実線
 62
   179
370
    18
100
AcDbCircle
 10
17.9917685587
 20
9.9871970899
 30
0.0
 40
0.1082677165624908
  0
ARC
  5
1D5
330
1B
100
AcDbEntity
 67
     1
  8
SLD-0
  6
SLD-鎖線
 62
   179
370
    18
100
AcDbCircle
 10
20.6341688743
 20
8.4616065383
 30
0.0
 40
3.051181103125001
100
AcDbArc
 50
86.300929
 51
93.699071
  0
CIRCLE
  5
1D6
330
1B
100
AcDbEntity
 67
     1
  8
SLD-0
  6
SLD-実線
 62
   179
370
    18
100
AcDbCircle
 10
20.6341688743
 20
11.5127876414
 30
0.0
 40
0.1082677165624908
  0
ARC
  5
1D7
330
1B
100
AcDbEntity
 67
     1
  8
SLD-0
  6
SLD-実線
 62
   179
370
    18
100
AcDbCircle
 10
20.6341688743
 20
8.4616065383
 30
0.0
 40
3.996062989223594
100
AcDbArc
 50
301.5463998626
 51
328.4536001374
  0
ARC
  5
1D8
330
1B
100
AcDbEntity
 67
     1
  8
SLD-0
  6
SLD-実線
 62
   179
370
    18
100
AcDbCircle
 10
20.6341688743
 20
8.4616065383
 30
0.0
 40
3.799212599375004
100
AcDbArc
 50
302.37522
 51
327.62478
  0
ARC
  5
1D9
330
1B
100
AcDbEntity
 67
     1
  8
SLD-0
  6
SLD-実線
 62
   179
370
    18
100
AcDbCircle
 10
20.6341688743
 20
8.4616065383
 30
0.0
 40
3.996062991174295
100
AcDbArc
 50
31.5463998626
 51
58.4536
  0
ARC
  5
1DA
330
1B
100
AcDbEntity
 67
     1
  8
SLD-0
  6
SLD-実線
 62
   179
370
    18
100
AcDbCircle
 10
20.6341688743
 20
8.4616065383
 30
0.0
 40
3.799212599375011
100
AcDbArc
 50
32.37522
 51
57.62478
  0
ARC
  5
1DB
330
1B
100
AcDbEntity
 67
     1
  8
SLD-0
  6
SLD-実線
 62
   179
370
    18
100
AcDbCircle
 10
20.6341688743
 20
8.4616065383
 30
0.0
 40
3.996062991174308
100
AcDbArc
 50
121.5464
 51
148.4536001374
  0
ARC
  5
1DC
330
1B
100
AcDbEntity
 67
     1
  8
SLD-0
  6
SLD-実線
 62
   179
370
    18
100
AcDbCircle
 10
20.6341688743
 20
8.4616065383
 30
0.0
 40
3.799212599375008
100
AcDbArc
 50
122.37522
 51
147.62478
  0
ARC
  5
1DD
330
1B
100
AcDbEntity
 67
     1
  8
SLD-0
  6
SLD-実線
 62
   179
370
    18
100
AcDbCircle
 10
20.6341688743
 20
8.4616065383
 30
0.0
 40
3.996062991174303
100
AcDbArc
 50
211.5463998626
 51
238.4536
  0
ARC
  5
1DE
330
1B
100
AcDbEntity
 67
     1
  8
SLD-0
  6
SLD-実線
 62
   179
370
    18
100
AcDbCircle
 10
20.6341688743
 20
8.4616065383
 30
0.0
 40
3.799212599375004
100
AcDbArc
 50
212.37522
 51
237.62478
  0
ARC
  5
1DF
330
1B
100
AcDbEntity
 67
     1
  8
SLD-0
  6
SLD-鎖線
 62
   179
370
    18
100
AcDbCircle
 10
20.6341688743
 20
8.4616065383
 30
0.0
 40
3.543307087500003
100
AcDbArc
 50
308.62063
 51
321.37937
  0
CIRCLE
  5
1E0
330
1B
100
AcDbEntity
 67
     1
  8
SLD-0
  6
SLD-実線
 62
   179
370
    18
100
AcDbCircle
 10
23.1396652529
 20
5.9561101597
 30
0.0
 40
0.196850393750001
  0
CIRCLE
  5
1E1
330
1B
100
AcDbEntity
 67
     1
  8
SLD-0
  6
SLD-実線
 62
   179
370
    18
100
AcDbCircle
 10
18.1286723383
 20
10.9671030744
 30
0.0
 40
0.1968503937500152
  0
ARC
  5
1E2
330
1B
100
AcDbEntity
 67
     1
  8
SLD-0
  6
SLD-鎖線
 62
   179
370
    18
100
AcDbCircle
 10
20.6341688743
 20
8.4616065383
 30
0.0
 40
3.543307087500003
100
AcDbArc
 50
128.62063
 51
141.37937
  0
ARC
  5
1E3
330
1B
100
AcDbEntity
 67
     1
  8
SLD-0
  6
SLD-実線
 62
   179
370
    18
100
AcDbCircle
 10
18.0743657241
 20
20.0419588247
 30
0.0
 40
0.0787401575000004
100
AcDbArc
 50
270.0
 51
0.0
  0
ARC
  5
1E4
330
1B
100
AcDbEntity
 67
     1
  8
SLD-0
  6
SLD-実線
 62
   179
370
    18
100
AcDbCircle
 10
18.4342981651
 20
20.0419588247
 30
0.0
 40
0.0787401575000094
100
AcDbArc
 50
270.0
 51
356.987212
  0
ARC
  5
1E5
330
1B
100
AcDbEntity
 67
     1
  8
SLD-0
  6
SLD-実線
 62
   179
370
    18
100
AcDbCircle
 10
23.0362354891
 20
19.6482580372
 30
0.0
 40
0.3149606194498666
100
AcDbArc
 50
7.2979147196
 51
90.0
  0
ARC
  5
1E6
330
1B
100
AcDbEntity
 67
     1
  8
SLD-0
  6
SLD-実線
 62
   179
370
    18
100
AcDbCircle
 10
18.072309976
 20
19.6482580372
 30
0.0
 40
0.314960630000005
100
AcDbArc
 50
90.0
 51
172.755493
  0
CIRCLE
  5
1E7
330
1B
100
AcDbEntity
 67
     1
  8
SLD-0
  6
SLD-破線
 62
   179
370
    18
100
AcDbCircle
 10
20.6341688743
 20
20.1206989822
 30
0.0
 40
0.1574803149999866
  0
ELLIPSE
  5
1E8
330
1B
100
AcDbEntity
 67
     1
  8
SLD-0
  6
SLD-実線
 62
   179
370
    18
100
AcDbEllipse
 10
22.9260846229
 20
17.5222737847
 30
0.0
 11
0.0
 21
1.628500169472748
 31
0.0
210
0.0
220
0.0
230
1.0
 40
0.180192
 41
4.712388980384692
 42
7.853981633974483
  0
ELLIPSE
  5
1E9
330
1B
100
AcDbEntity
 67
     1
  8
SLD-0
  6
SLD-実線
 62
   179
370
    18
100
AcDbEllipse
 10
18.3422531257
 20
17.5222737847
 30
0.0
 11
0.0
 21
1.628500169472748
 31
0.0
210
0.0
220
0.0
230
1.0
 40
0.180192
 41
4.712388980384692
 42
7.853981633974483
  0
ENDSEC
  0
SECTION
  2
OBJECTS
  0
DICTIONARY
  5
C
330
0
100
AcDbDictionary
281
     1
  3
ACAD_GROUP
350
D
  3
ACAD_LAYOUT
350
1A
  3
ACAD_MLINESTYLE
350
17
  3
ACAD_PLOTSETTINGS
350
19
  3
ACAD_PLOTSTYLENAME
350
E
  3
ACAD_SCALELIST
350
47
  0
DICTIONARY
  5
D
102
{ACAD_REACTORS
330
C
102
}
330
C
100
AcDbDictionary
281
     1
  0
DICTIONARY
  5
1A
102
{ACAD_REACTORS
330
C
102
}
330
C
100
AcDbDictionary
281
     1
  3
Model
350
22
  3
SW_Model_4
350
1E
  0
DICTIONARY
  5
17
102
{ACAD_REACTORS
330
C
102
}
330
C
100
AcDbDictionary
281
     1
  3
Standard
350
18
  0
DICTIONARY
  5
19
102
{ACAD_REACTORS
330
C
102
}
330
C
100
AcDbDictionary
281
     1
  0
ACDBDICTIONARYWDFLT
  5
E
102
{ACAD_REACTORS
330
C
102
}
330
C
100
AcDbDictionary
281
     1
  3
Normal
350
F
100
AcDbDictionaryWithDefault
340
F
  0
DICTIONARY
  5
47
102
{ACAD_REACTORS
330
C
102
}
330
C
100
AcDbDictionary
281
     1
  3
A0
350
48
  3
A1
350
49
  3
A2
350
4A
  3
A3
350
4B
  3
A4
350
4C
  3
A5
350
4D
  3
A6
350
4E
  3
A7
350
4F
  3
A8
350
50
  3
A9
350
51
  3
B0
350
52
  3
B1
350
53
  3
B2
350
54
  3
B3
350
55
  3
B4
350
56
  3
B5
350
57
  3
B6
350
58
  3
B7
350
59
  3
B8
350
5A
  3
B9
350
5B
  3
C0
350
5C
  3
C1
350
5D
  3
C2
350
5E
  3
C3
350
5F
  3
C4
350
60
  3
C5
350
61
  3
C6
350
62
  3
C7
350
63
  3
C8
350
64
  3
C9
350
65
  3
D0
350
66
  3
D1
350
67
  3
D2
350
68
  0
LAYOUT
  5
22
102
{ACAD_REACTORS
330
1A
102
}
330
1A
100
AcDbPlotSettings
  1

  2
none_device
  4
Letter_(8.50_x_11.00_Inches)
  6

 40
6.35
 41
6.35
 42
6.35000508
 43
6.35000508
 44
215.9
 45
279.4
 46
0.0
 47
0.0
 48
0.0
 49
0.0
140
0.0
141
0.0
142
1.0
143
1.0
 70
  1712
 72
     0
 73
     0
 74
     0
  7

 75
     0
147
1.0
148
0.0
149
0.0
100
AcDbLayout
  1
Model
 70
     1
 71
     0
 10
0.0
 20
0.0
 11
44.0
 21
34.0
 12
0.0
 22
0.0
 32
0.0
 14
0.0
 24
0.0
 34
0.0
 15
44.0
 25
34.0
 35
0.0
146
0.0
 13
0.0
 23
0.0
 33
0.0
 16
1.0
 26
0.0
 36
0.0
 17
0.0
 27
1.0
 37
0.0
 76
     0
330
1F
331
29
  0
LAYOUT
  5
1E
102
{ACAD_REACTORS
330
1A
102
}
330
1A
100
AcDbPlotSettings
  1

  2
none_device
  4
ANSI_E_(44.00_x_34.00_Inches)
  6

 40
6.35
 41
19.05
 42
6.3499746
 43
19.0499873
 44
1117.6
 45
863.6
 46
0.0
 47
0.0
 48
0.0
 49
0.0
140
0.0
141
0.0
142
1.0
143
1.0
 70
  4832
 72
     0
 73
     0
 74
     1
  7

 75
     0
147
1.0
148
0.0
149
0.0
100
AcDbLayout
  1
SW_Model_4
 70
     1
 71
     1
 10
0.0
 20
0.0
 11
44.0
 21
34.0
 12
0.0
 22
0.0
 32
0.0
 14
0.0
 24
0.0
 34
0.0
 15
44.0
 25
34.0
 35
0.0
146
0.0
 13
0.0
 23
0.0
 33
0.0
 16
1.0
 26
0.0
 36
0.0
 17
0.0
 27
1.0
 37
0.0
 76
     0
330
1B
331
F5
  0
MLINESTYLE
  5
18
102
{ACAD_REACTORS
330
17
102
}
330
17
100
AcDbMlineStyle
  2
Standard
 70
     0
  3

 62
   256
 51
90.0
 52
90.0
 71
     2
 49
0.5
 62
   256
  6
BYLAYER
 49
-0.5
 62
   256
  6
BYLAYER
  0
ACDBPLACEHOLDER
  5
F
102
{ACAD_REACTORS
330
E
102
}
330
E
  0
SCALE
  5
48
102
{ACAD_REACTORS
330
47
102
}
330
47
100
AcDbScale
 70
     0
300
1:1
140
1.0
141
1.0
290
     1
  0
SCALE
  5
49
102
{ACAD_REACTORS
330
47
102
}
330
47
100
AcDbScale
 70
     0
300
1:2
140
1.0
141
2.0
290
     0
  0
SCALE
  5
4A
102
{ACAD_REACTORS
330
47
102
}
330
47
100
AcDbScale
 70
     0
300
1:4
140
1.0
141
4.0
290
     0
  0
SCALE
  5
4B
102
{ACAD_REACTORS
330
47
102
}
330
47
100
AcDbScale
 70
     0
300
1:5
140
1.0
141
5.0
290
     0
  0
SCALE
  5
4C
102
{ACAD_REACTORS
330
47
102
}
330
47
100
AcDbScale
 70
     0
300
1:8
140
1.0
141
8.0
290
     0
  0
SCALE
  5
4D
102
{ACAD_REACTORS
330
47
102
}
330
47
100
AcDbScale
 70
     0
300
1:10
140
1.0
141
10.0
290
     0
  0
SCALE
  5
4E
102
{ACAD_REACTORS
330
47
102
}
330
47
100
AcDbScale
 70
     0
300
1:16
140
1.0
141
16.0
290
     0
  0
SCALE
  5
4F
102
{ACAD_REACTORS
330
47
102
}
330
47
100
AcDbScale
 70
     0
300
1:20
140
1.0
141
20.0
290
     0
  0
SCALE
  5
50
102
{ACAD_REACTORS
330
47
102
}
330
47
100
AcDbScale
 70
     0
300
1:30
140
1.0
141
30.0
290
     0
  0
SCALE
  5
51
102
{ACAD_REACTORS
330
47
102
}
330
47
100
AcDbScale
 70
     0
300
1:40
140
1.0
141
40.0
290
     0
  0
SCALE
  5
52
102
{ACAD_REACTORS
330
47
102
}
330
47
100
AcDbScale
 70
     0
300
1:50
140
1.0
141
50.0
290
     0
  0
SCALE
  5
53
102
{ACAD_REACTORS
330
47
102
}
330
47
100
AcDbScale
 70
     0
300
1:100
140
1.0
141
100.0
290
     0
  0
SCALE
  5
54
102
{ACAD_REACTORS
330
47
102
}
330
47
100
AcDbScale
 70
     0
300
2:1
140
2.0
141
1.0
290
     0
  0
SCALE
  5
55
102
{ACAD_REACTORS
330
47
102
}
330
47
100
AcDbScale
 70
     0
300
4:1
140
4.0
141
1.0
290
     0
  0
SCALE
  5
56
102
{ACAD_REACTORS
330
47
102
}
330
47
100
AcDbScale
 70
     0
300
8:1
140
8.0
141
1.0
290
     0
  0
SCALE
  5
57
102
{ACAD_REACTORS
330
47
102
}
330
47
100
AcDbScale
 70
     0
300
10:1
140
10.0
141
1.0
290
     0
  0
SCALE
  5
58
102
{ACAD_REACTORS
330
47
102
}
330
47
100
AcDbScale
 70
     0
300
100:1
140
100.0
141
1.0
290
     0
  0
SCALE
  5
59
102
{ACAD_REACTORS
330
47
102
}
330
47
100
AcDbScale
 70
     0
300
1/128" = 1'-0"
140
0.0078125
141
12.0
290
     0
  0
SCALE
  5
5A
102
{ACAD_REACTORS
330
47
102
}
330
47
100
AcDbScale
 70
     0
300
1/64" = 1'-0"
140
0.015625
141
12.0
290
     0
  0
SCALE
  5
5B
102
{ACAD_REACTORS
330
47
102
}
330
47
100
AcDbScale
 70
     0
300
1/32" = 1'-0"
140
0.03125
141
12.0
290
     0
  0
SCALE
  5
5C
102
{ACAD_REACTORS
330
47
102
}
330
47
100
AcDbScale
 70
     0
300
1/16" = 1'-0"
140
0.0625
141
12.0
290
     0
  0
SCALE
  5
5D
102
{ACAD_REACTORS
330
47
102
}
330
47
100
AcDbScale
 70
     0
300
3/32" = 1'-0"
140
0.09375
141
12.0
290
     0
  0
SCALE
  5
5E
102
{ACAD_REACTORS
330
47
102
}
330
47
100
AcDbScale
 70
     0
300
1/8" = 1'-0"
140
0.125
141
12.0
290
     0
  0
SCALE
  5
5F
102
{ACAD_REACTORS
330
47
102
}
330
47
100
AcDbScale
 70
     0
300
3/16" = 1'-0"
140
0.1875
141
12.0
290
     0
  0
SCALE
  5
60
102
{ACAD_REACTORS
330
47
102
}
330
47
100
AcDbScale
 70
     0
300
1/4" = 1'-0"
140
0.25
141
12.0
290
     0
  0
SCALE
  5
61
102
{ACAD_REACTORS
330
47
102
}
330
47
100
AcDbScale
 70
     0
300
3/8" = 1'-0"
140
0.375
141
12.0
290
     0
  0
SCALE
  5
62
102
{ACAD_REACTORS
330
47
102
}
330
47
100
AcDbScale
 70
     0
300
1/2" = 1'-0"
140
0.5
141
12.0
290
     0
  0
SCALE
  5
63
102
{ACAD_REACTORS
330
47
102
}
330
47
100
AcDbScale
 70
     0
300
3/4" = 1'-0"
140
0.75
141
12.0
290
     0
  0
SCALE
  5
64
102
{ACAD_REACTORS
330
47
102
}
330
47
100
AcDbScale
 70
     0
300
1" = 1'-0"
140
1.0
141
12.0
290
     0
  0
SCALE
  5
65
102
{ACAD_REACTORS
330
47
102
}
330
47
100
AcDbScale
 70
     0
300
1-1/2" = 1'-0"
140
1.5
141
12.0
290
     0
  0
SCALE
  5
66
102
{ACAD_REACTORS
330
47
102
}
330
47
100
AcDbScale
 70
     0
300
3" = 1'-0"
140
3.0
141
12.0
290
     0
  0
SCALE
  5
67
102
{ACAD_REACTORS
330
47
102
}
330
47
100
AcDbScale
 70
     0
300
6" = 1'-0"
140
6.0
141
12.0
290
     0
  0
SCALE
  5
68
102
{ACAD_REACTORS
330
47
102
}
330
47
100
AcDbScale
 70
     0
300
1'-0" = 1'-0"
140
12.0
141
12.0
290
     0
  0
ENDSEC
  0
EOF
