  0
SECTION
  2
HEADER
  9
$ACADVER
  1
AC1015
  9
$ACADMAINTVER
 70
     6
  9
$DWGCODEPAGE
  3
DOS932
  9
$INSBASE
 10
0.0
 20
0.0
 30
0.0
  9
$EXTMIN
 10
0.0
 20
0.0
 30
0.0
  9
$EXTMAX
 10
44.0
 20
34.0
 30
0.0
  9
$LIMMIN
 10
0.0
 20
0.0
  9
$LIMMAX
 10
44.0
 20
34.0
  9
$ORTHOMODE
 70
     0
  9
$REGENMODE
 70
     1
  9
$FILLMODE
 70
     1
  9
$QTEXTMODE
 70
     0
  9
$MIRRTEXT
 70
     1
  9
$LTSCALE
 40
1.0
  9
$ATTMODE
 70
     1
  9
$TEXTSIZE
 40
0.1377952756
  9
$TRACEWID
 40
0.05
  9
$TEXTSTYLE
  7
STANDARD
  9
$CLAYER
  8
0
  9
$CELTYPE
  6
ByLayer
  9
$CECOLOR
 62
   256
  9
$CELTSCALE
 40
1.0
  9
$DISPSILH
 70
     0
  9
$DIMSCALE
 40
1.0
  9
$DIMASZ
 40
0.14
  9
$DIMEXO
 40
0.0393700787
  9
$DIMDLI
 40
0.38
  9
$DIMRND
 40
0.0
  9
$DIMDLE
 40
0.0
  9
$DIMEXE
 40
0.0393700787
  9
$DIMTP
 40
0.0
  9
$DIMTM
 40
0.0
  9
$DIMTXT
 40
0.1377952756
  9
$DIMCEN
 40
0.09
  9
$DIMTSZ
 40
0.0
  9
$DIMTOL
 70
     0
  9
$DIMLIM
 70
     0
  9
$DIMTIH
 70
     1
  9
$DIMTOH
 70
     1
  9
$DIMSE1
 70
     0
  9
$DIMSE2
 70
     0
  9
$DIMTAD
 70
     1
  9
$DIMZIN
 70
     1
  9
$DIMBLK
  1

  9
$DIMASO
 70
     1
  9
$DIMSHO
 70
     1
  9
$DIMPOST
  1

  9
$DIMAPOST
  1

  9
$DIMALT
 70
     0
  9
$DIMALTD
 70
     2
  9
$DIMALTF
 40
25.4
  9
$DIMLFAC
 40
1.0
  9
$DIMTOFL
 70
     0
  9
$DIMTVP
 40
0.0
  9
$DIMTIX
 70
     0
  9
$DIMSOXD
 70
     0
  9
$DIMSAH
 70
     0
  9
$DIMBLK1
  1

  9
$DIMBLK2
  1

  9
$DIMSTYLE
  2
Standard
  9
$DIMCLRD
 70
     0
  9
$DIMCLRE
 70
     0
  9
$DIMCLRT
 70
     0
  9
$DIMTFAC
 40
1.0
  9
$DIMGAP
 40
0.06
  9
$DIMJUST
 70
     0
  9
$DIMSD1
 70
     0
  9
$DIMSD2
 70
     0
  9
$DIMTOLJ
 70
     1
  9
$DIMTZIN
 70
     1
  9
$DIMALTZ
 70
     0
  9
$DIMALTTZ
 70
     0
  9
$DIMUPT
 70
     0
  9
$DIMDEC
 70
     0
  9
$DIMTDEC
 70
     4
  9
$DIMALTU
 70
     2
  9
$DIMALTTD
 70
     2
  9
$DIMTXSTY
  7
STANDARD
  9
$DIMAUNIT
 70
     0
  9
$DIMADEC
 70
     0
  9
$DIMALTRND
 40
0.0
  9
$DIMAZIN
 70
     0
  9
$DIMDSEP
 70
    46
  9
$DIMATFIT
 70
     3
  9
$DIMFRAC
 70
     0
  9
$DIMLDRBLK
  1

  9
$DIMLUNIT
 70
     2
  9
$DIMLWD
 70
    -2
  9
$DIMLWE
 70
    -2
  9
$DIMTMOVE
 70
     0
  9
$LUNITS
 70
     2
  9
$LUPREC
 70
     3
  9
$SKETCHINC
 40
0.1
  9
$FILLETRAD
 40
0.5
  9
$AUNITS
 70
     0
  9
$AUPREC
 70
     0
  9
$MENU
  1
.
  9
$ELEVATION
 40
0.0
  9
$PELEVATION
 40
0.0
  9
$THICKNESS
 40
0.0
  9
$LIMCHECK
 70
     0
  9
$CHAMFERA
 40
0.0
  9
$CHAMFERB
 40
0.0
  9
$CHAMFERC
 40
0.0
  9
$CHAMFERD
 40
0.0
  9
$SKPOLY
 70
     0
  9
$TDCREATE
 40
2460020.433713183
  9
$TDUCREATE
 40
2460020.058713183
  9
$TDUPDATE
 40
2460020.43371544
  9
$TDUUPDATE
 40
2460020.05871544
  9
$TDINDWG
 40
0.0000000116
  9
$TDUSRTIMER
 40
0.0000000116
  9
$USRTIMER
 70
     1
  9
$ANGBASE
 50
0.0
  9
$ANGDIR
 70
     0
  9
$PDMODE
 70
     0
  9
$PDSIZE
 40
-1.0
  9
$PLINEWID
 40
0.0
  9
$SPLFRAME
 70
     0
  9
$SPLINETYPE
 70
     6
  9
$SPLINESEGS
 70
     8
  9
$HANDSEED
  5
1B6
  9
$SURFTAB1
 70
     6
  9
$SURFTAB2
 70
     6
  9
$SURFTYPE
 70
     6
  9
$SURFU
 70
     6
  9
$SURFV
 70
     6
  9
$UCSBASE
  2

  9
$UCSNAME
  2

  9
$UCSORG
 10
0.0
 20
0.0
 30
0.0
  9
$UCSXDIR
 10
1.0
 20
0.0
 30
0.0
  9
$UCSYDIR
 10
0.0
 20
1.0
 30
0.0
  9
$UCSORTHOREF
  2

  9
$UCSORTHOVIEW
 70
     0
  9
$UCSORGTOP
 10
0.0
 20
0.0
 30
0.0
  9
$UCSORGBOTTOM
 10
0.0
 20
0.0
 30
0.0
  9
$UCSORGLEFT
 10
0.0
 20
0.0
 30
0.0
  9
$UCSORGRIGHT
 10
0.0
 20
0.0
 30
0.0
  9
$UCSORGFRONT
 10
0.0
 20
0.0
 30
0.0
  9
$UCSORGBACK
 10
0.0
 20
0.0
 30
0.0
  9
$PUCSBASE
  2

  9
$PUCSNAME
  2

  9
$PUCSORG
 10
0.0
 20
0.0
 30
0.0
  9
$PUCSXDIR
 10
1.0
 20
0.0
 30
0.0
  9
$PUCSYDIR
 10
0.0
 20
1.0
 30
0.0
  9
$PUCSORTHOREF
  2

  9
$PUCSORTHOVIEW
 70
     0
  9
$PUCSORGTOP
 10
0.0
 20
0.0
 30
0.0
  9
$PUCSORGBOTTOM
 10
0.0
 20
0.0
 30
0.0
  9
$PUCSORGLEFT
 10
0.0
 20
0.0
 30
0.0
  9
$PUCSORGRIGHT
 10
0.0
 20
0.0
 30
0.0
  9
$PUCSORGFRONT
 10
0.0
 20
0.0
 30
0.0
  9
$PUCSORGBACK
 10
0.0
 20
0.0
 30
0.0
  9
$USERI1
 70
     0
  9
$USERI2
 70
     0
  9
$USERI3
 70
     0
  9
$USERI4
 70
     0
  9
$USERI5
 70
     0
  9
$USERR1
 40
0.0
  9
$USERR2
 40
0.0
  9
$USERR3
 40
0.0
  9
$USERR4
 40
0.0
  9
$USERR5
 40
0.0
  9
$WORLDVIEW
 70
     1
  9
$SHADEDGE
 70
     3
  9
$SHADEDIF
 70
    70
  9
$TILEMODE
 70
     0
  9
$MAXACTVP
 70
    64
  9
$PINSBASE
 10
0.0
 20
0.0
 30
0.0
  9
$PLIMCHECK
 70
     0
  9
$PEXTMIN
 10
0.0
 20
0.0
 30
0.0
  9
$PEXTMAX
 10
44.0
 20
34.0
 30
0.0
  9
$PLIMMIN
 10
0.0
 20
0.0
  9
$PLIMMAX
 10
44.0
 20
34.0
  9
$UNITMODE
 70
     0
  9
$VISRETAIN
 70
     1
  9
$PLINEGEN
 70
     0
  9
$PSLTSCALE
 70
     1
  9
$TREEDEPTH
 70
  3020
  9
$CMLSTYLE
  2
Standard
  9
$CMLJUST
 70
     0
  9
$CMLSCALE
 40
1.0
  9
$PROXYGRAPHICS
 70
     1
  9
$MEASUREMENT
 70
     0
  9
$CELWEIGHT
370
    -1
  9
$ENDCAPS
280
     0
  9
$JOINSTYLE
280
     0
  9
$LWDISPLAY
290
     1
  9
$INSUNITS
 70
     1
  9
$HYPERLINKBASE
  1

  9
$STYLESHEET
  1

  9
$XEDIT
290
     1
  9
$CEPSNTYPE
380
     0
  9
$PSTYLEMODE
290
     1
  9
$FINGERPRINTGUID
  2
{2ea12eae-20cb-4412-bfa8-68d1b19ec46c}
  9
$VERSIONGUID
  2
{FAEB1C32-E019-11D5-929B-00C0DF256EC4}
  9
$EXTNAMES
290
     1
  9
$PSVPSCALE
 40
0.0
  9
$OLESTARTUP
290
     0
  0
ENDSEC
  0
SECTION
  2
CLASSES
  0
CLASS
  1
ACDBDICTIONARYWDFLT
  2
AcDbDictionaryWithDefault
  3
ObjectDBX Classes
 90
        0
280
     0
281
     0
  0
CLASS
  1
VISUALSTYLE
  2
AcDbVisualStyle
  3
ObjectDBX Classes
 90
     4095
280
     0
281
     0
  0
CLASS
  1
MATERIAL
  2
AcDbMaterial
  3
ObjectDBX Classes
 90
     1153
280
     0
281
     0
  0
CLASS
  1
SCALE
  2
AcDbScale
  3
ObjectDBX Classes
 90
     1153
280
     0
281
     0
  0
CLASS
  1
TABLESTYLE
  2
AcDbTableStyle
  3
ObjectDBX Classes
 90
     4095
280
     0
281
     0
  0
CLASS
  1
MLEADERSTYLE
  2
AcDbMLeaderStyle
  3
ACDB_MLEADERSTYLE_CLASS
 90
     4095
280
     0
281
     0
  0
CLASS
  1
SUN
  2
AcDbSun
  3
SCENEOE
 90
     1153
280
     0
281
     0
  0
CLASS
  1
ACDBPLACEHOLDER
  2
AcDbPlaceHolder
  3
ObjectDBX Classes
 90
        0
280
     0
281
     0
  0
CLASS
  1
LAYOUT
  2
AcDbLayout
  3
ObjectDBX Classes
 90
        0
280
     0
281
     0
  0
ENDSEC
  0
SECTION
  2
TABLES
  0
TABLE
  2
VPORT
  5
8
330
0
100
AcDbSymbolTable
 70
     1
  0
VPORT
  5
29
330
8
100
AcDbSymbolTableRecord
100
AcDbViewportTableRecord
  2
*Active
 70
     0
 10
0.0
 20
0.0
 11
1.0
 21
1.0
 12
22.0
 22
17.0
 13
0.0
 23
0.0
 14
0.5
 24
0.5
 15
0.5
 25
0.5
 16
0.0
 26
0.0
 36
1.0
 17
0.0
 27
0.0
 37
0.0
 40
34.0
 41
1.2941176471
 42
50.0
 43
0.0
 44
0.0
 50
0.0
 51
0.0
 71
     0
 72
  2000
 73
     1
 74
     3
 75
     0
 76
     0
 77
     0
 78
     0
281
     0
 65
     1
110
0.0
120
0.0
130
0.0
111
1.0
121
0.0
131
0.0
112
0.0
122
1.0
132
0.0
 79
     0
146
0.0
  0
ENDTAB
  0
TABLE
  2
LTYPE
  5
5
330
0
100
AcDbSymbolTable
 70
     8
  0
LTYPE
  5
14
330
5
100
AcDbSymbolTableRecord
100
AcDbLinetypeTableRecord
  2
ByBlock
 70
     0
  3

 72
    65
 73
     0
 40
0.0
  0
LTYPE
  5
15
330
5
100
AcDbSymbolTableRecord
100
AcDbLinetypeTableRecord
  2
ByLayer
 70
     0
  3

 72
    65
 73
     0
 40
0.0
  0
LTYPE
  5
16
330
5
100
AcDbSymbolTableRecord
100
AcDbLinetypeTableRecord
  2
Continuous
 70
     0
  3
Solid line
 72
    65
 73
     0
 40
0.0
  0
LTYPE
  5
6E
330
5
100
AcDbSymbolTableRecord
100
AcDbLinetypeTableRecord
  2
SLD-実線
 70
     0
  3
SolidWorks Line Style
 72
    65
 73
     0
 40
0.0
  0
LTYPE
  5
6F
330
5
100
AcDbSymbolTableRecord
100
AcDbLinetypeTableRecord
  2
SLD-破線
 70
     0
  3
SolidWorks Line Style
 72
    65
 73
     2
 40
0.075
 49
0.05
 74
     0
 49
-0.025
 74
     0
  0
LTYPE
  5
70
330
5
100
AcDbSymbolTableRecord
100
AcDbLinetypeTableRecord
  2
SLD-2点鎖線
 70
     0
  3
SolidWorks Line Style
 72
    65
 73
     6
 40
0.5
 49
0.25
 74
     0
 49
-0.05
 74
     0
 49
0.05
 74
     0
 49
-0.05
 74
     0
 49
0.05
 74
     0
 49
-0.05
 74
     0
  0
LTYPE
  5
71
330
5
100
AcDbSymbolTableRecord
100
AcDbLinetypeTableRecord
  2
SLD-鎖線
 70
     0
  3
SolidWorks Line Style
 72
    65
 73
     4
 40
0.4
 49
0.25
 74
     0
 49
-0.05
 74
     0
 49
0.05
 74
     0
 49
-0.05
 74
     0
  0
LTYPE
  5
72
330
5
100
AcDbSymbolTableRecord
100
AcDbLinetypeTableRecord
  2
SLD-1点鎖線(中心線)
 70
     0
  3
SolidWorks Line Style
 72
    65
 73
     4
 40
1.35
 49
1.2
 74
     0
 49
-0.05
 74
     0
 49
0.05
 74
     0
 49
-0.05
 74
     0
  0
LTYPE
  5
73
330
5
100
AcDbSymbolTableRecord
100
AcDbLinetypeTableRecord
  2
SLD-点線
 70
     0
  3
SolidWorks Line Style
 72
    65
 73
     2
 40
0.025
 49
0.0
 74
     0
 49
-0.025
 74
     0
  0
LTYPE
  5
74
330
5
100
AcDbSymbolTableRecord
100
AcDbLinetypeTableRecord
  2
SLD-細-太鎖線(切断面)
 70
     0
  3
SolidWorks Line Style
 72
    65
 73
     4
 40
0.4
 49
0.25
 74
     0
 49
-0.05
 74
     0
 49
0.05
 74
     0
 49
-0.05
 74
     0
  0
ENDTAB
  0
TABLE
  2
LAYER
  5
2
330
0
100
AcDbSymbolTable
 70
     4
  0
LAYER
  5
10
330
2
100
AcDbSymbolTableRecord
100
AcDbLayerTableRecord
  2
0
 70
     0
 62
     7
  6
Continuous
370
    -3
390
F
  0
LAYER
  5
75
330
2
100
AcDbSymbolTableRecord
100
AcDbLayerTableRecord
  2
SLD-0
 70
     0
 62
   179
  6
SLD-実線
370
    -3
390
F
  0
LAYER
  5
76
330
2
100
AcDbSymbolTableRecord
100
AcDbLayerTableRecord
  2
100
 70
     0
 62
   179
  6
SLD-実線
370
    -3
390
F
  0
LAYER
  5
77
330
2
100
AcDbSymbolTableRecord
100
AcDbLayerTableRecord
  2
1
 70
     0
 62
   179
  6
SLD-実線
370
    -3
390
F
  0
ENDTAB
  0
TABLE
  2
STYLE
  5
3
330
0
100
AcDbSymbolTable
 70
     1
  0
STYLE
  5
11
330
3
100
AcDbSymbolTableRecord
100
AcDbTextStyleTableRecord
  2
STANDARD
 70
     0
 40
0.0
 41
1.0
 50
0.0
 71
     0
 42
0.1377952756
  3
GOTHIC.TTF
  4

1001
ACAD
1000
CENTURY GOTHIC
1071
       34
  0
ENDTAB
  0
TABLE
  2
VIEW
  5
6
330
0
100
AcDbSymbolTable
 70
     0
  0
ENDTAB
  0
TABLE
  2
UCS
  5
7
330
0
100
AcDbSymbolTable
 70
     0
  0
ENDTAB
  0
TABLE
  2
APPID
  5
9
330
0
100
AcDbSymbolTable
 70
     1
  0
APPID
  5
12
330
9
100
AcDbSymbolTableRecord
100
AcDbRegAppTableRecord
  2
ACAD
 70
     0
  0
ENDTAB
  0
TABLE
  2
DIMSTYLE
  5
A
330
0
100
AcDbSymbolTable
 70
     1
100
AcDbDimStyleTable
  0
DIMSTYLE
105
27
330
A
100
AcDbSymbolTableRecord
100
AcDbDimStyleTableRecord
  2
Standard
 70
     0
178
     0
340
11
  0
ENDTAB
  0
TABLE
  2
BLOCK_RECORD
  5
1
330
0
100
AcDbSymbolTable
 70
     0
  0
BLOCK_RECORD
  5
1F
330
1
100
AcDbSymbolTableRecord
100
AcDbBlockTableRecord
  2
*Model_Space
340
22
  0
BLOCK_RECORD
  5
1B
330
1
100
AcDbSymbolTableRecord
100
AcDbBlockTableRecord
  2
*Paper_Space
340
1E
  0
ENDTAB
  0
ENDSEC
  0
SECTION
  2
BLOCKS
  0
BLOCK
  5
20
330
1F
100
AcDbEntity
  8
0
100
AcDbBlockBegin
  2
*Model_Space
 70
     0
 10
0.0
 20
0.0
 30
0.0
  3
*Model_Space
  1

  0
ENDBLK
  5
21
330
1F
100
AcDbEntity
  8
0
100
AcDbBlockEnd
  0
BLOCK
  5
1C
330
1B
100
AcDbEntity
 67
     1
  8
0
100
AcDbBlockBegin
  2
*Paper_Space
 70
     0
 10
0.0
 20
0.0
 30
0.0
  3
*Paper_Space
  1

  0
ENDBLK
  5
1D
330
1B
100
AcDbEntity
 67
     1
  8
0
100
AcDbBlockEnd
  0
ENDSEC
  0
SECTION
  2
ENTITIES
  0
VIEWPORT
  5
78
330
1B
100
AcDbEntity
 67
     1
  8
0
100
AcDbViewport
 10
22.0
 20
17.0
 30
0.0
 40
46.552
 41
35.972
 68
     1
 69
     1
 12
22.0
 22
17.0
 13
0.0
 23
0.0
 14
0.5
 24
0.5
 15
0.5
 25
0.5
 16
0.0
 26
0.0
 36
1.0
 17
0.0
 27
0.0
 37
0.0
 42
50.0
 43
0.0
 44
0.0
 45
35.972
 50
0.0
 51
0.0
 72
   100
 90
   557152
  1

281
     0
 71
     1
 74
     0
110
0.0
120
0.0
130
0.0
111
1.0
121
0.0
131
0.0
112
0.0
122
1.0
132
0.0
 79
     0
146
0.0
  0
LINE
  5
7A
330
1B
100
AcDbEntity
 67
     1
  8
SLD-0
  6
SLD-鎖線
 62
     7
370
    18
100
AcDbLine
 10
21.2043508608
 20
8.5893875993
 30
0.0
 11
22.635402603
 21
8.5893875993
 31
0.0
  0
LINE
  5
7B
330
1B
100
AcDbEntity
 67
     1
  8
SLD-0
  6
SLD-実線
 62
     7
370
    18
100
AcDbLine
 10
20.5480929757
 20
8.6037124027
 30
0.0
 11
20.5480929757
 21
9.4245910852
 31
0.0
  0
LINE
  5
7C
330
1B
100
AcDbEntity
 67
     1
  8
SLD-0
  6
SLD-実線
 62
     7
370
    18
100
AcDbLine
 10
20.6347071504
 20
9.5112052599
 30
0.0
 11
21.9339197708
 21
9.5112052599
 31
0.0
  0
LINE
  5
7D
330
1B
100
AcDbEntity
 67
     1
  8
SLD-0
  6
SLD-実線
 62
     7
370
    18
100
AcDbLine
 10
21.9339197708
 20
9.5879643879
 30
0.0
 11
21.0480929842
 21
9.5879643879
 31
0.0
  0
LINE
  5
7E
330
1B
100
AcDbEntity
 67
     1
  8
SLD-0
  6
SLD-実線
 62
     7
370
    18
100
AcDbLine
 10
20.9221087301
 20
9.318854505
 30
0.0
 11
20.9221087301
 21
8.6037124027
 31
0.0
  0
LINE
  5
7F
330
1B
100
AcDbEntity
 67
     1
  8
SLD-0
  6
SLD-実線
 62
     7
370
    18
100
AcDbLine
 10
20.9221087301
 20
9.318854505
 30
0.0
 11
21.9339197708
 21
9.318854505
 31
0.0
  0
LINE
  5
80
330
1B
100
AcDbEntity
 67
     1
  8
SLD-0
  6
SLD-実線
 62
     7
370
    18
100
AcDbLine
 10
21.9339197708
 20
9.5879643879
 30
0.0
 11
22.8197465575
 21
9.5879643879
 31
0.0
  0
LINE
  5
81
330
1B
100
AcDbEntity
 67
     1
  8
SLD-0
  6
SLD-実線
 62
     7
370
    18
100
AcDbLine
 10
23.2331323912
 20
9.5112052599
 30
0.0
 11
21.9339197708
 21
9.5112052599
 31
0.0
  0
LINE
  5
82
330
1B
100
AcDbEntity
 67
     1
  8
SLD-0
  6
SLD-実線
 62
     7
370
    18
100
AcDbLine
 10
22.9457308116
 20
9.318854505
 30
0.0
 11
21.9339197708
 21
9.318854505
 31
0.0
  0
LINE
  5
83
330
1B
100
AcDbEntity
 67
     1
  8
SLD-0
  6
SLD-実線
 62
     7
370
    18
100
AcDbLine
 10
23.3197465659
 20
8.6037124027
 30
0.0
 11
23.3197465659
 21
9.4245910852
 31
0.0
  0
LINE
  5
84
330
1B
100
AcDbEntity
 67
     1
  8
SLD-0
  6
SLD-実線
 62
     7
370
    18
100
AcDbLine
 10
22.9457308116
 20
9.318854505
 30
0.0
 11
22.9457308116
 21
8.6037124027
 31
0.0
  0
LINE
  5
85
330
1B
100
AcDbEntity
 67
     1
  8
SLD-0
  6
SLD-鎖線
 62
     7
370
    18
100
AcDbLine
 10
21.9339197708
 20
1.5639774948
 30
0.0
 11
21.9339197708
 21
9.5303548665
 31
0.0
  0
LINE
  5
86
330
1B
100
AcDbEntity
 67
     1
  8
SLD-0
  6
SLD-実線
 62
     7
370
    18
100
AcDbLine
 10
22.8971994936
 20
26.8990511161
 30
0.0
 11
22.8971994936
 21
26.3485605914
 31
0.0
  0
LINE
  5
87
330
1B
100
AcDbEntity
 67
     1
  8
SLD-0
  6
SLD-実線
 62
     7
370
    18
100
AcDbLine
 10
22.7561921541
 20
26.8990511161
 30
0.0
 11
22.7561921541
 21
26.3485605914
 31
0.0
  0
LINE
  5
88
330
1B
100
AcDbEntity
 67
     1
  8
SLD-0
  6
SLD-実線
 62
     7
370
    18
100
AcDbLine
 10
21.1116473875
 20
26.8990511161
 30
0.0
 11
21.1116473875
 21
26.3485605914
 31
0.0
  0
LINE
  5
89
330
1B
100
AcDbEntity
 67
     1
  8
SLD-0
  6
SLD-実線
 62
     7
370
    18
100
AcDbLine
 10
20.970639869
 20
26.9012214812
 30
0.0
 11
20.970639869
 21
26.3485605914
 31
0.0
  0
LINE
  5
8A
330
1B
100
AcDbEntity
 67
     1
  8
SLD-0
  6
SLD-鎖線
 62
     7
370
    18
100
AcDbLine
 10
21.0137511797
 20
27.1903292169
 30
0.0
 11
20.7429922274
 21
27.1903292169
 31
0.0
  0
LINE
  5
8B
330
1B
100
AcDbEntity
 67
     1
  8
SLD-0
  6
SLD-鎖線
 62
     7
370
    18
100
AcDbLine
 10
20.8709276268
 20
27.0354677254
 30
0.0
 11
20.8709276268
 21
27.336267301
 31
0.0
  0
LINE
  5
8C
330
1B
100
AcDbEntity
 67
     1
  8
SLD-0
  6
SLD-実線
 62
     7
370
    18
100
AcDbLine
 10
21.1662032224
 20
27.301316513
 30
0.0
 11
22.7016363192
 21
27.301316513
 31
0.0
  0
LINE
  5
8D
330
1B
100
AcDbEntity
 67
     1
  8
SLD-0
  6
SLD-鎖線
 62
     7
370
    18
100
AcDbLine
 10
23.1397354677
 20
27.1903292169
 30
0.0
 11
22.8689765153
 21
27.1903292169
 31
0.0
  0
LINE
  5
8E
330
1B
100
AcDbEntity
 67
     1
  8
SLD-0
  6
SLD-鎖線
 62
     7
370
    18
100
AcDbLine
 10
22.9969119148
 20
27.0354677254
 30
0.0
 11
22.9969119148
 21
27.336267301
 31
0.0
  0
LINE
  5
8F
330
1B
100
AcDbEntity
 67
     1
  8
SLD-0
  6
SLD-実線
 62
     7
370
    18
100
AcDbLine
 10
22.8984867163
 20
27.49816691
 30
0.0
 11
22.8984867163
 21
30.1381195317
 31
0.0
  0
LINE
  5
90
330
1B
100
AcDbEntity
 67
     1
  8
SLD-0
  6
SLD-鎖線
 62
     7
370
    18
100
AcDbLine
 10
22.9969119148
 20
30.2725978804
 30
0.0
 11
22.9969119148
 21
30.573397456
 31
0.0
  0
LINE
  5
91
330
1B
100
AcDbEntity
 67
     1
  8
SLD-0
  6
SLD-鎖線
 62
     7
370
    18
100
AcDbLine
 10
23.1397354677
 20
30.4274593719
 30
0.0
 11
22.8689765153
 21
30.4274593719
 31
0.0
  0
LINE
  5
92
330
1B
100
AcDbEntity
 67
     1
  8
SLD-0
  6
SLD-実線
 62
     7
370
    18
100
AcDbLine
 10
20.9693528254
 20
27.49816691
 30
0.0
 11
20.9693528254
 21
30.1381195317
 31
0.0
  0
LINE
  5
93
330
1B
100
AcDbEntity
 67
     1
  8
SLD-0
  6
SLD-実線
 62
     7
370
    18
100
AcDbLine
 10
22.7016363192
 20
30.3349699287
 30
0.0
 11
21.1662032224
 21
30.3349699287
 31
0.0
  0
LINE
  5
94
330
1B
100
AcDbEntity
 67
     1
  8
SLD-0
  6
SLD-鎖線
 62
     7
370
    18
100
AcDbLine
 10
20.8709276268
 20
30.2725978804
 30
0.0
 11
20.8709276268
 21
30.573397456
 31
0.0
  0
LINE
  5
95
330
1B
100
AcDbEntity
 67
     1
  8
SLD-0
  6
SLD-鎖線
 62
     7
370
    18
100
AcDbLine
 10
21.0137511797
 20
30.4274593719
 30
0.0
 11
20.7429922274
 21
30.4274593719
 31
0.0
  0
LINE
  5
96
330
1B
100
AcDbEntity
 67
     1
  8
SLD-0
  6
SLD-鎖線
 62
     7
370
    18
100
AcDbLine
 10
21.9339197708
 20
12.3760923878
 30
0.0
 11
21.9339197708
 21
32.2544082217
 31
0.0
  0
LINE
  5
97
330
1B
100
AcDbEntity
 67
     1
  8
1
  6
SLD-実線
 62
     7
370
    18
100
AcDbLine
 10
20.5480929757
 20
27.2809408863
 30
0.0
 11
20.5480929757
 21
30.3553455554
 31
0.0
  0
LINE
  5
98
330
1B
100
AcDbEntity
 67
     1
  8
1
  6
SLD-実線
 62
     7
370
    18
100
AcDbLine
 10
20.9299827459
 20
26.8990511161
 30
0.0
 11
22.9378567957
 21
26.8990511161
 31
0.0
  0
LINE
  5
99
330
1B
100
AcDbEntity
 67
     1
  8
1
  6
SLD-実線
 62
     7
370
    18
100
AcDbLine
 10
23.3197465659
 20
27.2809408863
 30
0.0
 11
23.3197465659
 21
30.3553455554
 31
0.0
  0
LINE
  5
9A
330
1B
100
AcDbEntity
 67
     1
  8
1
  6
SLD-実線
 62
     7
370
    18
100
AcDbLine
 10
20.9299827459
 20
30.7372353256
 30
0.0
 11
22.9378567957
 21
30.7372353256
 31
0.0
  0
LINE
  5
9B
330
1B
100
AcDbEntity
 67
     1
  8
SLD-0
  6
SLD-鎖線
 62
     7
370
    18
100
AcDbLine
 10
21.2365684705
 20
8.5052872042
 30
0.0
 11
22.6501073277
 21
8.5052872042
 31
0.0
  0
LINE
  5
9C
330
1B
100
AcDbEntity
 67
     1
  8
SLD-0
  6
SLD-実線
 62
     7
370
    18
100
AcDbLine
 10
19.532344927
 20
25.4824188444
 30
0.0
 11
19.532344927
 21
24.1438361446
 31
0.0
  0
LINE
  5
9D
330
1B
100
AcDbEntity
 67
     1
  8
SLD-0
  6
SLD-実線
 62
     7
370
    18
100
AcDbLine
 10
21.9339197708
 20
25.9942298767
 30
0.0
 11
24.6861762598
 21
25.9942298767
 31
0.0
  0
LINE
  5
9E
330
1B
100
AcDbEntity
 67
     1
  8
SLD-0
  6
SLD-実線
 62
     7
370
    18
100
AcDbLine
 10
22.6425812001
 20
26.3485605914
 30
0.0
 11
24.3354946146
 21
26.3485605914
 31
0.0
  0
LINE
  5
9F
330
1B
100
AcDbEntity
 67
     1
  8
SLD-0
  6
SLD-実線
 62
     7
370
    18
100
AcDbLine
 10
24.1973414269
 20
29.9706078968
 30
0.0
 11
24.200801341
 21
29.8437455109
 31
0.0
  0
LINE
  5
A0
330
1B
100
AcDbEntity
 67
     1
  8
SLD-0
  6
SLD-実線
 62
     7
370
    18
100
AcDbLine
 10
19.6014401322
 20
27.4384836592
 30
0.0
 11
19.5873166531
 21
26.9206214457
 31
0.0
  0
LINE
  5
A1
330
1B
100
AcDbEntity
 67
     1
  8
SLD-0
  6
SLD-実線
 62
     7
370
    18
100
AcDbLine
 10
19.6504551652
 20
25.9942298767
 30
0.0
 11
19.532344927
 21
25.9942298767
 31
0.0
  0
LINE
  5
A2
330
1B
100
AcDbEntity
 67
     1
  8
SLD-0
  6
SLD-実線
 62
     7
370
    18
100
AcDbLine
 10
21.5992740959
 20
23.1989542389
 30
0.0
 11
21.9339197708
 21
23.1989542389
 31
0.0
  0
LINE
  5
A3
330
1B
100
AcDbEntity
 67
     1
  8
SLD-0
  6
SLD-実線
 62
     7
370
    18
100
AcDbLine
 10
22.2587229259
 20
23.1989542389
 30
0.0
 11
22.2587229259
 21
23.2383243183
 31
0.0
  0
LINE
  5
A4
330
1B
100
AcDbEntity
 67
     1
  8
SLD-0
  6
SLD-実線
 62
     7
370
    18
100
AcDbLine
 10
22.2685654458
 20
23.4351747153
 30
0.0
 11
22.2685654458
 21
23.5139148741
 31
0.0
  0
LINE
  5
A5
330
1B
100
AcDbEntity
 67
     1
  8
SLD-0
  6
SLD-実線
 62
     7
370
    18
100
AcDbLine
 10
22.2685654458
 20
23.4351747153
 30
0.0
 11
21.9339197708
 21
23.4351747153
 31
0.0
  0
LINE
  5
A6
330
1B
100
AcDbEntity
 67
     1
  8
SLD-0
  6
SLD-実線
 62
     7
370
    18
100
AcDbLine
 10
22.2685654458
 20
23.1989542389
 30
0.0
 11
21.9339197708
 21
23.1989542389
 31
0.0
  0
LINE
  5
A7
330
1B
100
AcDbEntity
 67
     1
  8
SLD-0
  6
SLD-実線
 62
     7
370
    18
100
AcDbLine
 10
24.3354946146
 20
26.1517101943
 30
0.0
 11
24.5317081111
 21
26.2649941977
 31
0.0
  0
LINE
  5
A8
330
1B
100
AcDbEntity
 67
     1
  8
SLD-0
  6
SLD-実線
 62
     7
370
    18
100
AcDbLine
 10
24.4542163417
 20
29.7955880298
 30
0.0
 11
24.5513779397
 21
26.3001835326
 31
0.0
  0
LINE
  5
A9
330
1B
100
AcDbEntity
 67
     1
  8
SLD-0
  6
SLD-実線
 62
     7
370
    18
100
AcDbLine
 10
22.386675684
 20
23.2383243183
 30
0.0
 11
22.386675684
 21
23.3367495168
 31
0.0
  0
LINE
  5
AA
330
1B
100
AcDbEntity
 67
     1
  8
SLD-0
  6
SLD-実線
 62
     7
370
    18
100
AcDbLine
 10
22.386675684
 20
23.2383243183
 30
0.0
 11
21.9339197708
 21
23.2383243183
 31
0.0
  0
LINE
  5
AB
330
1B
100
AcDbEntity
 67
     1
  8
SLD-0
  6
SLD-実線
 62
     7
370
    18
100
AcDbLine
 10
22.5244709619
 20
23.3367495168
 30
0.0
 11
22.5244709619
 21
23.3958046359
 31
0.0
  0
LINE
  5
AC
330
1B
100
AcDbEntity
 67
     1
  8
SLD-0
  6
SLD-実線
 62
     7
370
    18
100
AcDbLine
 10
22.5244709619
 20
23.3367495168
 30
0.0
 11
21.9339197708
 21
23.3367495168
 31
0.0
  0
LINE
  5
AD
330
1B
100
AcDbEntity
 67
     1
  8
SLD-0
  6
SLD-実線
 62
     7
370
    18
100
AcDbLine
 10
22.5244709619
 20
23.3958046359
 30
0.0
 11
21.9339197708
 21
23.3958046359
 31
0.0
  0
LINE
  5
AE
330
1B
100
AcDbEntity
 67
     1
  8
SLD-0
  6
SLD-実線
 62
     7
370
    18
100
AcDbLine
 10
22.2587229259
 20
23.3958046359
 30
0.0
 11
22.2587229259
 21
23.4351747153
 31
0.0
  0
LINE
  5
AF
330
1B
100
AcDbEntity
 67
     1
  8
SLD-0
  6
SLD-実線
 62
     7
370
    18
100
AcDbLine
 10
19.5914000461
 20
29.9198725702
 30
0.0
 11
19.4332930284
 21
29.828589462
 31
0.0
  0
LINE
  5
B0
330
1B
100
AcDbEntity
 67
     1
  8
SLD-0
  6
SLD-実線
 62
     7
370
    18
100
AcDbLine
 10
19.41362319
 20
29.7955880255
 30
0.0
 11
19.3255655749
 21
26.6277062654
 31
0.0
  0
LINE
  5
B1
330
1B
100
AcDbEntity
 67
     1
  8
SLD-0
  6
SLD-実線
 62
     7
370
    18
100
AcDbLine
 10
21.2252583415
 20
26.3485605914
 30
0.0
 11
19.8750326565
 21
26.3485605914
 31
0.0
  0
LINE
  5
B2
330
1B
100
AcDbEntity
 67
     1
  8
SLD-0
  6
SLD-実線
 62
     7
370
    18
100
AcDbLine
 10
21.9339197708
 20
25.9942298767
 30
0.0
 11
19.1816631029
 21
25.9942298767
 31
0.0
  0
LINE
  5
B3
330
1B
100
AcDbEntity
 67
     1
  8
SLD-0
  6
SLD-実線
 62
     7
370
    18
100
AcDbLine
 10
21.6091166157
 20
23.3958046359
 30
0.0
 11
21.6091166157
 21
23.4351747153
 31
0.0
  0
LINE
  5
B4
330
1B
100
AcDbEntity
 67
     1
  8
SLD-0
  6
SLD-実線
 62
     7
370
    18
100
AcDbLine
 10
21.3433685797
 20
23.3958046359
 30
0.0
 11
21.9339197708
 21
23.3958046359
 31
0.0
  0
LINE
  5
B5
330
1B
100
AcDbEntity
 67
     1
  8
SLD-0
  6
SLD-実線
 62
     7
370
    18
100
AcDbLine
 10
21.3433685797
 20
23.3367495168
 30
0.0
 11
21.9339197708
 21
23.3367495168
 31
0.0
  0
LINE
  5
B6
330
1B
100
AcDbEntity
 67
     1
  8
SLD-0
  6
SLD-実線
 62
     7
370
    18
100
AcDbLine
 10
21.3433685797
 20
23.3367495168
 30
0.0
 11
21.3433685797
 21
23.3958046359
 31
0.0
  0
LINE
  5
B7
330
1B
100
AcDbEntity
 67
     1
  8
SLD-0
  6
SLD-実線
 62
     7
370
    18
100
AcDbLine
 10
21.4811638576
 20
23.2383243183
 30
0.0
 11
21.9339197708
 21
23.2383243183
 31
0.0
  0
LINE
  5
B8
330
1B
100
AcDbEntity
 67
     1
  8
SLD-0
  6
SLD-実線
 62
     7
370
    18
100
AcDbLine
 10
21.4811638576
 20
23.2383243183
 30
0.0
 11
21.4811638576
 21
23.3367495168
 31
0.0
  0
LINE
  5
B9
330
1B
100
AcDbEntity
 67
     1
  8
SLD-0
  6
SLD-実線
 62
     7
370
    18
100
AcDbLine
 10
21.5992740959
 20
23.4351747153
 30
0.0
 11
21.9339197708
 21
23.4351747153
 31
0.0
  0
LINE
  5
BA
330
1B
100
AcDbEntity
 67
     1
  8
SLD-0
  6
SLD-実線
 62
     7
370
    18
100
AcDbLine
 10
21.5992740959
 20
23.4351747153
 30
0.0
 11
21.5992740959
 21
23.5139148741
 31
0.0
  0
LINE
  5
BB
330
1B
100
AcDbEntity
 67
     1
  8
SLD-0
  6
SLD-実線
 62
     7
370
    18
100
AcDbLine
 10
21.6091166157
 20
23.1989542389
 30
0.0
 11
21.6091166157
 21
23.2383243183
 31
0.0
  0
LINE
  5
BC
330
1B
100
AcDbEntity
 67
     1
  8
SLD-0
  6
SLD-実線
 62
     7
370
    18
100
AcDbLine
 10
21.9339197708
 20
23.6320251123
 30
0.0
 11
19.1780142124
 21
23.6320251123
 31
0.0
  0
LINE
  5
BD
330
1B
100
AcDbEntity
 67
     1
  8
SLD-0
  6
SLD-実線
 62
     7
370
    18
100
AcDbLine
 10
21.9339197708
 20
23.5139148741
 30
0.0
 11
18.9417937359
 21
23.5139148741
 31
0.0
  0
LINE
  5
BE
330
1B
100
AcDbEntity
 67
     1
  8
SLD-0
  6
SLD-実線
 62
     7
370
    18
100
AcDbLine
 10
21.9339197708
 20
23.6320251123
 30
0.0
 11
18.6858882198
 21
23.6320251123
 31
0.0
  0
LINE
  5
BF
330
1B
100
AcDbEntity
 67
     1
  8
SLD-0
  6
SLD-実線
 62
     7
370
    18
100
AcDbLine
 10
20.9496677857
 20
18.8721825121
 30
0.0
 11
20.4575417931
 21
18.8721825121
 31
0.0
  0
LINE
  5
C0
330
1B
100
AcDbEntity
 67
     1
  8
SLD-0
  6
SLD-実線
 62
     7
370
    18
100
AcDbLine
 10
21.2252583415
 20
18.3997415592
 30
0.0
 11
20.9496677857
 21
18.3997415592
 31
0.0
  0
LINE
  5
C1
330
1B
100
AcDbEntity
 67
     1
  8
SLD-0
  6
SLD-実線
 62
     7
370
    18
100
AcDbLine
 10
21.2646284209
 20
18.4391116386
 30
0.0
 11
21.2646284209
 21
18.5572218768
 31
0.0
  0
LINE
  5
C2
330
1B
100
AcDbEntity
 67
     1
  8
SLD-0
  6
SLD-実線
 62
     7
370
    18
100
AcDbLine
 10
20.7528173886
 20
17.7698202887
 30
0.0
 11
20.7528173886
 21
18.2028911622
 31
0.0
  0
LINE
  5
C3
330
1B
100
AcDbEntity
 67
     1
  8
SLD-0
  6
SLD-実線
 62
     7
370
    18
100
AcDbLine
 10
21.0087229048
 20
17.7698202887
 30
0.0
 11
21.0087229048
 21
17.8485604475
 31
0.0
  0
LINE
  5
C4
330
1B
100
AcDbEntity
 67
     1
  8
SLD-0
  6
SLD-実線
 62
     7
370
    18
100
AcDbLine
 10
21.2055733018
 20
17.8485604475
 30
0.0
 11
21.0087229048
 21
17.8485604475
 31
0.0
  0
LINE
  5
C5
330
1B
100
AcDbEntity
 67
     1
  8
SLD-0
  6
SLD-実線
 62
     7
370
    18
100
AcDbLine
 10
21.2055733018
 20
17.7304502093
 30
0.0
 11
21.2055733018
 21
17.8485604475
 31
0.0
  0
LINE
  5
C6
330
1B
100
AcDbEntity
 67
     1
  8
SLD-0
  6
SLD-実線
 62
     7
370
    18
100
AcDbLine
 10
21.9339197708
 20
16.824938383
 30
0.0
 11
19.0205338947
 21
16.824938383
 31
0.0
  0
LINE
  5
C7
330
1B
100
AcDbEntity
 67
     1
  8
SLD-0
  6
SLD-実線
 62
     7
370
    18
100
AcDbLine
 10
21.9339197708
 20
16.7343872003
 30
0.0
 11
19.0205338947
 21
16.7343872003
 31
0.0
  0
LINE
  5
C8
330
1B
100
AcDbEntity
 67
     1
  8
SLD-0
  6
SLD-実線
 62
     7
370
    18
100
AcDbLine
 10
21.4712153965
 20
16.5769068827
 30
0.0
 11
21.3137350789
 21
16.7343872003
 31
0.0
  0
LINE
  5
C9
330
1B
100
AcDbEntity
 67
     1
  8
SLD-0
  6
SLD-実線
 62
     7
370
    18
100
AcDbLine
 10
21.4712153965
 20
16.5769068827
 30
0.0
 11
21.9339197708
 21
16.5769068827
 31
0.0
  0
LINE
  5
CA
330
1B
100
AcDbEntity
 67
     1
  8
SLD-0
  6
SLD-鎖線
 62
     7
370
    18
100
AcDbLine
 10
21.9339197708
 20
16.3131003285
 30
0.0
 11
21.9339197708
 21
32.1878953359
 31
0.0
  0
LINE
  5
CB
330
1B
100
AcDbEntity
 67
     1
  8
SLD-0
  6
SLD-鎖線
 62
     7
370
    18
100
AcDbLine
 10
21.9339197708
 20
1.5639774948
 30
0.0
 11
21.9339197708
 21
9.5303548665
 31
0.0
  0
LINE
  5
CC
330
1B
100
AcDbEntity
 67
     1
  8
SLD-0
  6
SLD-実線
 62
     7
370
    18
100
AcDbLine
 10
19.4588180825
 20
26.4666708296
 30
0.0
 11
19.1876249856
 21
26.4666708296
 31
0.0
  0
LINE
  5
CD
330
1B
100
AcDbEntity
 67
     1
  8
SLD-0
  6
SLD-実線
 62
     7
370
    18
100
AcDbLine
 10
19.8750326565
 20
27.2717674789
 30
0.0
 11
19.8750326565
 21
25.4824188444
 31
0.0
  0
LINE
  5
CE
330
1B
100
AcDbEntity
 67
     1
  8
SLD-0
  6
SLD-実線
 62
     7
370
    18
100
AcDbLine
 10
19.4528561998
 20
26.4366153531
 30
0.0
 11
19.4528561998
 21
25.4824188444
 31
0.0
  0
LINE
  5
CF
330
1B
100
AcDbEntity
 67
     1
  8
SLD-0
  6
SLD-実線
 62
     7
370
    18
100
AcDbLine
 10
19.1816631029
 20
26.4366153531
 30
0.0
 11
19.1816631029
 21
25.5611590032
 31
0.0
  0
LINE
  5
D0
330
1B
100
AcDbEntity
 67
     1
  8
SLD-0
  6
SLD-実線
 62
     7
370
    18
100
AcDbLine
 10
19.8750326565
 20
26.9391117825
 30
0.0
 11
19.4728830434
 21
26.4890820683
 31
0.0
  0
LINE
  5
D1
330
1B
100
AcDbEntity
 67
     1
  8
SLD-0
  6
SLD-実線
 62
     7
370
    18
100
AcDbLine
 10
19.5873166531
 20
26.9206214457
 30
0.0
 11
19.2016899465
 21
26.4890820683
 31
0.0
  0
LINE
  5
D2
330
1B
100
AcDbEntity
 67
     1
  8
SLD-0
  6
SLD-実線
 62
     7
370
    18
100
AcDbLine
 10
24.6861762598
 20
26.4666708296
 30
0.0
 11
24.6861762598
 21
25.5611590032
 31
0.0
  0
LINE
  5
D3
330
1B
100
AcDbEntity
 67
     1
  8
SLD-0
  6
SLD-実線
 62
     7
370
    18
100
AcDbLine
 10
24.6861762598
 20
26.4666708296
 30
0.0
 11
24.5420914327
 21
26.6342697945
 31
0.0
  0
LINE
  5
D4
330
1B
100
AcDbEntity
 67
     1
  8
SLD-0
  6
SLD-実線
 62
     7
370
    18
100
AcDbLine
 10
22.6425812001
 20
25.9942298767
 30
0.0
 11
22.6425812001
 21
26.8990511161
 31
0.0
  0
LINE
  5
D5
330
1B
100
AcDbEntity
 67
     1
  8
SLD-0
  6
SLD-実線
 62
     7
370
    18
100
AcDbLine
 10
21.2252583415
 20
25.9942298767
 30
0.0
 11
21.2252583415
 21
26.8990511161
 31
0.0
  0
LINE
  5
D6
330
1B
100
AcDbEntity
 67
     1
  8
SLD-0
  6
SLD-実線
 62
     7
370
    18
100
AcDbLine
 10
19.8750326565
 20
25.4824188444
 30
0.0
 11
19.2604032617
 21
25.4824188444
 31
0.0
  0
LINE
  5
D7
330
1B
100
AcDbEntity
 67
     1
  8
SLD-0
  6
SLD-実線
 62
     7
370
    18
100
AcDbLine
 10
24.3354946146
 20
25.4824188444
 30
0.0
 11
24.607436101
 21
25.4824188444
 31
0.0
  0
LINE
  5
D8
330
1B
100
AcDbEntity
 67
     1
  8
SLD-0
  6
SLD-鎖線
 62
     7
370
    18
100
AcDbLine
 10
19.2173842918
 20
16.4719591357
 30
0.0
 11
19.2173842918
 21
16.9078106106
 31
0.0
  0
LINE
  5
D9
330
1B
100
AcDbEntity
 67
     1
  8
SLD-0
  6
SLD-実線
 62
     7
370
    18
100
AcDbLine
 10
19.0795890138
 20
16.557221843
 30
0.0
 11
19.0795890138
 21
16.7343872003
 31
0.0
  0
LINE
  5
DA
330
1B
100
AcDbEntity
 67
     1
  8
SLD-0
  6
SLD-実線
 62
     7
370
    18
100
AcDbLine
 10
19.0795890138
 20
16.557221843
 30
0.0
 11
19.3551795697
 21
16.557221843
 31
0.0
  0
LINE
  5
DB
330
1B
100
AcDbEntity
 67
     1
  8
SLD-0
  6
SLD-実線
 62
     7
370
    18
100
AcDbLine
 10
19.3551795697
 20
16.557221843
 30
0.0
 11
19.3551795697
 21
16.7343872003
 31
0.0
  0
LINE
  5
DC
330
1B
100
AcDbEntity
 67
     1
  8
SLD-0
  6
SLD-実線
 62
     7
370
    18
100
AcDbLine
 10
19.6704981148
 20
29.9706078968
 30
0.0
 11
19.5873166531
 21
26.9206214457
 31
0.0
  0
LINE
  5
DD
330
1B
100
AcDbEntity
 67
     1
  8
SLD-0
  6
SLD-実線
 62
     7
370
    18
100
AcDbLine
 10
19.6110850858
 20
29.9539681327
 30
0.0
 11
19.6110850858
 21
29.9706078968
 31
0.0
  0
LINE
  5
DE
330
1B
100
AcDbEntity
 67
     1
  8
SLD-0
  6
SLD-実線
 62
     7
370
    18
100
AcDbLine
 10
24.2567544558
 20
29.9539681327
 30
0.0
 11
24.2567544558
 21
29.9706078968
 31
0.0
  0
LINE
  5
DF
330
1B
100
AcDbEntity
 67
     1
  8
SLD-0
  6
SLD-実線
 62
     7
370
    18
100
AcDbLine
 10
24.2764394955
 20
29.9198725702
 30
0.0
 11
24.4345465132
 21
29.828589462
 31
0.0
  0
LINE
  5
E0
330
1B
100
AcDbEntity
 67
     1
  8
SLD-0
  6
SLD-実線
 62
     7
370
    18
100
AcDbLine
 10
23.1229346442
 20
26.3485605914
 30
0.0
 11
23.1229346442
 21
26.8990511161
 31
0.0
  0
LINE
  5
E1
330
1B
100
AcDbEntity
 67
     1
  8
SLD-0
  6
SLD-実線
 62
     7
370
    18
100
AcDbLine
 10
23.3053652128
 20
26.3485605914
 30
0.0
 11
23.3053652128
 21
27.1771273556
 31
0.0
  0
LINE
  5
E2
330
1B
100
AcDbEntity
 67
     1
  8
SLD-0
  6
SLD-実線
 62
     7
370
    18
100
AcDbLine
 10
23.7286345471
 20
29.9706078968
 30
0.0
 11
23.7286345471
 21
26.3485605914
 31
0.0
  0
LINE
  5
E3
330
1B
100
AcDbEntity
 67
     1
  8
SLD-0
  6
SLD-実線
 62
     7
370
    18
100
AcDbLine
 10
23.6172791407
 20
29.9706078968
 30
0.0
 11
23.6172791407
 21
26.3485605914
 31
0.0
  0
LINE
  5
E4
330
1B
100
AcDbEntity
 67
     1
  8
SLD-0
  6
SLD-実線
 62
     7
370
    18
100
AcDbLine
 10
23.4640794245
 20
29.9706078968
 30
0.0
 11
23.4640794245
 21
26.3485605914
 31
0.0
  0
LINE
  5
E5
330
1B
100
AcDbEntity
 67
     1
  8
SLD-0
  6
SLD-実線
 62
     7
370
    18
100
AcDbLine
 10
24.0471053828
 20
29.7782188455
 30
0.0
 11
24.0471053828
 21
26.3485605914
 31
0.0
  0
LINE
  5
E6
330
1B
100
AcDbEntity
 67
     1
  8
SLD-0
  6
SLD-実線
 62
     7
370
    18
100
AcDbLine
 10
23.7942435317
 20
29.9706078968
 30
0.0
 11
23.7942435317
 21
26.3485605914
 31
0.0
  0
LINE
  5
E7
330
1B
100
AcDbEntity
 67
     1
  8
SLD-0
  6
SLD-実線
 62
     7
370
    18
100
AcDbLine
 10
23.901682331
 20
29.9456909314
 30
0.0
 11
23.901682331
 21
29.9706078968
 31
0.0
  0
LINE
  5
E8
330
1B
100
AcDbEntity
 67
     1
  8
SLD-0
  6
SLD-実線
 62
     7
370
    18
100
AcDbLine
 10
20.5624741499
 20
26.3485605914
 30
0.0
 11
20.5624741499
 21
27.1771273556
 31
0.0
  0
LINE
  5
E9
330
1B
100
AcDbEntity
 67
     1
  8
SLD-0
  6
SLD-実線
 62
     7
370
    18
100
AcDbLine
 10
20.2505604009
 20
29.9706078968
 30
0.0
 11
20.2505604009
 21
26.3485605914
 31
0.0
  0
LINE
  5
EA
330
1B
100
AcDbEntity
 67
     1
  8
SLD-0
  6
SLD-実線
 62
     7
370
    18
100
AcDbLine
 10
20.1392049946
 20
29.9706078968
 30
0.0
 11
20.1392049946
 21
26.3485605914
 31
0.0
  0
LINE
  5
EB
330
1B
100
AcDbEntity
 67
     1
  8
SLD-0
  6
SLD-実線
 62
     7
370
    18
100
AcDbLine
 10
20.4037601171
 20
29.9706078968
 30
0.0
 11
20.4037601171
 21
26.3485605914
 31
0.0
  0
LINE
  5
EC
330
1B
100
AcDbEntity
 67
     1
  8
SLD-0
  6
SLD-実線
 62
     7
370
    18
100
AcDbLine
 10
20.7449048974
 20
26.3485605914
 30
0.0
 11
20.7449048974
 21
26.946895963
 31
0.0
  0
LINE
  5
ED
330
1B
100
AcDbEntity
 67
     1
  8
SLD-0
  6
SLD-実線
 62
     7
370
    18
100
AcDbLine
 10
24.2618052791
 20
26.3485605914
 30
0.0
 11
24.2618052791
 21
29.7765082156
 31
0.0
  0
LINE
  5
EE
330
1B
100
AcDbEntity
 67
     1
  8
SLD-0
  6
SLD-実線
 62
     7
370
    18
100
AcDbLine
 10
23.991807422
 20
29.9706078968
 30
0.0
 11
23.991807422
 21
29.8460608295
 31
0.0
  0
LINE
  5
EF
330
1B
100
AcDbEntity
 67
     1
  8
SLD-0
  6
SLD-実線
 62
     7
370
    18
100
AcDbLine
 10
24.093663365
 20
29.9474013824
 30
0.0
 11
24.093663365
 21
29.9706078968
 31
0.0
  0
LINE
  5
F0
330
1B
100
AcDbEntity
 67
     1
  8
SLD-0
  6
SLD-実線
 62
     7
370
    18
100
AcDbLine
 10
24.1086390274
 20
29.9164996281
 30
0.0
 11
24.2468294377
 21
29.8074101488
 31
0.0
  0
LINE
  5
F1
330
1B
100
AcDbEntity
 67
     1
  8
SLD-0
  6
SLD-実線
 62
     7
370
    18
100
AcDbLine
 10
24.0342766424
 20
29.8072974072
 30
0.0
 11
23.9145110713
 21
29.9166123697
 31
0.0
  0
LINE
  5
F2
330
1B
100
AcDbEntity
 67
     1
  8
SLD-0
  6
SLD-実線
 62
     7
370
    18
100
AcDbLine
 10
20.4969118725
 20
29.9706078968
 30
0.0
 11
19.4417937444
 21
29.9706078968
 31
0.0
  0
LINE
  5
F3
330
1B
100
AcDbEntity
 67
     1
  8
SLD-0
  6
SLD-実線
 62
     7
370
    18
100
AcDbLine
 10
21.9339197708
 20
31.9391118671
 30
0.0
 11
20.2067543873
 21
31.9391118671
 31
0.0
  0
LINE
  5
F4
330
1B
100
AcDbEntity
 67
     1
  8
SLD-0
  6
SLD-実線
 62
     7
370
    18
100
AcDbLine
 10
19.4417937444
 20
29.9706078968
 30
0.0
 11
19.4417937444
 21
31.3040724863
 31
0.0
  0
LINE
  5
F5
330
1B
100
AcDbEntity
 67
     1
  8
SLD-0
  6
SLD-実線
 62
     7
370
    18
100
AcDbLine
 10
20.1622661975
 20
31.7918788653
 30
0.0
 11
20.1622661975
 21
31.8946236774
 31
0.0
  0
LINE
  5
F6
330
1B
100
AcDbEntity
 67
     1
  8
SLD-0
  6
SLD-実線
 62
     7
370
    18
100
AcDbLine
 10
20.1538719597
 20
31.7757539545
 30
0.0
 11
19.5437769244
 21
31.348560676
 31
0.0
  0
LINE
  5
F7
330
1B
100
AcDbEntity
 67
     1
  8
SLD-0
  6
SLD-実線
 62
     7
370
    18
100
AcDbLine
 10
21.9339197708
 20
31.348560676
 30
0.0
 11
19.4862819341
 21
31.348560676
 31
0.0
  0
LINE
  5
F8
330
1B
100
AcDbEntity
 67
     1
  8
SLD-0
  6
SLD-実線
 62
     7
370
    18
100
AcDbLine
 10
21.9339197708
 20
31.7816315495
 30
0.0
 11
20.1593886026
 21
31.7816315495
 31
0.0
  0
LINE
  5
F9
330
1B
100
AcDbEntity
 67
     1
  8
SLD-0
  6
SLD-実線
 62
     7
370
    18
100
AcDbLine
 10
21.9339197708
 20
31.348560676
 30
0.0
 11
24.3815576075
 21
31.348560676
 31
0.0
  0
LINE
  5
FA
330
1B
100
AcDbEntity
 67
     1
  8
SLD-0
  6
SLD-実線
 62
     7
370
    18
100
AcDbLine
 10
24.4260457972
 20
29.9706078968
 30
0.0
 11
24.4260457972
 21
31.3040724863
 31
0.0
  0
LINE
  5
FB
330
1B
100
AcDbEntity
 67
     1
  8
SLD-0
  6
SLD-実線
 62
     7
370
    18
100
AcDbLine
 10
21.9339197708
 20
31.7816315495
 30
0.0
 11
23.70845076
 21
31.7816315495
 31
0.0
  0
LINE
  5
FC
330
1B
100
AcDbEntity
 67
     1
  8
SLD-0
  6
SLD-実線
 62
     7
370
    18
100
AcDbLine
 10
23.7139674029
 20
31.7757539545
 30
0.0
 11
24.3240626173
 21
31.348560676
 31
0.0
  0
LINE
  5
FD
330
1B
100
AcDbEntity
 67
     1
  8
SLD-0
  6
SLD-実線
 62
     7
370
    18
100
AcDbLine
 10
23.7055733441
 20
31.7918788653
 30
0.0
 11
23.7055733441
 21
31.8946236774
 31
0.0
  0
LINE
  5
FE
330
1B
100
AcDbEntity
 67
     1
  8
SLD-0
  6
SLD-実線
 62
     7
370
    18
100
AcDbLine
 10
21.9339197708
 20
31.9391118671
 30
0.0
 11
23.6610851544
 21
31.9391118671
 31
0.0
  0
LINE
  5
FF
330
1B
100
AcDbEntity
 67
     1
  8
SLD-0
  6
SLD-実線
 62
     7
370
    18
100
AcDbLine
 10
23.3520855071
 20
29.9706078968
 30
0.0
 11
24.4260457972
 21
29.9706078968
 31
0.0
  0
LINE
  5
100
330
1B
100
AcDbEntity
 67
     1
  8
SLD-0
  6
SLD-鎖線
 62
     7
370
    18
100
AcDbLine
 10
24.3363473347
 20
30.5414740482
 30
0.0
 11
24.5513782976
 21
30.5414740482
 31
0.0
  0
LINE
  5
101
330
1B
100
AcDbEntity
 67
     1
  8
SLD-0
  6
SLD-実線
 62
     7
370
    18
100
AcDbLine
 10
21.9339197708
 20
24.0257259064
 30
0.0
 11
18.7646283786
 21
24.0257259064
 31
0.0
  0
LINE
  5
102
330
1B
100
AcDbEntity
 67
     1
  8
SLD-0
  6
SLD-実線
 62
     7
370
    18
100
AcDbLine
 10
18.6858882198
 20
23.6320251123
 30
0.0
 11
18.6858882198
 21
23.9469857476
 31
0.0
  0
LINE
  5
103
330
1B
100
AcDbEntity
 67
     1
  8
SLD-0
  6
SLD-実線
 62
     7
370
    18
100
AcDbLine
 10
18.9417937359
 20
23.5139148741
 30
0.0
 11
18.9417937359
 21
23.6320251123
 31
0.0
  0
LINE
  5
104
330
1B
100
AcDbEntity
 67
     1
  8
SLD-0
  6
SLD-実線
 62
     7
370
    18
100
AcDbLine
 10
24.9260458057
 20
23.5139148741
 30
0.0
 11
24.9260458057
 21
23.6320251123
 31
0.0
  0
LINE
  5
105
330
1B
100
AcDbEntity
 67
     1
  8
SLD-0
  6
SLD-実線
 62
     7
370
    18
100
AcDbLine
 10
21.9339197708
 20
23.5139148741
 30
0.0
 11
24.9260458057
 21
23.5139148741
 31
0.0
  0
LINE
  5
106
330
1B
100
AcDbEntity
 67
     1
  8
SLD-0
  6
SLD-実線
 62
     7
370
    18
100
AcDbLine
 10
21.9339197708
 20
24.0257259064
 30
0.0
 11
25.103211163
 21
24.0257259064
 31
0.0
  0
LINE
  5
107
330
1B
100
AcDbEntity
 67
     1
  8
SLD-0
  6
SLD-実線
 62
     7
370
    18
100
AcDbLine
 10
25.1819513218
 20
23.6320251123
 30
0.0
 11
25.1819513218
 21
23.9469857476
 31
0.0
  0
LINE
  5
108
330
1B
100
AcDbEntity
 67
     1
  8
SLD-0
  6
SLD-実線
 62
     7
370
    18
100
AcDbLine
 10
21.9339197708
 20
23.6320251123
 30
0.0
 11
25.1819513218
 21
23.6320251123
 31
0.0
  0
LINE
  5
109
330
1B
100
AcDbEntity
 67
     1
  8
SLD-0
  6
SLD-実線
 62
     7
370
    18
100
AcDbLine
 10
24.3354946146
 20
26.3485605914
 30
0.0
 11
24.3354946146
 21
24.1438361446
 31
0.0
  0
LINE
  5
10A
330
1B
100
AcDbEntity
 67
     1
  8
SLD-0
  6
SLD-実線
 62
     7
370
    18
100
AcDbLine
 10
18.607148061
 20
4.3714288665
 30
0.0
 11
18.075651989
 21
4.3714288665
 31
0.0
  0
LINE
  5
10B
330
1B
100
AcDbEntity
 67
     1
  8
SLD-0
  6
SLD-実線
 62
     7
370
    18
100
AcDbLine
 10
18.607148061
 20
6.3399328369
 30
0.0
 11
18.075651989
 21
6.3399328369
 31
0.0
  0
LINE
  5
10C
330
1B
100
AcDbEntity
 67
     1
  8
SLD-0
  6
SLD-実線
 62
     7
370
    18
100
AcDbLine
 10
17.9969118302
 20
4.4501690254
 30
0.0
 11
17.9969118302
 21
6.261192678
 31
0.0
  0
LINE
  5
10D
330
1B
100
AcDbEntity
 67
     1
  8
SLD-0
  6
SLD-鎖線
 62
     7
370
    18
100
AcDbLine
 10
26.551086456
 20
5.3556808517
 30
0.0
 11
17.6702851246
 21
5.3556808517
 31
0.0
  0
LINE
  5
10E
330
1B
100
AcDbEntity
 67
     1
  8
SLD-0
  6
SLD-破線
 62
     7
370
    18
100
AcDbLine
 10
18.6858882198
 20
5.9560745626
 30
0.0
 11
17.9969118302
 21
5.9560745626
 31
0.0
  0
LINE
  5
10F
330
1B
100
AcDbEntity
 67
     1
  8
SLD-0
  6
SLD-破線
 62
     7
370
    18
100
AcDbLine
 10
18.6858882198
 20
6.0101887368
 30
0.0
 11
17.9969118302
 21
6.0101887368
 31
0.0
  0
LINE
  5
110
330
1B
100
AcDbEntity
 67
     1
  8
SLD-0
  6
SLD-破線
 62
     7
370
    18
100
AcDbLine
 10
18.6858882198
 20
4.7011729666
 30
0.0
 11
17.9969118302
 21
4.7011729666
 31
0.0
  0
LINE
  5
111
330
1B
100
AcDbEntity
 67
     1
  8
SLD-0
  6
SLD-破線
 62
     7
370
    18
100
AcDbLine
 10
18.6858882198
 20
4.7552871408
 30
0.0
 11
17.9969118302
 21
4.7552871408
 31
0.0
  0
LINE
  5
112
330
1B
100
AcDbEntity
 67
     1
  8
SLD-0
  6
SLD-実線
 62
     7
370
    18
100
AcDbLine
 10
19.0205338947
 20
16.7343872003
 30
0.0
 11
19.0205338947
 21
23.4745447947
 31
0.0
  0
LINE
  5
113
330
1B
100
AcDbEntity
 67
     1
  8
SLD-0
  6
SLD-実線
 62
     7
370
    18
100
AcDbLine
 10
20.0244709196
 20
17.9273006063
 30
0.0
 11
20.0244709196
 21
19.2225762188
 31
0.0
  0
LINE
  5
114
330
1B
100
AcDbEntity
 67
     1
  8
SLD-0
  6
SLD-実線
 62
     7
370
    18
100
AcDbLine
 10
23.843368622
 20
17.9273006063
 30
0.0
 11
23.843368622
 21
19.2225762188
 31
0.0
  0
LINE
  5
115
330
1B
100
AcDbEntity
 67
     1
  8
SLD-0
  6
SLD-実線
 62
     7
370
    18
100
AcDbLine
 10
24.571715091
 20
17.3367494152
 30
0.0
 11
24.571715091
 21
23.4745447947
 31
0.0
  0
LINE
  5
116
330
1B
100
AcDbEntity
 67
     1
  8
SLD-0
  6
SLD-実線
 62
     7
370
    18
100
AcDbLine
 10
21.9339197708
 20
17.7304502093
 30
0.0
 11
24.1386442176
 21
17.7304502093
 31
0.0
  0
LINE
  5
117
330
1B
100
AcDbEntity
 67
     1
  8
SLD-0
  6
SLD-実線
 62
     7
370
    18
100
AcDbLine
 10
21.9339197708
 20
17.7304502093
 30
0.0
 11
19.33549453
 21
17.7304502093
 31
0.0
  0
LINE
  5
118
330
1B
100
AcDbEntity
 67
     1
  8
SLD-0
  6
SLD-実線
 62
     7
370
    18
100
AcDbLine
 10
22.918171756
 20
18.8721825121
 30
0.0
 11
23.4102977486
 21
18.8721825121
 31
0.0
  0
LINE
  5
119
330
1B
100
AcDbEntity
 67
     1
  8
SLD-0
  6
SLD-実線
 62
     7
370
    18
100
AcDbLine
 10
22.6032111207
 20
18.4391116386
 30
0.0
 11
22.6032111207
 21
18.5572218768
 31
0.0
  0
LINE
  5
11A
330
1B
100
AcDbEntity
 67
     1
  8
SLD-0
  6
SLD-実線
 62
     7
370
    18
100
AcDbLine
 10
22.6425812001
 20
18.3997415592
 30
0.0
 11
22.918171756
 21
18.3997415592
 31
0.0
  0
LINE
  5
11B
330
1B
100
AcDbEntity
 67
     1
  8
SLD-0
  6
SLD-実線
 62
     7
370
    18
100
AcDbLine
 10
23.115022153
 20
17.7698202887
 30
0.0
 11
23.115022153
 21
18.2028911622
 31
0.0
  0
LINE
  5
11C
330
1B
100
AcDbEntity
 67
     1
  8
SLD-0
  6
SLD-実線
 62
     7
370
    18
100
AcDbLine
 10
22.6622662398
 20
17.7304502093
 30
0.0
 11
22.6622662398
 21
17.8485604475
 31
0.0
  0
LINE
  5
11D
330
1B
100
AcDbEntity
 67
     1
  8
SLD-0
  6
SLD-実線
 62
     7
370
    18
100
AcDbLine
 10
22.6622662398
 20
17.8485604475
 30
0.0
 11
22.8591166369
 21
17.8485604475
 31
0.0
  0
LINE
  5
11E
330
1B
100
AcDbEntity
 67
     1
  8
SLD-0
  6
SLD-実線
 62
     7
370
    18
100
AcDbLine
 10
22.8591166369
 20
17.7698202887
 30
0.0
 11
22.8591166369
 21
17.8485604475
 31
0.0
  0
LINE
  5
11F
330
1B
100
AcDbEntity
 67
     1
  8
SLD-0
  6
SLD-実線
 62
     7
370
    18
100
AcDbLine
 10
21.9339197708
 20
17.1398990182
 30
0.0
 11
19.0992740535
 21
17.1398990182
 31
0.0
  0
LINE
  5
120
330
1B
100
AcDbEntity
 67
     1
  8
SLD-0
  6
SLD-実線
 62
     7
370
    18
100
AcDbLine
 10
19.9457307608
 20
22.3721825713
 30
0.0
 11
19.9457307608
 21
22.5296628889
 31
0.0
  0
LINE
  5
121
330
1B
100
AcDbEntity
 67
     1
  8
SLD-0
  6
SLD-実線
 62
     7
370
    18
100
AcDbLine
 10
20.0244709196
 20
22.5296628889
 30
0.0
 11
19.9457307608
 21
22.5296628889
 31
0.0
  0
LINE
  5
122
330
1B
100
AcDbEntity
 67
     1
  8
SLD-0
  6
SLD-実線
 62
     7
370
    18
100
AcDbLine
 10
20.0244709196
 20
22.3721825713
 30
0.0
 11
19.9457307608
 21
22.3721825713
 31
0.0
  0
LINE
  5
123
330
1B
100
AcDbEntity
 67
     1
  8
SLD-0
  6
SLD-実線
 62
     7
370
    18
100
AcDbLine
 10
20.0244709196
 20
22.5296628889
 30
0.0
 11
20.0244709196
 21
23.3170644771
 31
0.0
  0
LINE
  5
124
330
1B
100
AcDbEntity
 67
     1
  8
SLD-0
  6
SLD-実線
 62
     7
370
    18
100
AcDbLine
 10
23.843368622
 20
22.3721825713
 30
0.0
 11
23.9221087808
 21
22.3721825713
 31
0.0
  0
LINE
  5
125
330
1B
100
AcDbEntity
 67
     1
  8
SLD-0
  6
SLD-実線
 62
     7
370
    18
100
AcDbLine
 10
23.9221087808
 20
22.3721825713
 30
0.0
 11
23.9221087808
 21
22.5296628889
 31
0.0
  0
LINE
  5
126
330
1B
100
AcDbEntity
 67
     1
  8
SLD-0
  6
SLD-実線
 62
     7
370
    18
100
AcDbLine
 10
23.843368622
 20
22.5296628889
 30
0.0
 11
23.9221087808
 21
22.5296628889
 31
0.0
  0
LINE
  5
127
330
1B
100
AcDbEntity
 67
     1
  8
SLD-0
  6
SLD-実線
 62
     7
370
    18
100
AcDbLine
 10
23.843368622
 20
22.5296628889
 30
0.0
 11
23.843368622
 21
23.3170644771
 31
0.0
  0
LINE
  5
128
330
1B
100
AcDbEntity
 67
     1
  8
SLD-0
  6
SLD-実線
 62
     7
370
    18
100
AcDbLine
 10
19.9457307608
 20
19.2225762188
 30
0.0
 11
19.9457307608
 21
19.3800565364
 31
0.0
  0
LINE
  5
129
330
1B
100
AcDbEntity
 67
     1
  8
SLD-0
  6
SLD-実線
 62
     7
370
    18
100
AcDbLine
 10
20.0244709196
 20
19.3800565364
 30
0.0
 11
19.9457307608
 21
19.3800565364
 31
0.0
  0
LINE
  5
12A
330
1B
100
AcDbEntity
 67
     1
  8
SLD-0
  6
SLD-実線
 62
     7
370
    18
100
AcDbLine
 10
20.0244709196
 20
19.2225762188
 30
0.0
 11
19.9457307608
 21
19.2225762188
 31
0.0
  0
LINE
  5
12B
330
1B
100
AcDbEntity
 67
     1
  8
SLD-0
  6
SLD-実線
 62
     7
370
    18
100
AcDbLine
 10
20.0244709196
 20
19.3800565364
 30
0.0
 11
20.0244709196
 21
22.3721825713
 31
0.0
  0
LINE
  5
12C
330
1B
100
AcDbEntity
 67
     1
  8
SLD-0
  6
SLD-鎖線
 62
     7
370
    18
100
AcDbLine
 10
20.1057210999
 20
19.3013163776
 30
0.0
 11
19.8904854127
 21
19.3013163776
 31
0.0
  0
LINE
  5
12D
330
1B
100
AcDbEntity
 67
     1
  8
SLD-0
  6
SLD-鎖線
 62
     7
370
    18
100
AcDbLine
 10
23.7621182627
 20
19.3013163776
 30
0.0
 11
23.9773541289
 21
19.3013163776
 31
0.0
  0
LINE
  5
12E
330
1B
100
AcDbEntity
 67
     1
  8
SLD-0
  6
SLD-実線
 62
     7
370
    18
100
AcDbLine
 10
23.843368622
 20
19.2225762188
 30
0.0
 11
23.9221087808
 21
19.2225762188
 31
0.0
  0
LINE
  5
12F
330
1B
100
AcDbEntity
 67
     1
  8
SLD-0
  6
SLD-実線
 62
     7
370
    18
100
AcDbLine
 10
23.9221087808
 20
19.2225762188
 30
0.0
 11
23.9221087808
 21
19.3800565364
 31
0.0
  0
LINE
  5
130
330
1B
100
AcDbEntity
 67
     1
  8
SLD-0
  6
SLD-実線
 62
     7
370
    18
100
AcDbLine
 10
23.843368622
 20
19.3800565364
 30
0.0
 11
23.9221087808
 21
19.3800565364
 31
0.0
  0
LINE
  5
131
330
1B
100
AcDbEntity
 67
     1
  8
SLD-0
  6
SLD-実線
 62
     7
370
    18
100
AcDbLine
 10
23.843368622
 20
19.3800565364
 30
0.0
 11
23.843368622
 21
22.3721825713
 31
0.0
  0
LINE
  5
132
330
1B
100
AcDbEntity
 67
     1
  8
SLD-0
  6
SLD-実線
 62
     7
370
    18
100
AcDbLine
 10
24.7882505278
 20
16.557221843
 30
0.0
 11
24.5126599719
 21
16.557221843
 31
0.0
  0
LINE
  5
133
330
1B
100
AcDbEntity
 67
     1
  8
SLD-0
  6
SLD-実線
 62
     7
370
    18
100
AcDbLine
 10
24.7882505278
 20
16.557221843
 30
0.0
 11
24.7882505278
 21
16.7343872003
 31
0.0
  0
LINE
  5
134
330
1B
100
AcDbEntity
 67
     1
  8
SLD-0
  6
SLD-鎖線
 62
     7
370
    18
100
AcDbLine
 10
24.6504552499
 20
16.4719591357
 30
0.0
 11
24.6504552499
 21
16.9078106106
 31
0.0
  0
LINE
  5
135
330
1B
100
AcDbEntity
 67
     1
  8
SLD-0
  6
SLD-実線
 62
     7
370
    18
100
AcDbLine
 10
24.5126599719
 20
16.557221843
 30
0.0
 11
24.5126599719
 21
16.7343872003
 31
0.0
  0
LINE
  5
136
330
1B
100
AcDbEntity
 67
     1
  8
SLD-0
  6
SLD-実線
 62
     7
370
    18
100
AcDbLine
 10
21.9339197708
 20
16.7343872003
 30
0.0
 11
24.8473056469
 21
16.7343872003
 31
0.0
  0
LINE
  5
137
330
1B
100
AcDbEntity
 67
     1
  8
SLD-0
  6
SLD-実線
 62
     7
370
    18
100
AcDbLine
 10
22.3966241451
 20
16.5769068827
 30
0.0
 11
21.9339197708
 21
16.5769068827
 31
0.0
  0
LINE
  5
138
330
1B
100
AcDbEntity
 67
     1
  8
SLD-0
  6
SLD-実線
 62
     7
370
    18
100
AcDbLine
 10
22.3966241451
 20
16.5769068827
 30
0.0
 11
22.5541044628
 21
16.7343872003
 31
0.0
  0
LINE
  5
139
330
1B
100
AcDbEntity
 67
     1
  8
SLD-0
  6
SLD-実線
 62
     7
370
    18
100
AcDbLine
 10
24.8473056469
 20
16.7343872003
 30
0.0
 11
24.8473056469
 21
17.0611588594
 31
0.0
  0
LINE
  5
13A
330
1B
100
AcDbEntity
 67
     1
  8
SLD-0
  6
SLD-実線
 62
     7
370
    18
100
AcDbLine
 10
21.9339197708
 20
17.1398990182
 30
0.0
 11
24.7685654881
 21
17.1398990182
 31
0.0
  0
LINE
  5
13B
330
1B
100
AcDbEntity
 67
     1
  8
SLD-0
  6
SLD-実線
 62
     7
370
    18
100
AcDbLine
 10
21.9339197708
 20
16.824938383
 30
0.0
 11
24.8473056469
 21
16.824938383
 31
0.0
  0
LINE
  5
13C
330
1B
100
AcDbEntity
 67
     1
  8
SLD-0
  6
SLD-鎖線
 62
     7
370
    18
100
AcDbLine
 10
23.7621182627
 20
22.4509227301
 30
0.0
 11
23.9773541289
 21
22.4509227301
 31
0.0
  0
LINE
  5
13D
330
1B
100
AcDbEntity
 67
     1
  8
SLD-0
  6
SLD-鎖線
 62
     7
370
    18
100
AcDbLine
 10
20.1057210999
 20
22.4509227301
 30
0.0
 11
19.8904854127
 21
22.4509227301
 31
0.0
  0
LINE
  5
13E
330
1B
100
AcDbEntity
 67
     1
  8
SLD-0
  6
SLD-実線
 62
     7
370
    18
100
AcDbLine
 10
24.3354946146
 20
17.3367494152
 30
0.0
 11
24.3354946146
 21
17.5335998123
 31
0.0
  0
LINE
  5
13F
330
1B
100
AcDbEntity
 67
     1
  8
SLD-0
  6
SLD-実線
 62
     7
370
    18
100
AcDbLine
 10
19.708987736
 20
8.6037124027
 30
0.0
 11
24.1588518056
 21
8.6037124027
 31
0.0
  0
LINE
  5
140
330
1B
100
AcDbEntity
 67
     1
  8
SLD-0
  6
SLD-実線
 62
     7
370
    18
100
AcDbLine
 10
19.708987736
 20
2.1076493007
 30
0.0
 11
24.1588518056
 21
2.1076493007
 31
0.0
  0
LINE
  5
141
330
1B
100
AcDbEntity
 67
     1
  8
SLD-0
  6
SLD-実線
 62
     7
370
    18
100
AcDbLine
 10
25.1819513218
 20
3.1307488169
 30
0.0
 11
25.1819513218
 21
7.5806128865
 31
0.0
  0
LINE
  5
142
330
1B
100
AcDbEntity
 67
     1
  8
SLD-0
  6
SLD-実線
 62
     7
370
    18
100
AcDbLine
 10
18.6858882198
 20
3.1307488169
 30
0.0
 11
18.6858882198
 21
7.5806128865
 31
0.0
  0
LINE
  5
143
330
1B
100
AcDbEntity
 67
     1
  8
SLD-0
  6
SLD-鎖線
 62
     7
370
    18
100
AcDbLine
 10
24.8682254754
 20
2.4213749681
 30
0.0
 11
23.7382548049
 21
3.5513458176
 31
0.0
  0
LINE
  5
144
330
1B
100
AcDbEntity
 67
     1
  8
SLD-0
  6
SLD-鎖線
 62
     7
370
    18
100
AcDbLine
 10
20.1047425745
 20
7.184858048
 30
0.0
 11
18.9819793128
 21
8.3076211307
 31
0.0
  0
LINE
  5
145
330
1B
100
AcDbEntity
 67
     1
  8
SLD-0
  6
SLD-鎖線
 62
     7
370
    18
100
AcDbLine
 10
24.2388405328
 20
4.6067665584
 30
0.0
 11
24.8881354615
 21
4.395797872
 31
0.0
  0
LINE
  5
146
330
1B
100
AcDbEntity
 67
     1
  8
SLD-0
  6
SLD-鎖線
 62
     7
370
    18
100
AcDbLine
 10
18.9957006803
 20
4.4009956172
 30
0.0
 11
19.6904134694
 21
4.6267214621
 31
0.0
  0
LINE
  5
147
330
1B
100
AcDbEntity
 67
     1
  8
SLD-0
  6
SLD-鎖線
 62
     7
370
    18
100
AcDbLine
 10
20.0590355229
 20
7.9362374451
 30
0.0
 11
20.5625752594
 21
7.2431744413
 31
0.0
  0
LINE
  5
148
330
1B
100
AcDbEntity
 67
     1
  8
SLD-0
  6
SLD-鎖線
 62
     7
370
    18
100
AcDbLine
 10
23.815827104
 20
7.9459040523
 30
0.0
 11
23.340588907
 21
7.2917948787
 31
0.0
  0
LINE
  5
149
330
1B
100
AcDbEntity
 67
     1
  8
SLD-0
  6
SLD-実線
 62
     7
370
    18
100
AcDbLine
 10
18.6858882198
 20
23.8288755094
 30
0.0
 11
18.075651989
 21
23.8288755094
 31
0.0
  0
LINE
  5
14A
330
1B
100
AcDbEntity
 67
     1
  8
SLD-0
  6
SLD-実線
 62
     7
370
    18
100
AcDbLine
 10
19.1816631029
 20
25.7973794797
 30
0.0
 11
18.075651989
 21
25.7973794797
 31
0.0
  0
LINE
  5
14B
330
1B
100
AcDbEntity
 67
     1
  8
SLD-0
  6
SLD-破線
 62
     7
370
    18
100
AcDbLine
 10
18.6858882198
 20
24.1586196094
 30
0.0
 11
17.9969118302
 21
24.1586196094
 31
0.0
  0
LINE
  5
14C
330
1B
100
AcDbEntity
 67
     1
  8
SLD-0
  6
SLD-破線
 62
     7
370
    18
100
AcDbLine
 10
18.6858882198
 20
24.2127337836
 30
0.0
 11
17.9969118302
 21
24.2127337836
 31
0.0
  0
LINE
  5
14D
330
1B
100
AcDbEntity
 67
     1
  8
SLD-0
  6
SLD-破線
 62
     7
370
    18
100
AcDbLine
 10
18.6858882198
 20
25.4676353796
 30
0.0
 11
17.9969118302
 21
25.4676353796
 31
0.0
  0
LINE
  5
14E
330
1B
100
AcDbEntity
 67
     1
  8
SLD-0
  6
SLD-破線
 62
     7
370
    18
100
AcDbLine
 10
18.6858882198
 20
25.4135212055
 30
0.0
 11
17.9969118302
 21
25.4135212055
 31
0.0
  0
LINE
  5
14F
330
1B
100
AcDbEntity
 67
     1
  8
SLD-0
  6
SLD-実線
 62
     7
370
    18
100
AcDbLine
 10
17.9969118302
 20
23.9076156682
 30
0.0
 11
17.9969118302
 21
25.7186393209
 31
0.0
  0
LINE
  5
150
330
1B
100
AcDbEntity
 67
     1
  8
SLD-0
  6
SLD-鎖線
 62
     7
370
    18
100
AcDbLine
 10
18.8990159972
 20
24.8131274945
 30
0.0
 11
17.7679597862
 21
24.8131274945
 31
0.0
  0
LINE
  5
151
330
1B
100
AcDbEntity
 67
     1
  8
SLD-0
  6
SLD-実線
 62
     7
370
    18
100
AcDbLine
 10
23.5284079868
 20
17.9273006063
 30
0.0
 11
23.5284079868
 21
23.3170644771
 31
0.0
  0
LINE
  5
152
330
1B
100
AcDbEntity
 67
     1
  8
SLD-0
  6
SLD-実線
 62
     7
370
    18
100
AcDbLine
 10
20.3394315549
 20
17.9273006063
 30
0.0
 11
20.3394315549
 21
23.3170644771
 31
0.0
  0
LINE
  5
153
330
1B
100
AcDbEntity
 67
     1
  8
SLD-0
  6
SLD-実線
 62
     7
370
    18
100
AcDbLine
 10
21.5992740959
 20
17.7304502093
 30
0.0
 11
21.5992740959
 21
23.1989542389
 31
0.0
  0
LINE
  5
154
330
1B
100
AcDbEntity
 67
     1
  8
SLD-0
  6
SLD-実線
 62
     7
370
    18
100
AcDbLine
 10
22.2685654458
 20
17.7304502093
 30
0.0
 11
22.2685654458
 21
23.1989542389
 31
0.0
  0
LINE
  5
155
330
1B
100
AcDbEntity
 67
     1
  8
SLD-0
  6
SLD-実線
 62
     7
370
    18
100
AcDbLine
 10
21.2410063733
 20
18.5808439245
 30
0.0
 11
20.9496677857
 21
18.8721825121
 31
0.0
  0
LINE
  5
156
330
1B
100
AcDbEntity
 67
     1
  8
SLD-0
  6
SLD-実線
 62
     7
370
    18
100
AcDbLine
 10
22.6032111207
 20
18.5572218768
 30
0.0
 11
22.918171756
 21
18.8721825121
 31
0.0
  0
LINE
  5
157
330
1B
100
AcDbEntity
 67
     1
  8
SLD-0
  6
SLD-鎖線
 62
     7
370
    18
100
AcDbLine
 10
21.6005453915
 20
24.3406865416
 30
0.0
 11
22.3049782953
 21
24.3406865416
 31
0.0
  0
ARC
  5
158
330
1B
100
AcDbEntity
 67
     1
  8
SLD-0
  6
SLD-実線
 62
     7
370
    18
100
AcDbCircle
 10
21.9339197708
 20
8.5893875993
 30
0.0
 40
0.4330708734708798
100
AcDbArc
 50
1.895526
 51
178.104474
  0
ARC
  5
159
330
1B
100
AcDbEntity
 67
     1
  8
SLD-0
  6
SLD-実線
 62
     7
370
    18
100
AcDbCircle
 10
20.6347071504
 20
9.4245910852
 30
0.0
 40
0.0866141746941764
100
AcDbArc
 50
90.0
 51
180.0
  0
ARC
  5
15A
330
1B
100
AcDbEntity
 67
     1
  8
SLD-0
  6
SLD-実線
 62
     7
370
    18
100
AcDbCircle
 10
21.0480929842
 20
9.4619801338
 30
0.0
 40
0.1259842541006228
100
AcDbArc
 50
90.0
 51
157.000387
  0
ARC
  5
15B
330
1B
100
AcDbEntity
 67
     1
  8
SLD-0
  6
SLD-実線
 62
     7
370
    18
100
AcDbCircle
 10
23.2331323912
 20
9.4245910852
 30
0.0
 40
0.0866141746941764
100
AcDbArc
 50
0.0
 51
90.0
  0
ARC
  5
15C
330
1B
100
AcDbEntity
 67
     1
  8
SLD-0
  6
SLD-実線
 62
     7
370
    18
100
AcDbCircle
 10
22.8197465575
 20
9.4619801338
 30
0.0
 40
0.1259842541006195
100
AcDbArc
 50
22.999613
 51
90.0
  0
ARC
  5
15D
330
1B
100
AcDbEntity
 67
     1
  8
SLD-0
  6
SLD-実線
 62
     7
370
    18
100
AcDbCircle
 10
21.1662032224
 20
27.49816691
 30
0.0
 40
0.1968503970322217
100
AcDbArc
 50
180.0
 51
270.0
  0
ARC
  5
15E
330
1B
100
AcDbEntity
 67
     1
  8
SLD-0
  6
SLD-実線
 62
     7
370
    18
100
AcDbCircle
 10
22.7016363192
 20
27.49816691
 30
0.0
 40
0.1968503970322182
100
AcDbArc
 50
270.0
 51
0.0
  0
ARC
  5
15F
330
1B
100
AcDbEntity
 67
     1
  8
SLD-0
  6
SLD-実線
 62
     7
370
    18
100
AcDbCircle
 10
22.7016363192
 20
30.1381195317
 30
0.0
 40
0.1968503970322182
100
AcDbArc
 50
0.0
 51
90.0
  0
ARC
  5
160
330
1B
100
AcDbEntity
 67
     1
  8
SLD-0
  6
SLD-実線
 62
     7
370
    18
100
AcDbCircle
 10
21.1662032224
 20
30.1381195317
 30
0.0
 40
0.1968503970322217
100
AcDbArc
 50
90.0
 51
180.0
  0
ARC
  5
161
330
1B
100
AcDbEntity
 67
     1
  8
SLD-0
  6
SLD-実線
 62
     7
370
    18
100
AcDbCircle
 10
20.4969118725
 20
30.1674582938
 30
0.0
 40
0.1968503970322111
100
AcDbArc
 50
270.0
 51
285.070062
  0
ARC
  5
162
330
1B
100
AcDbEntity
 67
     1
  8
1
  6
SLD-実線
 62
     7
370
    18
100
AcDbCircle
 10
20.9299827459
 20
27.2809408863
 30
0.0
 40
0.3818897702424984
100
AcDbArc
 50
180.0
 51
270.0
  0
ARC
  5
163
330
1B
100
AcDbEntity
 67
     1
  8
1
  6
SLD-実線
 62
     7
370
    18
100
AcDbCircle
 10
22.9378567957
 20
27.2809408863
 30
0.0
 40
0.3818897702424984
100
AcDbArc
 50
270.0
 51
0.0
  0
ARC
  5
164
330
1B
100
AcDbEntity
 67
     1
  8
1
  6
SLD-実線
 62
     7
370
    18
100
AcDbCircle
 10
22.9378567957
 20
30.3553455554
 30
0.0
 40
0.3818897702425055
100
AcDbArc
 50
0.0
 51
90.0
  0
ARC
  5
165
330
1B
100
AcDbEntity
 67
     1
  8
1
  6
SLD-実線
 62
     7
370
    18
100
AcDbCircle
 10
20.9299827459
 20
30.3553455554
 30
0.0
 40
0.3818897702424984
100
AcDbArc
 50
90.0
 51
180.0
  0
ARC
  5
166
330
1B
100
AcDbEntity
 67
     1
  8
SLD-0
  6
SLD-実線
 62
     7
370
    18
100
AcDbCircle
 10
24.4148614735
 20
29.7944940785
 30
0.0
 40
0.0393700745246331
100
AcDbArc
 50
1.592246695
 51
60.0
  0
ARC
  5
167
330
1B
100
AcDbEntity
 67
     1
  8
SLD-0
  6
SLD-実線
 62
     7
370
    18
100
AcDbCircle
 10
24.5120230714
 20
26.2990895812
 30
0.0
 40
0.0393700745246391
100
AcDbArc
 50
300.0
 51
1.592246695
  0
ARC
  5
168
330
1B
100
AcDbEntity
 67
     1
  8
SLD-0
  6
SLD-実線
 62
     7
370
    18
100
AcDbCircle
 10
19.4529780681
 20
29.7944940785
 30
0.0
 40
0.0393700794064422
100
AcDbArc
 50
120.0
 51
178.40776
  0
ARC
  5
169
330
1B
100
AcDbEntity
 67
     1
  8
SLD-0
  6
SLD-実線
 62
     7
370
    18
100
AcDbCircle
 10
20.9496677857
 20
18.2028911622
 30
0.0
 40
0.1968503970322217
100
AcDbArc
 50
90.0
 51
180.0
  0
ARC
  5
16A
330
1B
100
AcDbEntity
 67
     1
  8
SLD-0
  6
SLD-実線
 62
     7
370
    18
100
AcDbCircle
 10
21.2252583415
 20
18.4391116386
 30
0.0
 40
0.0393700794064387
100
AcDbArc
 50
270.0
 51
0.0
  0
ARC
  5
16B
330
1B
100
AcDbEntity
 67
     1
  8
SLD-0
  6
SLD-実線
 62
     7
370
    18
100
AcDbCircle
 10
20.9693528254
 20
17.7698202887
 30
0.0
 40
0.0393700794064493
100
AcDbArc
 50
270.0
 51
0.0
  0
ARC
  5
16C
330
1B
100
AcDbEntity
 67
     1
  8
SLD-0
  6
SLD-実線
 62
     7
370
    18
100
AcDbCircle
 10
20.792187468
 20
17.7698202887
 30
0.0
 40
0.0393700794064458
100
AcDbArc
 50
180.0
 51
270.0
  0
CIRCLE
  5
16D
330
1B
100
AcDbEntity
 67
     1
  8
SLD-0
  6
SLD-実線
 62
     7
370
    18
100
AcDbCircle
 10
21.9339197708
 20
5.3556808517
 30
0.0
 40
0.4921259925805401
  0
ARC
  5
16E
330
1B
100
AcDbEntity
 67
     1
  8
SLD-0
  6
SLD-実線
 62
     7
370
    18
100
AcDbCircle
 10
19.2604032617
 20
25.5611590032
 30
0.0
 40
0.078740158812888
100
AcDbArc
 50
180.0
 51
270.0
  0
ARC
  5
16F
330
1B
100
AcDbEntity
 67
     1
  8
SLD-0
  6
SLD-実線
 62
     7
370
    18
100
AcDbCircle
 10
19.2604032617
 20
26.4366153531
 30
0.0
 40
0.0787401492505963
100
AcDbArc
 50
138.2157566915
 51
180.0
  0
ARC
  5
170
330
1B
100
AcDbEntity
 67
     1
  8
SLD-0
  6
SLD-実線
 62
     7
370
    18
100
AcDbCircle
 10
19.5315963586
 20
26.4366153531
 30
0.0
 40
0.0787401492505936
100
AcDbArc
 50
138.2157566915
 51
180.0
  0
ARC
  5
171
330
1B
100
AcDbEntity
 67
     1
  8
SLD-0
  6
SLD-実線
 62
     7
370
    18
100
AcDbCircle
 10
24.607436101
 20
25.5611590032
 30
0.0
 40
0.078740158812888
100
AcDbArc
 50
270.0
 51
0.0
  0
ARC
  5
172
330
1B
100
AcDbEntity
 67
     1
  8
SLD-0
  6
SLD-実線
 62
     7
370
    18
100
AcDbCircle
 10
19.5717150064
 20
29.9539681327
 30
0.0
 40
0.0393700794064458
100
AcDbArc
 50
300.0
 51
0.0
  0
ARC
  5
173
330
1B
100
AcDbEntity
 67
     1
  8
SLD-0
  6
SLD-実線
 62
     7
370
    18
100
AcDbCircle
 10
24.2961245352
 20
29.9539681327
 30
0.0
 40
0.0393700794064428
100
AcDbArc
 50
180.0
 51
240.0
  0
ARC
  5
174
330
1B
100
AcDbEntity
 67
     1
  8
SLD-0
  6
SLD-実線
 62
     7
370
    18
100
AcDbCircle
 10
23.9410524104
 20
29.9456909314
 30
0.0
 40
0.0393700794064493
100
AcDbArc
 50
180.0
 51
227.612009
  0
ARC
  5
175
330
1B
100
AcDbEntity
 67
     1
  8
SLD-0
  6
SLD-実線
 62
     7
370
    18
100
AcDbCircle
 10
24.0077353034
 20
29.7782188455
 30
0.0
 40
0.0393700794064493
100
AcDbArc
 50
0.0
 51
47.612009
  0
ARC
  5
176
330
1B
100
AcDbEntity
 67
     1
  8
SLD-0
  6
SLD-実線
 62
     7
370
    18
100
AcDbCircle
 10
24.1330334444
 20
29.9474013824
 30
0.0
 40
0.0393700794064422
100
AcDbArc
 50
180.0
 51
231.711897
  0
ARC
  5
177
330
1B
100
AcDbEntity
 67
     1
  8
SLD-0
  6
SLD-実線
 62
     7
370
    18
100
AcDbCircle
 10
24.2224351997
 20
29.7765082156
 30
0.0
 40
0.03937007940645
100
AcDbArc
 50
0.0
 51
51.711897
  0
ARC
  5
178
330
1B
100
AcDbEntity
 67
     1
  8
SLD-0
  6
SLD-実線
 62
     7
370
    18
100
AcDbCircle
 10
20.2067543873
 20
31.8946236774
 30
0.0
 40
0.0444881897292824
100
AcDbArc
 50
90.0
 51
180.0
  0
ARC
  5
179
330
1B
100
AcDbEntity
 67
     1
  8
SLD-0
  6
SLD-実線
 62
     7
370
    18
100
AcDbCircle
 10
19.4862819341
 20
31.3040724863
 30
0.0
 40
0.0444881897292824
100
AcDbArc
 50
90.0
 51
180.0
  0
ARC
  5
17A
330
1B
100
AcDbEntity
 67
     1
  8
SLD-0
  6
SLD-実線
 62
     7
370
    18
100
AcDbCircle
 10
20.1425811578
 20
31.7918788653
 30
0.0
 40
0.0196850397032229
100
AcDbArc
 50
305.0
 51
0.0
  0
ARC
  5
17B
330
1B
100
AcDbEntity
 67
     1
  8
SLD-0
  6
SLD-実線
 62
     7
370
    18
100
AcDbCircle
 10
23.7252583838
 20
31.7918788653
 30
0.0
 40
0.0196850397032193
100
AcDbArc
 50
180.0
 51
235.0
  0
ARC
  5
17C
330
1B
100
AcDbEntity
 67
     1
  8
SLD-0
  6
SLD-実線
 62
     7
370
    18
100
AcDbCircle
 10
24.3815576075
 20
31.3040724863
 30
0.0
 40
0.0444881897292824
100
AcDbArc
 50
0.0
 51
90.0
  0
ARC
  5
17D
330
1B
100
AcDbEntity
 67
     1
  8
SLD-0
  6
SLD-実線
 62
     7
370
    18
100
AcDbCircle
 10
23.6610851544
 20
31.8946236774
 30
0.0
 40
0.0444881897292824
100
AcDbArc
 50
0.0
 51
90.0
  0
ARC
  5
17E
330
1B
100
AcDbEntity
 67
     1
  8
SLD-0
  6
SLD-実線
 62
     7
370
    18
100
AcDbCircle
 10
19.4142346888
 20
24.1438361446
 30
0.0
 40
0.1181102382193266
100
AcDbArc
 50
270.0
 51
0.0
  0
ARC
  5
17F
330
1B
100
AcDbEntity
 67
     1
  8
SLD-0
  6
SLD-実線
 62
     7
370
    18
100
AcDbCircle
 10
18.7646283786
 20
23.9469857476
 30
0.0
 40
0.078740158812888
100
AcDbArc
 50
90.0
 51
180.0
  0
ARC
  5
180
330
1B
100
AcDbEntity
 67
     1
  8
SLD-0
  6
SLD-実線
 62
     7
370
    18
100
AcDbCircle
 10
25.103211163
 20
23.9469857476
 30
0.0
 40
0.078740158812888
100
AcDbArc
 50
0.0
 51
90.0
  0
ARC
  5
181
330
1B
100
AcDbEntity
 67
     1
  8
SLD-0
  6
SLD-実線
 62
     7
370
    18
100
AcDbCircle
 10
24.4536048528
 20
24.1438361446
 30
0.0
 40
0.1181102382193302
100
AcDbArc
 50
180.0
 51
270.0
  0
ARC
  5
182
330
1B
100
AcDbEntity
 67
     1
  8
SLD-0
  6
SLD-実線
 62
     7
370
    18
100
AcDbCircle
 10
18.075651989
 20
6.261192678
 30
0.0
 40
0.0787401588128889
100
AcDbArc
 50
90.0
 51
180.0
  0
ARC
  5
183
330
1B
100
AcDbEntity
 67
     1
  8
SLD-0
  6
SLD-実線
 62
     7
370
    18
100
AcDbCircle
 10
18.075651989
 20
4.4501690254
 30
0.0
 40
0.0787401588128889
100
AcDbArc
 50
180.0
 51
270.0
  0
ARC
  5
184
330
1B
100
AcDbEntity
 67
     1
  8
SLD-0
  6
SLD-実線
 62
     7
370
    18
100
AcDbCircle
 10
18.9811638153
 20
23.4745447947
 30
0.0
 40
0.0393700794064422
100
AcDbArc
 50
0.0
 51
90.0
  0
ARC
  5
185
330
1B
100
AcDbEntity
 67
     1
  8
SLD-0
  6
SLD-実線
 62
     7
370
    18
100
AcDbCircle
 10
20.5362819519
 20
23.3170644771
 30
0.0
 40
0.1968503970322182
100
AcDbArc
 50
90.0
 51
180.0
  0
ARC
  5
186
330
1B
100
AcDbEntity
 67
     1
  8
SLD-0
  6
SLD-実線
 62
     7
370
    18
100
AcDbCircle
 10
19.8276205226
 20
23.3170644771
 30
0.0
 40
0.1968503970322182
100
AcDbArc
 50
0.0
 51
90.0
  0
ARC
  5
187
330
1B
100
AcDbEntity
 67
     1
  8
SLD-0
  6
SLD-実線
 62
     7
370
    18
100
AcDbCircle
 10
24.0402190191
 20
23.3170644771
 30
0.0
 40
0.1968503970322182
100
AcDbArc
 50
90.0
 51
180.0
  0
ARC
  5
188
330
1B
100
AcDbEntity
 67
     1
  8
SLD-0
  6
SLD-実線
 62
     7
370
    18
100
AcDbCircle
 10
23.3315575897
 20
23.3170644771
 30
0.0
 40
0.1968503970322182
100
AcDbArc
 50
0.0
 51
90.0
  0
ARC
  5
189
330
1B
100
AcDbEntity
 67
     1
  8
SLD-0
  6
SLD-実線
 62
     7
370
    18
100
AcDbCircle
 10
24.6110851705
 20
23.4745447947
 30
0.0
 40
0.0393700794064493
100
AcDbArc
 50
90.0
 51
180.0
  0
ARC
  5
18A
330
1B
100
AcDbEntity
 67
     1
  8
SLD-0
  6
SLD-実線
 62
     7
370
    18
100
AcDbCircle
 10
20.4575417931
 20
18.9902927503
 30
0.0
 40
0.1181102382193302
100
AcDbArc
 50
180.0
 51
270.0
  0
ARC
  5
18B
330
1B
100
AcDbEntity
 67
     1
  8
SLD-0
  6
SLD-実線
 62
     7
370
    18
100
AcDbCircle
 10
23.4102977486
 20
18.9902927503
 30
0.0
 40
0.1181102382193302
100
AcDbArc
 50
270.0
 51
0.0
  0
ARC
  5
18C
330
1B
100
AcDbEntity
 67
     1
  8
SLD-0
  6
SLD-実線
 62
     7
370
    18
100
AcDbCircle
 10
22.6425812001
 20
18.4391116386
 30
0.0
 40
0.0393700794064422
100
AcDbArc
 50
180.0
 51
270.0
  0
ARC
  5
18D
330
1B
100
AcDbEntity
 67
     1
  8
SLD-0
  6
SLD-実線
 62
     7
370
    18
100
AcDbCircle
 10
22.918171756
 20
18.2028911622
 30
0.0
 40
0.1968503970322182
100
AcDbArc
 50
0.0
 51
90.0
  0
ARC
  5
18E
330
1B
100
AcDbEntity
 67
     1
  8
SLD-0
  6
SLD-実線
 62
     7
370
    18
100
AcDbCircle
 10
23.0756520736
 20
17.7698202887
 30
0.0
 40
0.0393700794064458
100
AcDbArc
 50
270.0
 51
0.0
  0
ARC
  5
18F
330
1B
100
AcDbEntity
 67
     1
  8
SLD-0
  6
SLD-実線
 62
     7
370
    18
100
AcDbCircle
 10
22.8984867163
 20
17.7698202887
 30
0.0
 40
0.0393700794064458
100
AcDbArc
 50
180.0
 51
270.0
  0
ARC
  5
190
330
1B
100
AcDbEntity
 67
     1
  8
SLD-0
  6
SLD-実線
 62
     7
370
    18
100
AcDbCircle
 10
19.33549453
 20
17.415489574
 30
0.0
 40
0.3149606352515448
100
AcDbArc
 50
90.0
 51
180.0
  0
ARC
  5
191
330
1B
100
AcDbEntity
 67
     1
  8
SLD-0
  6
SLD-実線
 62
     7
370
    18
100
AcDbCircle
 10
19.0992740535
 20
17.0611588594
 30
0.0
 40
0.0787401588128844
100
AcDbArc
 50
90.0
 51
180.0
  0
ARC
  5
192
330
1B
100
AcDbEntity
 67
     1
  8
SLD-0
  6
SLD-実線
 62
     7
370
    18
100
AcDbCircle
 10
20.5362819519
 20
17.9273006063
 30
0.0
 40
0.1968503970322217
100
AcDbArc
 50
180.0
 51
270.0
  0
ARC
  5
193
330
1B
100
AcDbEntity
 67
     1
  8
SLD-0
  6
SLD-実線
 62
     7
370
    18
100
AcDbCircle
 10
19.8276205226
 20
17.9273006063
 30
0.0
 40
0.1968503970322217
100
AcDbArc
 50
270.0
 51
0.0
  0
ARC
  5
194
330
1B
100
AcDbEntity
 67
     1
  8
SLD-0
  6
SLD-実線
 62
     7
370
    18
100
AcDbCircle
 10
23.3315575897
 20
17.9273006063
 30
0.0
 40
0.1968503970322217
100
AcDbArc
 50
270.0
 51
0.0
  0
ARC
  5
195
330
1B
100
AcDbEntity
 67
     1
  8
SLD-0
  6
SLD-実線
 62
     7
370
    18
100
AcDbCircle
 10
24.0402190191
 20
17.9273006063
 30
0.0
 40
0.1968503970322217
100
AcDbArc
 50
180.0
 51
270.0
  0
ARC
  5
196
330
1B
100
AcDbEntity
 67
     1
  8
SLD-0
  6
SLD-実線
 62
     7
370
    18
100
AcDbCircle
 10
24.7685654881
 20
17.0611588594
 30
0.0
 40
0.078740158812888
100
AcDbArc
 50
0.0
 51
90.0
  0
ARC
  5
197
330
1B
100
AcDbEntity
 67
     1
  8
SLD-0
  6
SLD-実線
 62
     7
370
    18
100
AcDbCircle
 10
24.5323450116
 20
17.3367494152
 30
0.0
 40
0.1968503970322182
100
AcDbArc
 50
180.0
 51
270.0
  0
ARC
  5
198
330
1B
100
AcDbEntity
 67
     1
  8
SLD-0
  6
SLD-実線
 62
     7
370
    18
100
AcDbCircle
 10
24.1386442176
 20
17.5335998123
 30
0.0
 40
0.1968503970322182
100
AcDbArc
 50
0.0
 51
90.0
  0
ARC
  5
199
330
1B
100
AcDbEntity
 67
     1
  8
SLD-0
  6
SLD-実線
 62
     7
370
    18
100
AcDbCircle
 10
24.7685654881
 20
17.3367494152
 30
0.0
 40
0.1968503970322182
100
AcDbArc
 50
180.0
 51
270.0
  0
ARC
  5
19A
330
1B
100
AcDbEntity
 67
     1
  8
SLD-0
  6
SLD-実線
 62
     7
370
    18
100
AcDbCircle
 10
21.9339197708
 20
5.3556808517
 30
0.0
 40
3.93700793953155
100
AcDbArc
 50
34.4115086461
 51
55.5884913539
  0
ARC
  5
19B
330
1B
100
AcDbEntity
 67
     1
  8
SLD-0
  6
SLD-実線
 62
     7
370
    18
100
AcDbCircle
 10
21.9339197708
 20
5.3556808517
 30
0.0
 40
3.937007939531548
100
AcDbArc
 50
304.4115086461
 51
325.5884913539
  0
ARC
  5
19C
330
1B
100
AcDbEntity
 67
     1
  8
SLD-0
  6
SLD-実線
 62
     7
370
    18
100
AcDbCircle
 10
21.9339197708
 20
5.3556808517
 30
0.0
 40
3.93700793953155
100
AcDbArc
 50
214.4115086461
 51
235.5884913539
  0
ARC
  5
19D
330
1B
100
AcDbEntity
 67
     1
  8
SLD-0
  6
SLD-実線
 62
     7
370
    18
100
AcDbCircle
 10
21.9339197708
 20
5.3556808517
 30
0.0
 40
3.937007939531553
100
AcDbArc
 50
124.4115086461
 51
145.5884913539
  0
ARC
  5
19E
330
1B
100
AcDbEntity
 67
     1
  8
SLD-0
  6
SLD-実線
 62
     7
370
    18
100
AcDbCircle
 10
18.607148061
 20
6.4186729957
 30
0.0
 40
0.0787401588128844
100
AcDbArc
 50
270.0
 51
0.0
  0
ARC
  5
19F
330
1B
100
AcDbEntity
 67
     1
  8
SLD-0
  6
SLD-実線
 62
     7
370
    18
100
AcDbCircle
 10
18.607148061
 20
4.2926887077
 30
0.0
 40
0.078740158812888
100
AcDbArc
 50
0.0
 51
90.0
  0
ARC
  5
1A0
330
1B
100
AcDbEntity
 67
     1
  8
SLD-0
  6
SLD-鎖線
 62
     7
370
    18
100
AcDbCircle
 10
21.9339197708
 20
5.3556808517
 30
0.0
 40
2.716535479044581
100
AcDbArc
 50
44.406876
 51
63.365277
  0
CIRCLE
  5
1A1
330
1B
100
AcDbEntity
 67
     1
  8
SLD-0
  6
SLD-実線
 62
     7
370
    18
100
AcDbCircle
 10
21.9339197708
 20
5.3556808517
 30
0.0
 40
2.913385876076799
  0
ARC
  5
1A2
330
1B
100
AcDbEntity
 67
     1
  8
SLD-0
  6
SLD-鎖線
 62
     7
370
    18
100
AcDbCircle
 10
21.9339197708
 20
5.3556808517
 30
0.0
 40
3.543307146579894
100
AcDbArc
 50
122.905688
 51
148.042479
  0
ARC
  5
1A3
330
1B
100
AcDbEntity
 67
     1
  8
SLD-0
  6
SLD-鎖線
 62
     7
370
    18
100
AcDbCircle
 10
21.9339197708
 20
5.3556808517
 30
0.0
 40
3.543307146579892
100
AcDbArc
 50
302.377519
 51
327.217906
  0
CIRCLE
  5
1A4
330
1B
100
AcDbEntity
 67
     1
  8
SLD-0
  6
SLD-実線
 62
     7
370
    18
100
AcDbCircle
 10
24.4394162341
 20
2.8501842094
 30
0.0
 40
0.1968503970322182
  0
CIRCLE
  5
1A5
330
1B
100
AcDbEntity
 67
     1
  8
SLD-0
  6
SLD-実線
 62
     7
370
    18
100
AcDbCircle
 10
19.4284233075
 20
7.861177315
 30
0.0
 40
0.1968503970322146
  0
ARC
  5
1A6
330
1B
100
AcDbEntity
 67
     1
  8
SLD-0
  6
SLD-実線
 62
     7
370
    18
100
AcDbCircle
 10
21.9339197708
 20
5.3556808517
 30
0.0
 40
1.476377977741622
100
AcDbArc
 50
84.301807
 51
104.456615
  0
ARC
  5
1A7
330
1B
100
AcDbEntity
 67
     1
  8
SLD-0
  6
SLD-実線
 62
     7
370
    18
100
AcDbCircle
 10
21.9339197708
 20
5.3556808517
 30
0.0
 40
1.968503970322162
100
AcDbArc
 50
83.610772
 51
114.299132
  0
CIRCLE
  5
1A8
330
1B
100
AcDbEntity
 67
     1
  8
SLD-0
  6
SLD-実線
 62
     7
370
    18
100
AcDbCircle
 10
24.5174985547
 20
4.5162252183
 30
0.0
 40
0.1889763811509297
  0
CIRCLE
  5
1A9
330
1B
100
AcDbEntity
 67
     1
  8
SLD-0
  6
SLD-実線
 62
     7
370
    18
100
AcDbCircle
 10
21.9339197708
 20
2.6391453727
 30
0.0
 40
0.1889763811509262
  0
CIRCLE
  5
1AA
330
1B
100
AcDbEntity
 67
     1
  8
SLD-0
  6
SLD-実線
 62
     7
370
    18
100
AcDbCircle
 10
19.3503409869
 20
4.5162252183
 30
0.0
 40
0.1889763811509262
  0
CIRCLE
  5
1AB
330
1B
100
AcDbEntity
 67
     1
  8
SLD-0
  6
SLD-実線
 62
     7
370
    18
100
AcDbCircle
 10
20.3371803021
 20
7.5534042246
 30
0.0
 40
0.1889763811509262
  0
CIRCLE
  5
1AC
330
1B
100
AcDbEntity
 67
     1
  8
SLD-0
  6
SLD-実線
 62
     7
370
    18
100
AcDbCircle
 10
23.5306592395
 20
7.5534042246
 30
0.0
 40
0.1889763811509297
  0
ARC
  5
1AD
330
1B
100
AcDbEntity
 67
     1
  8
SLD-0
  6
SLD-鎖線
 62
     7
370
    18
100
AcDbCircle
 10
21.9339197708
 20
5.3556808517
 30
0.0
 40
2.716535479044586
100
AcDbArc
 50
115.660454
 51
136.310785
  0
ARC
  5
1AE
330
1B
100
AcDbEntity
 67
     1
  8
SLD-0
  6
SLD-鎖線
 62
     7
370
    18
100
AcDbCircle
 10
21.9339197708
 20
5.3556808517
 30
0.0
 40
2.716535479044587
100
AcDbArc
 50
187.316284
 51
207.370691
  0
ARC
  5
1AF
330
1B
100
AcDbEntity
 67
     1
  8
SLD-0
  6
SLD-鎖線
 62
     7
370
    18
100
AcDbCircle
 10
21.9339197708
 20
5.3556808517
 30
0.0
 40
2.716535479044586
100
AcDbArc
 50
260.168066
 51
278.827267
  0
ARC
  5
1B0
330
1B
100
AcDbEntity
 67
     1
  8
SLD-0
  6
SLD-鎖線
 62
     7
370
    18
100
AcDbCircle
 10
21.9339197708
 20
5.3556808517
 30
0.0
 40
2.716535479044584
100
AcDbArc
 50
332.548233
 51
352.074654
  0
ARC
  5
1B1
330
1B
100
AcDbEntity
 67
     1
  8
SLD-0
  6
SLD-実線
 62
     7
370
    18
100
AcDbCircle
 10
21.9339197708
 20
5.3556808517
 30
0.0
 40
1.476377977741624
100
AcDbArc
 50
155.13534
 51
31.252849
  0
ARC
  5
1B2
330
1B
100
AcDbEntity
 67
     1
  8
SLD-0
  6
SLD-実線
 62
     7
370
    18
100
AcDbCircle
 10
21.9339197708
 20
5.3556808517
 30
0.0
 40
1.968503970322165
100
AcDbArc
 50
153.925155
 51
37.175879
  0
ARC
  5
1B3
330
1B
100
AcDbEntity
 67
     1
  8
SLD-0
  6
SLD-実線
 62
     7
370
    18
100
AcDbCircle
 10
18.075651989
 20
23.9076156682
 30
0.0
 40
0.078740158812888
100
AcDbArc
 50
180.0
 51
270.0
  0
ARC
  5
1B4
330
1B
100
AcDbEntity
 67
     1
  8
SLD-0
  6
SLD-実線
 62
     7
370
    18
100
AcDbCircle
 10
18.075651989
 20
25.7186393209
 30
0.0
 40
0.078740158812888
100
AcDbArc
 50
90.0
 51
180.0
  0
CIRCLE
  5
1B5
330
1B
100
AcDbEntity
 67
     1
  8
SLD-0
  6
SLD-破線
 62
     7
370
    18
100
AcDbCircle
 10
21.9339197708
 20
24.3406865416
 30
0.0
 40
0.1574803176257724
  0
ENDSEC
  0
SECTION
  2
OBJECTS
  0
DICTIONARY
  5
C
330
0
100
AcDbDictionary
281
     1
  3
ACAD_GROUP
350
D
  3
ACAD_LAYOUT
350
1A
  3
ACAD_MLINESTYLE
350
17
  3
ACAD_PLOTSETTINGS
350
19
  3
ACAD_PLOTSTYLENAME
350
E
  3
ACAD_SCALELIST
350
47
  0
DICTIONARY
  5
D
102
{ACAD_REACTORS
330
C
102
}
330
C
100
AcDbDictionary
281
     1
  0
DICTIONARY
  5
1A
102
{ACAD_REACTORS
330
C
102
}
330
C
100
AcDbDictionary
281
     1
  3
Model
350
22
  3
SW_Model_10
350
1E
  0
DICTIONARY
  5
17
102
{ACAD_REACTORS
330
C
102
}
330
C
100
AcDbDictionary
281
     1
  3
Standard
350
18
  0
DICTIONARY
  5
19
102
{ACAD_REACTORS
330
C
102
}
330
C
100
AcDbDictionary
281
     1
  0
ACDBDICTIONARYWDFLT
  5
E
102
{ACAD_REACTORS
330
C
102
}
330
C
100
AcDbDictionary
281
     1
  3
Normal
350
F
100
AcDbDictionaryWithDefault
340
F
  0
DICTIONARY
  5
47
102
{ACAD_REACTORS
330
C
102
}
330
C
100
AcDbDictionary
281
     1
  3
A0
350
48
  3
A1
350
49
  3
A2
350
4A
  3
A3
350
4B
  3
A4
350
4C
  3
A5
350
4D
  3
A6
350
4E
  3
A7
350
4F
  3
A8
350
50
  3
A9
350
51
  3
B0
350
52
  3
B1
350
53
  3
B2
350
54
  3
B3
350
55
  3
B4
350
56
  3
B5
350
57
  3
B6
350
58
  3
B7
350
59
  3
B8
350
5A
  3
B9
350
5B
  3
C0
350
5C
  3
C1
350
5D
  3
C2
350
5E
  3
C3
350
5F
  3
C4
350
60
  3
C5
350
61
  3
C6
350
62
  3
C7
350
63
  3
C8
350
64
  3
C9
350
65
  3
D0
350
66
  3
D1
350
67
  3
D2
350
68
  0
LAYOUT
  5
22
102
{ACAD_REACTORS
330
1A
102
}
330
1A
100
AcDbPlotSettings
  1

  2
none_device
  4
Letter_(8.50_x_11.00_Inches)
  6

 40
6.35
 41
6.35
 42
6.35000508
 43
6.35000508
 44
215.9
 45
279.4
 46
0.0
 47
0.0
 48
0.0
 49
0.0
140
0.0
141
0.0
142
1.0
143
1.0
 70
  1712
 72
     0
 73
     0
 74
     0
  7

 75
     0
147
1.0
148
0.0
149
0.0
100
AcDbLayout
  1
Model
 70
     1
 71
     0
 10
0.0
 20
0.0
 11
44.0
 21
34.0
 12
0.0
 22
0.0
 32
0.0
 14
0.0
 24
0.0
 34
0.0
 15
44.0
 25
34.0
 35
0.0
146
0.0
 13
0.0
 23
0.0
 33
0.0
 16
1.0
 26
0.0
 36
0.0
 17
0.0
 27
1.0
 37
0.0
 76
     0
330
1F
331
29
  0
LAYOUT
  5
1E
102
{ACAD_REACTORS
330
1A
102
}
330
1A
100
AcDbPlotSettings
  1

  2
none_device
  4
ANSI_E_(44.00_x_34.00_Inches)
  6

 40
6.35
 41
19.05
 42
6.3499746
 43
19.0499873
 44
1117.6
 45
863.6
 46
0.0
 47
0.0
 48
0.0
 49
0.0
140
0.0
141
0.0
142
1.0
143
1.0
 70
  4832
 72
     0
 73
     0
 74
     1
  7

 75
     0
147
1.0
148
0.0
149
0.0
100
AcDbLayout
  1
SW_Model_10
 70
     1
 71
     1
 10
0.0
 20
0.0
 11
44.0
 21
34.0
 12
0.0
 22
0.0
 32
0.0
 14
0.0
 24
0.0
 34
0.0
 15
44.0
 25
34.0
 35
0.0
146
0.0
 13
0.0
 23
0.0
 33
0.0
 16
1.0
 26
0.0
 36
0.0
 17
0.0
 27
1.0
 37
0.0
 76
     0
330
1B
331
78
  0
MLINESTYLE
  5
18
102
{ACAD_REACTORS
330
17
102
}
330
17
100
AcDbMlineStyle
  2
Standard
 70
     0
  3

 62
   256
 51
90.0
 52
90.0
 71
     2
 49
0.5
 62
   256
  6
BYLAYER
 49
-0.5
 62
   256
  6
BYLAYER
  0
ACDBPLACEHOLDER
  5
F
102
{ACAD_REACTORS
330
E
102
}
330
E
  0
SCALE
  5
48
102
{ACAD_REACTORS
330
47
102
}
330
47
100
AcDbScale
 70
     0
300
1:1
140
1.0
141
1.0
290
     1
  0
SCALE
  5
49
102
{ACAD_REACTORS
330
47
102
}
330
47
100
AcDbScale
 70
     0
300
1:2
140
1.0
141
2.0
290
     0
  0
SCALE
  5
4A
102
{ACAD_REACTORS
330
47
102
}
330
47
100
AcDbScale
 70
     0
300
1:4
140
1.0
141
4.0
290
     0
  0
SCALE
  5
4B
102
{ACAD_REACTORS
330
47
102
}
330
47
100
AcDbScale
 70
     0
300
1:5
140
1.0
141
5.0
290
     0
  0
SCALE
  5
4C
102
{ACAD_REACTORS
330
47
102
}
330
47
100
AcDbScale
 70
     0
300
1:8
140
1.0
141
8.0
290
     0
  0
SCALE
  5
4D
102
{ACAD_REACTORS
330
47
102
}
330
47
100
AcDbScale
 70
     0
300
1:10
140
1.0
141
10.0
290
     0
  0
SCALE
  5
4E
102
{ACAD_REACTORS
330
47
102
}
330
47
100
AcDbScale
 70
     0
300
1:16
140
1.0
141
16.0
290
     0
  0
SCALE
  5
4F
102
{ACAD_REACTORS
330
47
102
}
330
47
100
AcDbScale
 70
     0
300
1:20
140
1.0
141
20.0
290
     0
  0
SCALE
  5
50
102
{ACAD_REACTORS
330
47
102
}
330
47
100
AcDbScale
 70
     0
300
1:30
140
1.0
141
30.0
290
     0
  0
SCALE
  5
51
102
{ACAD_REACTORS
330
47
102
}
330
47
100
AcDbScale
 70
     0
300
1:40
140
1.0
141
40.0
290
     0
  0
SCALE
  5
52
102
{ACAD_REACTORS
330
47
102
}
330
47
100
AcDbScale
 70
     0
300
1:50
140
1.0
141
50.0
290
     0
  0
SCALE
  5
53
102
{ACAD_REACTORS
330
47
102
}
330
47
100
AcDbScale
 70
     0
300
1:100
140
1.0
141
100.0
290
     0
  0
SCALE
  5
54
102
{ACAD_REACTORS
330
47
102
}
330
47
100
AcDbScale
 70
     0
300
2:1
140
2.0
141
1.0
290
     0
  0
SCALE
  5
55
102
{ACAD_REACTORS
330
47
102
}
330
47
100
AcDbScale
 70
     0
300
4:1
140
4.0
141
1.0
290
     0
  0
SCALE
  5
56
102
{ACAD_REACTORS
330
47
102
}
330
47
100
AcDbScale
 70
     0
300
8:1
140
8.0
141
1.0
290
     0
  0
SCALE
  5
57
102
{ACAD_REACTORS
330
47
102
}
330
47
100
AcDbScale
 70
     0
300
10:1
140
10.0
141
1.0
290
     0
  0
SCALE
  5
58
102
{ACAD_REACTORS
330
47
102
}
330
47
100
AcDbScale
 70
     0
300
100:1
140
100.0
141
1.0
290
     0
  0
SCALE
  5
59
102
{ACAD_REACTORS
330
47
102
}
330
47
100
AcDbScale
 70
     0
300
1/128" = 1'-0"
140
0.0078125
141
12.0
290
     0
  0
SCALE
  5
5A
102
{ACAD_REACTORS
330
47
102
}
330
47
100
AcDbScale
 70
     0
300
1/64" = 1'-0"
140
0.015625
141
12.0
290
     0
  0
SCALE
  5
5B
102
{ACAD_REACTORS
330
47
102
}
330
47
100
AcDbScale
 70
     0
300
1/32" = 1'-0"
140
0.03125
141
12.0
290
     0
  0
SCALE
  5
5C
102
{ACAD_REACTORS
330
47
102
}
330
47
100
AcDbScale
 70
     0
300
1/16" = 1'-0"
140
0.0625
141
12.0
290
     0
  0
SCALE
  5
5D
102
{ACAD_REACTORS
330
47
102
}
330
47
100
AcDbScale
 70
     0
300
3/32" = 1'-0"
140
0.09375
141
12.0
290
     0
  0
SCALE
  5
5E
102
{ACAD_REACTORS
330
47
102
}
330
47
100
AcDbScale
 70
     0
300
1/8" = 1'-0"
140
0.125
141
12.0
290
     0
  0
SCALE
  5
5F
102
{ACAD_REACTORS
330
47
102
}
330
47
100
AcDbScale
 70
     0
300
3/16" = 1'-0"
140
0.1875
141
12.0
290
     0
  0
SCALE
  5
60
102
{ACAD_REACTORS
330
47
102
}
330
47
100
AcDbScale
 70
     0
300
1/4" = 1'-0"
140
0.25
141
12.0
290
     0
  0
SCALE
  5
61
102
{ACAD_REACTORS
330
47
102
}
330
47
100
AcDbScale
 70
     0
300
3/8" = 1'-0"
140
0.375
141
12.0
290
     0
  0
SCALE
  5
62
102
{ACAD_REACTORS
330
47
102
}
330
47
100
AcDbScale
 70
     0
300
1/2" = 1'-0"
140
0.5
141
12.0
290
     0
  0
SCALE
  5
63
102
{ACAD_REACTORS
330
47
102
}
330
47
100
AcDbScale
 70
     0
300
3/4" = 1'-0"
140
0.75
141
12.0
290
     0
  0
SCALE
  5
64
102
{ACAD_REACTORS
330
47
102
}
330
47
100
AcDbScale
 70
     0
300
1" = 1'-0"
140
1.0
141
12.0
290
     0
  0
SCALE
  5
65
102
{ACAD_REACTORS
330
47
102
}
330
47
100
AcDbScale
 70
     0
300
1-1/2" = 1'-0"
140
1.5
141
12.0
290
     0
  0
SCALE
  5
66
102
{ACAD_REACTORS
330
47
102
}
330
47
100
AcDbScale
 70
     0
300
3" = 1'-0"
140
3.0
141
12.0
290
     0
  0
SCALE
  5
67
102
{ACAD_REACTORS
330
47
102
}
330
47
100
AcDbScale
 70
     0
300
6" = 1'-0"
140
6.0
141
12.0
290
     0
  0
SCALE
  5
68
102
{ACAD_REACTORS
330
47
102
}
330
47
100
AcDbScale
 70
     0
300
1'-0" = 1'-0"
140
12.0
141
12.0
290
     0
  0
ENDSEC
  0
EOF
