  0
SECTION
  2
HEADER
  9
$ACADVER
  1
AC1015
  9
$ACADMAINTVER
 70
     6
  9
$DWGCODEPAGE
  3
DOS932
  9
$INSBASE
 10
0.0
 20
0.0
 30
0.0
  9
$EXTMIN
 10
0.0
 20
0.0
 30
0.0
  9
$EXTMAX
 10
210.0
 20
297.0
 30
0.0
  9
$LIMMIN
 10
0.0
 20
0.0
  9
$LIMMAX
 10
210.0
 20
297.0
  9
$ORTHOMODE
 70
     0
  9
$REGENMODE
 70
     1
  9
$FILLMODE
 70
     1
  9
$QTEXTMODE
 70
     0
  9
$MIRRTEXT
 70
     1
  9
$LTSCALE
 40
1.0
  9
$ATTMODE
 70
     1
  9
$TEXTSIZE
 40
3.5
  9
$TRACEWID
 40
1.0
  9
$TEXTSTYLE
  7
Standard
  9
$CLAYER
  8
0
  9
$CELTYPE
  6
ByLayer
  9
$CECOLOR
 62
   256
  9
$CELTSCALE
 40
1.0
  9
$DISPSILH
 70
     0
  9
$DIMSCALE
 40
1.0
  9
$DIMASZ
 40
4.0
  9
$DIMEXO
 40
1.0
  9
$DIMDLI
 40
3.75
  9
$DIMRND
 40
0.0
  9
$DIMDLE
 40
0.0
  9
$DIMEXE
 40
1.0
  9
$DIMTP
 40
0.0
  9
$DIMTM
 40
0.0
  9
$DIMTXT
 40
3.5
  9
$DIMCEN
 40
2.5
  9
$DIMTSZ
 40
0.0
  9
$DIMTOL
 70
     0
  9
$DIMLIM
 70
     0
  9
$DIMTIH
 70
     1
  9
$DIMTOH
 70
     1
  9
$DIMSE1
 70
     0
  9
$DIMSE2
 70
     0
  9
$DIMTAD
 70
     1
  9
$DIMZIN
 70
     0
  9
$DIMBLK
  1

  9
$DIMASO
 70
     1
  9
$DIMSHO
 70
     1
  9
$DIMPOST
  1

  9
$DIMAPOST
  1

  9
$DIMALT
 70
     0
  9
$DIMALTD
 70
     3
  9
$DIMALTF
 40
0.0393700787
  9
$DIMLFAC
 40
10.0
  9
$DIMTOFL
 70
     1
  9
$DIMTVP
 40
0.0
  9
$DIMTIX
 70
     0
  9
$DIMSOXD
 70
     0
  9
$DIMSAH
 70
     0
  9
$DIMBLK1
  1

  9
$DIMBLK2
  1

  9
$DIMSTYLE
  2
ISO-25
  9
$DIMCLRD
 70
     0
  9
$DIMCLRE
 70
     0
  9
$DIMCLRT
 70
     0
  9
$DIMTFAC
 40
1.0
  9
$DIMGAP
 40
1.524
  9
$DIMJUST
 70
     0
  9
$DIMSD1
 70
     0
  9
$DIMSD2
 70
     0
  9
$DIMTOLJ
 70
     0
  9
$DIMTZIN
 70
     0
  9
$DIMALTZ
 70
     0
  9
$DIMALTTZ
 70
     0
  9
$DIMUPT
 70
     0
  9
$DIMDEC
 70
     2
  9
$DIMTDEC
 70
     2
  9
$DIMALTU
 70
     2
  9
$DIMALTTD
 70
     3
  9
$DIMTXSTY
  7
Standard
  9
$DIMAUNIT
 70
     0
  9
$DIMADEC
 70
     2
  9
$DIMALTRND
 40
0.0
  9
$DIMAZIN
 70
     0
  9
$DIMDSEP
 70
    44
  9
$DIMATFIT
 70
     3
  9
$DIMFRAC
 70
     0
  9
$DIMLDRBLK
  1

  9
$DIMLUNIT
 70
     2
  9
$DIMLWD
 70
    -2
  9
$DIMLWE
 70
    -2
  9
$DIMTMOVE
 70
     0
  9
$LUNITS
 70
     2
  9
$LUPREC
 70
     2
  9
$SKETCHINC
 40
1.0
  9
$FILLETRAD
 40
10.0
  9
$AUNITS
 70
     0
  9
$AUPREC
 70
     2
  9
$MENU
  1
.
  9
$ELEVATION
 40
0.0
  9
$PELEVATION
 40
0.0
  9
$THICKNESS
 40
0.0
  9
$LIMCHECK
 70
     0
  9
$CHAMFERA
 40
0.0
  9
$CHAMFERB
 40
0.0
  9
$CHAMFERC
 40
0.0
  9
$CHAMFERD
 40
0.0
  9
$SKPOLY
 70
     0
  9
$TDCREATE
 40
2460126.394757812
  9
$TDUCREATE
 40
2460126.019757812
  9
$TDUPDATE
 40
2460126.394758507
  9
$TDUUPDATE
 40
2460126.019758507
  9
$TDINDWG
 40
0.0000000116
  9
$TDUSRTIMER
 40
0.0000000116
  9
$USRTIMER
 70
     1
  9
$ANGBASE
 50
0.0
  9
$ANGDIR
 70
     0
  9
$PDMODE
 70
     0
  9
$PDSIZE
 40
-1.0
  9
$PLINEWID
 40
0.0
  9
$SPLFRAME
 70
     0
  9
$SPLINETYPE
 70
     6
  9
$SPLINESEGS
 70
     8
  9
$HANDSEED
  5
442
  9
$SURFTAB1
 70
     6
  9
$SURFTAB2
 70
     6
  9
$SURFTYPE
 70
     6
  9
$SURFU
 70
     6
  9
$SURFV
 70
     6
  9
$UCSBASE
  2

  9
$UCSNAME
  2

  9
$UCSORG
 10
0.0
 20
0.0
 30
0.0
  9
$UCSXDIR
 10
1.0
 20
0.0
 30
0.0
  9
$UCSYDIR
 10
0.0
 20
1.0
 30
0.0
  9
$UCSORTHOREF
  2

  9
$UCSORTHOVIEW
 70
     0
  9
$UCSORGTOP
 10
0.0
 20
0.0
 30
0.0
  9
$UCSORGBOTTOM
 10
0.0
 20
0.0
 30
0.0
  9
$UCSORGLEFT
 10
0.0
 20
0.0
 30
0.0
  9
$UCSORGRIGHT
 10
0.0
 20
0.0
 30
0.0
  9
$UCSORGFRONT
 10
0.0
 20
0.0
 30
0.0
  9
$UCSORGBACK
 10
0.0
 20
0.0
 30
0.0
  9
$PUCSBASE
  2

  9
$PUCSNAME
  2

  9
$PUCSORG
 10
0.0
 20
0.0
 30
0.0
  9
$PUCSXDIR
 10
1.0
 20
0.0
 30
0.0
  9
$PUCSYDIR
 10
0.0
 20
1.0
 30
0.0
  9
$PUCSORTHOREF
  2

  9
$PUCSORTHOVIEW
 70
     0
  9
$PUCSORGTOP
 10
0.0
 20
0.0
 30
0.0
  9
$PUCSORGBOTTOM
 10
0.0
 20
0.0
 30
0.0
  9
$PUCSORGLEFT
 10
0.0
 20
0.0
 30
0.0
  9
$PUCSORGRIGHT
 10
0.0
 20
0.0
 30
0.0
  9
$PUCSORGFRONT
 10
0.0
 20
0.0
 30
0.0
  9
$PUCSORGBACK
 10
0.0
 20
0.0
 30
0.0
  9
$USERI1
 70
     0
  9
$USERI2
 70
     0
  9
$USERI3
 70
     0
  9
$USERI4
 70
     0
  9
$USERI5
 70
     0
  9
$USERR1
 40
0.0
  9
$USERR2
 40
0.0
  9
$USERR3
 40
0.0
  9
$USERR4
 40
0.0
  9
$USERR5
 40
0.0
  9
$WORLDVIEW
 70
     1
  9
$SHADEDGE
 70
     3
  9
$SHADEDIF
 70
    70
  9
$TILEMODE
 70
     1
  9
$MAXACTVP
 70
    64
  9
$PINSBASE
 10
0.0
 20
0.0
 30
0.0
  9
$PLIMCHECK
 70
     0
  9
$PEXTMIN
 10
1.0000000000E+20
 20
1.0000000000E+20
 30
1.0000000000E+20
  9
$PEXTMAX
 10
-1.0000000000E+20
 20
-1.0000000000E+20
 30
-1.0000000000E+20
  9
$PLIMMIN
 10
0.0
 20
0.0
  9
$PLIMMAX
 10
420.0
 20
297.0
  9
$UNITMODE
 70
     0
  9
$VISRETAIN
 70
     1
  9
$PLINEGEN
 70
     0
  9
$PSLTSCALE
 70
     1
  9
$TREEDEPTH
 70
  3020
  9
$CMLSTYLE
  2
Standard
  9
$CMLJUST
 70
     0
  9
$CMLSCALE
 40
20.0
  9
$PROXYGRAPHICS
 70
     1
  9
$MEASUREMENT
 70
     1
  9
$CELWEIGHT
370
    -1
  9
$ENDCAPS
280
     0
  9
$JOINSTYLE
280
     0
  9
$LWDISPLAY
290
     1
  9
$INSUNITS
 70
     4
  9
$HYPERLINKBASE
  1

  9
$STYLESHEET
  1

  9
$XEDIT
290
     1
  9
$CEPSNTYPE
380
     0
  9
$PSTYLEMODE
290
     1
  9
$FINGERPRINTGUID
  2
{88b4748c-5178-4e2b-8e32-d6a98dd80854}
  9
$VERSIONGUID
  2
{FAEB1C32-E019-11D5-929B-00C0DF256EC4}
  9
$EXTNAMES
290
     1
  9
$PSVPSCALE
 40
0.0
  9
$OLESTARTUP
290
     0
  0
ENDSEC
  0
SECTION
  2
CLASSES
  0
CLASS
  1
ACDBDICTIONARYWDFLT
  2
AcDbDictionaryWithDefault
  3
ObjectDBX Classes
 90
        0
280
     0
281
     0
  0
CLASS
  1
VISUALSTYLE
  2
AcDbVisualStyle
  3
ObjectDBX Classes
 90
     4095
280
     0
281
     0
  0
CLASS
  1
MATERIAL
  2
AcDbMaterial
  3
ObjectDBX Classes
 90
     1153
280
     0
281
     0
  0
CLASS
  1
SCALE
  2
AcDbScale
  3
ObjectDBX Classes
 90
     1153
280
     0
281
     0
  0
CLASS
  1
TABLESTYLE
  2
AcDbTableStyle
  3
ObjectDBX Classes
 90
     4095
280
     0
281
     0
  0
CLASS
  1
MLEADERSTYLE
  2
AcDbMLeaderStyle
  3
ACDB_MLEADERSTYLE_CLASS
 90
     4095
280
     0
281
     0
  0
CLASS
  1
SUN
  2
AcDbSun
  3
SCENEOE
 90
     1153
280
     0
281
     0
  0
CLASS
  1
ACDBPLACEHOLDER
  2
AcDbPlaceHolder
  3
ObjectDBX Classes
 90
        0
280
     0
281
     0
  0
CLASS
  1
LAYOUT
  2
AcDbLayout
  3
ObjectDBX Classes
 90
        0
280
     0
281
     0
  0
ENDSEC
  0
SECTION
  2
TABLES
  0
TABLE
  2
VPORT
  5
8
330
0
100
AcDbSymbolTable
 70
     1
  0
VPORT
  5
29
330
8
100
AcDbSymbolTableRecord
100
AcDbViewportTableRecord
  2
*Active
 70
     0
 10
0.0
 20
0.0
 11
1.0
 21
1.0
 12
105.0
 22
148.5
 13
0.0
 23
0.0
 14
10.0
 24
10.0
 15
10.0
 25
10.0
 16
0.0
 26
0.0
 36
1.0
 17
0.0
 27
0.0
 37
0.0
 40
297.0
 41
0.7070707071
 42
50.0
 43
0.0
 44
0.0
 50
0.0
 51
0.0
 71
     0
 72
  2000
 73
     1
 74
     3
 75
     0
 76
     0
 77
     0
 78
     0
281
     0
 65
     1
110
0.0
120
0.0
130
0.0
111
1.0
121
0.0
131
0.0
112
0.0
122
1.0
132
0.0
 79
     0
146
0.0
  0
ENDTAB
  0
TABLE
  2
LTYPE
  5
5
330
0
100
AcDbSymbolTable
 70
     6
  0
LTYPE
  5
14
330
5
100
AcDbSymbolTableRecord
100
AcDbLinetypeTableRecord
  2
ByBlock
 70
     0
  3

 72
    65
 73
     0
 40
0.0
  0
LTYPE
  5
15
330
5
100
AcDbSymbolTableRecord
100
AcDbLinetypeTableRecord
  2
ByLayer
 70
     0
  3

 72
    65
 73
     0
 40
0.0
  0
LTYPE
  5
16
330
5
100
AcDbSymbolTableRecord
100
AcDbLinetypeTableRecord
  2
Continuous
 70
     0
  3
Solid line
 72
    65
 73
     0
 40
0.0
  0
LTYPE
  5
6E
330
5
100
AcDbSymbolTableRecord
100
AcDbLinetypeTableRecord
  2
HIDDEN
 70
     0
  3
Hidden __ __ __ __ __ __ __ __ __ __ __ __ __ __
 72
    65
 73
     2
 40
1.905
 49
1.27
 74
     0
 49
-0.635
 74
     0
  0
LTYPE
  5
6F
330
5
100
AcDbSymbolTableRecord
100
AcDbLinetypeTableRecord
  2
PHANTOM
 70
     0
  3
Phantom ______  __  __  ______  __  __  ______
 72
    65
 73
     6
 40
12.7
 49
6.35
 74
     0
 49
-1.27
 74
     0
 49
1.27
 74
     0
 49
-1.27
 74
     0
 49
1.27
 74
     0
 49
-1.27
 74
     0
  0
LTYPE
  5
70
330
5
100
AcDbSymbolTableRecord
100
AcDbLinetypeTableRecord
  2
CENTER
 70
     0
  3
Center ____ _ ____ _ ____ _ ____ _ ____ _ ____
 72
    65
 73
     4
 40
10.16
 49
6.35
 74
     0
 49
-1.27
 74
     0
 49
1.27
 74
     0
 49
-1.27
 74
     0
  0
LTYPE
  5
71
330
5
100
AcDbSymbolTableRecord
100
AcDbLinetypeTableRecord
  2
CENTERX2
 70
     0
  3
Center (2x) ________  __  ________  __  _____
 72
    65
 73
     4
 40
20.32
 49
12.7
 74
     0
 49
-2.54
 74
     0
 49
2.54
 74
     0
 49
-2.54
 74
     0
  0
LTYPE
  5
72
330
5
100
AcDbSymbolTableRecord
100
AcDbLinetypeTableRecord
  2
DOT2
 70
     0
  3
Dot (.5x) ........................................
 72
    65
 73
     2
 40
0.635
 49
0.0
 74
     0
 49
-0.635
 74
     0
  0
ENDTAB
  0
TABLE
  2
LAYER
  5
2
330
0
100
AcDbSymbolTable
 70
   260
  0
LAYER
  5
10
330
2
100
AcDbSymbolTableRecord
100
AcDbLayerTableRecord
  2
0
 70
     0
 62
     7
  6
Continuous
370
    -3
390
F
  0
LAYER
  5
73
330
2
100
AcDbSymbolTableRecord
100
AcDbLayerTableRecord
  2
SLD-0
 70
     0
 62
   179
  6
Continuous
370
    -3
390
F
  0
LAYER
  5
74
330
2
100
AcDbSymbolTableRecord
100
AcDbLayerTableRecord
  2
図面枠
 70
     0
 62
   255
  6
Continuous
370
    -3
390
F
  0
LAYER
  5
75
330
2
100
AcDbSymbolTableRecord
100
AcDbLayerTableRecord
  2
ベ_ス
 70
     0
 62
   254
  6
Continuous
370
    -3
390
F
  0
LAYER
  5
76
330
2
100
AcDbSymbolTableRecord
100
AcDbLayerTableRecord
  2
ケ_シングCV
 70
     0
 62
   250
  6
Continuous
370
    -3
390
F
  0
LAYER
  5
77
330
2
100
AcDbSymbolTableRecord
100
AcDbLayerTableRecord
  2
固定金具A
 70
     0
 62
     6
  6
Continuous
370
    -3
390
F
  0
LAYER
  5
78
330
2
100
AcDbSymbolTableRecord
100
AcDbLayerTableRecord
  2
固定金具B
 70
     0
 62
     6
  6
Continuous
370
    -3
390
F
  0
LAYER
  5
79
330
2
100
AcDbSymbolTableRecord
100
AcDbLayerTableRecord
  2
水栓
 70
     0
 62
    32
  6
Continuous
370
    -3
390
F
  0
LAYER
  5
7A
330
2
100
AcDbSymbolTableRecord
100
AcDbLayerTableRecord
  2
制御箱
 70
     0
 62
   140
  6
Continuous
370
    -3
390
F
  0
LAYER
  5
7B
330
2
100
AcDbSymbolTableRecord
100
AcDbLayerTableRecord
  2
P板完成A
 70
     0
 62
     4
  6
Continuous
370
    -3
390
F
  0
LAYER
  5
7C
330
2
100
AcDbSymbolTableRecord
100
AcDbLayerTableRecord
  2
P板完成B
 70
     0
 62
     3
  6
Continuous
370
    -3
390
F
  0
LAYER
  5
7D
330
2
100
AcDbSymbolTableRecord
100
AcDbLayerTableRecord
  2
制御箱蓋
 70
     0
 62
    23
  6
Continuous
370
    -3
390
F
  0
LAYER
  5
7E
330
2
100
AcDbSymbolTableRecord
100
AcDbLayerTableRecord
  2
フランジ
 70
     0
 62
    28
  6
Continuous
370
    -3
390
F
  0
LAYER
  5
7F
330
2
100
AcDbSymbolTableRecord
100
AcDbLayerTableRecord
  2
パッキン
 70
     0
 62
   110
  6
Continuous
370
    -3
390
F
  0
LAYER
  5
80
330
2
100
AcDbSymbolTableRecord
100
AcDbLayerTableRecord
  2
逆止弁弁体
 70
     0
 62
    21
  6
Continuous
370
    -3
390
F
  0
LAYER
  5
81
330
2
100
AcDbSymbolTableRecord
100
AcDbLayerTableRecord
  2
逆止弁弁座
 70
     0
 62
   168
  6
Continuous
370
    -3
390
F
  0
LAYER
  5
82
330
2
100
AcDbSymbolTableRecord
100
AcDbLayerTableRecord
  2
アキュムレ_タ
 70
     0
 62
    22
  6
Continuous
370
    -3
390
F
  0
LAYER
  5
83
330
2
100
AcDbSymbolTableRecord
100
AcDbLayerTableRecord
  2
固定金具C
 70
     0
 62
     6
  6
Continuous
370
    -3
390
F
  0
LAYER
  5
84
330
2
100
AcDbSymbolTableRecord
100
AcDbLayerTableRecord
  2
ボルト_ナット_ネジ
 70
     0
 62
     1
  6
Continuous
370
    -3
390
F
  0
LAYER
  5
85
330
2
100
AcDbSymbolTableRecord
100
AcDbLayerTableRecord
  2
Oリング
 70
     0
 62
   110
  6
Continuous
370
    -3
390
F
  0
LAYER
  5
86
330
2
100
AcDbSymbolTableRecord
100
AcDbLayerTableRecord
  2
ポンプカバ_
 70
     0
 62
   215
  6
Continuous
370
    -3
390
F
  0
LAYER
  5
87
330
2
100
AcDbSymbolTableRecord
100
AcDbLayerTableRecord
  2
補強板
 70
     0
 62
     6
  6
Continuous
370
    -3
390
F
  0
LAYER
  5
88
330
2
100
AcDbSymbolTableRecord
100
AcDbLayerTableRecord
  2
防振ゴム
 70
     0
 62
   252
  6
Continuous
370
    -3
390
F
  0
LAYER
  5
89
330
2
100
AcDbSymbolTableRecord
100
AcDbLayerTableRecord
  2
キャップA
 70
     0
 62
   255
  6
Continuous
370
    -3
390
F
  0
LAYER
  5
8A
330
2
100
AcDbSymbolTableRecord
100
AcDbLayerTableRecord
  2
ア_スリ_ド線
 70
     0
 62
    40
  6
Continuous
370
    -3
390
F
  0
LAYER
  5
8B
330
2
100
AcDbSymbolTableRecord
100
AcDbLayerTableRecord
  2
表の文字
 70
     0
 62
   255
  6
Continuous
370
    -3
390
F
  0
LAYER
  5
8C
330
2
100
AcDbSymbolTableRecord
100
AcDbLayerTableRecord
  2
ボ_ドスペ_サ
 70
     0
 62
   219
  6
Continuous
370
    -3
390
F
  0
LAYER
  5
8D
330
2
100
AcDbSymbolTableRecord
100
AcDbLayerTableRecord
  2
LAYER060
 70
     0
 62
    31
  6
Continuous
370
    -3
390
F
  0
LAYER
  5
8E
330
2
100
AcDbSymbolTableRecord
100
AcDbLayerTableRecord
  2
LAYER061
 70
     0
 62
    71
  6
Continuous
370
    -3
390
F
  0
LAYER
  5
8F
330
2
100
AcDbSymbolTableRecord
100
AcDbLayerTableRecord
  2
LAYER062
 70
     0
 62
    71
  6
Continuous
370
    -3
390
F
  0
LAYER
  5
90
330
2
100
AcDbSymbolTableRecord
100
AcDbLayerTableRecord
  2
LAYER063
 70
     0
 62
    71
  6
Continuous
370
    -3
390
F
  0
LAYER
  5
91
330
2
100
AcDbSymbolTableRecord
100
AcDbLayerTableRecord
  2
LAYER064
 70
     0
 62
    71
  6
Continuous
370
    -3
390
F
  0
LAYER
  5
92
330
2
100
AcDbSymbolTableRecord
100
AcDbLayerTableRecord
  2
LAYER065
 70
     0
 62
    71
  6
Continuous
370
    -3
390
F
  0
LAYER
  5
93
330
2
100
AcDbSymbolTableRecord
100
AcDbLayerTableRecord
  2
LAYER066
 70
     0
 62
    71
  6
Continuous
370
    -3
390
F
  0
LAYER
  5
94
330
2
100
AcDbSymbolTableRecord
100
AcDbLayerTableRecord
  2
LAYER067
 70
     0
 62
    71
  6
Continuous
370
    -3
390
F
  0
LAYER
  5
95
330
2
100
AcDbSymbolTableRecord
100
AcDbLayerTableRecord
  2
LAYER068
 70
     0
 62
    71
  6
Continuous
370
    -3
390
F
  0
LAYER
  5
96
330
2
100
AcDbSymbolTableRecord
100
AcDbLayerTableRecord
  2
LAYER069
 70
     0
 62
    71
  6
Continuous
370
    -3
390
F
  0
LAYER
  5
97
330
2
100
AcDbSymbolTableRecord
100
AcDbLayerTableRecord
  2
LAYER070
 70
     0
 62
    71
  6
Continuous
370
    -3
390
F
  0
LAYER
  5
98
330
2
100
AcDbSymbolTableRecord
100
AcDbLayerTableRecord
  2
LAYER071
 70
     0
 62
   241
  6
Continuous
370
    -3
390
F
  0
LAYER
  5
99
330
2
100
AcDbSymbolTableRecord
100
AcDbLayerTableRecord
  2
LAYER072
 70
     0
 62
   241
  6
Continuous
370
    -3
390
F
  0
LAYER
  5
9A
330
2
100
AcDbSymbolTableRecord
100
AcDbLayerTableRecord
  2
LAYER073
 70
     0
 62
   241
  6
Continuous
370
    -3
390
F
  0
LAYER
  5
9B
330
2
100
AcDbSymbolTableRecord
100
AcDbLayerTableRecord
  2
LAYER074
 70
     0
 62
   241
  6
Continuous
370
    -3
390
F
  0
LAYER
  5
9C
330
2
100
AcDbSymbolTableRecord
100
AcDbLayerTableRecord
  2
LAYER075
 70
     0
 62
   241
  6
Continuous
370
    -3
390
F
  0
LAYER
  5
9D
330
2
100
AcDbSymbolTableRecord
100
AcDbLayerTableRecord
  2
LAYER076
 70
     0
 62
   241
  6
Continuous
370
    -3
390
F
  0
LAYER
  5
9E
330
2
100
AcDbSymbolTableRecord
100
AcDbLayerTableRecord
  2
LAYER077
 70
     0
 62
   241
  6
Continuous
370
    -3
390
F
  0
LAYER
  5
9F
330
2
100
AcDbSymbolTableRecord
100
AcDbLayerTableRecord
  2
LAYER078
 70
     0
 62
   241
  6
Continuous
370
    -3
390
F
  0
LAYER
  5
A0
330
2
100
AcDbSymbolTableRecord
100
AcDbLayerTableRecord
  2
LAYER079
 70
     0
 62
   241
  6
Continuous
370
    -3
390
F
  0
LAYER
  5
A1
330
2
100
AcDbSymbolTableRecord
100
AcDbLayerTableRecord
  2
LAYER080
 70
     0
 62
   241
  6
Continuous
370
    -3
390
F
  0
LAYER
  5
A2
330
2
100
AcDbSymbolTableRecord
100
AcDbLayerTableRecord
  2
LAYER081
 70
     0
 62
   191
  6
Continuous
370
    -3
390
F
  0
LAYER
  5
A3
330
2
100
AcDbSymbolTableRecord
100
AcDbLayerTableRecord
  2
LAYER082
 70
     0
 62
   191
  6
Continuous
370
    -3
390
F
  0
LAYER
  5
A4
330
2
100
AcDbSymbolTableRecord
100
AcDbLayerTableRecord
  2
LAYER083
 70
     0
 62
   191
  6
Continuous
370
    -3
390
F
  0
LAYER
  5
A5
330
2
100
AcDbSymbolTableRecord
100
AcDbLayerTableRecord
  2
LAYER084
 70
     0
 62
   191
  6
Continuous
370
    -3
390
F
  0
LAYER
  5
A6
330
2
100
AcDbSymbolTableRecord
100
AcDbLayerTableRecord
  2
LAYER085
 70
     0
 62
   191
  6
Continuous
370
    -3
390
F
  0
LAYER
  5
A7
330
2
100
AcDbSymbolTableRecord
100
AcDbLayerTableRecord
  2
LAYER086
 70
     0
 62
   191
  6
Continuous
370
    -3
390
F
  0
LAYER
  5
A8
330
2
100
AcDbSymbolTableRecord
100
AcDbLayerTableRecord
  2
LAYER087
 70
     0
 62
   191
  6
Continuous
370
    -3
390
F
  0
LAYER
  5
A9
330
2
100
AcDbSymbolTableRecord
100
AcDbLayerTableRecord
  2
LAYER088
 70
     0
 62
   191
  6
Continuous
370
    -3
390
F
  0
LAYER
  5
AA
330
2
100
AcDbSymbolTableRecord
100
AcDbLayerTableRecord
  2
LAYER089
 70
     0
 62
   191
  6
Continuous
370
    -3
390
F
  0
LAYER
  5
AB
330
2
100
AcDbSymbolTableRecord
100
AcDbLayerTableRecord
  2
LAYER090
 70
     0
 62
   191
  6
Continuous
370
    -3
390
F
  0
LAYER
  5
AC
330
2
100
AcDbSymbolTableRecord
100
AcDbLayerTableRecord
  2
LAYER091
 70
     0
 62
   215
  6
Continuous
370
    -3
390
F
  0
LAYER
  5
AD
330
2
100
AcDbSymbolTableRecord
100
AcDbLayerTableRecord
  2
LAYER092
 70
     0
 62
   215
  6
Continuous
370
    -3
390
F
  0
LAYER
  5
AE
330
2
100
AcDbSymbolTableRecord
100
AcDbLayerTableRecord
  2
LAYER093
 70
     0
 62
   215
  6
Continuous
370
    -3
390
F
  0
LAYER
  5
AF
330
2
100
AcDbSymbolTableRecord
100
AcDbLayerTableRecord
  2
LAYER094
 70
     0
 62
   215
  6
Continuous
370
    -3
390
F
  0
LAYER
  5
B0
330
2
100
AcDbSymbolTableRecord
100
AcDbLayerTableRecord
  2
LAYER095
 70
     0
 62
   215
  6
Continuous
370
    -3
390
F
  0
LAYER
  5
B1
330
2
100
AcDbSymbolTableRecord
100
AcDbLayerTableRecord
  2
LAYER096
 70
     0
 62
   215
  6
Continuous
370
    -3
390
F
  0
LAYER
  5
B2
330
2
100
AcDbSymbolTableRecord
100
AcDbLayerTableRecord
  2
LAYER097
 70
     0
 62
   215
  6
Continuous
370
    -3
390
F
  0
LAYER
  5
B3
330
2
100
AcDbSymbolTableRecord
100
AcDbLayerTableRecord
  2
LAYER098
 70
     0
 62
   215
  6
Continuous
370
    -3
390
F
  0
LAYER
  5
B4
330
2
100
AcDbSymbolTableRecord
100
AcDbLayerTableRecord
  2
LAYER099
 70
     0
 62
   215
  6
Continuous
370
    -3
390
F
  0
LAYER
  5
B5
330
2
100
AcDbSymbolTableRecord
100
AcDbLayerTableRecord
  2
LAYER100
 70
     0
 62
   215
  6
Continuous
370
    -3
390
F
  0
LAYER
  5
B6
330
2
100
AcDbSymbolTableRecord
100
AcDbLayerTableRecord
  2
LAYER101
 70
     0
 62
   155
  6
Continuous
370
    -3
390
F
  0
LAYER
  5
B7
330
2
100
AcDbSymbolTableRecord
100
AcDbLayerTableRecord
  2
LAYER102
 70
     0
 62
   155
  6
Continuous
370
    -3
390
F
  0
LAYER
  5
B8
330
2
100
AcDbSymbolTableRecord
100
AcDbLayerTableRecord
  2
LAYER103
 70
     0
 62
   155
  6
Continuous
370
    -3
390
F
  0
LAYER
  5
B9
330
2
100
AcDbSymbolTableRecord
100
AcDbLayerTableRecord
  2
LAYER104
 70
     0
 62
   155
  6
Continuous
370
    -3
390
F
  0
LAYER
  5
BA
330
2
100
AcDbSymbolTableRecord
100
AcDbLayerTableRecord
  2
LAYER105
 70
     0
 62
   155
  6
Continuous
370
    -3
390
F
  0
LAYER
  5
BB
330
2
100
AcDbSymbolTableRecord
100
AcDbLayerTableRecord
  2
LAYER106
 70
     0
 62
   155
  6
Continuous
370
    -3
390
F
  0
LAYER
  5
BC
330
2
100
AcDbSymbolTableRecord
100
AcDbLayerTableRecord
  2
LAYER107
 70
     0
 62
   155
  6
Continuous
370
    -3
390
F
  0
LAYER
  5
BD
330
2
100
AcDbSymbolTableRecord
100
AcDbLayerTableRecord
  2
LAYER108
 70
     0
 62
   155
  6
Continuous
370
    -3
390
F
  0
LAYER
  5
BE
330
2
100
AcDbSymbolTableRecord
100
AcDbLayerTableRecord
  2
LAYER109
 70
     0
 62
   155
  6
Continuous
370
    -3
390
F
  0
LAYER
  5
BF
330
2
100
AcDbSymbolTableRecord
100
AcDbLayerTableRecord
  2
LAYER110
 70
     0
 62
   155
  6
Continuous
370
    -3
390
F
  0
LAYER
  5
C0
330
2
100
AcDbSymbolTableRecord
100
AcDbLayerTableRecord
  2
LAYER111
 70
     0
 62
   232
  6
Continuous
370
    -3
390
F
  0
LAYER
  5
C1
330
2
100
AcDbSymbolTableRecord
100
AcDbLayerTableRecord
  2
LAYER112
 70
     0
 62
   232
  6
Continuous
370
    -3
390
F
  0
LAYER
  5
C2
330
2
100
AcDbSymbolTableRecord
100
AcDbLayerTableRecord
  2
LAYER113
 70
     0
 62
   232
  6
Continuous
370
    -3
390
F
  0
LAYER
  5
C3
330
2
100
AcDbSymbolTableRecord
100
AcDbLayerTableRecord
  2
LAYER114
 70
     0
 62
   232
  6
Continuous
370
    -3
390
F
  0
LAYER
  5
C4
330
2
100
AcDbSymbolTableRecord
100
AcDbLayerTableRecord
  2
LAYER115
 70
     0
 62
   232
  6
Continuous
370
    -3
390
F
  0
LAYER
  5
C5
330
2
100
AcDbSymbolTableRecord
100
AcDbLayerTableRecord
  2
LAYER116
 70
     0
 62
   232
  6
Continuous
370
    -3
390
F
  0
LAYER
  5
C6
330
2
100
AcDbSymbolTableRecord
100
AcDbLayerTableRecord
  2
LAYER117
 70
     0
 62
   232
  6
Continuous
370
    -3
390
F
  0
LAYER
  5
C7
330
2
100
AcDbSymbolTableRecord
100
AcDbLayerTableRecord
  2
LAYER118
 70
     0
 62
   232
  6
Continuous
370
    -3
390
F
  0
LAYER
  5
C8
330
2
100
AcDbSymbolTableRecord
100
AcDbLayerTableRecord
  2
LAYER119
 70
     0
 62
   232
  6
Continuous
370
    -3
390
F
  0
LAYER
  5
C9
330
2
100
AcDbSymbolTableRecord
100
AcDbLayerTableRecord
  2
LAYER120
 70
     0
 62
   232
  6
Continuous
370
    -3
390
F
  0
LAYER
  5
CA
330
2
100
AcDbSymbolTableRecord
100
AcDbLayerTableRecord
  2
LAYER121
 70
     0
 62
   254
  6
Continuous
370
    -3
390
F
  0
LAYER
  5
CB
330
2
100
AcDbSymbolTableRecord
100
AcDbLayerTableRecord
  2
LAYER122
 70
     0
 62
   254
  6
Continuous
370
    -3
390
F
  0
LAYER
  5
CC
330
2
100
AcDbSymbolTableRecord
100
AcDbLayerTableRecord
  2
LAYER123
 70
     0
 62
   254
  6
Continuous
370
    -3
390
F
  0
LAYER
  5
CD
330
2
100
AcDbSymbolTableRecord
100
AcDbLayerTableRecord
  2
LAYER124
 70
     0
 62
   254
  6
Continuous
370
    -3
390
F
  0
LAYER
  5
CE
330
2
100
AcDbSymbolTableRecord
100
AcDbLayerTableRecord
  2
LAYER125
 70
     0
 62
   254
  6
Continuous
370
    -3
390
F
  0
LAYER
  5
CF
330
2
100
AcDbSymbolTableRecord
100
AcDbLayerTableRecord
  2
LAYER126
 70
     0
 62
   254
  6
Continuous
370
    -3
390
F
  0
LAYER
  5
D0
330
2
100
AcDbSymbolTableRecord
100
AcDbLayerTableRecord
  2
LAYER127
 70
     0
 62
   254
  6
Continuous
370
    -3
390
F
  0
LAYER
  5
D1
330
2
100
AcDbSymbolTableRecord
100
AcDbLayerTableRecord
  2
LAYER128
 70
     0
 62
   254
  6
Continuous
370
    -3
390
F
  0
LAYER
  5
D2
330
2
100
AcDbSymbolTableRecord
100
AcDbLayerTableRecord
  2
LAYER129
 70
     0
 62
   254
  6
Continuous
370
    -3
390
F
  0
LAYER
  5
D3
330
2
100
AcDbSymbolTableRecord
100
AcDbLayerTableRecord
  2
LAYER130
 70
     0
 62
   254
  6
Continuous
370
    -3
390
F
  0
LAYER
  5
D4
330
2
100
AcDbSymbolTableRecord
100
AcDbLayerTableRecord
  2
LAYER131
 70
     0
 62
     2
  6
Continuous
370
    -3
390
F
  0
LAYER
  5
D5
330
2
100
AcDbSymbolTableRecord
100
AcDbLayerTableRecord
  2
LAYER132
 70
     0
 62
     2
  6
Continuous
370
    -3
390
F
  0
LAYER
  5
D6
330
2
100
AcDbSymbolTableRecord
100
AcDbLayerTableRecord
  2
LAYER133
 70
     0
 62
     2
  6
Continuous
370
    -3
390
F
  0
LAYER
  5
D7
330
2
100
AcDbSymbolTableRecord
100
AcDbLayerTableRecord
  2
LAYER134
 70
     0
 62
     2
  6
Continuous
370
    -3
390
F
  0
LAYER
  5
D8
330
2
100
AcDbSymbolTableRecord
100
AcDbLayerTableRecord
  2
LAYER135
 70
     0
 62
     2
  6
Continuous
370
    -3
390
F
  0
LAYER
  5
D9
330
2
100
AcDbSymbolTableRecord
100
AcDbLayerTableRecord
  2
LAYER136
 70
     0
 62
     2
  6
Continuous
370
    -3
390
F
  0
LAYER
  5
DA
330
2
100
AcDbSymbolTableRecord
100
AcDbLayerTableRecord
  2
LAYER137
 70
     0
 62
     2
  6
Continuous
370
    -3
390
F
  0
LAYER
  5
DB
330
2
100
AcDbSymbolTableRecord
100
AcDbLayerTableRecord
  2
LAYER138
 70
     0
 62
     2
  6
Continuous
370
    -3
390
F
  0
LAYER
  5
DC
330
2
100
AcDbSymbolTableRecord
100
AcDbLayerTableRecord
  2
LAYER139
 70
     0
 62
     2
  6
Continuous
370
    -3
390
F
  0
LAYER
  5
DD
330
2
100
AcDbSymbolTableRecord
100
AcDbLayerTableRecord
  2
LAYER140
 70
     0
 62
     2
  6
Continuous
370
    -3
390
F
  0
LAYER
  5
DE
330
2
100
AcDbSymbolTableRecord
100
AcDbLayerTableRecord
  2
LAYER141
 70
     0
 62
     3
  6
Continuous
370
    -3
390
F
  0
LAYER
  5
DF
330
2
100
AcDbSymbolTableRecord
100
AcDbLayerTableRecord
  2
LAYER142
 70
     0
 62
     3
  6
Continuous
370
    -3
390
F
  0
LAYER
  5
E0
330
2
100
AcDbSymbolTableRecord
100
AcDbLayerTableRecord
  2
LAYER143
 70
     0
 62
     3
  6
Continuous
370
    -3
390
F
  0
LAYER
  5
E1
330
2
100
AcDbSymbolTableRecord
100
AcDbLayerTableRecord
  2
LAYER144
 70
     0
 62
     3
  6
Continuous
370
    -3
390
F
  0
LAYER
  5
E2
330
2
100
AcDbSymbolTableRecord
100
AcDbLayerTableRecord
  2
LAYER145
 70
     0
 62
     3
  6
Continuous
370
    -3
390
F
  0
LAYER
  5
E3
330
2
100
AcDbSymbolTableRecord
100
AcDbLayerTableRecord
  2
LAYER146
 70
     0
 62
     3
  6
Continuous
370
    -3
390
F
  0
LAYER
  5
E4
330
2
100
AcDbSymbolTableRecord
100
AcDbLayerTableRecord
  2
LAYER147
 70
     0
 62
     3
  6
Continuous
370
    -3
390
F
  0
LAYER
  5
E5
330
2
100
AcDbSymbolTableRecord
100
AcDbLayerTableRecord
  2
LAYER148
 70
     0
 62
     3
  6
Continuous
370
    -3
390
F
  0
LAYER
  5
E6
330
2
100
AcDbSymbolTableRecord
100
AcDbLayerTableRecord
  2
LAYER149
 70
     0
 62
     3
  6
Continuous
370
    -3
390
F
  0
LAYER
  5
E7
330
2
100
AcDbSymbolTableRecord
100
AcDbLayerTableRecord
  2
LAYER150
 70
     0
 62
     3
  6
Continuous
370
    -3
390
F
  0
LAYER
  5
E8
330
2
100
AcDbSymbolTableRecord
100
AcDbLayerTableRecord
  2
LAYER151
 70
     0
 62
     5
  6
Continuous
370
    -3
390
F
  0
LAYER
  5
E9
330
2
100
AcDbSymbolTableRecord
100
AcDbLayerTableRecord
  2
LAYER152
 70
     0
 62
     5
  6
Continuous
370
    -3
390
F
  0
LAYER
  5
EA
330
2
100
AcDbSymbolTableRecord
100
AcDbLayerTableRecord
  2
LAYER153
 70
     0
 62
     5
  6
Continuous
370
    -3
390
F
  0
LAYER
  5
EB
330
2
100
AcDbSymbolTableRecord
100
AcDbLayerTableRecord
  2
LAYER154
 70
     0
 62
     5
  6
Continuous
370
    -3
390
F
  0
LAYER
  5
EC
330
2
100
AcDbSymbolTableRecord
100
AcDbLayerTableRecord
  2
LAYER155
 70
     0
 62
     5
  6
Continuous
370
    -3
390
F
  0
LAYER
  5
ED
330
2
100
AcDbSymbolTableRecord
100
AcDbLayerTableRecord
  2
LAYER156
 70
     0
 62
     5
  6
Continuous
370
    -3
390
F
  0
LAYER
  5
EE
330
2
100
AcDbSymbolTableRecord
100
AcDbLayerTableRecord
  2
LAYER157
 70
     0
 62
     5
  6
Continuous
370
    -3
390
F
  0
LAYER
  5
EF
330
2
100
AcDbSymbolTableRecord
100
AcDbLayerTableRecord
  2
LAYER158
 70
     0
 62
     5
  6
Continuous
370
    -3
390
F
  0
LAYER
  5
F0
330
2
100
AcDbSymbolTableRecord
100
AcDbLayerTableRecord
  2
LAYER159
 70
     0
 62
     5
  6
Continuous
370
    -3
390
F
  0
LAYER
  5
F1
330
2
100
AcDbSymbolTableRecord
100
AcDbLayerTableRecord
  2
LAYER160
 70
     0
 62
     5
  6
Continuous
370
    -3
390
F
  0
LAYER
  5
F2
330
2
100
AcDbSymbolTableRecord
100
AcDbLayerTableRecord
  2
LAYER161
 70
     0
 62
     4
  6
Continuous
370
    -3
390
F
  0
LAYER
  5
F3
330
2
100
AcDbSymbolTableRecord
100
AcDbLayerTableRecord
  2
LAYER162
 70
     0
 62
     4
  6
Continuous
370
    -3
390
F
  0
LAYER
  5
F4
330
2
100
AcDbSymbolTableRecord
100
AcDbLayerTableRecord
  2
LAYER163
 70
     0
 62
     4
  6
Continuous
370
    -3
390
F
  0
LAYER
  5
F5
330
2
100
AcDbSymbolTableRecord
100
AcDbLayerTableRecord
  2
LAYER164
 70
     0
 62
     4
  6
Continuous
370
    -3
390
F
  0
LAYER
  5
F6
330
2
100
AcDbSymbolTableRecord
100
AcDbLayerTableRecord
  2
LAYER165
 70
     0
 62
     4
  6
Continuous
370
    -3
390
F
  0
LAYER
  5
F7
330
2
100
AcDbSymbolTableRecord
100
AcDbLayerTableRecord
  2
LAYER166
 70
     0
 62
     4
  6
Continuous
370
    -3
390
F
  0
LAYER
  5
F8
330
2
100
AcDbSymbolTableRecord
100
AcDbLayerTableRecord
  2
LAYER167
 70
     0
 62
     4
  6
Continuous
370
    -3
390
F
  0
LAYER
  5
F9
330
2
100
AcDbSymbolTableRecord
100
AcDbLayerTableRecord
  2
LAYER168
 70
     0
 62
     4
  6
Continuous
370
    -3
390
F
  0
LAYER
  5
FA
330
2
100
AcDbSymbolTableRecord
100
AcDbLayerTableRecord
  2
LAYER169
 70
     0
 62
     4
  6
Continuous
370
    -3
390
F
  0
LAYER
  5
FB
330
2
100
AcDbSymbolTableRecord
100
AcDbLayerTableRecord
  2
LAYER170
 70
     0
 62
     4
  6
Continuous
370
    -3
390
F
  0
LAYER
  5
FC
330
2
100
AcDbSymbolTableRecord
100
AcDbLayerTableRecord
  2
LAYER171
 70
     0
 62
   163
  6
Continuous
370
    -3
390
F
  0
LAYER
  5
FD
330
2
100
AcDbSymbolTableRecord
100
AcDbLayerTableRecord
  2
LAYER172
 70
     0
 62
   163
  6
Continuous
370
    -3
390
F
  0
LAYER
  5
FE
330
2
100
AcDbSymbolTableRecord
100
AcDbLayerTableRecord
  2
LAYER173
 70
     0
 62
   163
  6
Continuous
370
    -3
390
F
  0
LAYER
  5
FF
330
2
100
AcDbSymbolTableRecord
100
AcDbLayerTableRecord
  2
LAYER174
 70
     0
 62
   163
  6
Continuous
370
    -3
390
F
  0
LAYER
  5
100
330
2
100
AcDbSymbolTableRecord
100
AcDbLayerTableRecord
  2
LAYER175
 70
     0
 62
   163
  6
Continuous
370
    -3
390
F
  0
LAYER
  5
101
330
2
100
AcDbSymbolTableRecord
100
AcDbLayerTableRecord
  2
LAYER176
 70
     0
 62
   163
  6
Continuous
370
    -3
390
F
  0
LAYER
  5
102
330
2
100
AcDbSymbolTableRecord
100
AcDbLayerTableRecord
  2
LAYER177
 70
     0
 62
   163
  6
Continuous
370
    -3
390
F
  0
LAYER
  5
103
330
2
100
AcDbSymbolTableRecord
100
AcDbLayerTableRecord
  2
LAYER178
 70
     0
 62
   163
  6
Continuous
370
    -3
390
F
  0
LAYER
  5
104
330
2
100
AcDbSymbolTableRecord
100
AcDbLayerTableRecord
  2
LAYER179
 70
     0
 62
   163
  6
Continuous
370
    -3
390
F
  0
LAYER
  5
105
330
2
100
AcDbSymbolTableRecord
100
AcDbLayerTableRecord
  2
LAYER180
 70
     0
 62
   163
  6
Continuous
370
    -3
390
F
  0
LAYER
  5
106
330
2
100
AcDbSymbolTableRecord
100
AcDbLayerTableRecord
  2
LAYER181
 70
     0
 62
    31
  6
Continuous
370
    -3
390
F
  0
LAYER
  5
107
330
2
100
AcDbSymbolTableRecord
100
AcDbLayerTableRecord
  2
LAYER182
 70
     0
 62
    31
  6
Continuous
370
    -3
390
F
  0
LAYER
  5
108
330
2
100
AcDbSymbolTableRecord
100
AcDbLayerTableRecord
  2
LAYER183
 70
     0
 62
    31
  6
Continuous
370
    -3
390
F
  0
LAYER
  5
109
330
2
100
AcDbSymbolTableRecord
100
AcDbLayerTableRecord
  2
LAYER184
 70
     0
 62
    31
  6
Continuous
370
    -3
390
F
  0
LAYER
  5
10A
330
2
100
AcDbSymbolTableRecord
100
AcDbLayerTableRecord
  2
LAYER185
 70
     0
 62
    31
  6
Continuous
370
    -3
390
F
  0
LAYER
  5
10B
330
2
100
AcDbSymbolTableRecord
100
AcDbLayerTableRecord
  2
LAYER186
 70
     0
 62
    31
  6
Continuous
370
    -3
390
F
  0
LAYER
  5
10C
330
2
100
AcDbSymbolTableRecord
100
AcDbLayerTableRecord
  2
LAYER187
 70
     0
 62
    31
  6
Continuous
370
    -3
390
F
  0
LAYER
  5
10D
330
2
100
AcDbSymbolTableRecord
100
AcDbLayerTableRecord
  2
LAYER188
 70
     0
 62
    31
  6
Continuous
370
    -3
390
F
  0
LAYER
  5
10E
330
2
100
AcDbSymbolTableRecord
100
AcDbLayerTableRecord
  2
LAYER189
 70
     0
 62
    31
  6
Continuous
370
    -3
390
F
  0
LAYER
  5
10F
330
2
100
AcDbSymbolTableRecord
100
AcDbLayerTableRecord
  2
LAYER190
 70
     0
 62
    31
  6
Continuous
370
    -3
390
F
  0
LAYER
  5
110
330
2
100
AcDbSymbolTableRecord
100
AcDbLayerTableRecord
  2
LAYER191
 70
     0
 62
    71
  6
Continuous
370
    -3
390
F
  0
LAYER
  5
111
330
2
100
AcDbSymbolTableRecord
100
AcDbLayerTableRecord
  2
LAYER192
 70
     0
 62
    71
  6
Continuous
370
    -3
390
F
  0
LAYER
  5
112
330
2
100
AcDbSymbolTableRecord
100
AcDbLayerTableRecord
  2
LAYER193
 70
     0
 62
    71
  6
Continuous
370
    -3
390
F
  0
LAYER
  5
113
330
2
100
AcDbSymbolTableRecord
100
AcDbLayerTableRecord
  2
LAYER194
 70
     0
 62
    71
  6
Continuous
370
    -3
390
F
  0
LAYER
  5
114
330
2
100
AcDbSymbolTableRecord
100
AcDbLayerTableRecord
  2
LAYER195
 70
     0
 62
    71
  6
Continuous
370
    -3
390
F
  0
LAYER
  5
115
330
2
100
AcDbSymbolTableRecord
100
AcDbLayerTableRecord
  2
LAYER196
 70
     0
 62
    71
  6
Continuous
370
    -3
390
F
  0
LAYER
  5
116
330
2
100
AcDbSymbolTableRecord
100
AcDbLayerTableRecord
  2
LAYER197
 70
     0
 62
    71
  6
Continuous
370
    -3
390
F
  0
LAYER
  5
117
330
2
100
AcDbSymbolTableRecord
100
AcDbLayerTableRecord
  2
LAYER198
 70
     0
 62
    71
  6
Continuous
370
    -3
390
F
  0
LAYER
  5
118
330
2
100
AcDbSymbolTableRecord
100
AcDbLayerTableRecord
  2
LAYER199
 70
     0
 62
    71
  6
Continuous
370
    -3
390
F
  0
LAYER
  5
119
330
2
100
AcDbSymbolTableRecord
100
AcDbLayerTableRecord
  2
LAYER200
 70
     0
 62
    71
  6
Continuous
370
    -3
390
F
  0
LAYER
  5
11A
330
2
100
AcDbSymbolTableRecord
100
AcDbLayerTableRecord
  2
LAYER201
 70
     0
 62
   241
  6
Continuous
370
    -3
390
F
  0
LAYER
  5
11B
330
2
100
AcDbSymbolTableRecord
100
AcDbLayerTableRecord
  2
LAYER202
 70
     0
 62
   241
  6
Continuous
370
    -3
390
F
  0
LAYER
  5
11C
330
2
100
AcDbSymbolTableRecord
100
AcDbLayerTableRecord
  2
LAYER203
 70
     0
 62
   241
  6
Continuous
370
    -3
390
F
  0
LAYER
  5
11D
330
2
100
AcDbSymbolTableRecord
100
AcDbLayerTableRecord
  2
LAYER204
 70
     0
 62
   241
  6
Continuous
370
    -3
390
F
  0
LAYER
  5
11E
330
2
100
AcDbSymbolTableRecord
100
AcDbLayerTableRecord
  2
LAYER205
 70
     0
 62
   241
  6
Continuous
370
    -3
390
F
  0
LAYER
  5
11F
330
2
100
AcDbSymbolTableRecord
100
AcDbLayerTableRecord
  2
LAYER206
 70
     0
 62
   241
  6
Continuous
370
    -3
390
F
  0
LAYER
  5
120
330
2
100
AcDbSymbolTableRecord
100
AcDbLayerTableRecord
  2
LAYER207
 70
     0
 62
   241
  6
Continuous
370
    -3
390
F
  0
LAYER
  5
121
330
2
100
AcDbSymbolTableRecord
100
AcDbLayerTableRecord
  2
LAYER208
 70
     0
 62
   241
  6
Continuous
370
    -3
390
F
  0
LAYER
  5
122
330
2
100
AcDbSymbolTableRecord
100
AcDbLayerTableRecord
  2
LAYER209
 70
     0
 62
   241
  6
Continuous
370
    -3
390
F
  0
LAYER
  5
123
330
2
100
AcDbSymbolTableRecord
100
AcDbLayerTableRecord
  2
LAYER210
 70
     0
 62
   241
  6
Continuous
370
    -3
390
F
  0
LAYER
  5
124
330
2
100
AcDbSymbolTableRecord
100
AcDbLayerTableRecord
  2
LAYER211
 70
     0
 62
   191
  6
Continuous
370
    -3
390
F
  0
LAYER
  5
125
330
2
100
AcDbSymbolTableRecord
100
AcDbLayerTableRecord
  2
LAYER212
 70
     0
 62
   191
  6
Continuous
370
    -3
390
F
  0
LAYER
  5
126
330
2
100
AcDbSymbolTableRecord
100
AcDbLayerTableRecord
  2
LAYER213
 70
     0
 62
   191
  6
Continuous
370
    -3
390
F
  0
LAYER
  5
127
330
2
100
AcDbSymbolTableRecord
100
AcDbLayerTableRecord
  2
LAYER214
 70
     0
 62
   191
  6
Continuous
370
    -3
390
F
  0
LAYER
  5
128
330
2
100
AcDbSymbolTableRecord
100
AcDbLayerTableRecord
  2
LAYER215
 70
     0
 62
   191
  6
Continuous
370
    -3
390
F
  0
LAYER
  5
129
330
2
100
AcDbSymbolTableRecord
100
AcDbLayerTableRecord
  2
LAYER216
 70
     0
 62
   191
  6
Continuous
370
    -3
390
F
  0
LAYER
  5
12A
330
2
100
AcDbSymbolTableRecord
100
AcDbLayerTableRecord
  2
LAYER217
 70
     0
 62
   191
  6
Continuous
370
    -3
390
F
  0
LAYER
  5
12B
330
2
100
AcDbSymbolTableRecord
100
AcDbLayerTableRecord
  2
LAYER218
 70
     0
 62
   191
  6
Continuous
370
    -3
390
F
  0
LAYER
  5
12C
330
2
100
AcDbSymbolTableRecord
100
AcDbLayerTableRecord
  2
LAYER219
 70
     0
 62
   191
  6
Continuous
370
    -3
390
F
  0
LAYER
  5
12D
330
2
100
AcDbSymbolTableRecord
100
AcDbLayerTableRecord
  2
LAYER220
 70
     0
 62
   191
  6
Continuous
370
    -3
390
F
  0
LAYER
  5
12E
330
2
100
AcDbSymbolTableRecord
100
AcDbLayerTableRecord
  2
LAYER221
 70
     0
 62
   215
  6
Continuous
370
    -3
390
F
  0
LAYER
  5
12F
330
2
100
AcDbSymbolTableRecord
100
AcDbLayerTableRecord
  2
LAYER222
 70
     0
 62
   215
  6
Continuous
370
    -3
390
F
  0
LAYER
  5
130
330
2
100
AcDbSymbolTableRecord
100
AcDbLayerTableRecord
  2
LAYER223
 70
     0
 62
   215
  6
Continuous
370
    -3
390
F
  0
LAYER
  5
131
330
2
100
AcDbSymbolTableRecord
100
AcDbLayerTableRecord
  2
LAYER224
 70
     0
 62
   215
  6
Continuous
370
    -3
390
F
  0
LAYER
  5
132
330
2
100
AcDbSymbolTableRecord
100
AcDbLayerTableRecord
  2
LAYER225
 70
     0
 62
   215
  6
Continuous
370
    -3
390
F
  0
LAYER
  5
133
330
2
100
AcDbSymbolTableRecord
100
AcDbLayerTableRecord
  2
LAYER226
 70
     0
 62
   215
  6
Continuous
370
    -3
390
F
  0
LAYER
  5
134
330
2
100
AcDbSymbolTableRecord
100
AcDbLayerTableRecord
  2
LAYER227
 70
     0
 62
   215
  6
Continuous
370
    -3
390
F
  0
LAYER
  5
135
330
2
100
AcDbSymbolTableRecord
100
AcDbLayerTableRecord
  2
LAYER228
 70
     0
 62
   215
  6
Continuous
370
    -3
390
F
  0
LAYER
  5
136
330
2
100
AcDbSymbolTableRecord
100
AcDbLayerTableRecord
  2
LAYER229
 70
     0
 62
   215
  6
Continuous
370
    -3
390
F
  0
LAYER
  5
137
330
2
100
AcDbSymbolTableRecord
100
AcDbLayerTableRecord
  2
LAYER230
 70
     0
 62
   215
  6
Continuous
370
    -3
390
F
  0
LAYER
  5
138
330
2
100
AcDbSymbolTableRecord
100
AcDbLayerTableRecord
  2
LAYER231
 70
     0
 62
   155
  6
Continuous
370
    -3
390
F
  0
LAYER
  5
139
330
2
100
AcDbSymbolTableRecord
100
AcDbLayerTableRecord
  2
LAYER232
 70
     0
 62
   155
  6
Continuous
370
    -3
390
F
  0
LAYER
  5
13A
330
2
100
AcDbSymbolTableRecord
100
AcDbLayerTableRecord
  2
LAYER233
 70
     0
 62
   155
  6
Continuous
370
    -3
390
F
  0
LAYER
  5
13B
330
2
100
AcDbSymbolTableRecord
100
AcDbLayerTableRecord
  2
LAYER234
 70
     0
 62
   155
  6
Continuous
370
    -3
390
F
  0
LAYER
  5
13C
330
2
100
AcDbSymbolTableRecord
100
AcDbLayerTableRecord
  2
LAYER235
 70
     0
 62
   155
  6
Continuous
370
    -3
390
F
  0
LAYER
  5
13D
330
2
100
AcDbSymbolTableRecord
100
AcDbLayerTableRecord
  2
LAYER236
 70
     0
 62
   155
  6
Continuous
370
    -3
390
F
  0
LAYER
  5
13E
330
2
100
AcDbSymbolTableRecord
100
AcDbLayerTableRecord
  2
LAYER237
 70
     0
 62
   155
  6
Continuous
370
    -3
390
F
  0
LAYER
  5
13F
330
2
100
AcDbSymbolTableRecord
100
AcDbLayerTableRecord
  2
LAYER238
 70
     0
 62
   155
  6
Continuous
370
    -3
390
F
  0
LAYER
  5
140
330
2
100
AcDbSymbolTableRecord
100
AcDbLayerTableRecord
  2
LAYER239
 70
     0
 62
   155
  6
Continuous
370
    -3
390
F
  0
LAYER
  5
141
330
2
100
AcDbSymbolTableRecord
100
AcDbLayerTableRecord
  2
LAYER240
 70
     0
 62
   155
  6
Continuous
370
    -3
390
F
  0
LAYER
  5
142
330
2
100
AcDbSymbolTableRecord
100
AcDbLayerTableRecord
  2
LAYER241
 70
     0
 62
   232
  6
Continuous
370
    -3
390
F
  0
LAYER
  5
143
330
2
100
AcDbSymbolTableRecord
100
AcDbLayerTableRecord
  2
LAYER242
 70
     0
 62
   232
  6
Continuous
370
    -3
390
F
  0
LAYER
  5
144
330
2
100
AcDbSymbolTableRecord
100
AcDbLayerTableRecord
  2
LAYER243
 70
     0
 62
   232
  6
Continuous
370
    -3
390
F
  0
LAYER
  5
145
330
2
100
AcDbSymbolTableRecord
100
AcDbLayerTableRecord
  2
LAYER244
 70
     0
 62
   232
  6
Continuous
370
    -3
390
F
  0
LAYER
  5
146
330
2
100
AcDbSymbolTableRecord
100
AcDbLayerTableRecord
  2
LAYER245
 70
     0
 62
   232
  6
Continuous
370
    -3
390
F
  0
LAYER
  5
147
330
2
100
AcDbSymbolTableRecord
100
AcDbLayerTableRecord
  2
LAYER246
 70
     0
 62
   232
  6
Continuous
370
    -3
390
F
  0
LAYER
  5
148
330
2
100
AcDbSymbolTableRecord
100
AcDbLayerTableRecord
  2
LAYER247
 70
     0
 62
   232
  6
Continuous
370
    -3
390
F
  0
LAYER
  5
149
330
2
100
AcDbSymbolTableRecord
100
AcDbLayerTableRecord
  2
LAYER248
 70
     0
 62
   232
  6
Continuous
370
    -3
390
F
  0
LAYER
  5
14A
330
2
100
AcDbSymbolTableRecord
100
AcDbLayerTableRecord
  2
LAYER249
 70
     0
 62
   232
  6
Continuous
370
    -3
390
F
  0
LAYER
  5
14B
330
2
100
AcDbSymbolTableRecord
100
AcDbLayerTableRecord
  2
LAYER250
 70
     0
 62
   232
  6
Continuous
370
    -3
390
F
  0
LAYER
  5
14C
330
2
100
AcDbSymbolTableRecord
100
AcDbLayerTableRecord
  2
LAYER251
 70
     0
 62
   254
  6
Continuous
370
    -3
390
F
  0
LAYER
  5
14D
330
2
100
AcDbSymbolTableRecord
100
AcDbLayerTableRecord
  2
LAYER252
 70
     0
 62
   254
  6
Continuous
370
    -3
390
F
  0
LAYER
  5
14E
330
2
100
AcDbSymbolTableRecord
100
AcDbLayerTableRecord
  2
LAYER253
 70
     0
 62
   254
  6
Continuous
370
    -3
390
F
  0
LAYER
  5
14F
330
2
100
AcDbSymbolTableRecord
100
AcDbLayerTableRecord
  2
LAYER256
 70
     0
 62
   254
  6
Continuous
370
    -3
390
F
  0
LAYER
  5
150
330
2
100
AcDbSymbolTableRecord
100
AcDbLayerTableRecord
  2
ケ_シングカバ_
 70
     0
 62
   150
  6
Continuous
370
    -3
390
F
  0
LAYER
  5
151
330
2
100
AcDbSymbolTableRecord
100
AcDbLayerTableRecord
  2
制御箱カバ_
 70
     0
 62
   110
  6
Continuous
370
    -3
390
F
  0
LAYER
  5
152
330
2
100
AcDbSymbolTableRecord
100
AcDbLayerTableRecord
  2
ネジ_ボルト
 70
     0
 62
     1
  6
Continuous
370
    -3
390
F
  0
LAYER
  5
153
330
2
100
AcDbSymbolTableRecord
100
AcDbLayerTableRecord
  2
逆止弁フランジ
 70
     0
 62
   160
  6
Continuous
370
    -3
390
F
  0
LAYER
  5
154
330
2
100
AcDbSymbolTableRecord
100
AcDbLayerTableRecord
  2
30AフランジPK
 70
     0
 62
   172
  6
Continuous
370
    -3
390
F
  0
LAYER
  5
155
330
2
100
AcDbSymbolTableRecord
100
AcDbLayerTableRecord
  2
30Aフランジ
 70
     0
 62
   162
  6
Continuous
370
    -3
390
F
  0
LAYER
  5
156
330
2
100
AcDbSymbolTableRecord
100
AcDbLayerTableRecord
  2
25AフランジPK
 70
     0
 62
    23
  6
Continuous
370
    -3
390
F
  0
LAYER
  5
157
330
2
100
AcDbSymbolTableRecord
100
AcDbLayerTableRecord
  2
25Aフランジ
 70
     0
 62
    21
  6
Continuous
370
    -3
390
F
  0
LAYER
  5
158
330
2
100
AcDbSymbolTableRecord
100
AcDbLayerTableRecord
  2
電源コ_ド
 70
     0
 62
   129
  6
Continuous
370
    -3
390
F
  0
LAYER
  5
159
330
2
100
AcDbSymbolTableRecord
100
AcDbLayerTableRecord
  2
ロ_タ完成
 70
     0
 62
   255
  6
Continuous
370
    -3
390
F
  0
LAYER
  5
15A
330
2
100
AcDbSymbolTableRecord
100
AcDbLayerTableRecord
  2
パッキンA
 70
     0
 62
    30
  6
Continuous
370
    -3
390
F
  0
LAYER
  5
15B
330
2
100
AcDbSymbolTableRecord
100
AcDbLayerTableRecord
  2
仕切板
 70
     0
 62
   191
  6
Continuous
370
    -3
390
F
  0
LAYER
  5
15C
330
2
100
AcDbSymbolTableRecord
100
AcDbLayerTableRecord
  2
羽根車
 70
     0
 62
    31
  6
Continuous
370
    -3
390
F
  0
LAYER
  5
15D
330
2
100
AcDbSymbolTableRecord
100
AcDbLayerTableRecord
  2
枠内文字
 70
     0
 62
   255
  6
Continuous
370
    -3
390
F
  0
LAYER
  5
15E
330
2
100
AcDbSymbolTableRecord
100
AcDbLayerTableRecord
  2
吸気用仕切板
 70
     0
 62
   167
  6
Continuous
370
    -3
390
F
  0
LAYER
  5
15F
330
2
100
AcDbSymbolTableRecord
100
AcDbLayerTableRecord
  2
トランス
 70
     0
 62
   250
  6
Continuous
370
    -3
390
F
  0
LAYER
  5
160
330
2
100
AcDbSymbolTableRecord
100
AcDbLayerTableRecord
  2
ノズルキャップ
 70
     0
 62
     1
  6
Continuous
370
    -3
390
F
  0
LAYER
  5
161
330
2
100
AcDbSymbolTableRecord
100
AcDbLayerTableRecord
  2
ノズル
 70
     0
 62
     3
  6
Continuous
370
    -3
390
F
  0
LAYER
  5
162
330
2
100
AcDbSymbolTableRecord
100
AcDbLayerTableRecord
  2
ベ_スキャップ
 70
     0
 62
   215
  6
Continuous
370
    -3
390
F
  0
LAYER
  5
163
330
2
100
AcDbSymbolTableRecord
100
AcDbLayerTableRecord
  2
モ_タファン
 70
     0
 62
    93
  6
Continuous
370
    -3
390
F
  0
LAYER
  5
164
330
2
100
AcDbSymbolTableRecord
100
AcDbLayerTableRecord
  2
固定金具
 70
     0
 62
   164
  6
Continuous
370
    -3
390
F
  0
LAYER
  5
165
330
2
100
AcDbSymbolTableRecord
100
AcDbLayerTableRecord
  2
圧力センサ_
 70
     0
 62
   169
  6
Continuous
370
    -3
390
F
  0
LAYER
  5
166
330
2
100
AcDbSymbolTableRecord
100
AcDbLayerTableRecord
  2
ケ_シング
 70
     0
 62
    18
  6
Continuous
370
    -3
390
F
  0
LAYER
  5
167
330
2
100
AcDbSymbolTableRecord
100
AcDbLayerTableRecord
  2
サ_ミスタ
 70
     0
 62
   160
  6
Continuous
370
    -3
390
F
  0
LAYER
  5
168
330
2
100
AcDbSymbolTableRecord
100
AcDbLayerTableRecord
  2
結束バンド
 70
     0
 62
   168
  6
Continuous
370
    -3
390
F
  0
LAYER
  5
169
330
2
100
AcDbSymbolTableRecord
100
AcDbLayerTableRecord
  2
センサ_リ_ド線
 70
     0
 62
   166
  6
Continuous
370
    -3
390
F
  0
LAYER
  5
16A
330
2
100
AcDbSymbolTableRecord
100
AcDbLayerTableRecord
  2
ファンカバ_
 70
     0
 62
    97
  6
Continuous
370
    -3
390
F
  0
LAYER
  5
16B
330
2
100
AcDbSymbolTableRecord
100
AcDbLayerTableRecord
  2
ACC完成
 70
     0
 62
    27
  6
Continuous
370
    -3
390
F
  0
LAYER
  5
16C
330
2
100
AcDbSymbolTableRecord
100
AcDbLayerTableRecord
  2
モ_タフレ_ム
 70
     0
 62
     4
  6
Continuous
370
    -3
390
F
  0
LAYER
  5
16D
330
2
100
AcDbSymbolTableRecord
100
AcDbLayerTableRecord
  2
防振スペ_サ
 70
     0
 62
   161
  6
Continuous
370
    -3
390
F
  0
LAYER
  5
16E
330
2
100
AcDbSymbolTableRecord
100
AcDbLayerTableRecord
  2
案内羽根
 70
     0
 62
   254
  6
Continuous
370
    -3
390
F
  0
LAYER
  5
16F
330
2
100
AcDbSymbolTableRecord
100
AcDbLayerTableRecord
  2
弁体用フタ
 70
     0
 62
   252
  6
Continuous
370
    -3
390
F
  0
LAYER
  5
170
330
2
100
AcDbSymbolTableRecord
100
AcDbLayerTableRecord
  2
パッキンB
 70
     0
 62
   232
  6
Continuous
370
    -3
390
F
  0
LAYER
  5
171
330
2
100
AcDbSymbolTableRecord
100
AcDbLayerTableRecord
  2
メカニカルシ_ル
 70
     0
 62
   241
  6
Continuous
370
    -3
390
F
  0
LAYER
  5
172
330
2
100
AcDbSymbolTableRecord
100
AcDbLayerTableRecord
  2
モ_タ基板
 70
     0
 62
     5
  6
Continuous
370
    -3
390
F
  0
LAYER
  5
173
330
2
100
AcDbSymbolTableRecord
100
AcDbLayerTableRecord
  2
インシュレ_タ完成
 70
     0
 62
     6
  6
Continuous
370
    -3
390
F
  0
LAYER
  5
174
330
2
100
AcDbSymbolTableRecord
100
AcDbLayerTableRecord
  2
モ_タカバ_
 70
     0
 62
     1
  6
Continuous
370
    -3
390
F
  0
LAYER
  5
175
330
2
100
AcDbSymbolTableRecord
100
AcDbLayerTableRecord
  2
SLD-DEFPOINTS
 70
     0
 62
   179
  6
Continuous
370
    -3
390
F
  0
ENDTAB
  0
TABLE
  2
STYLE
  5
3
330
0
100
AcDbSymbolTable
 70
     1
  0
STYLE
  5
11
330
3
100
AcDbSymbolTableRecord
100
AcDbTextStyleTableRecord
  2
Standard
 70
     0
 40
0.0
 41
1.0
 50
0.0
 71
     0
 42
3.5
  3
txt
  4
bigfont
  0
ENDTAB
  0
TABLE
  2
VIEW
  5
6
330
0
100
AcDbSymbolTable
 70
     0
  0
ENDTAB
  0
TABLE
  2
UCS
  5
7
330
0
100
AcDbSymbolTable
 70
     0
  0
ENDTAB
  0
TABLE
  2
APPID
  5
9
330
0
100
AcDbSymbolTable
 70
     1
  0
APPID
  5
12
330
9
100
AcDbSymbolTableRecord
100
AcDbRegAppTableRecord
  2
ACAD
 70
     0
  0
ENDTAB
  0
TABLE
  2
DIMSTYLE
  5
A
330
0
100
AcDbSymbolTable
 70
     1
100
AcDbDimStyleTable
  0
DIMSTYLE
105
27
330
A
100
AcDbSymbolTableRecord
100
AcDbDimStyleTableRecord
  2
ISO-25
 70
     0
 41
2.5
 42
0.625
 43
3.75
 44
1.25
 73
     0
 74
     0
 77
     1
 78
     8
140
2.5
141
2.5
143
0.0393700787
147
0.625
171
     3
172
     1
178
     0
271
     2
272
     2
274
     3
278
    44
283
     0
284
     8
340
11
  0
ENDTAB
  0
TABLE
  2
BLOCK_RECORD
  5
1
330
0
100
AcDbSymbolTable
 70
     4
  0
BLOCK_RECORD
  5
1F
330
1
100
AcDbSymbolTableRecord
100
AcDbBlockTableRecord
  2
*Model_Space
340
22
  0
BLOCK_RECORD
  5
1B
330
1
100
AcDbSymbolTableRecord
100
AcDbBlockTableRecord
  2
*Paper_Space
340
1E
  0
BLOCK_RECORD
  5
23
330
1
100
AcDbSymbolTableRecord
100
AcDbBlockTableRecord
  2
*Paper_Space0
340
26
  0
BLOCK_RECORD
  5
2D4
330
1
100
AcDbSymbolTableRecord
100
AcDbBlockTableRecord
  2
SW_CENTERMARKSYMBOL_0
340
0
102
{BLKREFS
331
2DF
102
}
  0
BLOCK_RECORD
  5
2E0
330
1
100
AcDbSymbolTableRecord
100
AcDbBlockTableRecord
  2
SW_CENTERMARKSYMBOL_1
340
0
102
{BLKREFS
331
2EB
102
}
  0
BLOCK_RECORD
  5
41E
330
1
100
AcDbSymbolTableRecord
100
AcDbBlockTableRecord
  2
SW_CENTERMARKSYMBOL_2
340
0
102
{BLKREFS
331
441
102
}
  0
ENDTAB
  0
ENDSEC
  0
SECTION
  2
BLOCKS
  0
BLOCK
  5
20
330
1F
100
AcDbEntity
  8
0
100
AcDbBlockBegin
  2
*Model_Space
 70
     0
 10
0.0
 20
0.0
 30
0.0
  3
*Model_Space
  1

  0
ENDBLK
  5
21
330
1F
100
AcDbEntity
  8
0
100
AcDbBlockEnd
  0
BLOCK
  5
1C
330
1B
100
AcDbEntity
 67
     1
  8
0
100
AcDbBlockBegin
  2
*Paper_Space
 70
     0
 10
0.0
 20
0.0
 30
0.0
  3
*Paper_Space
  1

  0
ENDBLK
  5
1D
330
1B
100
AcDbEntity
 67
     1
  8
0
100
AcDbBlockEnd
  0
BLOCK
  5
24
330
23
100
AcDbEntity
  8
0
100
AcDbBlockBegin
  2
*Paper_Space0
 70
     0
 10
0.0
 20
0.0
 30
0.0
  3
*Paper_Space0
  1

  0
ENDBLK
  5
25
330
23
100
AcDbEntity
  8
0
100
AcDbBlockEnd
  0
BLOCK
  5
2D5
330
2D4
100
AcDbEntity
  8
0
100
AcDbBlockBegin
  2
SW_CENTERMARKSYMBOL_0
 70
     0
 10
0.0
 20
0.0
 30
0.0
  3
SW_CENTERMARKSYMBOL_0
  1

  0
LINE
  5
2D7
330
2D4
100
AcDbEntity
  8
0
  6
Continuous
 62
     0
370
    18
100
AcDbLine
 10
0.0
 20
0.0
 30
0.0
 11
0.0
 21
0.625
 31
0.0
  0
LINE
  5
2D8
330
2D4
100
AcDbEntity
  8
0
  6
Continuous
 62
     0
370
    18
100
AcDbLine
 10
0.0
 20
0.0
 30
0.0
 11
-0.625
 21
0.0
 31
0.0
  0
LINE
  5
2D9
330
2D4
100
AcDbEntity
  8
0
  6
Continuous
 62
     0
370
    18
100
AcDbLine
 10
0.0
 20
0.0
 30
0.0
 11
0.0
 21
-0.625
 31
0.0
  0
LINE
  5
2DA
330
2D4
100
AcDbEntity
  8
0
  6
Continuous
 62
     0
370
    18
100
AcDbLine
 10
0.0
 20
0.0
 30
0.0
 11
0.625
 21
0.0
 31
0.0
  0
LINE
  5
2DB
330
2D4
100
AcDbEntity
  8
0
  6
Continuous
 62
     0
370
    18
100
AcDbLine
 10
0.0
 20
1.25
 30
0.0
 11
0.0
 21
8.0
 31
0.0
  0
LINE
  5
2DC
330
2D4
100
AcDbEntity
  8
0
  6
Continuous
 62
     0
370
    18
100
AcDbLine
 10
-1.25
 20
0.0
 30
0.0
 11
-8.0
 21
0.0
 31
0.0
  0
LINE
  5
2DD
330
2D4
100
AcDbEntity
  8
0
  6
Continuous
 62
     0
370
    18
100
AcDbLine
 10
0.0
 20
-1.25
 30
0.0
 11
0.0
 21
-8.0
 31
0.0
  0
LINE
  5
2DE
330
2D4
100
AcDbEntity
  8
0
  6
Continuous
 62
     0
370
    18
100
AcDbLine
 10
1.25
 20
0.0
 30
0.0
 11
8.0
 21
0.0
 31
0.0
  0
ENDBLK
  5
2D6
330
2D4
100
AcDbEntity
  8
0
100
AcDbBlockEnd
  0
BLOCK
  5
2E1
330
2E0
100
AcDbEntity
  8
0
100
AcDbBlockBegin
  2
SW_CENTERMARKSYMBOL_1
 70
     0
 10
0.0
 20
0.0
 30
0.0
  3
SW_CENTERMARKSYMBOL_1
  1

  0
LINE
  5
2E3
330
2E0
100
AcDbEntity
  8
0
  6
Continuous
 62
     0
370
    18
100
AcDbLine
 10
0.0
 20
0.0
 30
0.0
 11
0.0
 21
0.625
 31
0.0
  0
LINE
  5
2E4
330
2E0
100
AcDbEntity
  8
0
  6
Continuous
 62
     0
370
    18
100
AcDbLine
 10
0.0
 20
0.0
 30
0.0
 11
-0.625
 21
0.0
 31
0.0
  0
LINE
  5
2E5
330
2E0
100
AcDbEntity
  8
0
  6
Continuous
 62
     0
370
    18
100
AcDbLine
 10
0.0
 20
0.0
 30
0.0
 11
0.0
 21
-0.625
 31
0.0
  0
LINE
  5
2E6
330
2E0
100
AcDbEntity
  8
0
  6
Continuous
 62
     0
370
    18
100
AcDbLine
 10
0.0
 20
0.0
 30
0.0
 11
0.625
 21
0.0
 31
0.0
  0
LINE
  5
2E7
330
2E0
100
AcDbEntity
  8
0
  6
Continuous
 62
     0
370
    18
100
AcDbLine
 10
0.0
 20
1.25
 30
0.0
 11
0.0
 21
7.25
 31
0.0
  0
LINE
  5
2E8
330
2E0
100
AcDbEntity
  8
0
  6
Continuous
 62
     0
370
    18
100
AcDbLine
 10
-1.25
 20
0.0
 30
0.0
 11
-7.25
 21
0.0
 31
0.0
  0
LINE
  5
2E9
330
2E0
100
AcDbEntity
  8
0
  6
Continuous
 62
     0
370
    18
100
AcDbLine
 10
0.0
 20
-1.25
 30
0.0
 11
0.0
 21
-7.25
 31
0.0
  0
LINE
  5
2EA
330
2E0
100
AcDbEntity
  8
0
  6
Continuous
 62
     0
370
    18
100
AcDbLine
 10
1.25
 20
0.0
 30
0.0
 11
7.25
 21
0.0
 31
0.0
  0
ENDBLK
  5
2E2
330
2E0
100
AcDbEntity
  8
0
100
AcDbBlockEnd
  0
BLOCK
  5
41F
330
41E
100
AcDbEntity
  8
0
100
AcDbBlockBegin
  2
SW_CENTERMARKSYMBOL_2
 70
     0
 10
0.0
 20
0.0
 30
0.0
  3
SW_CENTERMARKSYMBOL_2
  1

  0
ARC
  5
421
330
41E
100
AcDbEntity
  8
0
  6
Continuous
 62
     0
370
    18
100
AcDbCircle
 10
-32.7036886299
 20
-32.7036886299
 30
0.0
 40
46.25
100
AcDbArc
 50
45.0
 51
45.7742672907
  0
ARC
  5
422
330
41E
100
AcDbEntity
  8
0
  6
Continuous
 62
     0
370
    18
100
AcDbCircle
 10
-32.7036886299
 20
-32.7036886299
 30
0.0
 40
46.25
100
AcDbArc
 50
44.2257327093
 51
45.0
  0
ARC
  5
423
330
41E
100
AcDbEntity
  8
0
  6
Continuous
 62
     0
370
    18
100
AcDbCircle
 10
-32.7036886299
 20
-32.7036886299
 30
0.0
 40
46.25
100
AcDbArc
 50
46.5485345814
 51
53.0351395472
  0
ARC
  5
424
330
41E
100
AcDbEntity
  8
0
  6
Continuous
 62
     0
370
    18
100
AcDbCircle
 10
-32.7036886299
 20
-32.7036886299
 30
0.0
 40
46.25000000000001
100
AcDbArc
 50
42.3674912116
 51
43.4514654186
  0
ARC
  5
425
330
41E
100
AcDbEntity
  8
0
  6
Continuous
 62
     0
370
    18
100
AcDbCircle
 10
-32.7036886299
 20
-32.7036886299
 30
0.0
 40
46.25
100
AcDbArc
 50
315.0
 51
315.7742672907
  0
ARC
  5
426
330
41E
100
AcDbEntity
  8
0
  6
Continuous
 62
     0
370
    18
100
AcDbCircle
 10
-32.7036886299
 20
-32.7036886299
 30
0.0
 40
46.25
100
AcDbArc
 50
314.2257327093
 51
315.0
  0
ARC
  5
427
330
41E
100
AcDbEntity
  8
0
  6
Continuous
 62
     0
370
    18
100
AcDbCircle
 10
-32.7036886299
 20
-32.7036886299
 30
0.0
 40
46.25000000000001
100
AcDbArc
 50
316.5485345814
 51
317.6325087884
  0
ARC
  5
428
330
41E
100
AcDbEntity
  8
0
  6
Continuous
 62
     0
370
    18
100
AcDbCircle
 10
-32.7036886299
 20
-32.7036886299
 30
0.0
 40
46.25000000000001
100
AcDbArc
 50
312.3674912116
 51
313.4514654186
  0
ARC
  5
429
330
41E
100
AcDbEntity
  8
0
  6
Continuous
 62
     0
370
    18
100
AcDbCircle
 10
-32.7036886299
 20
-32.7036886299
 30
0.0
 40
46.25000000000002
100
AcDbArc
 50
225.0
 51
225.7742672907
  0
ARC
  5
42A
330
41E
100
AcDbEntity
  8
0
  6
Continuous
 62
     0
370
    18
100
AcDbCircle
 10
-32.7036886299
 20
-32.7036886299
 30
0.0
 40
46.25000000000002
100
AcDbArc
 50
224.2257327093
 51
225.0
  0
ARC
  5
42B
330
41E
100
AcDbEntity
  8
0
  6
Continuous
 62
     0
370
    18
100
AcDbCircle
 10
-32.7036886299
 20
-32.7036886299
 30
0.0
 40
46.25000000000002
100
AcDbArc
 50
226.5485345814
 51
227.6325087884
  0
ARC
  5
42C
330
41E
100
AcDbEntity
  8
0
  6
Continuous
 62
     0
370
    18
100
AcDbCircle
 10
-32.7036886299
 20
-32.7036886299
 30
0.0
 40
46.25000000000001
100
AcDbArc
 50
222.3674912116
 51
223.4514654186
  0
ARC
  5
42D
330
41E
100
AcDbEntity
  8
0
  6
Continuous
 62
     0
370
    18
100
AcDbCircle
 10
-32.7036886299
 20
-32.7036886299
 30
0.0
 40
46.24999999999995
100
AcDbArc
 50
135.0
 51
135.7742672907
  0
ARC
  5
42E
330
41E
100
AcDbEntity
  8
0
  6
Continuous
 62
     0
370
    18
100
AcDbCircle
 10
-32.7036886299
 20
-32.7036886299
 30
0.0
 40
46.24999999999995
100
AcDbArc
 50
134.2257327093
 51
135.0
  0
ARC
  5
42F
330
41E
100
AcDbEntity
  8
0
  6
Continuous
 62
     0
370
    18
100
AcDbCircle
 10
-32.7036886299
 20
-32.7036886299
 30
0.0
 40
46.24999999999999
100
AcDbArc
 50
136.5485345814
 51
137.6325087884
  0
ARC
  5
430
330
41E
100
AcDbEntity
  8
0
  6
Continuous
 62
     0
370
    18
100
AcDbCircle
 10
-32.7036886299
 20
-32.7036886299
 30
0.0
 40
46.24999999999999
100
AcDbArc
 50
132.3674912116
 51
133.4514654186
  0
LINE
  5
431
330
41E
100
AcDbEntity
  8
0
  6
Continuous
 62
     0
370
    18
100
AcDbLine
 10
0.0
 20
0.0
 30
0.0
 11
0.4419417382
 21
0.4419417382
 31
0.0
  0
LINE
  5
432
330
41E
100
AcDbEntity
  8
0
  6
Continuous
 62
     0
370
    18
100
AcDbLine
 10
0.0
 20
0.0
 30
0.0
 11
-0.4419417382
 21
-0.4419417382
 31
0.0
  0
LINE
  5
433
330
41E
100
AcDbEntity
  8
0
  6
Continuous
 62
     0
370
    18
100
AcDbLine
 10
0.8838834765
 20
0.8838834765
 30
0.0
 11
1.50260191
 21
1.50260191
 31
0.0
  0
LINE
  5
434
330
41E
100
AcDbEntity
  8
0
  6
Continuous
 62
     0
370
    18
100
AcDbLine
 10
-0.8838834765
 20
-0.8838834765
 30
0.0
 11
-1.50260191
 21
-1.50260191
 31
0.0
  0
LINE
  5
435
330
41E
100
AcDbEntity
  8
0
  6
Continuous
 62
     0
370
    18
100
AcDbLine
 10
0.0
 20
-65.4073772598
 30
0.0
 11
0.4419417382
 21
-65.849318998
 31
0.0
  0
LINE
  5
436
330
41E
100
AcDbEntity
  8
0
  6
Continuous
 62
     0
370
    18
100
AcDbLine
 10
0.0
 20
-65.4073772598
 30
0.0
 11
-0.4419417382
 21
-64.9654355215
 31
0.0
  0
LINE
  5
437
330
41E
100
AcDbEntity
  8
0
  6
Continuous
 62
     0
370
    18
100
AcDbLine
 10
0.8838834765
 20
-66.2912607362
 30
0.0
 11
1.50260191
 21
-66.9099791698
 31
0.0
  0
LINE
  5
438
330
41E
100
AcDbEntity
  8
0
  6
Continuous
 62
     0
370
    18
100
AcDbLine
 10
-0.8838834765
 20
-64.5234937833
 30
0.0
 11
-1.50260191
 21
-63.9047753497
 31
0.0
  0
LINE
  5
439
330
41E
100
AcDbEntity
  8
0
  6
Continuous
 62
     0
370
    18
100
AcDbLine
 10
-65.4073772598
 20
-65.4073772598
 30
0.0
 11
-65.849318998
 21
-65.849318998
 31
0.0
  0
LINE
  5
43A
330
41E
100
AcDbEntity
  8
0
  6
Continuous
 62
     0
370
    18
100
AcDbLine
 10
-65.4073772598
 20
-65.4073772598
 30
0.0
 11
-64.9654355215
 21
-64.9654355215
 31
0.0
  0
LINE
  5
43B
330
41E
100
AcDbEntity
  8
0
  6
Continuous
 62
     0
370
    18
100
AcDbLine
 10
-66.2912607362
 20
-66.2912607362
 30
0.0
 11
-66.9099791698
 21
-66.9099791698
 31
0.0
  0
LINE
  5
43C
330
41E
100
AcDbEntity
  8
0
  6
Continuous
 62
     0
370
    18
100
AcDbLine
 10
-64.5234937833
 20
-64.5234937833
 30
0.0
 11
-63.9047753497
 21
-63.9047753497
 31
0.0
  0
LINE
  5
43D
330
41E
100
AcDbEntity
  8
0
  6
Continuous
 62
     0
370
    18
100
AcDbLine
 10
-65.4073772598
 20
0.0
 30
0.0
 11
-65.849318998
 21
0.4419417382
 31
0.0
  0
LINE
  5
43E
330
41E
100
AcDbEntity
  8
0
  6
Continuous
 62
     0
370
    18
100
AcDbLine
 10
-65.4073772598
 20
0.0
 30
0.0
 11
-64.9654355215
 21
-0.4419417382
 31
0.0
  0
LINE
  5
43F
330
41E
100
AcDbEntity
  8
0
  6
Continuous
 62
     0
370
    18
100
AcDbLine
 10
-66.2912607362
 20
0.8838834765
 30
0.0
 11
-66.9099791698
 21
1.50260191
 31
0.0
  0
LINE
  5
440
330
41E
100
AcDbEntity
  8
0
  6
Continuous
 62
     0
370
    18
100
AcDbLine
 10
-64.5234937833
 20
-0.8838834765
 30
0.0
 11
-63.9047753497
 21
-1.50260191
 31
0.0
  0
ENDBLK
  5
420
330
41E
100
AcDbEntity
  8
0
100
AcDbBlockEnd
  0
ENDSEC
  0
SECTION
  2
ENTITIES
  0
LINE
  5
176
330
1F
100
AcDbEntity
  8
0
  6
Continuous
 62
     7
370
    18
100
AcDbLine
 10
149.2847558172
 20
45.6070101701
 30
0.0
 11
149.2847558172
 21
84.1070101701
 31
0.0
  0
LINE
  5
177
330
1F
100
AcDbEntity
  8
0
  6
Continuous
 62
     7
370
    18
100
AcDbLine
 10
149.2847558172
 20
25.2320101701
 30
0.0
 11
149.2847558172
 21
30.3570101701
 31
0.0
  0
LINE
  5
178
330
1F
100
AcDbEntity
  8
0
  6
Continuous
 62
     7
370
    18
100
AcDbLine
 10
64.2847558172
 20
30.3570101701
 30
0.0
 11
64.2847558172
 21
25.2320101701
 31
0.0
  0
LINE
  5
179
330
1F
100
AcDbEntity
  8
0
  6
Continuous
 62
     7
370
    18
100
AcDbLine
 10
64.2847558172
 20
84.1070101701
 30
0.0
 11
64.2847558172
 21
45.6070101701
 31
0.0
  0
LINE
  5
17A
330
1F
100
AcDbEntity
  8
0
  6
Continuous
 62
     7
370
    18
100
AcDbLine
 10
114.0389427508
 20
98.3512715194
 30
0.0
 11
112.4735520967
 21
98.4224366345
 31
0.0
  0
ARC
  5
17B
330
1F
100
AcDbEntity
  8
0
  6
Continuous
 62
     7
370
    18
100
AcDbCircle
 10
132.2263034393
 20
97.0820101701
 30
0.0
 40
1.649999999999997
100
AcDbArc
 50
78.4950370881
 51
90.0
  0
SPLINE
  5
17C
330
1F
100
AcDbEntity
  8
0
  6
Continuous
 62
     7
370
    18
100
AcDbSpline
210
0.0
220
0.0
230
1.0
 70
     8
 71
     3
 72
    12
 73
     8
 74
     0
 42
0.000000001
 43
0.00000001
 40
0.0
 40
0.0
 40
0.0
 40
0.0
 40
0.1381052401610914
 40
0.3943814588890668
 40
0.6281529607817788
 40
0.8580163490932791
 40
0.9999999999999999
 40
0.9999999999999999
 40
0.9999999999999999
 40
0.9999999999999999
 10
106.7686391900715
 20
97.99584778488796
 30
0.0
 10
106.7702810971898
 20
97.99534028765972
 30
0.0
 10
106.774969823873
 20
97.99389104868067
 30
0.0
 10
106.7268532944144
 20
98.01114549511999
 30
0.0
 10
106.6277571317651
 20
98.06358404411941
 30
0.0
 10
106.5052971387997
 20
98.14138475776485
 30
0.0
 10
106.4231757329757
 20
98.2245006311843
 30
0.0
 10
106.391819030389
 20
98.2562370547987
 30
0.0
  0
SPLINE
  5
17D
330
1F
100
AcDbEntity
  8
0
  6
Continuous
 62
     7
370
    18
100
AcDbSpline
210
0.0
220
0.0
230
1.0
 70
     8
 71
     3
 72
    13
 73
     9
 74
     0
 42
0.000000001
 43
0.00000001
 40
0.0
 40
0.0
 40
0.0
 40
0.0
 40
0.0784339844595936
 40
0.2892148919154259
 40
0.4981414268110722
 40
0.717815496314753
 40
0.960798354550468
 40
1.0
 40
1.0
 40
1.0
 40
1.0
 10
113.7977830021019
 20
98.12593749553324
 30
0.0
 10
113.779235240559
 20
98.1061435643898
 30
0.0
 10
113.7108428353171
 20
98.03315607439197
 30
0.0
 10
113.5944107597766
 20
97.95552255961053
 30
0.0
 10
113.475156822825
 20
97.88860409831197
 30
0.0
 10
113.4001935359862
 20
97.85841430291268
 30
0.0
 10
113.3668374083472
 20
97.84911355882299
 30
0.0
 10
113.374931561035
 20
97.85102323264697
 30
0.0
 10
113.3760560171966
 20
97.85128852842045
 30
0.0
  0
ARC
  5
17E
330
1F
100
AcDbEntity
  8
0
  6
Continuous
 62
     7
370
    18
100
AcDbCircle
 10
63.7847558172
 20
32.9286061657
 30
0.0
 40
0.4999999999999977
100
AcDbArc
 50
0.0
 51
28.9550243719
  0
ARC
  5
17F
330
1F
100
AcDbEntity
  8
0
  6
Continuous
 62
     7
370
    18
100
AcDbCircle
 10
63.7847558172
 20
43.0354141745
 30
0.0
 40
0.4999999999999929
100
AcDbArc
 50
331.0449756281
 51
0.0
  0
ARC
  5
180
330
1F
100
AcDbEntity
  8
0
  6
Continuous
 62
     7
370
    18
100
AcDbCircle
 10
149.7847558172
 20
43.0354141745
 30
0.0
 40
0.5
100
AcDbArc
 50
180.0
 51
208.9550243719
  0
ARC
  5
181
330
1F
100
AcDbEntity
  8
0
  6
Continuous
 62
     7
370
    18
100
AcDbCircle
 10
149.7847558172
 20
32.9286061657
 30
0.0
 40
0.5000000000000039
100
AcDbArc
 50
151.0449756281
 51
180.0
  0
ARC
  5
182
330
1F
100
AcDbEntity
  8
0
  6
Continuous
 62
     7
370
    18
100
AcDbCircle
 10
64.6597558172
 20
42.5512912562
 30
0.0
 40
0.5000000000000004
100
AcDbArc
 50
151.0449756281
 51
180.0
  0
ARC
  5
183
330
1F
100
AcDbEntity
  8
0
  6
Continuous
 62
     7
370
    18
100
AcDbCircle
 10
64.6597558172
 20
33.412729084
 30
0.0
 40
0.5000000000000004
100
AcDbArc
 50
180.0
 51
208.9550243719
  0
ARC
  5
184
330
1F
100
AcDbEntity
  8
0
  6
Continuous
 62
     7
370
    18
100
AcDbCircle
 10
148.9097558172
 20
33.412729084
 30
0.0
 40
0.5000000000000004
100
AcDbArc
 50
331.0449756281
 51
0.0
  0
ARC
  5
185
330
1F
100
AcDbEntity
  8
0
  6
Continuous
 62
     7
370
    18
100
AcDbCircle
 10
148.9097558172
 20
42.5512912562
 30
0.0
 40
0.5000000000000004
100
AcDbArc
 50
0.0
 51
28.9550243719
  0
LINE
  5
186
330
1F
100
AcDbEntity
  8
0
  6
Continuous
 62
     7
370
    18
100
AcDbLine
 10
64.2847558172
 20
155.7736921357
 30
0.0
 11
64.2847558172
 21
91.2080177979
 31
0.0
  0
LINE
  5
187
330
1F
100
AcDbEntity
  8
0
  6
Continuous
 62
     7
370
    18
100
AcDbLine
 10
149.2847558172
 20
91.2080177979
 30
0.0
 11
149.2847558172
 21
155.7736921357
 31
0.0
  0
ARC
  5
188
330
1F
100
AcDbEntity
  8
0
  6
Continuous
 62
     7
370
    18
100
AcDbCircle
 10
70.5347558172
 20
155.7736921357
 30
0.0
 40
6.25
100
AcDbArc
 50
101.2907132618
 51
180.0
  0
ARC
  5
189
330
1F
100
AcDbEntity
  8
0
  6
Continuous
 62
     7
370
    18
100
AcDbCircle
 10
143.0347558172
 20
155.7736921357
 30
0.0
 40
6.250000000000028
100
AcDbArc
 50
0.0
 51
78.7092867382
  0
ARC
  5
18A
330
1F
100
AcDbEntity
  8
0
  6
Continuous
 62
     7
370
    18
100
AcDbCircle
 10
106.7847558172
 20
-25.7929898299
 30
0.0
 40
191.4
100
AcDbArc
 50
78.7092867382
 51
101.2907132618
  0
ARC
  5
18B
330
1F
100
AcDbEntity
  8
0
  6
Continuous
 62
     7
370
    18
100
AcDbCircle
 10
63.6472558172
 20
89.8973413633
 30
0.0
 40
0.3125000000000071
100
AcDbArc
 50
180.0
 51
251.6823015888
  0
ARC
  5
18C
330
1F
100
AcDbEntity
  8
0
  6
Continuous
 62
     7
370
    18
100
AcDbCircle
 10
63.6472558172
 20
84.4295184484
 30
0.0
 40
0.3125000000000071
100
AcDbArc
 50
103.0503049397
 51
180.0
  0
ARC
  5
18D
330
1F
100
AcDbEntity
  8
0
  6
Continuous
 62
     7
370
    18
100
AcDbCircle
 10
63.6472558172
 20
90.0445101701
 30
0.0
 40
0.3125000000000071
100
AcDbArc
 50
101.5369590328
 51
180.0
  0
LINE
  5
18E
330
1F
100
AcDbEntity
  8
0
  6
Continuous
 62
     7
370
    18
100
AcDbLine
 10
63.3347558172
 20
84.1570101701
 30
0.0
 11
63.3847558172
 21
84.1070101701
 31
0.0
  0
LINE
  5
18F
330
1F
100
AcDbEntity
  8
0
  6
Continuous
 62
     7
370
    18
100
AcDbLine
 10
63.3347558172
 20
90.0445101701
 30
0.0
 11
63.3347558172
 21
89.8973413633
 31
0.0
  0
LINE
  5
190
330
1F
100
AcDbEntity
  8
0
  6
Continuous
 62
     7
370
    18
100
AcDbLine
 10
63.3347558172
 20
84.4295184484
 30
0.0
 11
63.3347558172
 21
84.1570101701
 31
0.0
  0
ARC
  5
191
330
1F
100
AcDbEntity
  8
0
  6
Continuous
 62
     7
370
    18
100
AcDbCircle
 10
63.5097558172
 20
89.4820101701
 30
0.0
 40
0.1250000000000049
100
AcDbArc
 50
0.0
 51
71.6823015888
  0
ARC
  5
192
330
1F
100
AcDbEntity
  8
0
  6
Continuous
 62
     7
370
    18
100
AcDbCircle
 10
63.4097558172
 20
91.2080177979
 30
0.0
 40
0.8750000000000071
100
AcDbArc
 50
281.5369590328
 51
0.0
  0
ARC
  5
193
330
1F
100
AcDbEntity
  8
0
  6
Continuous
 62
     7
370
    18
100
AcDbCircle
 10
63.5597558172
 20
84.8070101701
 30
0.0
 40
0.0750000000000171
100
AcDbArc
 50
283.0503049397
 51
0.0
  0
LINE
  5
194
330
1F
100
AcDbEntity
  8
0
  6
Continuous
 62
     7
370
    18
100
AcDbLine
 10
63.6347558172
 20
89.4820101701
 30
0.0
 11
63.6347558172
 21
84.8070101701
 31
0.0
  0
ARC
  5
195
330
1F
100
AcDbEntity
  8
0
  6
Continuous
 62
     7
370
    18
100
AcDbCircle
 10
149.9222558172
 20
90.0445101701
 30
0.0
 40
0.3125
100
AcDbArc
 50
0.0
 51
78.4630409672
  0
ARC
  5
196
330
1F
100
AcDbEntity
  8
0
  6
Continuous
 62
     7
370
    18
100
AcDbCircle
 10
149.9222558172
 20
84.4295184484
 30
0.0
 40
0.3125
100
AcDbArc
 50
0.0
 51
76.9496950603
  0
ARC
  5
197
330
1F
100
AcDbEntity
  8
0
  6
Continuous
 62
     7
370
    18
100
AcDbCircle
 10
149.9222558172
 20
89.8973413633
 30
0.0
 40
0.3125000000000066
100
AcDbArc
 50
288.3176984112
 51
0.0
  0
LINE
  5
198
330
1F
100
AcDbEntity
  8
0
  6
Continuous
 62
     7
370
    18
100
AcDbLine
 10
150.2347558172
 20
84.1570101701
 30
0.0
 11
150.2347558172
 21
84.4295184484
 31
0.0
  0
LINE
  5
199
330
1F
100
AcDbEntity
  8
0
  6
Continuous
 62
     7
370
    18
100
AcDbLine
 10
150.1847558172
 20
84.1070101701
 30
0.0
 11
150.2347558172
 21
84.1570101701
 31
0.0
  0
LINE
  5
19A
330
1F
100
AcDbEntity
  8
0
  6
Continuous
 62
     7
370
    18
100
AcDbLine
 10
150.2347558172
 20
89.8973413633
 30
0.0
 11
150.2347558172
 21
90.0445101701
 31
0.0
  0
ARC
  5
19B
330
1F
100
AcDbEntity
  8
0
  6
Continuous
 62
     7
370
    18
100
AcDbCircle
 10
150.1597558172
 20
91.2080177979
 30
0.0
 40
0.8750000000000091
100
AcDbArc
 50
180.0
 51
258.4630409672
  0
ARC
  5
19C
330
1F
100
AcDbEntity
  8
0
  6
Continuous
 62
     7
370
    18
100
AcDbCircle
 10
150.0597558172
 20
89.4820101701
 30
0.0
 40
0.1250000000000115
100
AcDbArc
 50
108.3176984112
 51
180.0
  0
ARC
  5
19D
330
1F
100
AcDbEntity
  8
0
  6
Continuous
 62
     7
370
    18
100
AcDbCircle
 10
150.0097558172
 20
84.8070101701
 30
0.0
 40
0.0750000000000004
100
AcDbArc
 50
180.0
 51
256.9496950603
  0
LINE
  5
19E
330
1F
100
AcDbEntity
  8
0
  6
Continuous
 62
     7
370
    18
100
AcDbLine
 10
149.9347558172
 20
84.8070101701
 30
0.0
 11
149.9347558172
 21
89.4820101701
 31
0.0
  0
LINE
  5
19F
330
1F
100
AcDbEntity
  8
0
  6
Continuous
 62
     7
370
    18
100
AcDbLine
 10
142.0981454581
 20
22.8570101701
 30
0.0
 11
142.0981454581
 21
22.6570101701
 31
0.0
  0
LINE
  5
1A0
330
1F
100
AcDbEntity
  8
0
  6
Continuous
 62
     7
370
    18
100
AcDbLine
 10
144.3481454581
 20
22.6570101701
 30
0.0
 11
144.3481454581
 21
22.8570101701
 31
0.0
  0
LINE
  5
1A1
330
1F
100
AcDbEntity
  8
0
  6
Continuous
 62
     7
370
    18
100
AcDbLine
 10
144.2231454581
 20
22.8570101701
 30
0.0
 11
144.2231454581
 21
23.1320101701
 31
0.0
  0
LINE
  5
1A2
330
1F
100
AcDbEntity
  8
0
  6
Continuous
 62
     7
370
    18
100
AcDbLine
 10
142.2231454581
 20
23.1320101701
 30
0.0
 11
142.2231454581
 21
22.8570101701
 31
0.0
  0
ARC
  5
1A3
330
1F
100
AcDbEntity
  8
0
  6
Continuous
 62
     7
370
    18
100
AcDbCircle
 10
143.7231454581
 20
23.1320101701
 30
0.0
 40
0.5000000000000011
100
AcDbArc
 50
0.0
 51
42.3072493592
  0
ARC
  5
1A4
330
1F
100
AcDbEntity
  8
0
  6
Continuous
 62
     7
370
    18
100
AcDbCircle
 10
142.7231454581
 20
23.1320101701
 30
0.0
 40
0.5
100
AcDbArc
 50
137.7525973771
 51
180.0
  0
LINE
  5
1A5
330
1F
100
AcDbEntity
  8
0
  6
Continuous
 62
     7
370
    18
100
AcDbLine
 10
64.1597558172
 20
36.9820101701
 30
0.0
 11
64.2847558172
 21
36.9820101701
 31
0.0
  0
LINE
  5
1A6
330
1F
100
AcDbEntity
  8
0
  6
Continuous
 62
     7
370
    18
100
AcDbLine
 10
64.2847558172
 20
38.9820101701
 30
0.0
 11
64.1597558172
 21
38.9820101701
 31
0.0
  0
LINE
  5
1A7
330
1F
100
AcDbEntity
  8
0
  6
Continuous
 62
     7
370
    18
100
AcDbLine
 10
149.4097558172
 20
38.9820101701
 30
0.0
 11
149.2847558172
 21
38.9820101701
 31
0.0
  0
LINE
  5
1A8
330
1F
100
AcDbEntity
  8
0
  6
Continuous
 62
     7
370
    18
100
AcDbLine
 10
149.2847558172
 20
36.9820101701
 30
0.0
 11
149.4097558172
 21
36.9820101701
 31
0.0
  0
LINE
  5
1A9
330
1F
100
AcDbEntity
  8
0
  6
Continuous
 62
     7
370
    18
100
AcDbLine
 10
64.1597558172
 20
43.8570101701
 30
0.0
 11
63.3597558172
 21
43.8570101701
 31
0.0
  0
LINE
  5
1AA
330
1F
100
AcDbEntity
  8
0
  6
Continuous
 62
     7
370
    18
100
AcDbLine
 10
63.3597558172
 20
32.1070101701
 30
0.0
 11
64.1597558172
 21
32.1070101701
 31
0.0
  0
LINE
  5
1AB
330
1F
100
AcDbEntity
  8
0
  6
Continuous
 62
     7
370
    18
100
AcDbLine
 10
150.2097558172
 20
43.8570101701
 30
0.0
 11
149.4097558172
 21
43.8570101701
 31
0.0
  0
LINE
  5
1AC
330
1F
100
AcDbEntity
  8
0
  6
Continuous
 62
     7
370
    18
100
AcDbLine
 10
149.4097558172
 20
32.1070101701
 30
0.0
 11
150.2097558172
 21
32.1070101701
 31
0.0
  0
LINE
  5
1AD
330
1F
100
AcDbEntity
  8
0
  6
Continuous
 62
     7
370
    18
100
AcDbLine
 10
151.4124174875
 20
41.9820101701
 30
0.0
 11
150.2097558172
 21
41.9820101701
 31
0.0
  0
LINE
  5
1AE
330
1F
100
AcDbEntity
  8
0
  6
Continuous
 62
     7
370
    18
100
AcDbLine
 10
150.2097558172
 20
33.9820101701
 30
0.0
 11
151.4124174875
 21
33.9820101701
 31
0.0
  0
ARC
  5
1AF
330
1F
100
AcDbEntity
  8
0
  6
Continuous
 62
     7
370
    18
100
AcDbCircle
 10
153.0847558172
 20
36.956126775
 30
0.0
 40
0.25
100
AcDbArc
 50
270.0
 51
0.0
  0
LINE
  5
1B0
330
1F
100
AcDbEntity
  8
0
  6
Continuous
 62
     7
370
    18
100
AcDbLine
 10
151.9597558172
 20
36.706126775
 30
0.0
 11
153.0847558172
 21
36.706126775
 31
0.0
  0
LINE
  5
1B1
330
1F
100
AcDbEntity
  8
0
  6
Continuous
 62
     7
370
    18
100
AcDbLine
 10
153.0847558172
 20
41.9740361288
 30
0.0
 11
151.8347558172
 21
41.9740361288
 31
0.0
  0
ARC
  5
1B2
330
1F
100
AcDbEntity
  8
0
  6
Continuous
 62
     7
370
    18
100
AcDbCircle
 10
153.0847558172
 20
34.2399842115
 30
0.0
 40
0.25
100
AcDbArc
 50
270.0
 51
0.0
  0
LINE
  5
1B3
330
1F
100
AcDbEntity
  8
0
  6
Continuous
 62
     7
370
    18
100
AcDbLine
 10
151.8347558172
 20
33.9899842115
 30
0.0
 11
153.0847558172
 21
33.9899842115
 31
0.0
  0
LINE
  5
1B4
330
1F
100
AcDbEntity
  8
0
  6
Continuous
 62
     7
370
    18
100
AcDbLine
 10
64.1597558172
 20
43.8570101701
 30
0.0
 11
63.3597558172
 21
43.8570101701
 31
0.0
  0
LINE
  5
1B5
330
1F
100
AcDbEntity
  8
0
  6
Continuous
 62
     7
370
    18
100
AcDbLine
 10
63.3597558172
 20
32.1070101701
 30
0.0
 11
64.1597558172
 21
32.1070101701
 31
0.0
  0
LINE
  5
1B6
330
1F
100
AcDbEntity
  8
0
  6
Continuous
 62
     7
370
    18
100
AcDbLine
 10
151.0373269218
 20
19.1070101701
 30
0.0
 11
151.0373269218
 21
19.6070101701
 31
0.0
  0
LINE
  5
1B7
330
1F
100
AcDbEntity
  8
0
  6
Continuous
 62
     7
370
    18
100
AcDbLine
 10
62.5321847127
 20
19.6070101701
 30
0.0
 11
62.5321847127
 21
19.1070101701
 31
0.0
  0
ARC
  5
1B8
330
1F
100
AcDbEntity
  8
0
  6
Continuous
 62
     7
370
    18
100
AcDbCircle
 10
150.7873269218
 20
20.1070101701
 30
0.0
 40
0.5
100
AcDbArc
 50
180.0
 51
270.0
  0
ARC
  5
1B9
330
1F
100
AcDbEntity
  8
0
  6
Continuous
 62
     7
370
    18
100
AcDbCircle
 10
62.7821847127
 20
20.1070101701
 30
0.0
 40
0.5
100
AcDbArc
 50
270.0
 51
0.0
  0
LINE
  5
1BA
330
1F
100
AcDbEntity
  8
0
  6
Continuous
 62
     7
370
    18
100
AcDbLine
 10
150.2873269218
 20
20.1070101701
 30
0.0
 11
150.2873269218
 21
24.3965169529
 31
0.0
  0
LINE
  5
1BB
330
1F
100
AcDbEntity
  8
0
  6
Continuous
 62
     7
370
    18
100
AcDbLine
 10
63.2821847127
 20
24.3965169529
 30
0.0
 11
63.2821847127
 21
20.1070101701
 31
0.0
  0
SPLINE
  5
1BC
330
1F
100
AcDbEntity
  8
0
  6
Continuous
 62
     7
370
    18
100
AcDbSpline
210
0.0
220
0.0
230
1.0
 70
     8
 71
     3
 72
    11
 73
     7
 74
     0
 42
0.000000001
 43
0.00000001
 40
0.0
 40
0.0
 40
0.0
 40
0.0
 40
0.2407126970241585
 40
0.528314682296837
 40
0.822205053260738
 40
1.0
 40
1.0
 40
1.0
 40
1.0
 10
150.2846939548544
 20
24.39635091377871
 30
0.0
 10
150.2812278550123
 20
24.46952433391798
 30
0.0
 10
150.2736204813278
 20
24.63012488674039
 30
0.0
 10
150.1816160483332
 20
24.86476855379903
 30
0.0
 10
150.0537823807335
 20
25.06099575028572
 30
0.0
 10
149.9392980399736
 20
25.14737210910997
 30
0.0
 10
149.8961448263714
 20
25.17993042614955
 30
0.0
  0
SPLINE
  5
1BD
330
1F
100
AcDbEntity
  8
0
  6
Continuous
 62
     7
370
    18
100
AcDbSpline
210
0.0
220
0.0
230
1.0
 70
     8
 71
     3
 72
    11
 73
     7
 74
     0
 42
0.000000001
 43
0.00000001
 40
0.0
 40
0.0
 40
0.0
 40
0.0
 40
0.2528279219272465
 40
0.5672595935486506
 40
0.8387080977802163
 40
0.9999999999999999
 40
0.9999999999999999
 40
0.9999999999999999
 40
0.9999999999999999
 10
63.67027024035532
 20
25.18305601905718
 30
0.0
 10
63.61175389417117
 20
25.13311667487963
 30
0.0
 10
63.48046317873376
 20
25.02106982552731
 30
0.0
 10
63.35459997439423
 20
24.79556617738421
 30
0.0
 10
63.28734769329628
 20
24.57661742123499
 30
0.0
 10
63.28743039957238
 20
24.44529205465143
 30
0.0
 10
63.28746122602721
 20
24.39634419152105
 30
0.0
  0
ARC
  5
1BE
330
1F
100
AcDbEntity
  8
0
  6
Continuous
 62
     7
370
    18
100
AcDbCircle
 10
149.757019016
 20
24.9820101701
 30
0.0
 40
0.2500000000000153
100
AcDbArc
 50
54.9410027925
 51
89.9999999962
  0
ARC
  5
1BF
330
1F
100
AcDbEntity
  8
0
  6
Continuous
 62
     7
370
    18
100
AcDbCircle
 10
63.8124926185
 20
24.9820101701
 30
0.0
 40
0.250000000000014
100
AcDbArc
 50
90.0000000038
 51
124.9407088748
  0
LINE
  5
1C0
330
1F
100
AcDbEntity
  8
0
  6
Continuous
 62
     7
370
    18
100
AcDbLine
 10
102.101779993
 20
113.4212651646
 30
0.0
 11
102.101779993
 21
110.9675265206
 31
0.0
  0
LINE
  5
1C1
330
1F
100
AcDbEntity
  8
0
  6
Continuous
 62
     7
370
    18
100
AcDbLine
 10
106.351779993
 20
113.4212651646
 30
0.0
 11
104.226779993
 21
114.6481344867
 31
0.0
  0
LINE
  5
1C2
330
1F
100
AcDbEntity
  8
0
  6
Continuous
 62
     7
370
    18
100
AcDbLine
 10
106.351779993
 20
110.9675265206
 30
0.0
 11
106.351779993
 21
113.4212651646
 31
0.0
  0
LINE
  5
1C3
330
1F
100
AcDbEntity
  8
0
  6
Continuous
 62
     7
370
    18
100
AcDbLine
 10
104.226779993
 20
109.7406571985
 30
0.0
 11
106.351779993
 21
110.9675265206
 31
0.0
  0
LINE
  5
1C4
330
1F
100
AcDbEntity
  8
0
  6
Continuous
 62
     7
370
    18
100
AcDbLine
 10
104.226779993
 20
114.6481344867
 30
0.0
 11
102.101779993
 21
113.4212651646
 31
0.0
  0
LINE
  5
1C5
330
1F
100
AcDbEntity
  8
0
  6
Continuous
 62
     7
370
    18
100
AcDbLine
 10
102.101779993
 20
110.9675265206
 30
0.0
 11
104.226779993
 21
109.7406571985
 31
0.0
  0
LINE
  5
1C6
330
1F
100
AcDbEntity
  8
0
  6
Continuous
 62
     7
370
    18
100
AcDbLine
 10
110.7177316415
 20
134.7464938197
 30
0.0
 11
110.7177316415
 21
132.2927551756
 31
0.0
  0
LINE
  5
1C7
330
1F
100
AcDbEntity
  8
0
  6
Continuous
 62
     7
370
    18
100
AcDbLine
 10
112.8427316415
 20
135.9733631417
 30
0.0
 11
110.7177316415
 21
134.7464938197
 31
0.0
  0
LINE
  5
1C8
330
1F
100
AcDbEntity
  8
0
  6
Continuous
 62
     7
370
    18
100
AcDbLine
 10
114.9677316415
 20
134.7464938197
 30
0.0
 11
112.8427316415
 21
135.9733631417
 31
0.0
  0
LINE
  5
1C9
330
1F
100
AcDbEntity
  8
0
  6
Continuous
 62
     7
370
    18
100
AcDbLine
 10
114.9677316415
 20
132.2927551756
 30
0.0
 11
114.9677316415
 21
134.7464938197
 31
0.0
  0
LINE
  5
1CA
330
1F
100
AcDbEntity
  8
0
  6
Continuous
 62
     7
370
    18
100
AcDbLine
 10
112.8427316415
 20
131.0658858536
 30
0.0
 11
114.9677316415
 21
132.2927551756
 31
0.0
  0
LINE
  5
1CB
330
1F
100
AcDbEntity
  8
0
  6
Continuous
 62
     7
370
    18
100
AcDbLine
 10
110.7177316415
 20
132.2927551756
 30
0.0
 11
112.8427316415
 21
131.0658858536
 31
0.0
  0
LINE
  5
1CC
330
1F
100
AcDbEntity
  8
0
  6
Continuous
 62
     7
370
    18
100
AcDbLine
 10
125.2444522147
 20
114.9218764395
 30
0.0
 11
125.2444522147
 21
112.4681377954
 31
0.0
  0
LINE
  5
1CD
330
1F
100
AcDbEntity
  8
0
  6
Continuous
 62
     7
370
    18
100
AcDbLine
 10
127.3694522147
 20
116.1487457615
 30
0.0
 11
125.2444522147
 21
114.9218764395
 31
0.0
  0
LINE
  5
1CE
330
1F
100
AcDbEntity
  8
0
  6
Continuous
 62
     7
370
    18
100
AcDbLine
 10
129.4944522147
 20
114.9218764395
 30
0.0
 11
127.3694522147
 21
116.1487457615
 31
0.0
  0
LINE
  5
1CF
330
1F
100
AcDbEntity
  8
0
  6
Continuous
 62
     7
370
    18
100
AcDbLine
 10
129.4944522147
 20
112.4681377954
 30
0.0
 11
129.4944522147
 21
114.9218764395
 31
0.0
  0
LINE
  5
1D0
330
1F
100
AcDbEntity
  8
0
  6
Continuous
 62
     7
370
    18
100
AcDbLine
 10
127.3694522147
 20
111.2412684734
 30
0.0
 11
129.4944522147
 21
112.4681377954
 31
0.0
  0
LINE
  5
1D1
330
1F
100
AcDbEntity
  8
0
  6
Continuous
 62
     7
370
    18
100
AcDbLine
 10
125.2444522147
 20
112.4681377954
 30
0.0
 11
127.3694522147
 21
111.2412684734
 31
0.0
  0
LINE
  5
1D2
330
1F
100
AcDbEntity
  8
0
  6
Continuous
 62
     7
370
    18
100
AcDbLine
 10
124.4409787375
 20
106.0526565719
 30
0.0
 11
124.4409787375
 21
103.5989179278
 31
0.0
  0
LINE
  5
1D3
330
1F
100
AcDbEntity
  8
0
  6
Continuous
 62
     7
370
    18
100
AcDbLine
 10
126.5659787375
 20
107.2795258939
 30
0.0
 11
124.4409787375
 21
106.0526565719
 31
0.0
  0
LINE
  5
1D4
330
1F
100
AcDbEntity
  8
0
  6
Continuous
 62
     7
370
    18
100
AcDbLine
 10
128.6909787375
 20
103.5989179278
 30
0.0
 11
128.6909787375
 21
106.0526565719
 31
0.0
  0
LINE
  5
1D5
330
1F
100
AcDbEntity
  8
0
  6
Continuous
 62
     7
370
    18
100
AcDbLine
 10
124.4409787375
 20
103.5989179278
 30
0.0
 11
126.5659787375
 21
102.3720486058
 31
0.0
  0
LINE
  5
1D6
330
1F
100
AcDbEntity
  8
0
  6
Continuous
 62
     7
370
    18
100
AcDbLine
 10
126.5659787375
 20
102.3720486058
 30
0.0
 11
128.6909787375
 21
103.5989179278
 31
0.0
  0
LINE
  5
1D7
330
1F
100
AcDbEntity
  8
0
  6
Continuous
 62
     7
370
    18
100
AcDbLine
 10
128.6909787375
 20
106.0526565719
 30
0.0
 11
126.5659787375
 21
107.2795258939
 31
0.0
  0
LINE
  5
1D8
330
1F
100
AcDbEntity
  8
0
  6
Continuous
 62
     7
370
    18
100
AcDbLine
 10
120.7000594198
 20
134.4727518668
 30
0.0
 11
118.5750594198
 21
133.2458825448
 31
0.0
  0
LINE
  5
1D9
330
1F
100
AcDbEntity
  8
0
  6
Continuous
 62
     7
370
    18
100
AcDbLine
 10
122.8250594198
 20
133.2458825448
 30
0.0
 11
120.7000594198
 21
134.4727518668
 31
0.0
  0
LINE
  5
1DA
330
1F
100
AcDbEntity
  8
0
  6
Continuous
 62
     7
370
    18
100
AcDbLine
 10
122.8250594198
 20
130.7921439008
 30
0.0
 11
122.8250594198
 21
133.2458825448
 31
0.0
  0
LINE
  5
1DB
330
1F
100
AcDbEntity
  8
0
  6
Continuous
 62
     7
370
    18
100
AcDbLine
 10
120.7000594198
 20
129.5652745787
 30
0.0
 11
122.8250594198
 21
130.7921439008
 31
0.0
  0
LINE
  5
1DC
330
1F
100
AcDbEntity
  8
0
  6
Continuous
 62
     7
370
    18
100
AcDbLine
 10
118.5750594198
 20
130.7921439008
 30
0.0
 11
120.7000594198
 21
129.5652745787
 31
0.0
  0
LINE
  5
1DD
330
1F
100
AcDbEntity
  8
0
  6
Continuous
 62
     7
370
    18
100
AcDbLine
 10
118.5750594198
 20
133.2458825448
 30
0.0
 11
118.5750594198
 21
130.7921439008
 31
0.0
  0
CIRCLE
  5
1DE
330
1F
100
AcDbEntity
  8
0
  6
Continuous
 62
     7
370
    18
100
AcDbCircle
 10
124.0347558172
 20
122.8570101701
 30
0.0
 40
4.375000000000012
  0
CIRCLE
  5
1DF
330
1F
100
AcDbEntity
  8
0
  6
Continuous
 62
     7
370
    18
100
AcDbCircle
 10
124.0347558172
 20
122.8570101701
 30
0.0
 40
4.875000000000006
  0
CIRCLE
  5
1E0
330
1F
100
AcDbEntity
  8
0
  6
Continuous
 62
     7
370
    18
100
AcDbCircle
 10
124.0347558172
 20
122.8570101701
 30
0.0
 40
6.625000000000008
  0
SPLINE
  5
1E1
330
1F
100
AcDbEntity
  8
0
  6
Continuous
 62
     7
370
    18
100
AcDbSpline
210
0.0
220
0.0
230
1.0
 70
     8
 71
     3
 72
    11
 73
     7
 74
     0
 42
0.000000001
 43
0.00000001
 40
0.0
 40
0.0
 40
0.0
 40
0.0
 40
0.6261359551222804
 40
0.7964210366049668
 40
0.934868441600525
 40
1.0
 40
1.0
 40
1.0
 40
1.0
 10
126.9643817611656
 20
111.153173541531
 30
0.0
 10
126.8847624379058
 20
111.1228125448924
 30
0.0
 10
126.7834896976237
 20
111.0841945159844
 30
0.0
 10
126.6877165378549
 20
111.0065085766244
 30
0.0
 10
126.6585549247449
 20
110.9680130063942
 30
0.0
 10
126.6511904708335
 20
110.9449573077209
 30
0.0
 10
126.648834341536
 20
110.9375810368158
 30
0.0
  0
SPLINE
  5
1E2
330
1F
100
AcDbEntity
  8
0
  6
Continuous
 62
     7
370
    18
100
AcDbSpline
210
0.0
220
0.0
230
1.0
 70
     8
 71
     3
 72
    12
 73
     8
 74
     0
 42
0.000000001
 43
0.00000001
 40
0.0
 40
0.0
 40
0.0
 40
0.0
 40
0.3168976407189535
 40
0.633702320614123
 40
0.9526840627126968
 40
0.9918074166548301
 40
1.0
 40
1.0
 40
1.0
 40
1.0
 10
126.648834341536
 20
110.9375810368158
 30
0.0
 10
126.6365587664495
 20
110.8922775899442
 30
0.0
 10
126.6120112172738
 20
110.8016839858099
 30
0.0
 10
126.5750143425357
 20
110.7173742024824
 30
0.0
 10
126.5525166833942
 20
110.6938330668531
 30
0.0
 10
126.5422171738818
 20
110.69348770914
 30
0.0
 10
126.5409218300042
 20
110.6936642694416
 30
0.0
 10
126.5406975458985
 20
110.693694840219
 30
0.0
  0
ARC
  5
1E3
330
1F
100
AcDbEntity
  8
0
  6
Continuous
 62
     7
370
    18
100
AcDbCircle
 10
127.1129371072
 20
114.399776583
 30
0.0
 40
3.749999999999994
100
AcDbArc
 50
220.3175076348
 51
261.2225308299
  0
LINE
  5
1E4
330
1F
100
AcDbEntity
  8
0
  6
Continuous
 62
     7
370
    18
100
AcDbLine
 10
126.9643817612
 20
111.1531735415
 30
0.0
 11
127.3064145396
 21
111.277663292
 31
0.0
  0
LINE
  5
1E5
330
1F
100
AcDbEntity
  8
0
  6
Continuous
 62
     7
370
    18
100
AcDbLine
 10
127.6475412871
 20
111.4018232742
 30
0.0
 11
129.3136133131
 21
112.0082238998
 31
0.0
  0
SPLINE
  5
1E6
330
1F
100
AcDbEntity
  8
0
  6
Continuous
 62
     7
370
    18
100
AcDbSpline
210
0.0
220
0.0
230
1.0
 70
     8
 71
     3
 72
    11
 73
     7
 74
     0
 42
0.000000001
 43
0.00000001
 40
0.0
 40
0.0
 40
0.0
 40
0.0
 40
0.1429672782040562
 40
0.3308133477981227
 40
0.8051863732316531
 40
1.0
 40
1.0
 40
1.0
 40
1.0
 10
129.6939168512505
 20
112.0459004312365
 30
0.0
 10
129.6785385083618
 20
112.0540083679744
 30
0.0
 10
129.6429544141656
 20
112.0727694000768
 30
0.0
 10
129.5348639298652
 20
112.0749830234646
 30
0.0
 10
129.4227783176371
 20
112.0465613863984
 30
0.0
 10
129.338227692271
 20
112.0168681850132
 30
0.0
 10
129.3136133131304
 20
112.0082238998452
 30
0.0
  0
SPLINE
  5
1E7
330
1F
100
AcDbEntity
  8
0
  6
Continuous
 62
     7
370
    18
100
AcDbSpline
210
0.0
220
0.0
230
1.0
 70
     8
 71
     3
 72
    12
 73
     8
 74
     0
 42
0.000000001
 43
0.00000001
 40
0.0
 40
0.0
 40
0.0
 40
0.0
 40
0.0081925833451611
 40
0.047315937287291
 40
0.3662976793858504
 40
0.6831023592810275
 40
1.0
 40
1.0
 40
1.0
 40
1.0
 10
121.5288140885814
 20
135.020325500019
 30
0.0
 10
121.5285898044757
 20
135.0203560707964
 30
0.0
 10
121.5272944605982
 20
135.020532631098
 30
0.0
 10
121.5169949510857
 20
135.0201872733847
 30
0.0
 10
121.4944972919442
 20
134.9966461377556
 30
0.0
 10
121.4575004172061
 20
134.9123363544281
 30
0.0
 10
121.4329528680304
 20
134.8217427502938
 30
0.0
 10
121.4206772929439
 20
134.7764393034221
 30
0.0
  0
ARC
  5
1E8
330
1F
100
AcDbEntity
  8
0
  6
Continuous
 62
     7
370
    18
100
AcDbCircle
 10
120.9565745273
 20
131.3142437572
 30
0.0
 40
3.750000000000006
100
AcDbArc
 50
40.3175076348
 51
81.2225308299
  0
SPLINE
  5
1E9
330
1F
100
AcDbEntity
  8
0
  6
Continuous
 62
     7
370
    18
100
AcDbSpline
210
0.0
220
0.0
230
1.0
 70
     8
 71
     3
 72
    11
 73
     7
 74
     0
 42
0.000000001
 43
0.00000001
 40
0.0
 40
0.0
 40
0.0
 40
0.0
 40
0.626135955122253
 40
0.796421036604945
 40
0.9348684416005073
 40
1.0
 40
1.0
 40
1.0
 40
1.0
 10
121.1051298733142
 20
134.5608467987069
 30
0.0
 10
121.184749196574
 20
134.5912077953455
 30
0.0
 10
121.2860219368561
 20
134.6298258242536
 30
0.0
 10
121.381795096625
 20
134.7075117636135
 30
0.0
 10
121.410956709735
 20
134.7460073338438
 30
0.0
 10
121.4183211636464
 20
134.7690630325171
 30
0.0
 10
121.4206772929439
 20
134.7764393034221
 30
0.0
  0
SPLINE
  5
1EA
330
1F
100
AcDbEntity
  8
0
  6
Continuous
 62
     7
370
    18
100
AcDbSpline
210
0.0
220
0.0
230
1.0
 70
     8
 71
     3
 72
    11
 73
     7
 74
     0
 42
0.000000001
 43
0.00000001
 40
0.0
 40
0.0
 40
0.0
 40
0.0
 40
0.1429672782040514
 40
0.3308133477981082
 40
0.8051863732316855
 40
1.0
 40
1.0
 40
1.0
 40
1.0
 10
118.3755947832295
 20
133.6681199090015
 30
0.0
 10
118.3909731261181
 20
133.6600119722636
 30
0.0
 10
118.4265572203143
 20
133.6412509401611
 30
0.0
 10
118.5346477046147
 20
133.6390373167734
 30
0.0
 10
118.6467333168428
 20
133.6674589538396
 30
0.0
 10
118.7312839422089
 20
133.6971521552248
 30
0.0
 10
118.7558983213495
 20
133.7057964403928
 30
0.0
  0
LINE
  5
1EB
330
1F
100
AcDbEntity
  8
0
  6
Continuous
 62
     7
370
    18
100
AcDbLine
 10
118.7558983213
 20
133.7057964404
 30
0.0
 11
120.4219703474
 21
134.312197066
 31
0.0
  0
LINE
  5
1EC
330
1F
100
AcDbEntity
  8
0
  6
Continuous
 62
     7
370
    18
100
AcDbLine
 10
120.7630970948
 20
134.4363570482
 30
0.0
 11
121.1051298733
 21
134.5608467987
 31
0.0
  0
ARC
  5
1ED
330
1F
100
AcDbEntity
  8
0
  6
Continuous
 62
     7
370
    18
100
AcDbCircle
 10
120.9565745273
 20
131.3142437572
 30
0.0
 40
3.750000000000002
100
AcDbArc
 50
138.7774691701
 51
179.6824923652
  0
SPLINE
  5
1EE
330
1F
100
AcDbEntity
  8
0
  6
Continuous
 62
     7
370
    18
100
AcDbSpline
210
0.0
220
0.0
230
1.0
 70
     8
 71
     3
 72
    12
 73
     8
 74
     0
 42
0.000000001
 43
0.00000001
 40
0.0
 40
0.0
 40
0.0
 40
0.0
 40
0.0081925833451583
 40
0.0473159372872898
 40
0.3662976793858725
 40
0.6831023592810572
 40
1.0
 40
1.0
 40
1.0
 40
1.0
 10
118.1359901664887
 20
133.7854385822709
 30
0.0
 10
118.1361423275645
 20
133.7856061678893
 30
0.0
 10
118.1370211277696
 20
133.7865740519219
 30
0.0
 10
118.1451330014575
 20
133.7929298896653
 30
0.0
 10
118.1774991585264
 20
133.789357550075
 30
0.0
 10
118.2600336929306
 20
133.7485536417351
 30
0.0
 10
118.3370706528232
 20
133.6949337751642
 30
0.0
 10
118.3755947832295
 20
133.6681199090015
 30
0.0
  0
ARC
  5
1EF
330
1F
100
AcDbEntity
  8
0
  6
Continuous
 62
     7
370
    18
100
AcDbCircle
 10
127.1129371072
 20
114.399776583
 30
0.0
 40
3.750000000000012
100
AcDbArc
 50
318.7774691702
 51
359.6824923652
  0
SPLINE
  5
1F0
330
1F
100
AcDbEntity
  8
0
  6
Continuous
 62
     7
370
    18
100
AcDbSpline
210
0.0
220
0.0
230
1.0
 70
     8
 71
     3
 72
    12
 73
     8
 74
     0
 42
0.000000001
 43
0.00000001
 40
0.0
 40
0.0
 40
0.0
 40
0.0
 40
0.3168976407189438
 40
0.6337023206141287
 40
0.9526840627127072
 40
0.9918074166548407
 40
1.0
 40
1.0
 40
1.0
 40
1.0
 10
129.6939168512505
 20
112.0459004312365
 30
0.0
 10
129.7324409816567
 20
112.0190865650738
 30
0.0
 10
129.8094779415493
 20
111.9654666985029
 30
0.0
 10
129.8920124759535
 20
111.924662790163
 30
0.0
 10
129.9243786330224
 20
111.9210904505727
 30
0.0
 10
129.9324905067103
 20
111.9274462883161
 30
0.0
 10
129.9333693069154
 20
111.9284141723487
 30
0.0
 10
129.9335214679913
 20
111.928581757967
 30
0.0
  0
SPLINE
  5
1F1
330
1F
100
AcDbEntity
  8
0
  6
Continuous
 62
     7
370
    18
100
AcDbSpline
210
0.0
220
0.0
230
1.0
 70
    24
 71
     3
 72
    10
 73
     6
 74
     0
 42
0.000000001
 43
0.00000001
 40
0.0
 40
0.0
 40
0.0
 40
0.0
 40
0.3015605874920979
 40
0.8255301605389646
 40
0.9999999999999999
 40
0.9999999999999999
 40
0.9999999999999999
 40
0.9999999999999999
 10
128.1103046541746
 20
128.6798554091547
 30
0.0
 10
128.2276217212197
 20
128.5416055330434
 30
0.0
 10
128.5487803248593
 20
128.1631428056365
 30
0.0
 10
128.9370474149083
 20
127.7055974676105
 30
0.0
 10
129.2088463406822
 20
127.3853016337486
 30
0.0
 10
129.2767415855613
 20
127.3052918838503
 30
0.0
  0
LINE
  5
1F2
330
1F
100
AcDbEntity
  8
0
  6
Continuous
 62
     7
370
    18
100
AcDbLine
 10
130.8996601292
 20
121.0161642267
 30
0.0
 11
130.8628795283
 21
114.3789958633
 31
0.0
  0
LINE
  5
1F3
330
1F
100
AcDbEntity
  8
0
  6
Continuous
 62
     7
370
    18
100
AcDbLine
 10
123.8158394918
 20
133.7405792374
 30
0.0
 11
128.1103046542
 21
128.6798554092
 31
0.0
  0
LINE
  5
1F4
330
1F
100
AcDbEntity
  8
0
  6
Continuous
 62
     7
370
    18
100
AcDbLine
 10
124.2536721426
 20
111.9734411028
 30
0.0
 11
119.9592069803
 21
117.0341649311
 31
0.0
  0
SPLINE
  5
1F5
330
1F
100
AcDbEntity
  8
0
  6
Continuous
 62
     7
370
    18
100
AcDbSpline
210
0.0
220
0.0
230
1.0
 70
    24
 71
     3
 72
    10
 73
     6
 74
     0
 42
0.000000001
 43
0.00000001
 40
0.0
 40
0.0
 40
0.0
 40
0.0
 40
0.1744698394610408
 40
0.698439412507904
 40
1.0
 40
1.0
 40
1.0
 40
1.0
 10
130.909650255953
 20
122.8189121839176
 30
0.0
 10
130.9090687567879
 20
122.7139789374477
 30
0.0
 10
130.9067408934937
 20
122.2939091119501
 30
0.0
 10
130.9034155208687
 20
121.6938357735477
 30
0.0
 10
130.900664909096
 20
121.1974797331263
 30
0.0
 10
130.8996601292082
 20
121.016164226668
 30
0.0
  0
ARC
  5
1F6
330
1F
100
AcDbEntity
  8
0
  6
Continuous
 62
     7
370
    18
100
AcDbCircle
 10
124.0347558172
 20
122.8570101701
 30
0.0
 40
6.875000000000028
100
AcDbArc
 50
179.6824923652
 51
220.3175076348
  0
SPLINE
  5
1F7
330
1F
100
AcDbEntity
  8
0
  6
Continuous
 62
     7
370
    18
100
AcDbSpline
210
0.0
220
0.0
230
1.0
 70
    24
 71
     3
 72
    10
 73
     6
 74
     0
 42
0.000000001
 43
0.00000001
 40
0.0
 40
0.0
 40
0.0
 40
0.0
 40
0.3015605874920909
 40
0.8255301605389533
 40
1.0
 40
1.0
 40
1.0
 40
1.0
 10
119.9592069803053
 20
117.0341649310833
 30
0.0
 10
119.8418899132602
 20
117.1724148071946
 30
0.0
 10
119.5207313096206
 20
117.5508775346014
 30
0.0
 10
119.1324642195716
 20
118.0084228726275
 30
0.0
 10
118.8606652937977
 20
118.3287187064893
 30
0.0
 10
118.7927700489186
 20
118.4087284563877
 30
0.0
  0
ARC
  5
1F8
330
1F
100
AcDbEntity
  8
0
  6
Continuous
 62
     7
370
    18
100
AcDbCircle
 10
124.0347558172
 20
122.8570101701
 30
0.0
 40
6.875000000000008
100
AcDbArc
 50
359.6824923652
 51
40.3175076348
  0
SPLINE
  5
1F9
330
1F
100
AcDbEntity
  8
0
  6
Continuous
 62
     7
370
    18
100
AcDbSpline
210
0.0
220
0.0
230
1.0
 70
    24
 71
     3
 72
    10
 73
     6
 74
     0
 42
0.000000001
 43
0.00000001
 40
0.0
 40
0.0
 40
0.0
 40
0.0
 40
0.1744698394610329
 40
0.6984394125079046
 40
1.0
 40
1.0
 40
1.0
 40
1.0
 10
117.1598613785269
 20
122.8951081563204
 30
0.0
 10
117.160442877692
 20
123.0000414027903
 30
0.0
 10
117.1627707409862
 20
123.4201112282879
 30
0.0
 10
117.1660961136112
 20
124.0201845666903
 30
0.0
 10
117.1688467253839
 20
124.5165406071117
 30
0.0
 10
117.1698515052717
 20
124.69785611357
 30
0.0
  0
LINE
  5
1FA
330
1F
100
AcDbEntity
  8
0
  6
Continuous
 62
     7
370
    18
100
AcDbLine
 10
117.1698515053
 20
124.6978561136
 30
0.0
 11
117.2066321062
 21
131.3350244769
 31
0.0
  0
ARC
  5
1FB
330
1F
100
AcDbEntity
  8
0
  6
Continuous
 62
     7
370
    18
100
AcDbCircle
 10
127.1129371072
 20
114.399776583
 30
0.0
 40
3.750000000000012
100
AcDbArc
 50
261.2225308299
 51
318.7774691702
  0
ARC
  5
1FC
330
1F
100
AcDbEntity
  8
0
  6
Continuous
 62
     7
370
    18
100
AcDbCircle
 10
120.9565745273
 20
131.3142437572
 30
0.0
 40
3.750000000000006
100
AcDbArc
 50
81.2225308299
 51
138.7774691701
  0
CIRCLE
  5
1FD
330
1F
100
AcDbEntity
  8
0
  6
Continuous
 62
     7
370
    18
100
AcDbCircle
 10
108.5347558172
 20
122.8570101701
 30
0.0
 40
5.500000000000018
  0
CIRCLE
  5
1FE
330
1F
100
AcDbEntity
  8
0
  6
Continuous
 62
     7
370
    18
100
AcDbCircle
 10
108.5347558172
 20
122.8570101701
 30
0.0
 40
5.000000000000004
  0
CIRCLE
  5
1FF
330
1F
100
AcDbEntity
  8
0
  6
Continuous
 62
     7
370
    18
100
AcDbCircle
 10
108.5347558172
 20
122.8570101701
 30
0.0
 40
7.875000000000016
  0
LINE
  5
200
330
1F
100
AcDbEntity
  8
0
  6
Continuous
 62
     7
370
    18
100
AcDbLine
 10
100.6640836273
 20
112.6563964985
 30
0.0
 11
100.6597565262
 21
122.8536685001
 31
0.0
  0
LINE
  5
201
330
1F
100
AcDbEntity
  8
0
  6
Continuous
 62
     7
370
    18
100
AcDbLine
 10
114.1972349159
 20
117.3841721991
 30
0.0
 11
107.1105019081
 21
110.0518744503
 31
0.0
  0
LINE
  5
202
330
1F
100
AcDbEntity
  8
0
  6
Continuous
 62
     7
370
    18
100
AcDbLine
 10
102.8722767186
 20
128.3298481412
 30
0.0
 11
109.9590097264
 21
135.6621458899
 31
0.0
  0
LINE
  5
203
330
1F
100
AcDbEntity
  8
0
  6
Continuous
 62
     7
370
    18
100
AcDbLine
 10
116.4054280072
 20
133.0576238418
 30
0.0
 11
116.4097551082
 21
122.8603518401
 31
0.0
  0
SPLINE
  5
204
330
1F
100
AcDbEntity
  8
0
  6
Continuous
 62
     7
370
    18
100
AcDbSpline
210
0.0
220
0.0
230
1.0
 70
     8
 71
     3
 72
    10
 73
     6
 74
     0
 42
0.000000001
 43
0.00000001
 40
0.0
 40
0.0
 40
0.0
 40
0.0
 40
0.2847087596251225
 40
0.6647927310234544
 40
1.0
 40
1.0
 40
1.0
 40
1.0
 10
111.5405619518845
 20
136.2546939782471
 30
0.0
 10
111.5482220467981
 20
136.2410952384028
 30
0.0
 10
111.5661083086195
 20
136.2093422870308
 30
0.0
 10
111.6129485631491
 20
136.175820201714
 30
0.0
 10
111.6494140889883
 20
136.1595472328224
 30
0.0
 10
111.6665029454406
 20
136.1519212237894
 30
0.0
  0
ARC
  5
205
330
1F
100
AcDbEntity
  8
0
  6
Continuous
 62
     7
370
    18
100
AcDbCircle
 10
112.6554283448
 20
133.0560325704
 30
0.0
 40
3.750000000000028
100
AcDbArc
 50
110.3024166942
 51
135.975687163
  0
SPLINE
  5
206
330
1F
100
AcDbEntity
  8
0
  6
Continuous
 62
     7
370
    18
100
AcDbSpline
210
0.0
220
0.0
230
1.0
 70
     8
 71
     3
 72
    12
 73
     8
 74
     0
 42
0.000000001
 43
0.00000001
 40
0.0
 40
0.0
 40
0.0
 40
0.0
 40
0.2595717921258143
 40
0.5190865717156465
 40
0.779994666753715
 40
0.9926747722925896
 40
1.0
 40
1.0
 40
1.0
 40
1.0
 10
111.5405619518845
 20
136.2546939782471
 30
0.0
 10
111.5197199020486
 20
136.3029878897706
 30
0.0
 10
111.4780403801398
 20
136.3995651055081
 30
0.0
 10
111.4207965575626
 20
136.5065170749374
 30
0.0
 10
111.3785379302772
 20
136.5656352144581
 30
0.0
 10
111.3603685291998
 20
136.5751561015834
 30
0.0
 10
111.3544677742183
 20
136.5731287001362
 30
0.0
 10
111.3542713045544
 20
136.5730611964215
 30
0.0
  0
SPLINE
  5
207
330
1F
100
AcDbEntity
  8
0
  6
Continuous
 62
     7
370
    18
100
AcDbSpline
210
0.0
220
0.0
230
1.0
 70
     8
 71
     3
 72
    10
 73
     6
 74
     0
 42
0.000000001
 43
0.00000001
 40
0.0
 40
0.0
 40
0.0
 40
0.0
 40
0.416105523050976
 40
0.7671192668593416
 40
1.0
 40
1.0
 40
1.0
 40
1.0
 10
115.517386711269
 20
134.5960631897519
 30
0.0
 10
115.5393243138349
 20
134.5882393426062
 30
0.0
 10
115.5797677991163
 20
134.5738155400995
 30
0.0
 10
115.6369292932642
 20
134.5688225970861
 30
0.0
 10
115.6672713822769
 20
134.578604384585
 30
0.0
 10
115.6793730345672
 20
134.582505757066
 30
0.0
  0
LINE
  5
208
330
1F
100
AcDbEntity
  8
0
  6
Continuous
 62
     7
370
    18
100
AcDbLine
 10
111.6665029454
 20
136.1519212238
 30
0.0
 11
112.5404326154
 21
135.7988307176
 31
0.0
  0
LINE
  5
209
330
1F
100
AcDbEntity
  8
0
  6
Continuous
 62
     7
370
    18
100
AcDbLine
 10
114.5543762175
 20
134.985144685
 30
0.0
 11
115.5173867113
 21
134.5960631898
 31
0.0
  0
ARC
  5
20A
330
1F
100
AcDbEntity
  8
0
  6
Continuous
 62
     7
370
    18
100
AcDbCircle
 10
104.4140832897
 20
112.6579877699
 30
0.0
 40
3.750000000000008
100
AcDbArc
 50
290.3024166942
 51
315.975687163
  0
SPLINE
  5
20B
330
1F
100
AcDbEntity
  8
0
  6
Continuous
 62
     7
370
    18
100
AcDbSpline
210
0.0
220
0.0
230
1.0
 70
     8
 71
     3
 72
    12
 73
     8
 74
     0
 42
0.000000001
 43
0.00000001
 40
0.0
 40
0.0
 40
0.0
 40
0.0
 40
0.0073252277074108
 40
0.2200053332462828
 40
0.4809134282843497
 40
0.7404282078741984
 40
1.0
 40
1.0
 40
1.0
 40
1.0
 10
105.7152403299255
 20
109.1409591438165
 30
0.0
 10
105.7150438602616
 20
109.1408916401018
 30
0.0
 10
105.7091431052801
 20
109.1388642386545
 30
0.0
 10
105.6909737042027
 20
109.1483851257799
 30
0.0
 10
105.6487150769173
 20
109.2075032653005
 30
0.0
 10
105.5914712543401
 20
109.3144552347299
 30
0.0
 10
105.5497917324313
 20
109.4110324504673
 30
0.0
 10
105.5289496825955
 20
109.4593263619909
 30
0.0
  0
SPLINE
  5
20C
330
1F
100
AcDbEntity
  8
0
  6
Continuous
 62
     7
370
    18
100
AcDbSpline
210
0.0
220
0.0
230
1.0
 70
     8
 71
     3
 72
    10
 73
     6
 74
     0
 42
0.000000001
 43
0.00000001
 40
0.0
 40
0.0
 40
0.0
 40
0.0
 40
0.2847087596250959
 40
0.6647927310234681
 40
1.0
 40
1.0
 40
1.0
 40
1.0
 10
105.5289496825955
 20
109.4593263619909
 30
0.0
 10
105.5212895876818
 20
109.4729251018351
 30
0.0
 10
105.5034033258604
 20
109.5046780532071
 30
0.0
 10
105.4565630713308
 20
109.538200138524
 30
0.0
 10
105.4200975454917
 20
109.5544731074156
 30
0.0
 10
105.4030086890394
 20
109.5620991164486
 30
0.0
  0
SPLINE
  5
20D
330
1F
100
AcDbEntity
  8
0
  6
Continuous
 62
     7
370
    18
100
AcDbSpline
210
0.0
220
0.0
230
1.0
 70
     8
 71
     3
 72
    10
 73
     6
 74
     0
 42
0.000000001
 43
0.00000001
 40
0.0
 40
0.0
 40
0.0
 40
0.0
 40
0.4161055230509441
 40
0.7671192668594077
 40
1.0
 40
1.0
 40
1.0
 40
1.0
 10
101.5521249232109
 20
111.1179571504861
 30
0.0
 10
101.530187320645
 20
111.1257809976318
 30
0.0
 10
101.4897438353637
 20
111.1402048001385
 30
0.0
 10
101.4325823412157
 20
111.1451977431519
 30
0.0
 10
101.402240252203
 20
111.1354159556529
 30
0.0
 10
101.3901385999127
 20
111.1315145831719
 30
0.0
  0
LINE
  5
20E
330
1F
100
AcDbEntity
  8
0
  6
Continuous
 62
     7
370
    18
100
AcDbLine
 10
101.5521249232
 20
111.1179571505
 30
0.0
 11
102.5151354169
 21
110.7288756553
 31
0.0
  0
LINE
  5
20F
330
1F
100
AcDbEntity
  8
0
  6
Continuous
 62
     7
370
    18
100
AcDbLine
 10
104.5290790191
 20
109.9151896226
 30
0.0
 11
105.403008689
 21
109.5620991164
 31
0.0
  0
SPLINE
  5
210
330
1F
100
AcDbEntity
  8
0
  6
Continuous
 62
     7
370
    18
100
AcDbSpline
210
0.0
220
0.0
230
1.0
 70
     8
 71
     3
 72
    12
 73
     8
 74
     0
 42
0.000000001
 43
0.00000001
 40
0.0
 40
0.0
 40
0.0
 40
0.0
 40
0.259571792125793
 40
0.5190865717156449
 40
0.7799946667537156
 40
0.9926747722925895
 40
1.0
 40
1.0
 40
1.0
 40
1.0
 10
115.6793730345672
 20
134.582505757066
 30
0.0
 10
115.7279133204168
 20
134.602767385363
 30
0.0
 10
115.8249832306926
 20
134.6432861916782
 30
0.0
 10
115.9404560713971
 20
134.680456099503
 30
0.0
 10
116.011921294375
 20
134.6936268210142
 30
0.0
 10
116.0316050316543
 20
134.6878540475134
 30
0.0
 10
116.0344413281788
 20
134.6822966481212
 30
0.0
 10
116.0345357646072
 20
134.6821116107159
 30
0.0
  0
ARC
  5
211
330
1F
100
AcDbEntity
  8
0
  6
Continuous
 62
     7
370
    18
100
AcDbCircle
 10
112.6554283448
 20
133.0560325704
 30
0.0
 40
3.750000000000004
100
AcDbArc
 50
0.024312837
 51
25.6975833058
  0
SPLINE
  5
212
330
1F
100
AcDbEntity
  8
0
  6
Continuous
 62
     7
370
    18
100
AcDbSpline
210
0.0
220
0.0
230
1.0
 70
     8
 71
     3
 72
    12
 73
     8
 74
     0
 42
0.000000001
 43
0.00000001
 40
0.0
 40
0.0
 40
0.0
 40
0.0
 40
0.0073252277074111
 40
0.2200053332462846
 40
0.4809134282843529
 40
0.7404282078741938
 40
1.0
 40
1.0
 40
1.0
 40
1.0
 10
101.0349758698728
 20
111.0319087295221
 30
0.0
 10
101.0350703063011
 20
111.0317236921168
 30
0.0
 10
101.0379066028257
 20
111.0261662927245
 30
0.0
 10
101.0575903401049
 20
111.0203935192238
 30
0.0
 10
101.1290555630829
 20
111.033564240735
 30
0.0
 10
101.2445284037873
 20
111.0707341485598
 30
0.0
 10
101.3415983140631
 20
111.111252954875
 30
0.0
 10
101.3901385999127
 20
111.1315145831719
 30
0.0
  0
ARC
  5
213
330
1F
100
AcDbEntity
  8
0
  6
Continuous
 62
     7
370
    18
100
AcDbCircle
 10
104.4140832897
 20
112.6579877699
 30
0.0
 40
3.750000000000004
100
AcDbArc
 50
180.024312837
 51
205.6975833058
  0
ARC
  5
214
330
1F
100
AcDbEntity
  8
0
  6
Continuous
 62
     7
370
    18
100
AcDbCircle
 10
112.6554283448
 20
133.0560325704
 30
0.0
 40
3.750000000000028
100
AcDbArc
 50
108.7504936605
 51
110.3024166942
  0
ARC
  5
215
330
1F
100
AcDbEntity
  8
0
  6
Continuous
 62
     7
370
    18
100
AcDbCircle
 10
112.6554283448
 20
133.0560325704
 30
0.0
 40
3.750000000000013
100
AcDbArc
 50
25.6975833058
 51
71.2495063395
  0
ARC
  5
216
330
1F
100
AcDbEntity
  8
0
  6
Continuous
 62
     7
370
    18
100
AcDbCircle
 10
104.4140832897
 20
112.6579877699
 30
0.0
 40
3.750000000000006
100
AcDbArc
 50
205.6975833058
 51
290.3024166942
  0
CIRCLE
  5
217
330
1F
100
AcDbEntity
  8
0
  6
Continuous
 62
     7
370
    18
100
AcDbCircle
 10
124.0347558172
 20
122.8570101701
 30
0.0
 40
4.0
  0
LWPOLYLINE
  5
218
330
1F
100
AcDbEntity
  8
0
  6
Continuous
 62
     7
370
    18
100
AcDbPolyline
 90
        3
 70
   128
 43
0.0
 10
114.0602030701
 20
136.532972025
 10
114.0097323152
 20
136.5528751348
 10
113.8578915843
 20
136.6070101701
  0
ARC
  5
219
330
1F
100
AcDbEntity
  8
0
  6
Continuous
 62
     7
370
    18
100
AcDbCircle
 10
117.2381222876
 20
134.4842700639
 30
0.0
 40
1.250000000000021
100
AcDbArc
 50
225.860859519
 51
298.1829043044
  0
LINE
  5
21A
330
1F
100
AcDbEntity
  8
0
  6
Continuous
 62
     7
370
    18
100
AcDbLine
 10
125.2480772034
 20
132.0527882692
 30
0.0
 11
129.1033342484
 21
128.7197751054
 31
0.0
  0
ARC
  5
21B
330
1F
100
AcDbEntity
  8
0
  6
Continuous
 62
     7
370
    18
100
AcDbCircle
 10
124.0347558172
 20
122.8570101701
 30
0.0
 40
7.74999999999999
100
AcDbArc
 50
350.8446345737
 51
49.1553654263
  0
LINE
  5
21C
330
1F
100
AcDbEntity
  8
0
  6
Continuous
 62
     7
370
    18
100
AcDbLine
 10
131.6860248179
 20
121.6238910844
 30
0.0
 11
130.8751461463
 21
116.5925434107
 31
0.0
  0
LINE
  5
21D
330
1F
100
AcDbEntity
  8
0
  6
Continuous
 62
     7
370
    18
100
AcDbLine
 10
118.9661773861
 20
116.9942452348
 30
0.0
 11
122.8214344311
 21
113.6612320711
 31
0.0
  0
ARC
  5
21E
330
1F
100
AcDbEntity
  8
0
  6
Continuous
 62
     7
370
    18
100
AcDbCircle
 10
124.0347558172
 20
122.8570101701
 30
0.0
 40
7.750000000000002
100
AcDbArc
 50
210.5584317859
 51
229.1553654263
  0
ARC
  5
21F
330
1F
100
AcDbEntity
  8
0
  6
Continuous
 62
     7
370
    18
100
AcDbCircle
 10
116.2847558172
 20
118.2812588657
 30
0.0
 40
1.249999999999998
100
AcDbArc
 50
30.5584317859
 51
125.3921698529
  0
LINE
  5
220
330
1F
100
AcDbEntity
  8
0
  6
Continuous
 62
     7
370
    18
100
AcDbLine
 10
102.2296908552
 20
127.5752493358
 30
0.0
 11
101.8379879686
 21
128.2536986368
 31
0.0
  0
LINE
  5
221
330
1F
100
AcDbEntity
  8
0
  6
Continuous
 62
     7
370
    18
100
AcDbLine
 10
104.0115642161
 20
129.5086134684
 30
0.0
 11
101.8379879686
 21
128.2536986368
 31
0.0
  0
CIRCLE
  5
222
330
1F
100
AcDbEntity
  8
0
  6
Continuous
 62
     7
370
    18
100
AcDbCircle
 10
108.5347558172
 20
122.8570101701
 30
0.0
 40
4.625
  0
SPLINE
  5
223
330
1F
100
AcDbEntity
  8
0
  6
Continuous
 62
     7
370
    18
100
AcDbSpline
210
0.0
220
0.0
230
1.0
 70
     8
 71
     3
 72
     9
 73
     5
 74
     0
 42
0.000000001
 43
0.00000001
 40
0.0
 40
0.0
 40
0.0
 40
0.0
 40
0.5032608638445693
 40
1.0
 40
1.0
 40
1.0
 40
1.0
 10
105.6555065998971
 20
133.5464549643201
 30
0.0
 10
105.3460314458267
 20
133.9011697752027
 30
0.0
 10
104.7310916078543
 20
134.6060026687697
 30
0.0
 10
104.0013869698615
 20
135.1898716278202
 30
0.0
 10
103.6389141183364
 20
135.4799021901669
 30
0.0
  0
SPLINE
  5
224
330
1F
100
AcDbEntity
  8
0
  6
Continuous
 62
     7
370
    18
100
AcDbSpline
210
0.0
220
0.0
230
1.0
 70
     8
 71
     3
 72
    10
 73
     6
 74
     0
 42
0.000000001
 43
0.00000001
 40
0.0
 40
0.0
 40
0.0
 40
0.0
 40
0.180068400205306
 40
0.6262821453318257
 40
1.0
 40
1.0
 40
1.0
 40
1.0
 10
100.381558546311
 20
131.7777172918015
 30
0.0
 10
100.4255542241861
 20
131.6076438786251
 30
0.0
 10
100.5785722300858
 20
131.0161245340506
 30
0.0
 10
100.9288527376608
 20
130.1026417202334
 30
0.0
 10
101.2447071550762
 20
129.3671633803662
 30
0.0
 10
101.3886709141185
 20
129.031938603813
 30
0.0
  0
SPLINE
  5
225
330
1F
100
AcDbEntity
  8
0
  6
Continuous
 62
     7
370
    18
100
AcDbSpline
210
0.0
220
0.0
230
1.0
 70
     8
 71
     3
 72
    11
 73
     7
 74
     0
 42
0.000000001
 43
0.00000001
 40
0.0
 40
0.0
 40
0.0
 40
0.0
 40
0.2081997669156312
 40
0.5068232182744351
 40
0.8141893417505884
 40
1.0
 40
1.0
 40
1.0
 40
1.0
 10
106.7915563154348
 20
132.3487642908536
 30
0.0
 10
106.7595630354846
 20
132.4030227466114
 30
0.0
 10
106.6816814059912
 20
132.5351047636719
 30
0.0
 10
106.355635602114
 20
132.8384742433268
 30
0.0
 10
105.9771871397962
 20
133.1882519217955
 30
0.0
 10
105.7435372015632
 20
133.4484296707729
 30
0.0
 10
105.6555065998971
 20
133.5464549643201
 30
0.0
  0
LWPOLYLINE
  5
226
330
1F
100
AcDbEntity
  8
0
  6
Continuous
 62
     7
370
    18
100
AcDbPolyline
 90
       16
 70
   128
 43
0.0
 10
106.5596452765
 20
132.1449889326
 10
106.5134184807
 20
132.1430743491
 10
106.2018828816
 20
132.102208421
 10
105.8333902314
 20
132.0119014781
 10
105.4184258629
 20
131.8747231739
 10
104.968797446
 20
131.6945768702
 10
104.497299004
 20
131.4765885687
 10
104.0173468645
 20
131.2269610523
 10
103.5425979023
 20
130.952797387
 10
103.0865609372
 20
130.6618988064
 10
102.6622123459
 20
130.3625427306
 10
102.2816268228
 20
130.0632472348
 10
101.9556337996
 20
129.7725286703
 10
101.6935092965
 20
129.498659335
 10
101.5027119771
 20
129.2494320873
 10
101.3886709141
 20
129.0319386038
  0
LWPOLYLINE
  5
227
330
1F
100
AcDbEntity
  8
0
  6
Continuous
 62
     7
370
    18
100
AcDbPolyline
 90
       22
 70
   128
 43
0.0
 10
103.3341799907
 20
129.8646717303
 10
103.4107991959
 20
129.8208177625
 10
103.5575606061
 20
129.8252876064
 10
103.7614238259
 20
129.8776840967
 10
104.0042747137
 20
129.9733515754
 10
104.2645349023
 20
130.1037895672
 10
104.5190791318
 20
130.257408084
 10
104.7452900304
 20
130.4205574465
 10
104.923067767
 20
130.5787411178
 10
105.0366160096
 20
130.7179037847
 10
105.0758454985
 20
130.8256802334
 10
105.0372705215
 20
130.8924940535
 10
104.9243186346
 20
130.9124085438
 10
104.7470261085
 20
130.8836542146
 10
104.5211461623
 20
130.8087860141
 10
104.2667492205
 20
130.6944563106
 10
104.0064395677
 20
130.5508237998
 10
103.763346859
 20
130.3906508608
 10
103.5590709482
 20
130.228169562
 10
103.4117626466
 20
130.0778170799
 10
103.3345109431
 20
129.9529528923
 10
103.3341799907
 20
129.8646717303
  0
LINE
  5
228
330
1F
100
AcDbEntity
  8
0
  6
Continuous
 62
     7
370
    18
100
AcDbLine
 10
101.3886709141
 20
129.0319386038
 30
0.0
 11
101.8379879686
 21
128.2536986368
 31
0.0
  0
ARC
  5
229
330
1F
100
AcDbEntity
  8
0
  6
Continuous
 62
     7
370
    18
100
AcDbCircle
 10
100.4807140588
 20
102.9225572969
 30
0.0
 40
2.250000000000005
100
AcDbArc
 50
0.0
 51
106.3462334081
  0
ARC
  5
22A
330
1F
100
AcDbEntity
  8
0
  6
Continuous
 62
     7
370
    18
100
AcDbCircle
 10
100.4807140588
 20
102.9225572969
 30
0.0
 40
2.250000000000005
100
AcDbArc
 50
253.6537665919
 51
0.0
  0
ARC
  5
22B
330
1F
100
AcDbEntity
  8
0
  6
Continuous
 62
     7
370
    18
100
AcDbCircle
 10
108.5347558172
 20
122.8570101701
 30
0.0
 40
23.75
100
AcDbArc
 50
340.0889479278
 51
33.9807580472
  0
ARC
  5
22C
330
1F
100
AcDbEntity
  8
0
  6
Continuous
 62
     7
370
    18
100
AcDbCircle
 10
108.5347558172
 20
122.8570101701
 30
0.0
 40
23.75000000000001
100
AcDbArc
 50
324.9489834013
 51
331.0728952791
  0
ARC
  5
22D
330
1F
100
AcDbEntity
  8
0
  6
Continuous
 62
     7
370
    18
100
AcDbCircle
 10
108.5347558172
 20
122.8570101701
 30
0.0
 40
23.75
100
AcDbArc
 50
248.5443828998
 51
305.0510165987
  0
LINE
  5
22E
330
1F
100
AcDbEntity
  8
0
  6
Continuous
 62
     7
370
    18
100
AcDbLine
 10
128.9807933032
 20
105.4728348626
 30
0.0
 11
127.9774796338
 21
109.2172524527
 31
0.0
  0
ARC
  5
22F
330
1F
100
AcDbEntity
  8
0
  6
Continuous
 62
     7
370
    18
100
AcDbCircle
 10
126.5659787375
 20
104.8257872499
 30
0.0
 40
2.500000000000011
100
AcDbArc
 50
255.0
 51
15.0
  0
ARC
  5
230
330
1F
100
AcDbEntity
  8
0
  6
Continuous
 62
     7
370
    18
100
AcDbCircle
 10
108.5347558172
 20
122.8570101701
 30
0.0
 40
23.75000000000002
100
AcDbArc
 50
305.0510165987
 51
312.0466694267
  0
ARC
  5
231
330
1F
100
AcDbEntity
  8
0
  6
Continuous
 62
     7
370
    18
100
AcDbCircle
 10
108.5347558172
 20
122.8570101701
 30
0.0
 40
23.75000000000001
100
AcDbArc
 50
318.6256321132
 51
324.9489834013
  0
LINE
  5
232
330
1F
100
AcDbEntity
  8
0
  6
Continuous
 62
     7
370
    18
100
AcDbLine
 10
125.9189311247
 20
102.4109726841
 30
0.0
 11
122.1745135347
 21
103.4142863535
 31
0.0
  0
ARC
  5
233
330
1F
100
AcDbEntity
  8
0
  6
Continuous
 62
     7
370
    18
100
AcDbCircle
 10
108.5347558172
 20
122.8570101701
 30
0.0
 40
24.75000000000001
100
AcDbArc
 50
323.0363739571
 51
346.0558545223
  0
ARC
  5
234
330
1F
100
AcDbEntity
  8
0
  6
Continuous
 62
     7
370
    18
100
AcDbCircle
 10
108.5347558172
 20
122.8570101701
 30
0.0
 40
24.74999999999999
100
AcDbArc
 50
13.9441454777
 51
29.2202980268
  0
ARC
  5
235
330
1F
100
AcDbEntity
  8
0
  6
Continuous
 62
     7
370
    18
100
AcDbCircle
 10
108.5347558172
 20
122.8570101701
 30
0.0
 40
24.75000000000001
100
AcDbArc
 50
249.4514235393
 51
306.9636260429
  0
LINE
  5
236
330
1F
100
AcDbEntity
  8
0
  6
Continuous
 62
     7
370
    18
100
AcDbLine
 10
119.1962435406
 20
98.7320101701
 30
0.0
 11
118.6946415949
 21
100.288465224
 31
0.0
  0
LINE
  5
237
330
1F
100
AcDbEntity
  8
0
  6
Continuous
 62
     7
370
    18
100
AcDbLine
 10
142.999033918
 20
25.2320101701
 30
0.0
 11
129.0283180688
 21
25.2320101701
 31
0.0
  0
LINE
  5
238
330
1F
100
AcDbEntity
  8
0
  6
Continuous
 62
     7
370
    18
100
AcDbLine
 10
84.5411935657
 20
25.2320101701
 30
0.0
 11
70.5704777164
 21
25.2320101701
 31
0.0
  0
LINE
  5
239
330
1F
100
AcDbEntity
  8
0
  6
Continuous
 62
     7
370
    18
100
AcDbLine
 10
101.6597558172
 20
98.7320101701
 30
0.0
 11
103.0078330749
 21
98.7320101701
 31
0.0
  0
LINE
  5
23A
330
1F
100
AcDbEntity
  8
0
  6
Continuous
 62
     7
370
    18
100
AcDbLine
 10
99.8474715646
 20
98.7320101701
 30
0.0
 11
101.6597558172
 21
98.7320101701
 31
0.0
  0
LINE
  5
23B
330
1F
100
AcDbEntity
  8
0
  6
Continuous
 62
     7
370
    18
100
AcDbLine
 10
121.3283166679
 20
98.7320101701
 30
0.0
 11
130.8387497226
 21
98.7320101701
 31
0.0
  0
LINE
  5
23C
330
1F
100
AcDbEntity
  8
0
  6
Continuous
 62
     7
370
    18
100
AcDbLine
 10
118.6597558172
 20
98.7320101701
 30
0.0
 11
121.3283166679
 21
98.7320101701
 31
0.0
  0
LINE
  5
23D
330
1F
100
AcDbEntity
  8
0
  6
Continuous
 62
     7
370
    18
100
AcDbLine
 10
115.0932081952
 20
98.7320101701
 30
0.0
 11
118.6597558172
 21
98.7320101701
 31
0.0
  0
ARC
  5
23E
330
1F
100
AcDbEntity
  8
0
  6
Continuous
 62
     7
370
    18
100
AcDbCircle
 10
115.0932081952
 20
97.0820101701
 30
0.0
 40
1.649999999999991
100
AcDbArc
 50
90.0
 51
135.0
  0
LINE
  5
23F
330
1F
100
AcDbEntity
  8
0
  6
Continuous
 62
     7
370
    18
100
AcDbLine
 10
130.8387497226
 20
98.7320101701
 30
0.0
 11
132.2263034393
 21
98.7320101701
 31
0.0
  0
LINE
  5
240
330
1F
100
AcDbEntity
  8
0
  6
Continuous
 62
     7
370
    18
100
AcDbLine
 10
64.2847558172
 20
34.0801434092
 30
0.0
 11
64.2847558172
 21
41.883876931
 31
0.0
  0
LINE
  5
241
330
1F
100
AcDbEntity
  8
0
  6
Continuous
 62
     7
370
    18
100
AcDbLine
 10
149.2847558172
 20
41.883876931
 30
0.0
 11
149.2847558172
 21
34.0801434092
 31
0.0
  0
LINE
  5
242
330
1F
100
AcDbEntity
  8
0
  6
Continuous
 62
     7
370
    18
100
AcDbLine
 10
64.2847558172
 20
31.5475457592
 30
0.0
 11
64.2847558172
 21
34.0801434092
 31
0.0
  0
LINE
  5
243
330
1F
100
AcDbEntity
  8
0
  6
Continuous
 62
     7
370
    18
100
AcDbLine
 10
64.2847558172
 20
41.883876931
 30
0.0
 11
64.2847558172
 21
44.416474581
 31
0.0
  0
LINE
  5
244
330
1F
100
AcDbEntity
  8
0
  6
Continuous
 62
     7
370
    18
100
AcDbLine
 10
149.2847558172
 20
44.416474581
 30
0.0
 11
149.2847558172
 21
41.883876931
 31
0.0
  0
LINE
  5
245
330
1F
100
AcDbEntity
  8
0
  6
Continuous
 62
     7
370
    18
100
AcDbLine
 10
149.2847558172
 20
34.0801434092
 30
0.0
 11
149.2847558172
 21
31.5475457592
 31
0.0
  0
SPLINE
  5
246
330
1F
100
AcDbEntity
  8
0
  6
Continuous
 62
     7
370
    18
100
AcDbSpline
210
0.0
220
0.0
230
1.0
 70
    24
 71
     3
 72
     8
 73
     4
 74
     0
 42
0.000000001
 43
0.00000001
 40
0.0
 40
0.0
 40
0.0
 40
0.0
 40
1.0
 40
1.0
 40
1.0
 40
1.0
 10
64.28475581724092
 20
31.17605877172687
 30
0.0
 10
64.28475581724092
 20
31.30453322523928
 30
0.0
 10
64.28475581724094
 20
31.42853693419142
 30
0.0
 10
64.28475581724094
 20
31.54754575924053
 30
0.0
  0
SPLINE
  5
247
330
1F
100
AcDbEntity
  8
0
  6
Continuous
 62
     7
370
    18
100
AcDbSpline
210
0.0
220
0.0
230
1.0
 70
    24
 71
     3
 72
     8
 73
     4
 74
     0
 42
0.000000001
 43
0.00000001
 40
0.0
 40
0.0
 40
0.0
 40
0.0
 40
1.0
 40
1.0
 40
1.0
 40
1.0
 10
64.28475581724094
 20
44.41647458099743
 30
0.0
 10
64.28475581724094
 20
44.53548340604647
 30
0.0
 10
64.28475581724092
 20
44.65948711499859
 30
0.0
 10
64.28475581724092
 20
44.78796156851097
 30
0.0
  0
SPLINE
  5
248
330
1F
100
AcDbEntity
  8
0
  6
Continuous
 62
     7
370
    18
100
AcDbSpline
210
0.0
220
0.0
230
1.0
 70
    24
 71
     3
 72
     8
 73
     4
 74
     0
 42
0.000000001
 43
0.00000001
 40
0.0
 40
0.0
 40
0.0
 40
0.0
 40
1.0
 40
1.0
 40
1.0
 40
1.0
 10
149.2847558172409
 20
44.78796156851095
 30
0.0
 10
149.2847558172409
 20
44.65948711499857
 30
0.0
 10
149.2847558172409
 20
44.53548340604645
 30
0.0
 10
149.2847558172409
 20
44.41647458099738
 30
0.0
  0
SPLINE
  5
249
330
1F
100
AcDbEntity
  8
0
  6
Continuous
 62
     7
370
    18
100
AcDbSpline
210
0.0
220
0.0
230
1.0
 70
    24
 71
     3
 72
     8
 73
     4
 74
     0
 42
0.000000001
 43
0.00000001
 40
0.0
 40
0.0
 40
0.0
 40
0.0
 40
1.0
 40
1.0
 40
1.0
 40
1.0
 10
149.2847558172409
 20
31.54754575924053
 30
0.0
 10
149.2847558172409
 20
31.42853693419148
 30
0.0
 10
149.2847558172409
 20
31.30453322523936
 30
0.0
 10
149.2847558172409
 20
31.17605877172699
 30
0.0
  0
SPLINE
  5
24A
330
1F
100
AcDbEntity
  8
0
  6
Continuous
 62
     7
370
    18
100
AcDbSpline
210
0.0
220
0.0
230
1.0
 70
    24
 71
     3
 72
    12
 73
     8
 74
     0
 42
0.000000001
 43
0.00000001
 40
0.0
 40
0.0
 40
0.0
 40
0.0
 40
0.5
 40
0.5
 40
0.75
 40
0.75
 40
1.0
 40
1.0
 40
1.0
 40
1.0
 10
149.2847558172409
 20
44.78796156851134
 30
0.0
 10
149.2847558172409
 20
44.99211814581313
 30
0.0
 10
149.2847558172409
 20
45.16409509933116
 30
0.0
 10
149.2847558172409
 20
45.37029117561965
 30
0.0
 10
149.2847558172409
 20
45.43029456007829
 30
0.0
 10
149.2847558172409
 20
45.5323528443591
 30
0.0
 10
149.2847558172409
 20
45.57409955935513
 30
0.0
 10
149.2847558172409
 20
45.60701017011898
 30
0.0
  0
SPLINE
  5
24B
330
1F
100
AcDbEntity
  8
0
  6
Continuous
 62
     7
370
    18
100
AcDbSpline
210
0.0
220
0.0
230
1.0
 70
    24
 71
     3
 72
    12
 73
     8
 74
     0
 42
0.000000001
 43
0.00000001
 40
0.0
 40
0.0
 40
0.0
 40
0.0
 40
0.4999999999999999
 40
0.4999999999999999
 40
0.75
 40
0.75
 40
1.0
 40
1.0
 40
1.0
 40
1.0
 10
64.28475581724092
 20
31.17605877172661
 30
0.0
 10
64.28475581724092
 20
30.97190219442481
 30
0.0
 10
64.2847558172409
 20
30.7999252409069
 30
0.0
 10
64.2847558172409
 20
30.59372916461836
 30
0.0
 10
64.2847558172409
 20
30.53372578015966
 30
0.0
 10
64.2847558172409
 20
30.43166749587882
 30
0.0
 10
64.2847558172409
 20
30.38992078061528
 30
0.0
 10
64.28475581724089
 20
30.35701017011898
 30
0.0
  0
SPLINE
  5
24C
330
1F
100
AcDbEntity
  8
0
  6
Continuous
 62
     7
370
    18
100
AcDbSpline
210
0.0
220
0.0
230
1.0
 70
    24
 71
     3
 72
    14
 73
    10
 74
     0
 42
0.000000001
 43
0.00000001
 40
0.0
 40
0.0
 40
0.0
 40
0.0
 40
0.25
 40
0.25
 40
0.5
 40
0.5
 40
0.75
 40
0.75
 40
1.0
 40
1.0
 40
1.0
 40
1.0
 10
64.28475581724092
 20
44.78796156851136
 30
0.0
 10
64.2847558172409
 20
44.89004534961963
 30
0.0
 10
64.28475581724092
 20
44.98396975847391
 30
0.0
 10
64.28475581724094
 20
45.15535338825789
 30
0.0
 10
64.2847558172409
 20
45.23280462267931
 30
0.0
 10
64.2847558172409
 20
45.37027910887891
 30
0.0
 10
64.2847558172409
 20
45.43028676353303
 30
0.0
 10
64.2847558172409
 20
45.53235167551128
 30
0.0
 10
64.28475581724094
 20
45.57412774019759
 30
0.0
 10
64.28475581724089
 20
45.60701017011898
 30
0.0
  0
SPLINE
  5
24D
330
1F
100
AcDbEntity
  8
0
  6
Continuous
 62
     7
370
    18
100
AcDbSpline
210
0.0
220
0.0
230
1.0
 70
    24
 71
     3
 72
    10
 73
     6
 74
     0
 42
0.000000001
 43
0.00000001
 40
0.0
 40
0.0
 40
0.0
 40
0.0
 40
0.5
 40
0.5
 40
1.0
 40
1.0
 40
1.0
 40
1.0
 10
149.2847558172409
 20
31.17605877172661
 30
0.0
 10
149.2847558172409
 20
30.97191065131909
 30
0.0
 10
149.2847558172409
 20
30.79994588353793
 30
0.0
 10
149.2847558172409
 20
30.52500913279398
 30
0.0
 10
149.2847558172408
 20
30.42282969715945
 30
0.0
 10
149.2847558172409
 20
30.35701017011898
 30
0.0
  0
LINE
  5
24E
330
1F
100
AcDbEntity
  8
0
  6
Continuous
 62
     7
370
    18
100
AcDbLine
 10
132.5949523264
 20
91.2080177979
 30
0.0
 11
132.5949523264
 21
129.1070101701
 31
0.0
  0
SPLINE
  5
24F
330
1F
100
AcDbEntity
  8
0
  6
Continuous
 62
     7
370
    18
100
AcDbSpline
210
0.0
220
0.0
230
1.0
 70
     8
 71
     3
 72
    17
 73
    13
 74
     0
 42
0.000000001
 43
0.00000001
 40
0.0
 40
0.0
 40
0.0
 40
0.0
 40
0.0992475923349175
 40
0.1985136021103815
 40
0.2975500399778568
 40
0.3966184165576935
 40
0.4999493392749891
 40
0.6033006227686415
 40
0.71379115504569
 40
0.8242769350590492
 40
0.9121426267706686
 40
1.0
 40
1.0
 40
1.0
 40
1.0
 10
132.5949523264106
 20
129.1070101701189
 30
0.0
 10
132.57859440062
 20
129.5062712068856
 30
0.0
 10
132.5458755134878
 20
130.3048673715503
 30
0.0
 10
132.2921417449416
 20
131.4666958077389
 30
0.0
 10
131.8940173396743
 20
132.5583783484325
 30
0.0
 10
131.3471749794937
 20
133.5710987352835
 30
0.0
 10
130.6581161159305
 20
134.4756701430117
 30
0.0
 10
129.8217380154833
 20
135.2690737062374
 30
0.0
 10
128.8526760694516
 20
135.9068148603433
 30
0.0
 10
127.8422691909613
 20
136.3290995864849
 30
0.0
 10
126.8527274776611
 20
136.5652321170261
 30
0.0
 10
126.2240261839061
 20
136.5930845919204
 30
0.0
 10
125.9096904179453
 20
136.607010170119
 30
0.0
  0
LINE
  5
250
330
1F
100
AcDbEntity
  8
0
  6
Continuous
 62
     7
370
    18
100
AcDbLine
 10
125.9096904179
 20
136.6070101701
 30
0.0
 11
107.7166455503
 21
136.6070101701
 31
0.0
  0
SPLINE
  5
251
330
1F
100
AcDbEntity
  8
0
  6
Continuous
 62
     7
370
    18
100
AcDbSpline
210
0.0
220
0.0
230
1.0
 70
     8
 71
     3
 72
    24
 73
    20
 74
     0
 42
0.000000001
 43
0.00000001
 40
0.0
 40
0.0
 40
0.0
 40
0.0
 40
0.0820934798844313
 40
0.1377301224332099
 40
0.1941841144592509
 40
0.2225465688952182
 40
0.33247200704721
 40
0.4164634898661543
 40
0.4447735384910354
 40
0.4724747948898977
 40
0.5281115313862086
 40
0.5845915063989664
 40
0.6419508922129139
 40
0.6707855197567795
 40
0.77859274774121
 40
0.861269957194467
 40
0.889209878619095
 40
0.9444107765722471
 40
0.9999999999999999
 40
0.9999999999999999
 40
0.9999999999999999
 40
0.9999999999999999
 10
107.7166455502703
 20
136.607010170119
 30
0.0
 10
107.3863524836116
 20
136.5953306540843
 30
0.0
 10
106.8322121965415
 20
136.5757356609657
 30
0.0
 10
106.0614838929411
 20
136.4416464366529
 30
0.0
 10
105.5137713821604
 20
136.302497527733
 30
0.0
 10
104.7692764104288
 20
136.061096574643
 30
0.0
 10
103.9484510972392
 20
135.6987754501162
 30
0.0
 10
103.1910835667905
 20
135.2241654781583
 30
0.0
 10
102.7419616512162
 20
134.8871446979874
 30
0.0
 10
102.3955134240629
 20
134.6035723060093
 30
0.0
 10
101.9845746022394
 20
134.2214627838094
 30
0.0
 10
101.5282463296901
 20
133.7172701180636
 30
0.0
 10
101.183151831016
 20
133.2601093497294
 30
0.0
 10
100.7581013914058
 20
132.6085725277598
 30
0.0
 10
100.3587905903149
 20
131.8186256259945
 30
0.0
 10
100.0908008991165
 20
130.9801653585965
 30
0.0
 10
99.94926431798811
 20
130.3290267736691
 30
0.0
 10
99.86599679629377
 20
129.7762077543636
 30
0.0
 10
99.85366105431316
 20
129.3305966620039
 30
0.0
 10
99.8474715645955
 20
129.1070101701189
 30
0.0
  0
LINE
  5
252
330
1F
100
AcDbEntity
  8
0
  6
Continuous
 62
     7
370
    18
100
AcDbLine
 10
99.8474715646
 20
129.1070101701
 30
0.0
 11
99.8474715646
 21
91.2080177979
 31
0.0
  0
SPLINE
  5
253
330
1F
100
AcDbEntity
  8
0
  6
Continuous
 62
     7
370
    18
100
AcDbSpline
210
0.0
220
0.0
230
1.0
 70
     8
 71
     3
 72
    17
 73
    13
 74
     0
 42
0.000000001
 43
0.00000001
 40
0.0
 40
0.0
 40
0.0
 40
0.0
 40
0.0991886451398222
 40
0.1983958413787642
 40
0.2973719081101887
 40
0.3963801096286813
 40
0.4996783593425798
 40
0.6029971033889202
 40
0.7135084272851521
 40
0.8240149794664252
 40
0.9120117023150641
 40
0.9999999999999999
 40
0.9999999999999999
 40
0.9999999999999999
 40
0.9999999999999999
 10
132.5554005822887
 20
129.1070101701189
 30
0.0
 10
132.539063887643
 20
129.5061082559953
 30
0.0
 10
132.5063874429248
 20
130.3043790704469
 30
0.0
 10
132.2529974773139
 20
131.4657117379913
 30
0.0
 10
131.8554365828344
 20
132.5569115569832
 30
0.0
 10
131.3093421112188
 20
133.5692994965488
 30
0.0
 10
130.6211607690398
 20
134.4737285051654
 30
0.0
 10
129.7855854868016
 20
135.2673231671258
 30
0.0
 10
128.8171941869795
 20
135.9054769094087
 30
0.0
 10
127.8068077248299
 20
136.3284094378432
 30
0.0
 10
126.8166942932045
 20
136.5651064673586
 30
0.0
 10
126.1872095851974
 20
136.5930427150086
 30
0.0
 10
125.872482299271
 20
136.607010170119
 30
0.0
  0
LINE
  5
254
330
1F
100
AcDbEntity
  8
0
  6
Continuous
 62
     7
370
    18
100
AcDbLine
 10
132.5554005823
 20
91.2080177979
 30
0.0
 11
132.5554005823
 21
129.1070101701
 31
0.0
  0
SPLINE
  5
255
330
1F
100
AcDbEntity
  8
0
  6
Continuous
 62
     7
370
    18
100
AcDbSpline
210
0.0
220
0.0
230
1.0
 70
     8
 71
     3
 72
    11
 73
     7
 74
     0
 42
0.000000001
 43
0.00000001
 40
0.0
 40
0.0
 40
0.0
 40
0.0
 40
0.2867623453580505
 40
0.5746280140847957
 40
0.844450297136533
 40
0.9999999999999999
 40
0.9999999999999999
 40
0.9999999999999999
 40
0.9999999999999999
 10
100.0410912930451
 20
89.60067622530318
 30
0.0
 10
100.0497818756106
 20
89.61537852191009
 30
0.0
 10
100.0671964779171
 20
89.64483968247904
 30
0.0
 10
100.086431449704
 20
89.72978642159596
 30
0.0
 10
100.096146046795
 20
89.81932807990665
 30
0.0
 10
100.0970441734872
 20
89.87645224295801
 30
0.0
 10
100.0973725997699
 20
89.8973413632649
 30
0.0
  0
SPLINE
  5
256
330
1F
100
AcDbEntity
  8
0
  6
Continuous
 62
     7
370
    18
100
AcDbSpline
210
0.0
220
0.0
230
1.0
 70
     8
 71
     3
 72
    12
 73
     8
 74
     0
 42
0.000000001
 43
0.00000001
 40
0.0
 40
0.0
 40
0.0
 40
0.0
 40
0.2280931342455013
 40
0.4560285776608605
 40
0.6913996721193499
 40
0.9443750542587208
 40
1.0
 40
1.0
 40
1.0
 40
1.0
 10
100.0973725997699
 20
84.42951844835545
 30
0.0
 10
100.0965637345675
 20
84.46260558781015
 30
0.0
 10
100.0949465633668
 20
84.52875699212267
 30
0.0
 10
100.082458341269
 20
84.6174786965758
 30
0.0
 10
100.0638267220133
 20
84.68820254882411
 30
0.0
 10
100.0462086865768
 20
84.72190542292223
 30
0.0
 10
100.0357167220111
 20
84.7321082121737
 30
0.0
 10
100.033825554352
 20
84.73394725622923
 30
0.0
  0
SPLINE
  5
257
330
1F
100
AcDbEntity
  8
0
  6
Continuous
 62
     7
370
    18
100
AcDbSpline
210
0.0
220
0.0
230
1.0
 70
     8
 71
     3
 72
    12
 73
     8
 74
     0
 42
0.000000001
 43
0.00000001
 40
0.0
 40
0.0
 40
0.0
 40
0.0
 40
0.2234868036623231
 40
0.4468191010536692
 40
0.6774368868499456
 40
0.9253034425295094
 40
1.0
 40
1.0
 40
1.0
 40
1.0
 10
100.0973725997699
 20
90.04451017011901
 30
0.0
 10
100.0965636863069
 20
90.07759658495587
 30
0.0
 10
100.0949464186185
 20
90.1437465405337
 30
0.0
 10
100.0824589276581
 20
90.2324792227989
 30
0.0
 10
100.0638243705359
 20
90.30315896384265
 30
0.0
 10
100.0455478116463
 20
90.33827439699787
 30
0.0
 10
100.0343088507043
 20
90.34836068658315
 30
0.0
 10
100.0317062230085
 20
90.3506963879667
 30
0.0
  0
LINE
  5
258
330
1F
100
AcDbEntity
  8
0
  6
Continuous
 62
     7
370
    18
100
AcDbLine
 10
63.3347558172
 20
84.1570101701
 30
0.0
 11
100.0973725998
 21
84.1570101701
 31
0.0
  0
LINE
  5
259
330
1F
100
AcDbEntity
  8
0
  6
Continuous
 62
     7
370
    18
100
AcDbLine
 10
100.0842447347
 20
84.1070101701
 30
0.0
 11
100.0973725998
 21
84.1570101701
 31
0.0
  0
LINE
  5
25A
330
1F
100
AcDbEntity
  8
0
  6
Continuous
 62
     7
370
    18
100
AcDbLine
 10
100.0842447347
 20
84.1070101701
 30
0.0
 11
63.3847558172
 21
84.1070101701
 31
0.0
  0
LINE
  5
25B
330
1F
100
AcDbEntity
  8
0
  6
Continuous
 62
     7
370
    18
100
AcDbLine
 10
100.0973725998
 20
90.0445101701
 30
0.0
 11
100.0973725998
 21
89.8973413633
 31
0.0
  0
LINE
  5
25C
330
1F
100
AcDbEntity
  8
0
  6
Continuous
 62
     7
370
    18
100
AcDbLine
 10
100.0973725998
 20
84.4295184484
 30
0.0
 11
100.0973725998
 21
84.1570101701
 31
0.0
  0
SPLINE
  5
25D
330
1F
100
AcDbEntity
  8
0
  6
Continuous
 62
     7
370
    18
100
AcDbSpline
210
0.0
220
0.0
230
1.0
 70
     8
 71
     3
 72
    11
 73
     7
 74
     0
 42
0.000000001
 43
0.00000001
 40
0.0
 40
0.0
 40
0.0
 40
0.0
 40
0.2864206461215041
 40
0.5745772684283986
 40
0.8446091999010257
 40
1.0
 40
1.0
 40
1.0
 40
1.0
 10
100.0410912930451
 20
89.60067622530318
 30
0.0
 10
100.0376184243532
 20
89.59480336072649
 30
0.0
 10
100.0306516381469
 20
89.5830220365377
 30
0.0
 10
100.0229486855908
 20
89.54905346497752
 30
0.0
 10
100.0190556951151
 20
89.5132163913257
 30
0.0
 10
100.0186961170189
 20
89.49035907973793
 30
0.0
 10
100.0185647767685
 20
89.48201017011898
 30
0.0
  0
SPLINE
  5
25E
330
1F
100
AcDbEntity
  8
0
  6
Continuous
 62
     7
370
    18
100
AcDbSpline
210
0.0
220
0.0
230
1.0
 70
     8
 71
     3
 72
    12
 73
     8
 74
     0
 42
0.000000001
 43
0.00000001
 40
0.0
 40
0.0
 40
0.0
 40
0.0
 40
0.2228573229344901
 40
0.4454711572067835
 40
0.6758073078722948
 40
0.9241533773110311
 40
1.0
 40
1.0
 40
1.0
 40
1.0
 10
99.8474715645955
 20
91.20801779794101
 30
0.0
 10
99.84973747323505
 20
91.11556330582768
 30
0.0
 10
99.85426681483577
 20
90.93075533520158
 30
0.0
 10
99.88920116185662
 20
90.68278433731383
 30
0.0
 10
99.94134567924687
 20
90.48477678593852
 30
0.0
 10
99.99265047680201
 20
90.38581613206041
 30
0.0
 10
100.0243013346972
 20
90.35735501845764
 30
0.0
 10
100.0317062230085
 20
90.3506963879667
 30
0.0
  0
SPLINE
  5
25F
330
1F
100
AcDbEntity
  8
0
  6
Continuous
 62
     7
370
    18
100
AcDbSpline
210
0.0
220
0.0
230
1.0
 70
     8
 71
     3
 72
    12
 73
     8
 74
     0
 42
0.000000001
 43
0.00000001
 40
0.0
 40
0.0
 40
0.0
 40
0.0
 40
0.2274972139508213
 40
0.4551918282151883
 40
0.690448293806439
 40
0.9435408938520754
 40
1.0
 40
1.0
 40
1.0
 40
1.0
 10
100.0185647767685
 20
84.807010170119
 30
0.0
 10
100.018758254622
 20
84.79908819429883
 30
0.0
 10
100.0191453782105
 20
84.78323736872593
 30
0.0
 10
100.0221367094072
 20
84.76196304683668
 30
0.0
 10
100.0266046931529
 20
84.74497794393896
 30
0.0
 10
100.0308384873135
 20
84.73685587962993
 30
0.0
 10
100.0333647834422
 20
84.73439592679247
 30
0.0
 10
100.033825554352
 20
84.73394725622923
 30
0.0
  0
LINE
  5
260
330
1F
100
AcDbEntity
  8
0
  6
Continuous
 62
     7
370
    18
100
AcDbLine
 10
100.0185647768
 20
89.4820101701
 30
0.0
 11
100.0185647768
 21
84.8070101701
 31
0.0
  0
SPLINE
  5
261
330
1F
100
AcDbEntity
  8
0
  6
Continuous
 62
     7
370
    18
100
AcDbSpline
210
0.0
220
0.0
230
1.0
 70
     8
 71
     3
 72
    11
 73
     7
 74
     0
 42
0.000000001
 43
0.00000001
 40
0.0
 40
0.0
 40
0.0
 40
0.0
 40
0.2670370038294922
 40
0.5352514561180302
 40
0.7875011918733514
 40
1.0
 40
1.0
 40
1.0
 40
1.0
 10
132.7791869848237
 20
90.3506963879667
 30
0.0
 10
132.7884236206531
 20
90.33975360982019
 30
0.0
 10
132.8069376194863
 20
90.3178198034454
 30
0.0
 10
132.8287931809268
 20
90.24029035583506
 30
0.0
 10
132.8425137268718
 20
90.14470421176212
 30
0.0
 10
132.8441192581788
 20
90.0759478927877
 30
0.0
 10
132.8448533615851
 20
90.044510170119
 30
0.0
  0
SPLINE
  5
262
330
1F
100
AcDbEntity
  8
0
  6
Continuous
 62
     7
370
    18
100
AcDbSpline
210
0.0
220
0.0
230
1.0
 70
     8
 71
     3
 72
    11
 73
     7
 74
     0
 42
0.000000001
 43
0.00000001
 40
0.0
 40
0.0
 40
0.0
 40
0.0
 40
0.2712226982403363
 40
0.5435902372170714
 40
0.7994675364122231
 40
1.0
 40
1.0
 40
1.0
 40
1.0
 10
132.7813063161671
 20
84.73394725622923
 30
0.0
 10
132.790432767286
 20
84.72213567392075
 30
0.0
 10
132.8087241926011
 20
84.69846265219127
 30
0.0
 10
132.8300132770215
 20
84.61914097554055
 30
0.0
 10
132.8427955508037
 20
84.5246955030294
 30
0.0
 10
132.8442252121847
 20
84.45857136729512
 30
0.0
 10
132.844853361585
 20
84.42951844835545
 30
0.0
  0
SPLINE
  5
263
330
1F
100
AcDbEntity
  8
0
  6
Continuous
 62
     7
370
    18
100
AcDbSpline
210
0.0
220
0.0
230
1.0
 70
     8
 71
     3
 72
    11
 73
     7
 74
     0
 42
0.000000001
 43
0.00000001
 40
0.0
 40
0.0
 40
0.0
 40
0.0
 40
0.2456427867403198
 40
0.4911157498026749
 40
0.7445964683352524
 40
1.0
 40
1.0
 40
1.0
 40
1.0
 10
132.8448533615851
 20
89.8973413632649
 30
0.0
 10
132.8440462269913
 20
89.86422463438207
 30
0.0
 10
132.8424325158113
 20
89.79801407166977
 30
0.0
 10
132.8299180753465
 20
89.7097406410065
 30
0.0
 10
132.8118009535786
 20
89.63881722143407
 30
0.0
 10
132.7963345010358
 20
89.61342187601775
 30
0.0
 10
132.7885720548602
 20
89.60067622530318
 30
0.0
  0
LINE
  5
264
330
1F
100
AcDbEntity
  8
0
  6
Continuous
 62
     7
370
    18
100
AcDbLine
 10
132.8448533616
 20
84.1570101701
 30
0.0
 11
150.2347558172
 21
84.1570101701
 31
0.0
  0
LINE
  5
265
330
1F
100
AcDbEntity
  8
0
  6
Continuous
 62
     7
370
    18
100
AcDbLine
 10
132.8448533616
 20
84.1570101701
 30
0.0
 11
132.8448533616
 21
84.4295184484
 31
0.0
  0
LINE
  5
266
330
1F
100
AcDbEntity
  8
0
  6
Continuous
 62
     7
370
    18
100
AcDbLine
 10
150.1847558172
 20
84.1070101701
 30
0.0
 11
132.8317254965
 21
84.1070101701
 31
0.0
  0
LINE
  5
267
330
1F
100
AcDbEntity
  8
0
  6
Continuous
 62
     7
370
    18
100
AcDbLine
 10
132.8448533616
 20
84.1570101701
 30
0.0
 11
132.8317254965
 21
84.1070101701
 31
0.0
  0
LINE
  5
268
330
1F
100
AcDbEntity
  8
0
  6
Continuous
 62
     7
370
    18
100
AcDbLine
 10
132.8448533616
 20
89.8973413633
 30
0.0
 11
132.8448533616
 21
90.0445101701
 31
0.0
  0
LINE
  5
269
330
1F
100
AcDbEntity
  8
0
  6
Continuous
 62
     7
370
    18
100
AcDbLine
 10
132.8185949373
 20
84.1070101701
 30
0.0
 11
132.805461673
 21
84.1570101701
 31
0.0
  0
SPLINE
  5
26A
330
1F
100
AcDbEntity
  8
0
  6
Continuous
 62
     7
370
    18
100
AcDbSpline
210
0.0
220
0.0
230
1.0
 70
     8
 71
     3
 72
    11
 73
     7
 74
     0
 42
0.000000001
 43
0.00000001
 40
0.0
 40
0.0
 40
0.0
 40
0.0
 40
0.2666266250490342
 40
0.5349916519504643
 40
0.7873676691614929
 40
0.9999999999999999
 40
0.9999999999999999
 40
0.9999999999999999
 40
0.9999999999999999
 10
132.7713024464165
 20
90.2037270033999
 30
0.0
 10
132.7760988969726
 20
90.19804845911173
 30
0.0
 10
132.7857230708751
 20
90.18665434650636
 30
0.0
 10
132.7970944939314
 20
90.14637429167198
 30
0.0
 10
132.8042423333148
 20
90.09664988064007
 30
0.0
 10
132.805079064591
 20
90.06087074073223
 30
0.0
 10
132.8054616730373
 20
90.044510170119
 30
0.0
  0
SPLINE
  5
26B
330
1F
100
AcDbEntity
  8
0
  6
Continuous
 62
     7
370
    18
100
AcDbSpline
210
0.0
220
0.0
230
1.0
 70
     8
 71
     3
 72
    11
 73
     7
 74
     0
 42
0.000000001
 43
0.00000001
 40
0.0
 40
0.0
 40
0.0
 40
0.0
 40
0.2708700680670768
 40
0.5433913766877301
 40
0.7993851722997547
 40
1.0
 40
1.0
 40
1.0
 40
1.0
 10
132.7724046455562
 20
84.58782142844984
 30
0.0
 10
132.7771450325389
 20
84.58169000306441
 30
0.0
 10
132.7866547041942
 20
84.56938977474823
 30
0.0
 10
132.7977318066237
 20
84.52817058187308
 30
0.0
 10
132.8043896224528
 20
84.47903972678147
 30
0.0
 10
132.8051344338876
 20
84.44463462037217
 30
0.0
 10
132.8054616730373
 20
84.42951844835545
 30
0.0
  0
SPLINE
  5
26C
330
1F
100
AcDbEntity
  8
0
  6
Continuous
 62
     7
370
    18
100
AcDbSpline
210
0.0
220
0.0
230
1.0
 70
     8
 71
     3
 72
    11
 73
     7
 74
     0
 42
0.000000001
 43
0.00000001
 40
0.0
 40
0.0
 40
0.0
 40
0.0
 40
0.2453942812455878
 40
0.4907292391574993
 40
0.7441361197762829
 40
0.9999999999999999
 40
0.9999999999999999
 40
0.9999999999999999
 40
0.9999999999999999
 10
132.8054616730373
 20
89.8973413632649
 30
0.0
 10
132.8050423976132
 20
89.880135512261
 30
0.0
 10
132.8042039481236
 20
89.8457279697163
 30
0.0
 10
132.7977007904304
 20
89.79984457668863
 30
0.0
 10
132.7882777895949
 20
89.76293688498588
 30
0.0
 10
132.7802278539713
 20
89.74971721564097
 30
0.0
 10
132.7761834675219
 20
89.74307549152498
 30
0.0
  0
LINE
  5
26D
330
1F
100
AcDbEntity
  8
0
  6
Continuous
 62
     7
370
    18
100
AcDbLine
 10
132.805461673
 20
84.1570101701
 30
0.0
 11
132.805461673
 21
84.4295184484
 31
0.0
  0
LINE
  5
26E
330
1F
100
AcDbEntity
  8
0
  6
Continuous
 62
     7
370
    18
100
AcDbLine
 10
132.805461673
 20
89.8973413633
 30
0.0
 11
132.805461673
 21
90.0445101701
 31
0.0
  0
SPLINE
  5
26F
330
1F
100
AcDbEntity
  8
0
  6
Continuous
 62
     7
370
    18
100
AcDbSpline
210
0.0
220
0.0
230
1.0
 70
     8
 71
     3
 72
    11
 73
     7
 74
     0
 42
0.000000001
 43
0.00000001
 40
0.0
 40
0.0
 40
0.0
 40
0.0
 40
0.2680442469794667
 40
0.5368675171031554
 40
0.7897188885086566
 40
1.0
 40
1.0
 40
1.0
 40
1.0
 10
132.7791869848237
 20
90.3506963879667
 30
0.0
 10
132.7532084744591
 20
90.3815096481588
 30
0.0
 10
132.7011759517893
 20
90.44322572182797
 30
0.0
 10
132.6397859894579
 20
90.66119949686306
 30
0.0
 10
132.6014393070795
 20
90.92886692050519
 30
0.0
 10
132.5969779604588
 20
91.1208497376729
 30
0.0
 10
132.5949523264106
 20
91.20801779794101
 30
0.0
  0
SPLINE
  5
270
330
1F
100
AcDbEntity
  8
0
  6
Continuous
 62
     7
370
    18
100
AcDbSpline
210
0.0
220
0.0
230
1.0
 70
     8
 71
     3
 72
    11
 73
     7
 74
     0
 42
0.000000001
 43
0.00000001
 40
0.0
 40
0.0
 40
0.0
 40
0.0
 40
0.2452255221604253
 40
0.4904589930695202
 40
0.7438496968725854
 40
1.0
 40
1.0
 40
1.0
 40
1.0
 10
132.7660455385837
 20
89.48201017011898
 30
0.0
 10
132.766367881564
 20
89.49523711564817
 30
0.0
 10
132.7670125779733
 20
89.52169143544516
 30
0.0
 10
132.7720129602212
 20
89.55697535362405
 30
0.0
 10
132.7792617927351
 20
89.58538046706094
 30
0.0
 10
132.7854574492297
 20
89.59555926359963
 30
0.0
 10
132.7885720548602
 20
89.60067622530318
 30
0.0
  0
SPLINE
  5
271
330
1F
100
AcDbEntity
  8
0
  6
Continuous
 62
     7
370
    18
100
AcDbSpline
210
0.0
220
0.0
230
1.0
 70
     8
 71
     3
 72
    11
 73
     7
 74
     0
 42
0.000000001
 43
0.00000001
 40
0.0
 40
0.0
 40
0.0
 40
0.0
 40
0.2726399334451858
 40
0.5448300398597165
 40
0.7972678157551506
 40
1.0
 40
1.0
 40
1.0
 40
1.0
 10
132.7713024464165
 20
90.2037270033999
 30
0.0
 10
132.7403489579306
 20
90.24065461849469
 30
0.0
 10
132.6784930509384
 20
90.31444892202822
 30
0.0
 10
132.6063243087864
 20
90.57499296907501
 30
0.0
 10
132.5625683841945
 20
90.88860757587403
 30
0.0
 10
132.5576093365069
 20
91.10959171354165
 30
0.0
 10
132.5554005822887
 20
91.20801779794101
 30
0.0
  0
SPLINE
  5
272
330
1F
100
AcDbEntity
  8
0
  6
Continuous
 62
     7
370
    18
100
AcDbSpline
210
0.0
220
0.0
230
1.0
 70
     8
 71
     3
 72
    11
 73
     7
 74
     0
 42
0.000000001
 43
0.00000001
 40
0.0
 40
0.0
 40
0.0
 40
0.0
 40
0.2698042655890684
 40
0.5424927912046866
 40
0.798688600251325
 40
1.0
 40
1.0
 40
1.0
 40
1.0
 10
132.7813063161671
 20
84.73394725622923
 30
0.0
 10
132.7791268556539
 20
84.73676318830869
 30
0.0
 10
132.7747446357711
 20
84.7424251553287
 30
0.0
 10
132.7696296786482
 20
84.76140208921657
 30
0.0
 10
132.7665436848732
 20
84.78409603780895
 30
0.0
 10
132.7661977542702
 20
84.80000843096114
 30
0.0
 10
132.7660455385837
 20
84.80701017011899
 30
0.0
  0
SPLINE
  5
273
330
1F
100
AcDbEntity
  8
0
  6
Continuous
 62
     7
370
    18
100
AcDbSpline
210
0.0
220
0.0
230
1.0
 70
     8
 71
     3
 72
    11
 73
     7
 74
     0
 42
0.000000001
 43
0.00000001
 40
0.0
 40
0.0
 40
0.0
 40
0.0
 40
0.2452661870031706
 40
0.4903703247748917
 40
0.7437067222654637
 40
1.0
 40
1.0
 40
1.0
 40
1.0
 10
132.726604656107
 20
89.48201017011898
 30
0.0
 10
132.7273147608161
 20
89.5111190240615
 30
0.0
 10
132.7287345010628
 20
89.5693174995058
 30
0.0
 10
132.7397404797033
 20
89.6469257365151
 30
0.0
 10
132.7556910674033
 20
89.70941325557294
 30
0.0
 10
132.7693262968695
 20
89.73181142801222
 30
0.0
 10
132.7761834675219
 20
89.74307549152498
 30
0.0
  0
SPLINE
  5
274
330
1F
100
AcDbEntity
  8
0
  6
Continuous
 62
     7
370
    18
100
AcDbSpline
210
0.0
220
0.0
230
1.0
 70
     8
 71
     3
 72
    11
 73
     7
 74
     0
 42
0.000000001
 43
0.00000001
 40
0.0
 40
0.0
 40
0.0
 40
0.0
 40
0.2713563726190272
 40
0.5440686413298097
 40
0.8002320972458247
 40
1.0
 40
1.0
 40
1.0
 40
1.0
 10
132.7724046455562
 20
84.58782142844984
 30
0.0
 10
132.765827878474
 20
84.5963324547869
 30
0.0
 10
132.7526414819422
 20
84.61339703481072
 30
0.0
 10
132.7372888369978
 20
84.67056596956544
 30
0.0
 10
132.7280822553113
 20
84.73858702591994
 30
0.0
 10
132.7270548272624
 20
84.78616410726572
 30
0.0
 10
132.7266046561069
 20
84.80701017011899
 30
0.0
  0
LINE
  5
275
330
1F
100
AcDbEntity
  8
0
  6
Continuous
 62
     7
370
    18
100
AcDbLine
 10
132.7660455386
 20
84.8070101701
 30
0.0
 11
132.7660455386
 21
89.4820101701
 31
0.0
  0
LINE
  5
276
330
1F
100
AcDbEntity
  8
0
  6
Continuous
 62
     7
370
    18
100
AcDbLine
 10
132.7266046561
 20
84.8070101701
 30
0.0
 11
132.7266046561
 21
89.4820101701
 31
0.0
  0
LINE
  5
277
330
1F
100
AcDbEntity
  8
0
  6
Continuous
 62
     7
370
    18
100
AcDbLine
 10
132.8317254965
 20
84.1070101701
 30
0.0
 11
132.8185949373
 21
84.1070101701
 31
0.0
  0
LINE
  5
278
330
1F
100
AcDbEntity
  8
0
  6
Continuous
 62
     7
370
    18
100
AcDbLine
 10
144.3481454581
 20
22.8570101701
 30
0.0
 11
142.0981454581
 21
22.8570101701
 31
0.0
  0
SPLINE
  5
279
330
1F
100
AcDbEntity
  8
0
  6
Continuous
 62
     7
370
    18
100
AcDbSpline
210
0.0
220
0.0
230
1.0
 70
     8
 71
     3
 72
    10
 73
     6
 74
     0
 42
0.000000001
 43
0.00000001
 40
0.0
 40
0.0
 40
0.0
 40
0.0
 40
0.3971555602001375
 40
0.7941248050545191
 40
1.0
 40
1.0
 40
1.0
 40
1.0
 10
142.3586165735006
 20
23.46440100030597
 30
0.0
 10
142.4007053396292
 20
23.50268543198049
 30
0.0
 10
142.4848631270213
 20
23.5792363351702
 30
0.0
 10
142.6242129125624
 20
23.62609122102101
 30
0.0
 10
142.7097955328612
 20
23.63050338736381
 30
0.0
 10
142.7390225398214
 20
23.63201017011898
 30
0.0
  0
LINE
  5
27A
330
1F
100
AcDbEntity
  8
0
  6
Continuous
 62
     7
370
    18
100
AcDbLine
 10
142.7390225398
 20
23.6320101701
 30
0.0
 11
143.0981454581
 21
23.6320101701
 31
0.0
  0
SPLINE
  5
27B
330
1F
100
AcDbEntity
  8
0
  6
Continuous
 62
     7
370
    18
100
AcDbSpline
210
0.0
220
0.0
230
1.0
 70
    24
 71
     3
 72
    10
 73
     6
 74
     0
 42
0.000000001
 43
0.00000001
 40
0.0
 40
0.0
 40
0.0
 40
0.0
 40
0.4119518195925513
 40
0.8219732837942502
 40
1.0
 40
1.0
 40
1.0
 40
1.0
 10
143.0981454580973
 20
23.63201017011898
 30
0.0
 10
143.0981454580973
 20
23.62625654938137
 30
0.0
 10
143.0981454580972
 20
23.61477626866294
 30
0.0
 10
143.0981454580973
 20
23.54177373091979
 30
0.0
 10
143.0981454580973
 20
23.48238150484408
 30
0.0
 10
143.0981454580973
 20
23.46440100030603
 30
0.0
  0
LINE
  5
27C
330
1F
100
AcDbEntity
  8
0
  6
Continuous
 62
     7
370
    18
100
AcDbLine
 10
143.0981454581
 20
23.4644010003
 30
0.0
 11
143.3481454581
 21
23.4644010003
 31
0.0
  0
SPLINE
  5
27D
330
1F
100
AcDbEntity
  8
0
  6
Continuous
 62
     7
370
    18
100
AcDbSpline
210
0.0
220
0.0
230
1.0
 70
    24
 71
     3
 72
    10
 73
     6
 74
     0
 42
0.000000001
 43
0.00000001
 40
0.0
 40
0.0
 40
0.0
 40
0.0
 40
0.3971555602004482
 40
0.7941248050550233
 40
0.9999999999999999
 40
0.9999999999999999
 40
0.9999999999999999
 40
0.9999999999999999
 10
143.3481454580973
 20
23.46440100030603
 30
0.0
 10
143.3481454580973
 20
23.50268543198053
 30
0.0
 10
143.3481454580973
 20
23.57923633517021
 30
0.0
 10
143.3481454580974
 20
23.62609122102097
 30
0.0
 10
143.3481454580974
 20
23.63050338736378
 30
0.0
 10
143.3481454580974
 20
23.63201017011898
 30
0.0
  0
LINE
  5
27E
330
1F
100
AcDbEntity
  8
0
  6
Continuous
 62
     7
370
    18
100
AcDbLine
 10
143.3481454581
 20
23.6320101701
 30
0.0
 11
143.7072683764
 21
23.6320101701
 31
0.0
  0
SPLINE
  5
27F
330
1F
100
AcDbEntity
  8
0
  6
Continuous
 62
     7
370
    18
100
AcDbSpline
210
0.0
220
0.0
230
1.0
 70
     8
 71
     3
 72
    10
 73
     6
 74
     0
 42
0.000000001
 43
0.00000001
 40
0.0
 40
0.0
 40
0.0
 40
0.0
 40
0.4119518195924033
 40
0.8219732837940527
 40
0.9999999999999999
 40
0.9999999999999999
 40
0.9999999999999999
 40
0.9999999999999999
 10
143.7072683763733
 20
23.63201017011898
 30
0.0
 10
143.7659936514344
 20
23.62625654938137
 30
0.0
 10
143.8831690221644
 20
23.61477626866297
 30
0.0
 10
144.0111106751914
 20
23.54177373091973
 30
0.0
 10
144.0698818548232
 20
23.48238150484407
 30
0.0
 10
144.0876743426941
 20
23.46440100030602
 30
0.0
  0
LINE
  5
280
330
1F
100
AcDbEntity
  8
0
  6
Continuous
 62
     7
370
    18
100
AcDbLine
 10
61.6097558172
 20
36.1065626993
 30
0.0
 11
63.3597558172
 21
36.1065626993
 31
0.0
  0
LINE
  5
281
330
1F
100
AcDbEntity
  8
0
  6
Continuous
 62
     7
370
    18
100
AcDbLine
 10
61.6097558172
 20
37.0957411543
 30
0.0
 11
63.3597558172
 21
37.0957411543
 31
0.0
  0
LINE
  5
282
330
1F
100
AcDbEntity
  8
0
  6
Continuous
 62
     7
370
    18
100
AcDbLine
 10
61.6097558172
 20
36.1065626993
 30
0.0
 11
61.6097558172
 21
37.0957411543
 31
0.0
  0
LINE
  5
283
330
1F
100
AcDbEntity
  8
0
  6
Continuous
 62
     7
370
    18
100
AcDbLine
 10
61.6097558172
 20
38.9711886251
 30
0.0
 11
63.3597558172
 21
38.9711886251
 31
0.0
  0
LINE
  5
284
330
1F
100
AcDbEntity
  8
0
  6
Continuous
 62
     7
370
    18
100
AcDbLine
 10
61.6097558172
 20
37.0957411543
 30
0.0
 11
61.6097558172
 21
38.9711886251
 31
0.0
  0
LINE
  5
285
330
1F
100
AcDbEntity
  8
0
  6
Continuous
 62
     7
370
    18
100
AcDbLine
 10
61.6097558172
 20
39.8574576409
 30
0.0
 11
63.3597558172
 21
39.8574576409
 31
0.0
  0
LINE
  5
286
330
1F
100
AcDbEntity
  8
0
  6
Continuous
 62
     7
370
    18
100
AcDbLine
 10
61.6097558172
 20
38.9711886251
 30
0.0
 11
61.6097558172
 21
39.8574576409
 31
0.0
  0
LINE
  5
287
330
1F
100
AcDbEntity
  8
0
  6
Continuous
 62
     7
370
    18
100
AcDbLine
 10
151.9597558172
 20
39.6252656842
 30
0.0
 11
150.2097558172
 21
39.6252656842
 31
0.0
  0
LINE
  5
288
330
1F
100
AcDbEntity
  8
0
  6
Continuous
 62
     7
370
    18
100
AcDbLine
 10
151.9597558172
 20
39.6252656842
 30
0.0
 11
151.9597558172
 21
38.0191581718
 31
0.0
  0
LINE
  5
289
330
1F
100
AcDbEntity
  8
0
  6
Continuous
 62
     7
370
    18
100
AcDbLine
 10
151.9597558172
 20
38.0191581718
 30
0.0
 11
150.2097558172
 21
38.0191581718
 31
0.0
  0
LINE
  5
28A
330
1F
100
AcDbEntity
  8
0
  6
Continuous
 62
     7
370
    18
100
AcDbLine
 10
151.9597558172
 20
36.3759026577
 30
0.0
 11
150.2097558172
 21
36.3759026577
 31
0.0
  0
LINE
  5
28B
330
1F
100
AcDbEntity
  8
0
  6
Continuous
 62
     7
370
    18
100
AcDbLine
 10
151.9597558172
 20
38.0191581718
 30
0.0
 11
151.9597558172
 21
36.3759026577
 31
0.0
  0
LINE
  5
28C
330
1F
100
AcDbEntity
  8
0
  6
Continuous
 62
     7
370
    18
100
AcDbLine
 10
151.9597558172
 20
36.338754656
 30
0.0
 11
150.2097558172
 21
36.338754656
 31
0.0
  0
LINE
  5
28D
330
1F
100
AcDbEntity
  8
0
  6
Continuous
 62
     7
370
    18
100
AcDbLine
 10
151.9597558172
 20
36.3759026577
 30
0.0
 11
151.9597558172
 21
36.338754656
 31
0.0
  0
LINE
  5
28E
330
1F
100
AcDbEntity
  8
0
  6
Continuous
 62
     7
370
    18
100
AcDbLine
 10
63.3597558172
 20
40.7605898865
 30
0.0
 11
63.3597558172
 21
35.2034304537
 31
0.0
  0
LINE
  5
28F
330
1F
100
AcDbEntity
  8
0
  6
Continuous
 62
     7
370
    18
100
AcDbLine
 10
64.1597558172
 20
40.7605898865
 30
0.0
 11
64.1597558172
 21
35.2034304537
 31
0.0
  0
LINE
  5
290
330
1F
100
AcDbEntity
  8
0
  6
Continuous
 62
     7
370
    18
100
AcDbLine
 10
63.3597558172
 20
43.4233954481
 30
0.0
 11
63.3597558172
 21
40.7605898865
 31
0.0
  0
LINE
  5
291
330
1F
100
AcDbEntity
  8
0
  6
Continuous
 62
     7
370
    18
100
AcDbLine
 10
64.1597558172
 20
43.4233954481
 30
0.0
 11
64.1597558172
 21
40.7605898865
 31
0.0
  0
LINE
  5
292
330
1F
100
AcDbEntity
  8
0
  6
Continuous
 62
     7
370
    18
100
AcDbLine
 10
63.3597558172
 20
35.2034304537
 30
0.0
 11
63.3597558172
 21
32.5406248921
 31
0.0
  0
LINE
  5
293
330
1F
100
AcDbEntity
  8
0
  6
Continuous
 62
     7
370
    18
100
AcDbLine
 10
64.1597558172
 20
35.2034304537
 30
0.0
 11
64.1597558172
 21
32.5406248921
 31
0.0
  0
LINE
  5
294
330
1F
100
AcDbEntity
  8
0
  6
Continuous
 62
     7
370
    18
100
AcDbLine
 10
63.3597558172
 20
43.8570101701
 30
0.0
 11
63.3597558172
 21
43.4233954481
 31
0.0
  0
LINE
  5
295
330
1F
100
AcDbEntity
  8
0
  6
Continuous
 62
     7
370
    18
100
AcDbLine
 10
64.1597558172
 20
43.8570101701
 30
0.0
 11
64.1597558172
 21
43.4233954481
 31
0.0
  0
LINE
  5
296
330
1F
100
AcDbEntity
  8
0
  6
Continuous
 62
     7
370
    18
100
AcDbLine
 10
63.3597558172
 20
32.5406248921
 30
0.0
 11
63.3597558172
 21
32.1070101701
 31
0.0
  0
LINE
  5
297
330
1F
100
AcDbEntity
  8
0
  6
Continuous
 62
     7
370
    18
100
AcDbLine
 10
64.1597558172
 20
32.5406248921
 30
0.0
 11
64.1597558172
 21
32.1070101701
 31
0.0
  0
LINE
  5
298
330
1F
100
AcDbEntity
  8
0
  6
Continuous
 62
     7
370
    18
100
AcDbLine
 10
150.2097558172
 20
40.7605898865
 30
0.0
 11
150.2097558172
 21
35.2034304537
 31
0.0
  0
LINE
  5
299
330
1F
100
AcDbEntity
  8
0
  6
Continuous
 62
     7
370
    18
100
AcDbLine
 10
149.4097558172
 20
40.7605898865
 30
0.0
 11
149.4097558172
 21
35.2034304537
 31
0.0
  0
LINE
  5
29A
330
1F
100
AcDbEntity
  8
0
  6
Continuous
 62
     7
370
    18
100
AcDbLine
 10
150.2097558172
 20
43.4233954481
 30
0.0
 11
150.2097558172
 21
40.7605898865
 31
0.0
  0
LINE
  5
29B
330
1F
100
AcDbEntity
  8
0
  6
Continuous
 62
     7
370
    18
100
AcDbLine
 10
149.4097558172
 20
43.4233954481
 30
0.0
 11
149.4097558172
 21
40.7605898865
 31
0.0
  0
LINE
  5
29C
330
1F
100
AcDbEntity
  8
0
  6
Continuous
 62
     7
370
    18
100
AcDbLine
 10
150.2097558172
 20
35.2034304537
 30
0.0
 11
150.2097558172
 21
32.5406248921
 31
0.0
  0
LINE
  5
29D
330
1F
100
AcDbEntity
  8
0
  6
Continuous
 62
     7
370
    18
100
AcDbLine
 10
149.4097558172
 20
35.2034304537
 30
0.0
 11
149.4097558172
 21
32.5406248921
 31
0.0
  0
LINE
  5
29E
330
1F
100
AcDbEntity
  8
0
  6
Continuous
 62
     7
370
    18
100
AcDbLine
 10
150.2097558172
 20
43.8570101701
 30
0.0
 11
150.2097558172
 21
43.4233954481
 31
0.0
  0
LINE
  5
29F
330
1F
100
AcDbEntity
  8
0
  6
Continuous
 62
     7
370
    18
100
AcDbLine
 10
149.4097558172
 20
43.8570101701
 30
0.0
 11
149.4097558172
 21
43.4233954481
 31
0.0
  0
LINE
  5
2A0
330
1F
100
AcDbEntity
  8
0
  6
Continuous
 62
     7
370
    18
100
AcDbLine
 10
150.2097558172
 20
32.5406248921
 30
0.0
 11
150.2097558172
 21
32.1070101701
 31
0.0
  0
LINE
  5
2A1
330
1F
100
AcDbEntity
  8
0
  6
Continuous
 62
     7
370
    18
100
AcDbLine
 10
149.4097558172
 20
32.5406248921
 30
0.0
 11
149.4097558172
 21
32.1070101701
 31
0.0
  0
SPLINE
  5
2A2
330
1F
100
AcDbEntity
  8
0
  6
Continuous
 62
     7
370
    18
100
AcDbSpline
210
0.0
220
0.0
230
1.0
 70
     8
 71
     3
 72
    11
 73
     7
 74
     0
 42
0.000000001
 43
0.00000001
 40
0.0
 40
0.0
 40
0.0
 40
0.0
 40
0.3155045137783702
 40
0.6351771354520633
 40
0.9687289355576192
 40
1.0
 40
1.0
 40
1.0
 40
1.0
 10
151.8347558172407
 20
41.97350452601707
 30
0.0
 10
151.7796302196693
 20
41.97394622060047
 30
0.0
 10
151.6686507641421
 20
41.97483544496331
 30
0.0
 10
151.5259529619863
 20
41.97925551156156
 30
0.0
 10
151.4374923852999
 20
41.98291639039932
 30
0.0
 10
151.4143971157651
 20
41.98181561149008
 30
0.0
 10
151.4124174874794
 20
41.98172125740334
 30
0.0
  0
SPLINE
  5
2A3
330
1F
100
AcDbEntity
  8
0
  6
Continuous
 62
     7
370
    18
100
AcDbSpline
210
0.0
220
0.0
230
1.0
 70
     8
 71
     3
 72
    11
 73
     7
 74
     0
 42
0.000000001
 43
0.00000001
 40
0.0
 40
0.0
 40
0.0
 40
0.0
 40
0.3155045137783972
 40
0.6351771354521076
 40
0.9687289355576775
 40
1.0
 40
1.0
 40
1.0
 40
1.0
 10
151.8347558172407
 20
33.99051581422077
 30
0.0
 10
151.7796302196693
 20
33.99007411963738
 30
0.0
 10
151.6686507641421
 20
33.98918489527458
 30
0.0
 10
151.5259529619864
 20
33.98476482867627
 30
0.0
 10
151.4374923852998
 20
33.98110394983854
 30
0.0
 10
151.4143971157651
 20
33.98220472874779
 30
0.0
 10
151.4124174874794
 20
33.98229908283454
 30
0.0
  0
LINE
  5
2A4
330
1F
100
AcDbEntity
  8
0
  6
Continuous
 62
     7
370
    18
100
AcDbLine
 10
151.5847558172
 20
41.3710693078
 30
0.0
 11
151.5847558172
 21
39.6252656842
 31
0.0
  0
LINE
  5
2A5
330
1F
100
AcDbEntity
  8
0
  6
Continuous
 62
     7
370
    18
100
AcDbLine
 10
153.3347558172
 20
37.7572961474
 30
0.0
 11
153.3347558172
 21
36.956126775
 31
0.0
  0
LINE
  5
2A6
330
1F
100
AcDbEntity
  8
0
  6
Continuous
 62
     7
370
    18
100
AcDbLine
 10
153.3347558172
 20
38.502753113
 30
0.0
 11
153.3347558172
 21
37.7572961474
 31
0.0
  0
LINE
  5
2A7
330
1F
100
AcDbEntity
  8
0
  6
Continuous
 62
     7
370
    18
100
AcDbLine
 10
151.5847558172
 20
36.338754656
 30
0.0
 11
151.5847558172
 21
34.2415806827
 31
0.0
  0
LINE
  5
2A8
330
1F
100
AcDbEntity
  8
0
  6
Continuous
 62
     7
370
    18
100
AcDbLine
 10
153.3347558172
 20
40.2227930209
 30
0.0
 11
153.3347558172
 21
38.502753113
 31
0.0
  0
LINE
  5
2A9
330
1F
100
AcDbEntity
  8
0
  6
Continuous
 62
     7
370
    18
100
AcDbLine
 10
153.3347558172
 20
41.5835048639
 30
0.0
 11
153.3347558172
 21
40.2227930209
 31
0.0
  0
ARC
  5
2AA
330
1F
100
AcDbEntity
  8
0
  6
Continuous
 62
     7
370
    18
100
AcDbCircle
 10
153.085021336
 20
41.7237700442
 30
0.0
 40
0.2497346229758775
100
AcDbArc
 50
0.0610469075
 51
90.0609170966
  0
LINE
  5
2AB
330
1F
100
AcDbEntity
  8
0
  6
Continuous
 62
     7
370
    18
100
AcDbLine
 10
153.3347558172
 20
41.7240361288
 30
0.0
 11
153.3347558172
 21
41.5835048639
 31
0.0
  0
LINE
  5
2AC
330
1F
100
AcDbEntity
  8
0
  6
Continuous
 62
     7
370
    18
100
AcDbLine
 10
151.8347558172
 20
41.9740361288
 30
0.0
 11
151.8347558172
 21
41.973504526
 31
0.0
  0
LINE
  5
2AD
330
1F
100
AcDbEntity
  8
0
  6
Continuous
 62
     7
370
    18
100
AcDbLine
 10
153.0847558172
 20
41.973504526
 30
0.0
 11
153.0847558172
 21
41.9740361288
 31
0.0
  0
LINE
  5
2AE
330
1F
100
AcDbEntity
  8
0
  6
Continuous
 62
     7
370
    18
100
AcDbLine
 10
153.3347558172
 20
35.9060233587
 30
0.0
 11
153.3347558172
 21
34.2399842115
 31
0.0
  0
LINE
  5
2AF
330
1F
100
AcDbEntity
  8
0
  6
Continuous
 62
     7
370
    18
100
AcDbLine
 10
153.3347558172
 20
36.956126775
 30
0.0
 11
153.3347558172
 21
35.9060233587
 31
0.0
  0
LINE
  5
2B0
330
1F
100
AcDbEntity
  8
0
  6
Continuous
 62
     7
370
    18
100
AcDbLine
 10
84.6876689052
 20
19.1070101701
 30
0.0
 11
128.8818427293
 21
19.1070101701
 31
0.0
  0
LINE
  5
2B1
330
1F
100
AcDbEntity
  8
0
  6
Continuous
 62
     7
370
    18
100
AcDbLine
 10
84.6876689052
 20
19.6070101701
 30
0.0
 11
128.8818427293
 21
19.6070101701
 31
0.0
  0
SPLINE
  5
2B2
330
1F
100
AcDbEntity
  8
0
  6
Continuous
 62
     7
370
    18
100
AcDbSpline
210
0.0
220
0.0
230
1.0
 70
    24
 71
     3
 72
    13
 73
     9
 74
     0
 42
0.000000001
 43
0.00000001
 40
0.0
 40
0.0
 40
0.0
 40
0.0
 40
0.1163831660588876
 40
0.3491371414864468
 40
0.5825794447665356
 40
0.7909415197370789
 40
0.8954894430650394
 40
1.0
 40
1.0
 40
1.0
 40
1.0
 10
100.3521137178325
 20
25.23201017011901
 30
0.0
 10
100.8486357618078
 20
25.23201017011903
 30
0.0
 10
102.3381491767533
 20
25.23201017011901
 30
0.0
 10
104.8424343465093
 20
25.23201017011901
 30
0.0
 10
107.7424008414512
 20
25.23201017011897
 30
0.0
 10
110.0898574012365
 20
25.23201017011901
 30
0.0
 10
111.8805221803817
 20
25.232010170119
 30
0.0
 10
112.7718257740689
 20
25.232010170119
 30
0.0
 10
113.2173979166447
 20
25.232010170119
 30
0.0
  0
LINE
  5
2B3
330
1F
100
AcDbEntity
  8
0
  6
Continuous
 62
     7
370
    18
100
AcDbLine
 10
113.2173979166
 20
25.2320101701
 30
0.0
 11
127.2937311897
 21
25.2320101701
 31
0.0
  0
LINE
  5
2B4
330
1F
100
AcDbEntity
  8
0
  6
Continuous
 62
     7
370
    18
100
AcDbLine
 10
86.2757804448
 20
25.2320101701
 30
0.0
 11
100.3521137178
 21
25.2320101701
 31
0.0
  0
LINE
  5
2B5
330
1F
100
AcDbEntity
  8
0
  6
Continuous
 62
     7
370
    18
100
AcDbLine
 10
128.8818427293
 20
19.1070101701
 30
0.0
 11
149.0686999532
 21
19.1070101701
 31
0.0
  0
LINE
  5
2B6
330
1F
100
AcDbEntity
  8
0
  6
Continuous
 62
     7
370
    18
100
AcDbLine
 10
128.8818427293
 20
19.6070101701
 30
0.0
 11
149.0686999532
 21
19.6070101701
 31
0.0
  0
LINE
  5
2B7
330
1F
100
AcDbEntity
  8
0
  6
Continuous
 62
     7
370
    18
100
AcDbLine
 10
64.5008116813
 20
19.1070101701
 30
0.0
 11
84.6876689052
 21
19.1070101701
 31
0.0
  0
LINE
  5
2B8
330
1F
100
AcDbEntity
  8
0
  6
Continuous
 62
     7
370
    18
100
AcDbLine
 10
64.5008116813
 20
19.6070101701
 30
0.0
 11
84.6876689052
 21
19.6070101701
 31
0.0
  0
LINE
  5
2B9
330
1F
100
AcDbEntity
  8
0
  6
Continuous
 62
     7
370
    18
100
AcDbLine
 10
127.2467812774
 20
22.6570101701
 30
0.0
 11
128.6387747733
 21
22.6570101701
 31
0.0
  0
LINE
  5
2BA
330
1F
100
AcDbEntity
  8
0
  6
Continuous
 62
     7
370
    18
100
AcDbLine
 10
84.9307368612
 20
22.6570101701
 30
0.0
 11
86.3227303571
 21
22.6570101701
 31
0.0
  0
LINE
  5
2BB
330
1F
100
AcDbEntity
  8
0
  6
Continuous
 62
     7
370
    18
100
AcDbLine
 10
128.6387747733
 20
22.6570101701
 30
0.0
 11
147.7153548498
 21
22.6570101701
 31
0.0
  0
LINE
  5
2BC
330
1F
100
AcDbEntity
  8
0
  6
Continuous
 62
     7
370
    18
100
AcDbLine
 10
65.8541567846
 20
22.6570101701
 30
0.0
 11
84.9307368612
 21
22.6570101701
 31
0.0
  0
SPLINE
  5
2BD
330
1F
100
AcDbEntity
  8
0
  6
Continuous
 62
     7
370
    18
100
AcDbSpline
210
0.0
220
0.0
230
1.0
 70
     8
 71
     3
 72
    11
 73
     7
 74
     0
 42
0.000000001
 43
0.00000001
 40
0.0
 40
0.0
 40
0.0
 40
0.0
 40
0.348678154018249
 40
0.6589532304489845
 40
0.8465759363689659
 40
1.0
 40
1.0
 40
1.0
 40
1.0
 10
127.2937311896799
 20
25.23201017011901
 30
0.0
 10
127.3208976697911
 20
25.23156968572428
 30
0.0
 10
127.37223853994
 20
25.23073723146371
 30
0.0
 10
127.4400755570445
 20
25.22277034872571
 30
0.0
 10
127.4901283131128
 20
25.21197511356198
 30
0.0
 10
127.5126346075655
 20
25.20385685168676
 30
0.0
 10
127.5227593395978
 20
25.20020475221621
 30
0.0
  0
LINE
  5
2BE
330
1F
100
AcDbEntity
  8
0
  6
Continuous
 62
     7
370
    18
100
AcDbLine
 10
127.2937311897
 20
25.2320101701
 30
0.0
 11
129.0283180688
 21
25.2320101701
 31
0.0
  0
LINE
  5
2BF
330
1F
100
AcDbEntity
  8
0
  6
Continuous
 62
     7
370
    18
100
AcDbLine
 10
84.5411935657
 20
25.2320101701
 30
0.0
 11
86.2757804448
 21
25.2320101701
 31
0.0
  0
LINE
  5
2C0
330
1F
100
AcDbEntity
  8
0
  6
Continuous
 62
     7
370
    18
100
AcDbLine
 10
142.999033918
 20
25.2320101701
 30
0.0
 11
144.6693703183
 21
25.2320101701
 31
0.0
  0
LINE
  5
2C1
330
1F
100
AcDbEntity
  8
0
  6
Continuous
 62
     7
370
    18
100
AcDbLine
 10
68.9001413162
 20
25.2320101701
 30
0.0
 11
70.5704777164
 21
25.2320101701
 31
0.0
  0
LINE
  5
2C2
330
1F
100
AcDbEntity
  8
0
  6
Continuous
 62
     7
370
    18
100
AcDbLine
 10
149.0686999532
 20
19.1070101701
 30
0.0
 11
151.0373269218
 21
19.1070101701
 31
0.0
  0
LINE
  5
2C3
330
1F
100
AcDbEntity
  8
0
  6
Continuous
 62
     7
370
    18
100
AcDbLine
 10
149.0686999532
 20
19.6070101701
 30
0.0
 11
151.0373269218
 21
19.6070101701
 31
0.0
  0
LINE
  5
2C4
330
1F
100
AcDbEntity
  8
0
  6
Continuous
 62
     7
370
    18
100
AcDbLine
 10
62.5321847127
 20
19.1070101701
 30
0.0
 11
64.5008116813
 21
19.1070101701
 31
0.0
  0
LINE
  5
2C5
330
1F
100
AcDbEntity
  8
0
  6
Continuous
 62
     7
370
    18
100
AcDbLine
 10
62.5321847127
 20
19.6070101701
 30
0.0
 11
64.5008116813
 21
19.6070101701
 31
0.0
  0
LINE
  5
2C6
330
1F
100
AcDbEntity
  8
0
  6
Continuous
 62
     7
370
    18
100
AcDbLine
 10
147.7153548498
 20
22.6570101701
 30
0.0
 11
147.9571618096
 21
22.6570101701
 31
0.0
  0
LINE
  5
2C7
330
1F
100
AcDbEntity
  8
0
  6
Continuous
 62
     7
370
    18
100
AcDbLine
 10
65.6123498249
 20
22.6570101701
 30
0.0
 11
65.8541567846
 21
22.6570101701
 31
0.0
  0
LINE
  5
2C8
330
1F
100
AcDbEntity
  8
0
  6
Continuous
 62
     7
370
    18
100
AcDbLine
 10
144.6693703183
 20
25.2320101701
 30
0.0
 11
149.3815068946
 21
25.2320101701
 31
0.0
  0
LINE
  5
2C9
330
1F
100
AcDbEntity
  8
0
  6
Continuous
 62
     7
370
    18
100
AcDbLine
 10
64.1880047399
 20
25.2320101701
 30
0.0
 11
68.9001413162
 21
25.2320101701
 31
0.0
  0
SPLINE
  5
2CA
330
1F
100
AcDbEntity
  8
0
  6
Continuous
 62
     7
370
    18
100
AcDbSpline
210
0.0
220
0.0
230
1.0
 70
    24
 71
     3
 72
    10
 73
     6
 74
     0
 42
0.000000001
 43
0.00000001
 40
0.0
 40
0.0
 40
0.0
 40
0.0
 40
0.2327709376959756
 40
0.6982880992185082
 40
1.0
 40
1.0
 40
1.0
 40
1.0
 10
149.3815068945724
 20
25.23201017011901
 30
0.0
 10
149.4432465803068
 20
25.23201017011903
 30
0.0
 10
149.6284590824541
 20
25.23201017011904
 30
0.0
 10
149.741427297779
 20
25.232010170119
 30
0.0
 10
149.7412260952292
 20
25.232010170119
 30
0.0
 10
149.7411469725699
 20
25.23201017011901
 30
0.0
  0
SPLINE
  5
2CB
330
1F
100
AcDbEntity
  8
0
  6
Continuous
 62
     7
370
    18
100
AcDbSpline
210
0.0
220
0.0
230
1.0
 70
    24
 71
     3
 72
    11
 73
     7
 74
     0
 42
0.000000001
 43
0.00000001
 40
0.0
 40
0.0
 40
0.0
 40
0.0
 40
0.1651754072735608
 40
0.5818913121231248
 40
0.7909830217152494
 40
0.9999999999999999
 40
0.9999999999999999
 40
0.9999999999999999
 40
0.9999999999999999
 10
63.82836466191162
 20
25.23201017011901
 30
0.0
 10
63.82389438148629
 20
25.23201017011901
 30
0.0
 10
63.80814616941772
 20
25.23201017011901
 30
0.0
 10
63.89109125780212
 20
25.23201017011903
 30
0.0
 10
64.01293302155443
 20
25.232010170119
 30
0.0
 10
64.12965445458596
 20
25.23201017011901
 30
0.0
 10
64.18800473990818
 20
25.23201017011901
 30
0.0
  0
LINE
  5
2CC
330
1F
100
AcDbEntity
  8
0
  6
Continuous
 62
     7
370
    18
100
AcDbLine
 10
127.8879688424
 20
102.7039149251
 30
0.0
 11
128.2566800186
 21
101.7870101701
 31
0.0
  0
LINE
  5
2CD
330
1F
100
AcDbEntity
  8
0
  6
Continuous
 62
     7
370
    18
100
AcDbLine
 10
132.5949523264
 20
101.7870101701
 30
0.0
 11
128.2566800186
 21
101.7870101701
 31
0.0
  0
LINE
  5
2CE
330
1F
100
AcDbEntity
  8
0
  6
Continuous
 62
     7
370
    18
100
AcDbLine
 10
128.2566800186
 20
101.7870101701
 30
0.0
 11
128.3409374555
 21
101.8338725995
 31
0.0
  0
LINE
  5
2CF
330
1F
100
AcDbEntity
  8
0
  6
Continuous
 62
     7
370
    18
100
AcDbLine
 10
63.4051943581
 20
90.2421525239
 30
0.0
 11
100.0788775779
 21
90.2421525239
 31
0.0
  0
LINE
  5
2D0
330
1F
100
AcDbEntity
  8
0
  6
Continuous
 62
     7
370
    18
100
AcDbLine
 10
132.7791869848
 20
90.350696388
 30
0.0
 11
149.9847558172
 21
90.350696388
 31
0.0
  0
LINE
  5
2D1
330
1F
100
AcDbEntity
  8
0
  6
Continuous
 62
     7
370
    18
100
AcDbLine
 10
150.1755819058
 20
89.7143600996
 30
0.0
 11
132.8293163525
 21
89.7143600996
 31
0.0
  0
LINE
  5
2D2
330
1F
100
AcDbEntity
  8
0
  6
Continuous
 62
     7
370
    18
100
AcDbLine
 10
100.0818355085
 20
89.7143600996
 30
0.0
 11
63.3769366266
 21
89.7143600996
 31
0.0
  0
LINE
  5
2D3
330
1F
100
AcDbEntity
  8
0
  6
Continuous
 62
     7
370
    18
100
AcDbLine
 10
100.0185647768
 20
88.6445090583
 30
0.0
 11
132.7660455386
 21
88.6445090583
 31
0.0
  0
INSERT
  5
2DF
330
1F
100
AcDbEntity
  8
0
  6
Continuous
 62
     7
370
    18
100
AcDbBlockReference
  2
SW_CENTERMARKSYMBOL_0
 10
108.5347558172
 20
122.8570101701
 30
0.0
  0
INSERT
  5
2EB
330
1F
100
AcDbEntity
  8
0
  6
Continuous
 62
     7
370
    18
100
AcDbBlockReference
  2
SW_CENTERMARKSYMBOL_1
 10
124.0347558172
 20
122.8570101701
 30
0.0
  0
LINE
  5
2EC
330
1F
100
AcDbEntity
  8
0
  6
CENTERX2
 62
     7
 48
2.5
370
    18
100
AcDbLine
 10
146.9097558172
 20
37.9820101701
 30
0.0
 11
154.6130818757
 21
37.9820101701
 31
0.0
  0
LINE
  5
2ED
330
1F
100
AcDbEntity
  8
0
  6
Continuous
 62
     7
370
    18
100
AcDbLine
 10
128.6194522147
 20
192.6845408975
 30
0.0
 11
128.6194522147
 21
193.4345408975
 31
0.0
  0
LINE
  5
2EE
330
1F
100
AcDbEntity
  8
0
  6
Continuous
 62
     7
370
    18
100
AcDbLine
 10
126.1194522147
 20
192.9622224295
 30
0.0
 11
126.1194522147
 21
192.6845408975
 31
0.0
  0
LINE
  5
2EF
330
1F
100
AcDbEntity
  8
0
  6
Continuous
 62
     7
370
    18
100
AcDbLine
 10
117.4097558172
 20
189.6590928441
 30
0.0
 11
117.4097558172
 21
188.1845408975
 31
0.0
  0
LINE
  5
2F0
330
1F
100
AcDbEntity
  8
0
  6
Continuous
 62
     7
370
    18
100
AcDbLine
 10
130.6597558172
 20
188.1845408975
 30
0.0
 11
130.6597558172
 21
190.6845408975
 31
0.0
  0
ARC
  5
2F1
330
1F
100
AcDbEntity
  8
0
  6
Continuous
 62
     7
370
    18
100
AcDbCircle
 10
130.1597558172
 20
188.1845408975
 30
0.0
 40
0.5
100
AcDbArc
 50
270.0
 51
0.0
  0
ARC
  5
2F2
330
1F
100
AcDbEntity
  8
0
  6
Continuous
 62
     7
370
    18
100
AcDbCircle
 10
117.9097558172
 20
188.1845408975
 30
0.0
 40
0.5
100
AcDbArc
 50
180.0
 51
270.0
  0
LINE
  5
2F3
330
1F
100
AcDbEntity
  8
0
  6
Continuous
 62
     7
370
    18
100
AcDbLine
 10
130.9097558172
 20
191.1175535994
 30
0.0
 11
130.9097558172
 21
192.6845408975
 31
0.0
  0
ARC
  5
2F4
330
1F
100
AcDbEntity
  8
0
  6
Continuous
 62
     7
370
    18
100
AcDbCircle
 10
130.4097558172
 20
191.1175535994
 30
0.0
 40
0.5000000000000164
100
AcDbArc
 50
300.0
 51
0.0
  0
LINE
  5
2F5
330
1F
100
AcDbEntity
  8
0
  6
Continuous
 62
     7
370
    18
100
AcDbLine
 10
100.6597558172
 20
188.7532170568
 30
0.0
 11
100.6597558172
 21
187.9345408975
 31
0.0
  0
LINE
  5
2F6
330
1F
100
AcDbEntity
  8
0
  6
Continuous
 62
     7
370
    18
100
AcDbLine
 10
116.4097558172
 20
187.9345408975
 30
0.0
 11
116.4097558172
 21
189.4137757156
 31
0.0
  0
ARC
  5
2F7
330
1F
100
AcDbEntity
  8
0
  6
Continuous
 62
     7
370
    18
100
AcDbCircle
 10
115.9097558172
 20
187.9345408975
 30
0.0
 40
0.5
100
AcDbArc
 50
270.0
 51
0.0
  0
ARC
  5
2F8
330
1F
100
AcDbEntity
  8
0
  6
Continuous
 62
     7
370
    18
100
AcDbCircle
 10
101.1597558172
 20
187.9345408975
 30
0.0
 40
0.5
100
AcDbArc
 50
180.0
 51
270.0
  0
LINE
  5
2F9
330
1F
100
AcDbEntity
  8
0
  6
Continuous
 62
     7
370
    18
100
AcDbLine
 10
131.7847558172
 20
193.4345408975
 30
0.0
 11
131.7847558172
 21
196.4402231854
 31
0.0
  0
LINE
  5
2FA
330
1F
100
AcDbEntity
  8
0
  6
Continuous
 62
     7
370
    18
100
AcDbLine
 10
121.3674654067
 20
271.6668275031
 30
0.0
 11
119.6188688488
 21
273.1340742299
 31
0.0
  0
LINE
  5
2FB
330
1F
100
AcDbEntity
  8
0
  6
Continuous
 62
     7
370
    18
100
AcDbLine
 10
93.9506427857
 20
273.1340742299
 30
0.0
 11
92.3515622317
 21
271.7922863268
 31
0.0
  0
LINE
  5
2FC
330
1F
100
AcDbEntity
  8
0
  6
Continuous
 62
     7
370
    18
100
AcDbLine
 10
149.1092891496
 20
243.6436539291
 30
0.0
 11
147.7675012465
 21
245.242734483
 31
0.0
  0
LINE
  5
2FD
330
1F
100
AcDbEntity
  8
0
  6
Continuous
 62
     7
370
    18
100
AcDbLine
 10
65.8020103879
 20
245.242734483
 30
0.0
 11
64.4602224849
 21
243.6436539291
 31
0.0
  0
LINE
  5
2FE
330
1F
100
AcDbEntity
  8
0
  6
Continuous
 62
     7
370
    18
100
AcDbLine
 10
147.7675012465
 20
216.376347312
 30
0.0
 11
149.1092891496
 21
217.975427866
 31
0.0
  0
LINE
  5
2FF
330
1F
100
AcDbEntity
  8
0
  6
Continuous
 62
     7
370
    18
100
AcDbLine
 10
64.4602224849
 20
217.975427866
 30
0.0
 11
65.8020103879
 21
216.376347312
 31
0.0
  0
ARC
  5
300
330
1F
100
AcDbEntity
  8
0
  6
Continuous
 62
     7
370
    18
100
AcDbCircle
 10
94.4327334929
 20
272.5595408975
 30
0.0
 40
0.7500000000000568
100
AcDbArc
 50
90.0
 51
130.0
  0
ARC
  5
301
330
1F
100
AcDbEntity
  8
0
  6
Continuous
 62
     7
370
    18
100
AcDbCircle
 10
119.1367781415
 20
272.5595408975
 30
0.0
 40
0.7500000000000568
100
AcDbArc
 50
50.0
 51
90.0
  0
ARC
  5
302
330
1F
100
AcDbEntity
  8
0
  6
Continuous
 62
     7
370
    18
100
AcDbCircle
 10
148.5347558172
 20
243.1615632218
 30
0.0
 40
0.750000000000004
100
AcDbArc
 50
0.0
 51
40.0
  0
ARC
  5
303
330
1F
100
AcDbEntity
  8
0
  6
Continuous
 62
     7
370
    18
100
AcDbCircle
 10
65.0347558172
 20
243.1615632218
 30
0.0
 40
0.7500000000000074
100
AcDbArc
 50
140.0
 51
180.0
  0
ARC
  5
304
330
1F
100
AcDbEntity
  8
0
  6
Continuous
 62
     7
370
    18
100
AcDbCircle
 10
65.0347558172
 20
218.4575185732
 30
0.0
 40
0.75
100
AcDbArc
 50
180.0
 51
220.0
  0
ARC
  5
305
330
1F
100
AcDbEntity
  8
0
  6
Continuous
 62
     7
370
    18
100
AcDbCircle
 10
148.5347558172
 20
218.4575185732
 30
0.0
 40
0.750000000000004
100
AcDbArc
 50
320.0
 51
0.0
  0
LINE
  5
306
330
1F
100
AcDbEntity
  8
0
  6
Continuous
 62
     7
370
    18
100
AcDbLine
 10
149.4097558172
 20
239.9345408975
 30
0.0
 11
149.2847558172
 21
239.9345408975
 31
0.0
  0
LINE
  5
307
330
1F
100
AcDbEntity
  8
0
  6
Continuous
 62
     7
370
    18
100
AcDbLine
 10
64.1597558172
 20
221.6845408975
 30
0.0
 11
64.2847558172
 21
221.6845408975
 31
0.0
  0
LINE
  5
308
330
1F
100
AcDbEntity
  8
0
  6
Continuous
 62
     7
370
    18
100
AcDbLine
 10
64.2847558172
 20
239.9345408975
 30
0.0
 11
64.1597558172
 21
239.9345408975
 31
0.0
  0
LINE
  5
309
330
1F
100
AcDbEntity
  8
0
  6
Continuous
 62
     7
370
    18
100
AcDbLine
 10
149.2847558172
 20
221.6845408975
 30
0.0
 11
149.4097558172
 21
221.6845408975
 31
0.0
  0
LINE
  5
30A
330
1F
100
AcDbEntity
  8
0
  6
Continuous
 62
     7
370
    18
100
AcDbLine
 10
150.2097558172
 20
241.4345408975
 30
0.0
 11
149.4097558172
 21
241.4345408975
 31
0.0
  0
LINE
  5
30B
330
1F
100
AcDbEntity
  8
0
  6
Continuous
 62
     7
370
    18
100
AcDbLine
 10
149.4097558172
 20
220.1845408975
 30
0.0
 11
150.2097558172
 21
220.1845408975
 31
0.0
  0
LINE
  5
30C
330
1F
100
AcDbEntity
  8
0
  6
Continuous
 62
     7
370
    18
100
AcDbLine
 10
64.1597558172
 20
241.4345408975
 30
0.0
 11
63.3597558172
 21
241.4345408975
 31
0.0
  0
LINE
  5
30D
330
1F
100
AcDbEntity
  8
0
  6
Continuous
 62
     7
370
    18
100
AcDbLine
 10
63.3597558172
 20
220.1845408975
 30
0.0
 11
64.1597558172
 21
220.1845408975
 31
0.0
  0
LINE
  5
30E
330
1F
100
AcDbEntity
  8
0
  6
Continuous
 62
     7
370
    18
100
AcDbLine
 10
151.4415795561
 20
234.8095408975
 30
0.0
 11
150.2097558172
 21
234.8095408975
 31
0.0
  0
LINE
  5
30F
330
1F
100
AcDbEntity
  8
0
  6
Continuous
 62
     7
370
    18
100
AcDbLine
 10
150.2097558172
 20
226.8095408975
 30
0.0
 11
151.4415795561
 21
226.8095408975
 31
0.0
  0
SPLINE
  5
310
330
1F
100
AcDbEntity
  8
0
  6
Continuous
 62
     7
370
    18
100
AcDbSpline
210
0.0
220
0.0
230
1.0
 70
     8
 71
     3
 72
    13
 73
     9
 74
     0
 42
0.000000001
 43
0.00000001
 40
0.0
 40
0.0
 40
0.0
 40
0.0
 40
0.0172170799660663
 40
0.2184170823642973
 40
0.433222069405832
 40
0.6637567786006314
 40
0.8992003648599257
 40
0.9999999999999999
 40
0.9999999999999999
 40
0.9999999999999999
 40
0.9999999999999999
 10
151.8343519926147
 20
230.8157820624233
 30
0.0
 10
151.8319221125217
 20
230.8155828136119
 30
0.0
 10
151.8010964834691
 20
230.8130551292355
 30
0.0
 10
151.7396273171682
 20
230.8306357365259
 30
0.0
 10
151.6620198037249
 20
230.8809555778287
 30
0.0
 10
151.6049589163738
 20
230.9614405689799
 30
0.0
 10
151.5831773087933
 20
231.0410546093935
 30
0.0
 10
151.5853252616037
 20
231.088131981707
 30
0.0
 10
151.5859691789999
 20
231.1022449262975
 30
0.0
  0
ARC
  5
311
330
1F
100
AcDbEntity
  8
0
  6
Continuous
 62
     7
370
    18
100
AcDbCircle
 10
153.0847558172
 20
230.565119694
 30
0.0
 40
0.25
100
AcDbArc
 50
0.0
 51
90.0
  0
LINE
  5
312
330
1F
100
AcDbEntity
  8
0
  6
Continuous
 62
     7
370
    18
100
AcDbLine
 10
153.0847558172
 20
230.815119694
 30
0.0
 11
151.8347558172
 21
230.815119694
 31
0.0
  0
LINE
  5
313
330
1F
100
AcDbEntity
  8
0
  6
Continuous
 62
     7
370
    18
100
AcDbLine
 10
153.0847558172
 20
234.8028019902
 30
0.0
 11
151.8347558172
 21
234.8028019902
 31
0.0
  0
ARC
  5
314
330
1F
100
AcDbEntity
  8
0
  6
Continuous
 62
     7
370
    18
100
AcDbCircle
 10
153.0847558172
 20
227.0662798048
 30
0.0
 40
0.25
100
AcDbArc
 50
270.0
 51
0.0
  0
LINE
  5
315
330
1F
100
AcDbEntity
  8
0
  6
Continuous
 62
     7
370
    18
100
AcDbLine
 10
151.8347558172
 20
226.8162798048
 30
0.0
 11
153.0847558172
 21
226.8162798048
 31
0.0
  0
ARC
  5
316
330
1F
100
AcDbEntity
  8
0
  6
Continuous
 62
     7
370
    18
100
AcDbCircle
 10
153.0847558172
 20
231.0539621011
 30
0.0
 40
0.25
100
AcDbArc
 50
282.1268727648
 51
0.0
  0
LINE
  5
317
330
1F
100
AcDbEntity
  8
0
  6
Continuous
 62
     7
370
    18
100
AcDbLine
 10
64.1597558172
 20
241.4345408975
 30
0.0
 11
63.3597558172
 21
241.4345408975
 31
0.0
  0
LINE
  5
318
330
1F
100
AcDbEntity
  8
0
  6
Continuous
 62
     7
370
    18
100
AcDbLine
 10
63.3597558172
 20
220.1845408975
 30
0.0
 11
64.1597558172
 21
220.1845408975
 31
0.0
  0
LINE
  5
319
330
1F
100
AcDbEntity
  8
0
  6
Continuous
 62
     7
370
    18
100
AcDbLine
 10
102.4097558172
 20
279.0595408975
 30
0.0
 11
102.4097558172
 21
275.8095408975
 31
0.0
  0
LINE
  5
31A
330
1F
100
AcDbEntity
  8
0
  6
Continuous
 62
     7
370
    18
100
AcDbLine
 10
111.1597558172
 20
275.8095408975
 30
0.0
 11
111.1597558172
 21
279.0595408975
 31
0.0
  0
LINE
  5
31B
330
1F
100
AcDbEntity
  8
0
  6
Continuous
 62
     7
370
    18
100
AcDbLine
 10
96.1597558172
 20
275.8095408975
 30
0.0
 11
96.1597558172
 21
273.8095408975
 31
0.0
  0
LINE
  5
31C
330
1F
100
AcDbEntity
  8
0
  6
Continuous
 62
     7
370
    18
100
AcDbLine
 10
117.4097558172
 20
273.8095408975
 30
0.0
 11
117.4097558172
 21
275.8095408975
 31
0.0
  0
LINE
  5
31D
330
1F
100
AcDbEntity
  8
0
  6
Continuous
 62
     7
370
    18
100
AcDbLine
 10
114.9677316415
 20
188.9345408975
 30
0.0
 11
114.9677316415
 21
189.1047581183
 31
0.0
  0
LINE
  5
31E
330
1F
100
AcDbEntity
  8
0
  6
Continuous
 62
     7
370
    18
100
AcDbLine
 10
114.9677316415
 20
188.9345408975
 30
0.0
 11
114.0465995914
 21
188.9345408975
 31
0.0
  0
LINE
  5
31F
330
1F
100
AcDbEntity
  8
0
  6
Continuous
 62
     7
370
    18
100
AcDbLine
 10
120.7000594198
 20
188.9345408975
 30
0.0
 11
120.7000594198
 21
190.6521713914
 31
0.0
  0
LINE
  5
320
330
1F
100
AcDbEntity
  8
0
  6
Continuous
 62
     7
370
    18
100
AcDbLine
 10
120.7000594198
 20
188.9345408975
 30
0.0
 11
118.5750594198
 21
188.9345408975
 31
0.0
  0
LINE
  5
321
330
1F
100
AcDbEntity
  8
0
  6
Continuous
 62
     7
370
    18
100
AcDbLine
 10
118.5750594198
 20
188.9345408975
 30
0.0
 11
118.5750594198
 21
189.9777060017
 31
0.0
  0
LINE
  5
322
330
1F
100
AcDbEntity
  8
0
  6
Continuous
 62
     7
370
    18
100
AcDbLine
 10
122.8250594198
 20
188.9345408975
 30
0.0
 11
122.8250594198
 21
190.6845408975
 31
0.0
  0
LINE
  5
323
330
1F
100
AcDbEntity
  8
0
  6
Continuous
 62
     7
370
    18
100
AcDbLine
 10
122.8250594198
 20
188.9345408975
 30
0.0
 11
120.7000594198
 21
188.9345408975
 31
0.0
  0
SPLINE
  5
324
330
1F
100
AcDbEntity
  8
0
  6
Continuous
 62
     7
370
    18
100
AcDbSpline
210
0.0
220
0.0
230
1.0
 70
     8
 71
     3
 72
     9
 73
     5
 74
     0
 42
0.000000001
 43
0.00000001
 40
0.0
 40
0.0
 40
0.0
 40
0.0
 40
0.4409353631127977
 40
1.0
 40
1.0
 40
1.0
 40
1.0
 10
121.4859408318826
 20
190.9652180523048
 30
0.0
 10
121.4765138035166
 20
190.9256654626452
 30
0.0
 10
121.455134188374
 20
190.8359639032593
 30
0.0
 10
121.4330331833131
 20
190.7793199415036
 30
0.0
 10
121.4206772929439
 20
190.7476523055927
 30
0.0
  0
SPLINE
  5
325
330
1F
100
AcDbEntity
  8
0
  6
Continuous
 62
     7
370
    18
100
AcDbSpline
210
0.0
220
0.0
230
1.0
 70
     8
 71
     3
 72
    11
 73
     7
 74
     0
 42
0.000000001
 43
0.00000001
 40
0.0
 40
0.0
 40
0.0
 40
0.0
 40
0.6261359551222596
 40
0.7964210366049514
 40
0.9348684416005087
 40
1.0
 40
1.0
 40
1.0
 40
1.0
 10
121.1051298733142
 20
190.6845408975328
 30
0.0
 10
121.184749196574
 20
190.6854066256316
 30
0.0
 10
121.2860219368561
 20
190.6865077987302
 30
0.0
 10
121.381795096625
 20
190.7133375014798
 30
0.0
 10
121.410956709735
 20
190.7308042642684
 30
0.0
 10
121.4183211636464
 20
190.7435685831537
 30
0.0
 10
121.4206772929439
 20
190.7476523055927
 30
0.0
  0
LINE
  5
326
330
1F
100
AcDbEntity
  8
0
  6
Continuous
 62
     7
370
    18
100
AcDbLine
 10
123.4346041632
 20
190.6845408975
 30
0.0
 11
121.1051298733
 21
190.6845408975
 31
0.0
  0
LINE
  5
327
330
1F
100
AcDbEntity
  8
0
  6
Continuous
 62
     7
370
    18
100
AcDbLine
 10
120.7931238521
 20
190.6845408975
 30
0.0
 11
121.1051298733
 21
190.6845408975
 31
0.0
  0
LINE
  5
328
330
1F
100
AcDbEntity
  8
0
  6
Continuous
 62
     7
370
    18
100
AcDbLine
 10
129.2767415856
 20
192.6845408975
 30
0.0
 11
125.5659798189
 21
192.6845408975
 31
0.0
  0
LINE
  5
329
330
1F
100
AcDbEntity
  8
0
  6
Continuous
 62
     7
370
    18
100
AcDbLine
 10
127.7290693256
 20
190.6845408975
 30
0.0
 11
123.4346041632
 21
190.6845408975
 31
0.0
  0
LINE
  5
32A
330
1F
100
AcDbEntity
  8
0
  6
Continuous
 62
     7
370
    18
100
AcDbLine
 10
129.0861239213
 20
190.6845408975
 30
0.0
 11
127.7290693256
 21
190.6845408975
 31
0.0
  0
LINE
  5
32B
330
1F
100
AcDbEntity
  8
0
  6
Continuous
 62
     7
370
    18
100
AcDbLine
 10
130.6596540945
 20
190.6845408975
 30
0.0
 11
129.0861239213
 21
190.6845408975
 31
0.0
  0
LINE
  5
32C
330
1F
100
AcDbEntity
  8
0
  6
Continuous
 62
     7
370
    18
100
AcDbLine
 10
130.1597558172
 20
187.6845408975
 30
0.0
 11
117.9097558172
 21
187.6845408975
 31
0.0
  0
LINE
  5
32D
330
1F
100
AcDbEntity
  8
0
  6
Continuous
 62
     7
370
    18
100
AcDbLine
 10
130.909650256
 20
192.6845408975
 30
0.0
 11
129.2767415856
 21
192.6845408975
 31
0.0
  0
LINE
  5
32E
330
1F
100
AcDbEntity
  8
0
  6
Continuous
 62
     7
370
    18
100
AcDbLine
 10
115.9097558172
 20
187.4345408975
 30
0.0
 11
101.1597558172
 21
187.4345408975
 31
0.0
  0
LINE
  5
32F
330
1F
100
AcDbEntity
  8
0
  6
Continuous
 62
     7
370
    18
100
AcDbLine
 10
127.0173872576
 20
193.4345408975
 30
0.0
 11
129.1033342484
 21
193.4345408975
 31
0.0
  0
LINE
  5
330
330
1F
100
AcDbEntity
  8
0
  6
Continuous
 62
     7
370
    18
100
AcDbLine
 10
131.7847558172
 20
193.4345408975
 30
0.0
 11
129.1033342484
 21
193.4345408975
 31
0.0
  0
LINE
  5
331
330
1F
100
AcDbEntity
  8
0
  6
Continuous
 62
     7
370
    18
100
AcDbLine
 10
115.8209331063
 20
273.3095408975
 30
0.0
 11
116.5355336343
 21
273.3095408975
 31
0.0
  0
LINE
  5
332
330
1F
100
AcDbEntity
  8
0
  6
Continuous
 62
     7
370
    18
100
AcDbLine
 10
97.0339780002
 20
273.3095408975
 30
0.0
 11
97.7485785281
 21
273.3095408975
 31
0.0
  0
LINE
  5
333
330
1F
100
AcDbEntity
  8
0
  6
Continuous
 62
     7
370
    18
100
AcDbLine
 10
64.2847558172
 20
239.8457181866
 30
0.0
 11
64.2847558172
 21
240.5603187146
 31
0.0
  0
LINE
  5
334
330
1F
100
AcDbEntity
  8
0
  6
Continuous
 62
     7
370
    18
100
AcDbLine
 10
149.2847558172
 20
240.5603187146
 30
0.0
 11
149.2847558172
 21
239.8457181866
 31
0.0
  0
LINE
  5
335
330
1F
100
AcDbEntity
  8
0
  6
Continuous
 62
     7
370
    18
100
AcDbLine
 10
64.2847558172
 20
221.0587630805
 30
0.0
 11
64.2847558172
 21
221.7733636084
 31
0.0
  0
LINE
  5
336
330
1F
100
AcDbEntity
  8
0
  6
Continuous
 62
     7
370
    18
100
AcDbLine
 10
149.2847558172
 20
221.7733636084
 30
0.0
 11
149.2847558172
 21
221.0587630805
 31
0.0
  0
LINE
  5
337
330
1F
100
AcDbEntity
  8
0
  6
Continuous
 62
     7
370
    18
100
AcDbLine
 10
94.4327334929
 20
273.3095408975
 30
0.0
 11
97.0339780002
 21
273.3095408975
 31
0.0
  0
LINE
  5
338
330
1F
100
AcDbEntity
  8
0
  6
Continuous
 62
     7
370
    18
100
AcDbLine
 10
116.5355336343
 20
273.3095408975
 30
0.0
 11
119.1367781415
 21
273.3095408975
 31
0.0
  0
LINE
  5
339
330
1F
100
AcDbEntity
  8
0
  6
Continuous
 62
     7
370
    18
100
AcDbLine
 10
149.2847558172
 20
243.1615632218
 30
0.0
 11
149.2847558172
 21
240.5603187146
 31
0.0
  0
LINE
  5
33A
330
1F
100
AcDbEntity
  8
0
  6
Continuous
 62
     7
370
    18
100
AcDbLine
 10
64.2847558172
 20
240.5603187146
 30
0.0
 11
64.2847558172
 21
243.1615632218
 31
0.0
  0
LINE
  5
33B
330
1F
100
AcDbEntity
  8
0
  6
Continuous
 62
     7
370
    18
100
AcDbLine
 10
64.2847558172
 20
218.4575185732
 30
0.0
 11
64.2847558172
 21
221.0587630805
 31
0.0
  0
LINE
  5
33C
330
1F
100
AcDbEntity
  8
0
  6
Continuous
 62
     7
370
    18
100
AcDbLine
 10
149.2847558172
 20
221.0587630805
 30
0.0
 11
149.2847558172
 21
218.4575185732
 31
0.0
  0
CIRCLE
  5
33D
330
1F
100
AcDbEntity
  8
0
  6
Continuous
 62
     7
370
    18
100
AcDbCircle
 10
106.7847558172
 20
230.8095408975
 30
0.0
 40
42.50000000000001
  0
SPLINE
  5
33E
330
1F
100
AcDbEntity
  8
0
  6
Continuous
 62
     7
370
    18
100
AcDbSpline
210
0.0
220
0.0
230
1.0
 70
     8
 71
     3
 72
     9
 73
     5
 74
     0
 42
0.000000001
 43
0.00000001
 40
0.0
 40
0.0
 40
0.0
 40
0.0
 40
0.7406515954899815
 40
1.0
 40
1.0
 40
1.0
 40
1.0
 10
117.3142878018418
 20
271.9845206326261
 30
0.0
 10
117.3040660725768
 20
271.9942516539329
 30
0.0
 10
117.2902650771732
 20
272.0073901138595
 30
0.0
 10
117.3025114929439
 20
272.0512026383553
 30
0.0
 10
117.305687581335
 20
272.0625653466809
 30
0.0
  0
SPLINE
  5
33F
330
1F
100
AcDbEntity
  8
0
  6
Continuous
 62
     7
370
    18
100
AcDbSpline
210
0.0
220
0.0
230
1.0
 70
     8
 71
     3
 72
     9
 73
     5
 74
     0
 42
0.000000001
 43
0.00000001
 40
0.0
 40
0.0
 40
0.0
 40
0.0
 40
0.7406441374049776
 40
1.0
 40
1.0
 40
1.0
 40
1.0
 10
121.1309066051872
 20
270.89307852779
 30
0.0
 10
121.1197678900076
 20
270.8656334003722
 30
0.0
 10
121.1047286631818
 20
270.8285776457504
 30
0.0
 10
121.0851996206686
 20
270.832236710008
 30
0.0
 10
121.080134649002
 20
270.8331857097749
 30
0.0
  0
SPLINE
  5
340
330
1F
100
AcDbEntity
  8
0
  6
Continuous
 62
     7
370
    18
100
AcDbSpline
210
0.0
220
0.0
230
1.0
 70
    24
 71
     3
 72
    11
 73
     7
 74
     0
 42
0.000000001
 43
0.00000001
 40
0.0
 40
0.0
 40
0.0
 40
0.0
 40
0.25526496590566
 40
0.4764535033480473
 40
0.8282846718468555
 40
1.0
 40
1.0
 40
1.0
 40
1.0
 10
121.3142799853952
 20
271.4928658286037
 30
0.0
 10
121.2941473271907
 20
271.4270148707982
 30
0.0
 10
121.2565696067258
 20
271.3041036854192
 30
0.0
 10
121.1990575416519
 20
271.1159901967775
 30
0.0
 10
121.1561909605795
 20
270.9757799278315
 30
0.0
 10
121.1371513193775
 20
270.9135040675509
 30
0.0
 10
121.1309066051872
 20
270.89307852779
 30
0.0
  0
SPLINE
  5
341
330
1F
100
AcDbEntity
  8
0
  6
Continuous
 62
     7
370
    18
100
AcDbSpline
210
0.0
220
0.0
230
1.0
 70
    24
 71
     3
 72
    11
 73
     7
 74
     0
 42
0.000000001
 43
0.00000001
 40
0.0
 40
0.0
 40
0.0
 40
0.0
 40
0.2680442469794667
 40
0.5368675171031554
 40
0.7897188885086566
 40
1.0
 40
1.0
 40
1.0
 40
1.0
 10
132.7791869848237
 20
196.3054897111314
 30
0.0
 10
132.7532084744591
 20
196.4096838251833
 30
0.0
 10
132.7011759517893
 20
196.618374875031
 30
0.0
 10
132.6397859894579
 20
196.8645965654604
 30
0.0
 10
132.6014393070795
 20
197.0183967080079
 30
0.0
 10
132.5969779604588
 20
197.0362901919723
 30
0.0
 10
132.5949523264106
 20
197.0444145663909
 30
0.0
  0
SPLINE
  5
342
330
1F
100
AcDbEntity
  8
0
  6
Continuous
 62
     7
370
    18
100
AcDbSpline
210
0.0
220
0.0
230
1.0
 70
    24
 71
     3
 72
    11
 73
     7
 74
     0
 42
0.000000001
 43
0.00000001
 40
0.0
 40
0.0
 40
0.0
 40
0.0
 40
0.3044570623047231
 40
0.5240967575618761
 40
0.8765642886782631
 40
1.0
 40
1.0
 40
1.0
 40
1.0
 10
117.305687581335
 20
272.0625653466809
 30
0.0
 10
117.3175756127627
 20
272.1014493454047
 30
0.0
 10
117.3380398407161
 20
272.1683848189915
 30
0.0
 10
117.390853758412
 20
272.3411313599793
 30
0.0
 10
117.4416109149573
 20
272.5071505383722
 30
0.0
 10
117.4792884776826
 20
272.6303882930705
 30
0.0
 10
117.4890609615431
 20
272.6623526474946
 30
0.0
  0
SPLINE
  5
343
330
1F
100
AcDbEntity
  8
0
  6
Continuous
 62
     7
370
    18
100
AcDbSpline
210
0.0
220
0.0
230
1.0
 70
    24
 71
     3
 72
    12
 73
     8
 74
     0
 42
0.000000001
 43
0.00000001
 40
0.0
 40
0.0
 40
0.0
 40
0.0
 40
0.2228573229344894
 40
0.445471157206783
 40
0.6758073078722946
 40
0.9241533773110311
 40
0.9999999999999999
 40
0.9999999999999999
 40
0.9999999999999999
 40
0.9999999999999999
 10
99.8474715645955
 20
188.8795505899031
 30
0.0
 10
99.84973747323505
 20
188.8704625267344
 30
0.0
 10
99.85426681483577
 20
188.8522963298008
 30
0.0
 10
99.88920116185662
 20
188.712182316844
 30
0.0
 10
99.94134567924687
 20
188.5030420807068
 30
0.0
 10
99.99265047680201
 20
188.2972697768735
 30
0.0
 10
100.0243013346972
 20
188.1703251194976
 30
0.0
 10
100.0317062230085
 20
188.1406257346436
 30
0.0
  0
ARC
  5
344
330
1F
100
AcDbEntity
  8
0
  6
Continuous
 62
     7
370
    18
100
AcDbCircle
 10
106.7847558172
 20
230.8095408975
 30
0.0
 40
43.45000000000002
100
AcDbArc
 50
306.8535769231
 51
70.3617476901
  0
SPLINE
  5
345
330
1F
100
AcDbEntity
  8
0
  6
Continuous
 62
     7
370
    18
100
AcDbSpline
210
0.0
220
0.0
230
1.0
 70
    24
 71
     3
 72
    12
 73
     8
 74
     0
 42
0.000000001
 43
0.00000001
 40
0.0
 40
0.0
 40
0.0
 40
0.0
 40
0.226885244855427
 40
0.4733067603741231
 40
0.6277172580809409
 40
0.8735036441726884
 40
0.9999999999999999
 40
0.9999999999999999
 40
0.9999999999999999
 40
0.9999999999999999
 10
121.3142799853952
 20
271.4928658286037
 30
0.0
 10
121.3233832055191
 20
271.5226411199826
 30
0.0
 10
121.3423734912407
 20
271.5847555457608
 30
0.0
 10
121.362993715768
 20
271.6522012611495
 30
0.0
 10
121.3785669657474
 20
271.703139066623
 30
0.0
 10
121.3863743649173
 20
271.7286759186415
 30
0.0
 10
121.3871778907356
 20
271.7313041331682
 30
0.0
 10
121.3874509173263
 20
271.7321971629075
 30
0.0
  0
SPLINE
  5
346
330
1F
100
AcDbEntity
  8
0
  6
Continuous
 62
     7
370
    18
100
AcDbSpline
210
0.0
220
0.0
230
1.0
 70
    24
 71
     3
 72
    11
 73
     7
 74
     0
 42
0.000000001
 43
0.00000001
 40
0.0
 40
0.0
 40
0.0
 40
0.0
 40
0.2670370038294956
 40
0.5352514561180304
 40
0.7875011918733514
 40
0.9999999999999999
 40
0.9999999999999999
 40
0.9999999999999999
 40
0.9999999999999999
 10
132.7791869848237
 20
196.3054897111314
 30
0.0
 10
132.7884236206531
 20
196.2684435882567
 30
0.0
 10
132.8069376194863
 20
196.1941879947329
 30
0.0
 10
132.8287931809268
 20
196.1065301256156
 30
0.0
 10
132.8425137268718
 20
196.0515000215415
 30
0.0
 10
132.8441192581788
 20
196.0450605871876
 30
0.0
 10
132.8448533615851
 20
196.0421162592424
 30
0.0
  0
ARC
  5
347
330
1F
100
AcDbEntity
  8
0
  6
Continuous
 62
     7
370
    18
100
AcDbCircle
 10
106.7847558172
 20
230.8095408975
 30
0.0
 40
43.44999999999999
100
AcDbArc
 50
75.6382523099
 51
261.1464230769
  0
SPLINE
  5
348
330
1F
100
AcDbEntity
  8
0
  6
Continuous
 62
     7
370
    18
100
AcDbSpline
210
0.0
220
0.0
230
1.0
 70
    24
 71
     3
 72
    12
 73
     8
 74
     0
 42
0.000000001
 43
0.00000001
 40
0.0
 40
0.0
 40
0.0
 40
0.0
 40
0.2190581718972662
 40
0.3724789512574214
 40
0.6185666140447349
 40
0.8646465996496563
 40
0.9999999999999999
 40
0.9999999999999999
 40
0.9999999999999999
 40
0.9999999999999999
 10
117.5622318934742
 20
272.9016839817984
 30
0.0
 10
117.5614466538876
 20
272.8991155788405
 30
0.0
 10
117.5601114596094
 20
272.8947483551396
 30
0.0
 10
117.5495709099242
 20
272.8602717706012
 30
0.0
 10
117.5324942137218
 20
272.8044164141127
 30
0.0
 10
117.5098890506482
 20
272.7304782572822
 30
0.0
 10
117.4945161178239
 20
272.6801956597001
 30
0.0
 10
117.4890609615431
 20
272.6623526474946
 30
0.0
  0
SPLINE
  5
349
330
1F
100
AcDbEntity
  8
0
  6
Continuous
 62
     7
370
    18
100
AcDbSpline
210
0.0
220
0.0
230
1.0
 70
    24
 71
     3
 72
    12
 73
     8
 74
     0
 42
0.000000001
 43
0.00000001
 40
0.0
 40
0.0
 40
0.0
 40
0.0
 40
0.223486803662323
 40
0.4468191010536693
 40
0.6774368868499457
 40
0.9253034425295089
 40
1.0
 40
1.0
 40
1.0
 40
1.0
 10
100.0973725997699
 20
187.8772522827547
 30
0.0
 10
100.0965636863069
 20
187.8804966574487
 30
0.0
 10
100.0949464186185
 20
187.8869831638577
 30
0.0
 10
100.0824589276581
 20
187.9370677545099
 30
0.0
 10
100.0638243705359
 20
188.0118068809202
 30
0.0
 10
100.0455478116463
 20
188.085110154845
 30
0.0
 10
100.0343088507043
 20
188.1301871651043
 30
0.0
 10
100.0317062230085
 20
188.1406257346436
 30
0.0
  0
CIRCLE
  5
34A
330
1F
100
AcDbEntity
  8
0
  6
Continuous
 62
     7
370
    18
100
AcDbCircle
 10
143.2231454581
 20
202.326102545
 30
0.0
 40
1.000000000000028
  0
LINE
  5
34B
330
1F
100
AcDbEntity
  8
0
  6
Continuous
 62
     7
370
    18
100
AcDbLine
 10
142.3586165735
 20
202.451102545
 30
0.0
 11
142.3586165735
 21
202.201102545
 31
0.0
  0
SPLINE
  5
34C
330
1F
100
AcDbEntity
  8
0
  6
Continuous
 62
     7
370
    18
100
AcDbSpline
210
0.0
220
0.0
230
1.0
 70
    24
 71
     3
 72
    10
 73
     6
 74
     0
 42
0.000000001
 43
0.00000001
 40
0.0
 40
0.0
 40
0.0
 40
0.0
 40
0.3971555602001333
 40
0.7941248050545213
 40
1.0
 40
1.0
 40
1.0
 40
1.0
 10
142.3586165735006
 20
202.2011025450252
 30
0.0
 10
142.4007053396292
 20
202.2011025450253
 30
0.0
 10
142.4848631270213
 20
202.2011025450254
 30
0.0
 10
142.6242129125624
 20
202.2011025450257
 30
0.0
 10
142.7097955328612
 20
202.2011025450256
 30
0.0
 10
142.7390225398214
 20
202.2011025450256
 30
0.0
  0
LINE
  5
34D
330
1F
100
AcDbEntity
  8
0
  6
Continuous
 62
     7
370
    18
100
AcDbLine
 10
143.0981454581
 20
201.4615736604
 30
0.0
 11
143.3481454581
 21
201.4615736604
 31
0.0
  0
SPLINE
  5
34E
330
1F
100
AcDbEntity
  8
0
  6
Continuous
 62
     7
370
    18
100
AcDbSpline
210
0.0
220
0.0
230
1.0
 70
    24
 71
     3
 72
    10
 73
     6
 74
     0
 42
0.000000001
 43
0.00000001
 40
0.0
 40
0.0
 40
0.0
 40
0.0
 40
0.3971555602004482
 40
0.7941248050550233
 40
0.9999999999999999
 40
0.9999999999999999
 40
0.9999999999999999
 40
0.9999999999999999
 10
143.3481454580973
 20
201.4615736604289
 30
0.0
 10
143.3481454580973
 20
201.5036624265576
 30
0.0
 10
143.3481454580973
 20
201.5878202139497
 30
0.0
 10
143.3481454580973
 20
201.7271699994908
 30
0.0
 10
143.3481454580974
 20
201.8127526197894
 30
0.0
 10
143.3481454580974
 20
201.8419796267496
 30
0.0
  0
SPLINE
  5
34F
330
1F
100
AcDbEntity
  8
0
  6
Continuous
 62
     7
370
    18
100
AcDbSpline
210
0.0
220
0.0
230
1.0
 70
    24
 71
     3
 72
    10
 73
     6
 74
     0
 42
0.000000001
 43
0.00000001
 40
0.0
 40
0.0
 40
0.0
 40
0.0
 40
0.4119518195924033
 40
0.8219732837940527
 40
0.9999999999999999
 40
0.9999999999999999
 40
0.9999999999999999
 40
0.9999999999999999
 10
143.7072683763733
 20
202.2011025450252
 30
0.0
 10
143.7659936514344
 20
202.2011025450252
 30
0.0
 10
143.8831690221644
 20
202.201102545025
 30
0.0
 10
144.0111106751914
 20
202.201102545026
 30
0.0
 10
144.0698818548232
 20
202.2011025450257
 30
0.0
 10
144.0876743426941
 20
202.2011025450255
 30
0.0
  0
LINE
  5
350
330
1F
100
AcDbEntity
  8
0
  6
Continuous
 62
     7
370
    18
100
AcDbLine
 10
144.0876743427
 20
202.201102545
 30
0.0
 11
144.0876743427
 21
202.451102545
 31
0.0
  0
SPLINE
  5
351
330
1F
100
AcDbEntity
  8
0
  6
Continuous
 62
     7
370
    18
100
AcDbSpline
210
0.0
220
0.0
230
1.0
 70
    24
 71
     3
 72
    10
 73
     6
 74
     0
 42
0.000000001
 43
0.00000001
 40
0.0
 40
0.0
 40
0.0
 40
0.0
 40
0.397155560200131
 40
0.794124805054382
 40
0.9999999999999999
 40
0.9999999999999999
 40
0.9999999999999999
 40
0.9999999999999999
 10
144.0876743426941
 20
202.4511025450256
 30
0.0
 10
144.0455855765654
 20
202.4511025450257
 30
0.0
 10
143.9614277891734
 20
202.451102545026
 30
0.0
 10
143.8220780036322
 20
202.451102545025
 30
0.0
 10
143.7364953833335
 20
202.4511025450252
 30
0.0
 10
143.7072683763733
 20
202.4511025450253
 30
0.0
  0
SPLINE
  5
352
330
1F
100
AcDbEntity
  8
0
  6
Continuous
 62
     7
370
    18
100
AcDbSpline
210
0.0
220
0.0
230
1.0
 70
    24
 71
     3
 72
    10
 73
     6
 74
     0
 42
0.000000001
 43
0.00000001
 40
0.0
 40
0.0
 40
0.0
 40
0.0
 40
0.4119518195928461
 40
0.8219732837936363
 40
1.0
 40
1.0
 40
1.0
 40
1.0
 10
143.3481454580973
 20
202.8102254633018
 30
0.0
 10
143.3481454580974
 20
202.8689507383629
 30
0.0
 10
143.3481454580974
 20
202.9861261090929
 30
0.0
 10
143.3481454580973
 20
203.1140677621196
 30
0.0
 10
143.3481454580973
 20
203.1728389417515
 30
0.0
 10
143.3481454580973
 20
203.1906314296225
 30
0.0
  0
LINE
  5
353
330
1F
100
AcDbEntity
  8
0
  6
Continuous
 62
     7
370
    18
100
AcDbLine
 10
143.3481454581
 20
203.1906314296
 30
0.0
 11
143.0981454581
 21
203.1906314296
 31
0.0
  0
SPLINE
  5
354
330
1F
100
AcDbEntity
  8
0
  6
Continuous
 62
     7
370
    18
100
AcDbSpline
210
0.0
220
0.0
230
1.0
 70
    24
 71
     3
 72
    10
 73
     6
 74
     0
 42
0.000000001
 43
0.00000001
 40
0.0
 40
0.0
 40
0.0
 40
0.0
 40
0.3971555602003362
 40
0.7941248050543235
 40
1.0
 40
1.0
 40
1.0
 40
1.0
 10
143.0981454580973
 20
203.1906314296222
 30
0.0
 10
143.0981454580973
 20
203.1485426634935
 30
0.0
 10
143.0981454580973
 20
203.0643848761015
 30
0.0
 10
143.0981454580973
 20
202.9250350905604
 30
0.0
 10
143.0981454580973
 20
202.8394524702617
 30
0.0
 10
143.0981454580973
 20
202.8102254633015
 30
0.0
  0
SPLINE
  5
355
330
1F
100
AcDbEntity
  8
0
  6
Continuous
 62
     7
370
    18
100
AcDbSpline
210
0.0
220
0.0
230
1.0
 70
    24
 71
     3
 72
    10
 73
     6
 74
     0
 42
0.000000001
 43
0.00000001
 40
0.0
 40
0.0
 40
0.0
 40
0.0
 40
0.4119518195925015
 40
0.821973283794167
 40
1.0
 40
1.0
 40
1.0
 40
1.0
 10
142.7390225398214
 20
202.4511025450256
 30
0.0
 10
142.6802972647603
 20
202.4511025450257
 30
0.0
 10
142.5631218940303
 20
202.4511025450259
 30
0.0
 10
142.4351802410032
 20
202.4511025450258
 30
0.0
 10
142.3764090613714
 20
202.4511025450254
 30
0.0
 10
142.3586165735006
 20
202.4511025450253
 30
0.0
  0
SPLINE
  5
356
330
1F
100
AcDbEntity
  8
0
  6
Continuous
 62
     7
370
    18
100
AcDbSpline
210
0.0
220
0.0
230
1.0
 70
    24
 71
     3
 72
    10
 73
     6
 74
     0
 42
0.000000001
 43
0.00000001
 40
0.0
 40
0.0
 40
0.0
 40
0.0
 40
0.4119518195925537
 40
0.8219732837942549
 40
1.0
 40
1.0
 40
1.0
 40
1.0
 10
143.0981454580974
 20
201.8419796267496
 30
0.0
 10
143.0981454580973
 20
201.7832543516885
 30
0.0
 10
143.0981454580972
 20
201.6660789809584
 30
0.0
 10
143.0981454580973
 20
201.5381373279313
 30
0.0
 10
143.0981454580973
 20
201.4793661482995
 30
0.0
 10
143.0981454580973
 20
201.4615736604287
 30
0.0
  0
LINE
  5
357
330
1F
100
AcDbEntity
  8
0
  6
Continuous
 62
     7
370
    18
100
AcDbLine
 10
143.7072683764
 20
202.451102545
 30
0.0
 11
143.3481454581
 21
202.451102545
 31
0.0
  0
LINE
  5
358
330
1F
100
AcDbEntity
  8
0
  6
Continuous
 62
     7
370
    18
100
AcDbLine
 10
143.3481454581
 20
202.451102545
 30
0.0
 11
143.3481454581
 21
202.8102254633
 31
0.0
  0
LINE
  5
359
330
1F
100
AcDbEntity
  8
0
  6
Continuous
 62
     7
370
    18
100
AcDbLine
 10
143.0981454581
 20
202.8102254633
 30
0.0
 11
143.0981454581
 21
202.451102545
 31
0.0
  0
LINE
  5
35A
330
1F
100
AcDbEntity
  8
0
  6
Continuous
 62
     7
370
    18
100
AcDbLine
 10
143.0981454581
 20
202.451102545
 30
0.0
 11
142.7390225398
 21
202.451102545
 31
0.0
  0
LINE
  5
35B
330
1F
100
AcDbEntity
  8
0
  6
Continuous
 62
     7
370
    18
100
AcDbLine
 10
143.3481454581
 20
201.8419796267
 30
0.0
 11
143.3481454581
 21
202.201102545
 31
0.0
  0
LINE
  5
35C
330
1F
100
AcDbEntity
  8
0
  6
Continuous
 62
     7
370
    18
100
AcDbLine
 10
143.3481454581
 20
202.201102545
 30
0.0
 11
143.7072683764
 21
202.201102545
 31
0.0
  0
LINE
  5
35D
330
1F
100
AcDbEntity
  8
0
  6
Continuous
 62
     7
370
    18
100
AcDbLine
 10
142.7390225398
 20
202.201102545
 30
0.0
 11
143.0981454581
 21
202.201102545
 31
0.0
  0
LINE
  5
35E
330
1F
100
AcDbEntity
  8
0
  6
Continuous
 62
     7
370
    18
100
AcDbLine
 10
143.0981454581
 20
202.201102545
 30
0.0
 11
143.0981454581
 21
201.8419796267
 31
0.0
  0
CIRCLE
  5
35F
330
1F
100
AcDbEntity
  8
0
  6
Continuous
 62
     7
370
    18
100
AcDbCircle
 10
143.2231454581
 20
202.326102545
 30
0.0
 40
1.125
  0
LINE
  5
360
330
1F
100
AcDbEntity
  8
0
  6
Continuous
 62
     7
370
    18
100
AcDbLine
 10
151.9597558172
 20
240.5595408975
 30
0.0
 11
150.2097558172
 21
240.5595408975
 31
0.0
  0
LINE
  5
361
330
1F
100
AcDbEntity
  8
0
  6
Continuous
 62
     7
370
    18
100
AcDbLine
 10
151.9597558172
 20
240.5595408975
 30
0.0
 11
151.9597558172
 21
238.9345408975
 31
0.0
  0
LINE
  5
362
330
1F
100
AcDbEntity
  8
0
  6
Continuous
 62
     7
370
    18
100
AcDbLine
 10
151.9597558172
 20
238.9345408975
 30
0.0
 11
150.2097558172
 21
238.9345408975
 31
0.0
  0
LINE
  5
363
330
1F
100
AcDbEntity
  8
0
  6
Continuous
 62
     7
370
    18
100
AcDbLine
 10
151.9597558172
 20
238.9345408975
 30
0.0
 11
151.9597558172
 21
237.3095408975
 31
0.0
  0
LINE
  5
364
330
1F
100
AcDbEntity
  8
0
  6
Continuous
 62
     7
370
    18
100
AcDbLine
 10
151.9597558172
 20
237.3095408975
 30
0.0
 11
150.2097558172
 21
237.3095408975
 31
0.0
  0
LINE
  5
365
330
1F
100
AcDbEntity
  8
0
  6
Continuous
 62
     7
370
    18
100
AcDbLine
 10
114.9097558172
 20
277.5595408975
 30
0.0
 11
114.9097558172
 21
275.8095408975
 31
0.0
  0
LINE
  5
366
330
1F
100
AcDbEntity
  8
0
  6
Continuous
 62
     7
370
    18
100
AcDbLine
 10
114.9097558172
 20
277.5595408975
 30
0.0
 11
116.5347558172
 21
277.5595408975
 31
0.0
  0
LINE
  5
367
330
1F
100
AcDbEntity
  8
0
  6
Continuous
 62
     7
370
    18
100
AcDbLine
 10
116.5347558172
 20
277.5595408975
 30
0.0
 11
116.5347558172
 21
275.8095408975
 31
0.0
  0
LINE
  5
368
330
1F
100
AcDbEntity
  8
0
  6
Continuous
 62
     7
370
    18
100
AcDbLine
 10
113.2847558172
 20
277.5595408975
 30
0.0
 11
113.2847558172
 21
275.8095408975
 31
0.0
  0
LINE
  5
369
330
1F
100
AcDbEntity
  8
0
  6
Continuous
 62
     7
370
    18
100
AcDbLine
 10
113.2847558172
 20
277.5595408975
 30
0.0
 11
114.9097558172
 21
277.5595408975
 31
0.0
  0
LINE
  5
36A
330
1F
100
AcDbEntity
  8
0
  6
Continuous
 62
     7
370
    18
100
AcDbLine
 10
97.0347558172
 20
277.5595408975
 30
0.0
 11
97.0347558172
 21
275.8095408975
 31
0.0
  0
LINE
  5
36B
330
1F
100
AcDbEntity
  8
0
  6
Continuous
 62
     7
370
    18
100
AcDbLine
 10
97.0347558172
 20
277.5595408975
 30
0.0
 11
98.6597558172
 21
277.5595408975
 31
0.0
  0
LINE
  5
36C
330
1F
100
AcDbEntity
  8
0
  6
Continuous
 62
     7
370
    18
100
AcDbLine
 10
98.6597558172
 20
277.5595408975
 30
0.0
 11
98.6597558172
 21
275.8095408975
 31
0.0
  0
LINE
  5
36D
330
1F
100
AcDbEntity
  8
0
  6
Continuous
 62
     7
370
    18
100
AcDbLine
 10
98.6597558172
 20
277.5595408975
 30
0.0
 11
100.2847558172
 21
277.5595408975
 31
0.0
  0
LINE
  5
36E
330
1F
100
AcDbEntity
  8
0
  6
Continuous
 62
     7
370
    18
100
AcDbLine
 10
100.2847558172
 20
277.5595408975
 30
0.0
 11
100.2847558172
 21
275.8095408975
 31
0.0
  0
LINE
  5
36F
330
1F
100
AcDbEntity
  8
0
  6
Continuous
 62
     7
370
    18
100
AcDbLine
 10
61.6097558172
 20
221.0900631406
 30
0.0
 11
63.3597558172
 21
221.0900631406
 31
0.0
  0
LINE
  5
370
330
1F
100
AcDbEntity
  8
0
  6
Continuous
 62
     7
370
    18
100
AcDbLine
 10
61.6097558172
 20
221.0900631406
 30
0.0
 11
61.6097558172
 21
222.74395569
 31
0.0
  0
LINE
  5
371
330
1F
100
AcDbEntity
  8
0
  6
Continuous
 62
     7
370
    18
100
AcDbLine
 10
61.6097558172
 20
222.74395569
 30
0.0
 11
63.3597558172
 21
222.74395569
 31
0.0
  0
LINE
  5
372
330
1F
100
AcDbEntity
  8
0
  6
Continuous
 62
     7
370
    18
100
AcDbLine
 10
61.6097558172
 20
224.3384334469
 30
0.0
 11
63.3597558172
 21
224.3384334469
 31
0.0
  0
LINE
  5
373
330
1F
100
AcDbEntity
  8
0
  6
Continuous
 62
     7
370
    18
100
AcDbLine
 10
61.6097558172
 20
222.74395569
 30
0.0
 11
61.6097558172
 21
224.3384334469
 31
0.0
  0
LINE
  5
374
330
1F
100
AcDbEntity
  8
0
  6
Continuous
 62
     7
370
    18
100
AcDbLine
 10
61.6097558172
 20
221.0306483481
 30
0.0
 11
63.3597558172
 21
221.0306483481
 31
0.0
  0
LINE
  5
375
330
1F
100
AcDbEntity
  8
0
  6
Continuous
 62
     7
370
    18
100
AcDbLine
 10
61.6097558172
 20
221.0306483481
 30
0.0
 11
61.6097558172
 21
221.0900631406
 31
0.0
  0
LINE
  5
376
330
1F
100
AcDbEntity
  8
0
  6
Continuous
 62
     7
370
    18
100
AcDbLine
 10
61.6097558172
 20
237.5372729881
 30
0.0
 11
63.3597558172
 21
237.5372729881
 31
0.0
  0
LINE
  5
377
330
1F
100
AcDbEntity
  8
0
  6
Continuous
 62
     7
370
    18
100
AcDbLine
 10
61.6097558172
 20
237.5372729881
 30
0.0
 11
61.6097558172
 21
239.3205067731
 31
0.0
  0
LINE
  5
378
330
1F
100
AcDbEntity
  8
0
  6
Continuous
 62
     7
370
    18
100
AcDbLine
 10
61.6097558172
 20
239.3205067731
 30
0.0
 11
63.3597558172
 21
239.3205067731
 31
0.0
  0
LINE
  5
379
330
1F
100
AcDbEntity
  8
0
  6
Continuous
 62
     7
370
    18
100
AcDbLine
 10
61.6097558172
 20
240.7177746826
 30
0.0
 11
63.3597558172
 21
240.7177746826
 31
0.0
  0
LINE
  5
37A
330
1F
100
AcDbEntity
  8
0
  6
Continuous
 62
     7
370
    18
100
AcDbLine
 10
61.6097558172
 20
239.3205067731
 30
0.0
 11
61.6097558172
 21
240.7177746826
 31
0.0
  0
LINE
  5
37B
330
1F
100
AcDbEntity
  8
0
  6
Continuous
 62
     7
370
    18
100
AcDbLine
 10
61.6097558172
 20
237.1513071125
 30
0.0
 11
63.3597558172
 21
237.1513071125
 31
0.0
  0
LINE
  5
37C
330
1F
100
AcDbEntity
  8
0
  6
Continuous
 62
     7
370
    18
100
AcDbLine
 10
61.6097558172
 20
237.1513071125
 30
0.0
 11
61.6097558172
 21
237.5372729881
 31
0.0
  0
LINE
  5
37D
330
1F
100
AcDbEntity
  8
0
  6
Continuous
 62
     7
370
    18
100
AcDbLine
 10
151.9597558172
 20
223.6547223197
 30
0.0
 11
150.2097558172
 21
223.6547223197
 31
0.0
  0
LINE
  5
37E
330
1F
100
AcDbEntity
  8
0
  6
Continuous
 62
     7
370
    18
100
AcDbLine
 10
151.9597558172
 20
223.6547223197
 30
0.0
 11
151.9597558172
 21
221.7787017017
 31
0.0
  0
LINE
  5
37F
330
1F
100
AcDbEntity
  8
0
  6
Continuous
 62
     7
370
    18
100
AcDbLine
 10
151.9597558172
 20
221.7787017017
 30
0.0
 11
150.2097558172
 21
221.7787017017
 31
0.0
  0
LINE
  5
380
330
1F
100
AcDbEntity
  8
0
  6
Continuous
 62
     7
370
    18
100
AcDbLine
 10
151.9597558172
 20
220.8085202795
 30
0.0
 11
150.2097558172
 21
220.8085202795
 31
0.0
  0
LINE
  5
381
330
1F
100
AcDbEntity
  8
0
  6
Continuous
 62
     7
370
    18
100
AcDbLine
 10
151.9597558172
 20
221.7787017017
 30
0.0
 11
151.9597558172
 21
220.8085202795
 31
0.0
  0
LINE
  5
382
330
1F
100
AcDbEntity
  8
0
  6
Continuous
 62
     7
370
    18
100
AcDbLine
 10
151.9597558172
 20
224.5605615156
 30
0.0
 11
150.2097558172
 21
224.5605615156
 31
0.0
  0
LINE
  5
383
330
1F
100
AcDbEntity
  8
0
  6
Continuous
 62
     7
370
    18
100
AcDbLine
 10
151.9597558172
 20
224.5605615156
 30
0.0
 11
151.9597558172
 21
223.6547223197
 31
0.0
  0
LINE
  5
384
330
1F
100
AcDbEntity
  8
0
  6
Continuous
 62
     7
370
    18
100
AcDbLine
 10
150.2097558172
 20
233.024704832
 30
0.0
 11
150.2097558172
 21
232.2832691629
 31
0.0
  0
LINE
  5
385
330
1F
100
AcDbEntity
  8
0
  6
Continuous
 62
     7
370
    18
100
AcDbLine
 10
150.2097558172
 20
229.3358126322
 30
0.0
 11
150.2097558172
 21
228.5943769631
 31
0.0
  0
LINE
  5
386
330
1F
100
AcDbEntity
  8
0
  6
Continuous
 62
     7
370
    18
100
AcDbLine
 10
149.4097558172
 20
239.5656884385
 30
0.0
 11
149.4097558172
 21
239.2363952929
 31
0.0
  0
LINE
  5
387
330
1F
100
AcDbEntity
  8
0
  6
Continuous
 62
     7
370
    18
100
AcDbLine
 10
150.2097558172
 20
239.5656884385
 30
0.0
 11
150.2097558172
 21
233.024704832
 31
0.0
  0
LINE
  5
388
330
1F
100
AcDbEntity
  8
0
  6
Continuous
 62
     7
370
    18
100
AcDbLine
 10
149.4097558172
 20
222.3826865022
 30
0.0
 11
149.4097558172
 21
222.0533933566
 31
0.0
  0
LINE
  5
389
330
1F
100
AcDbEntity
  8
0
  6
Continuous
 62
     7
370
    18
100
AcDbLine
 10
150.2097558172
 20
228.5943769631
 30
0.0
 11
150.2097558172
 21
222.0533933566
 31
0.0
  0
LINE
  5
38A
330
1F
100
AcDbEntity
  8
0
  6
Continuous
 62
     7
370
    18
100
AcDbLine
 10
149.4097558172
 20
241.4345408975
 30
0.0
 11
149.4097558172
 21
239.5656884385
 31
0.0
  0
LINE
  5
38B
330
1F
100
AcDbEntity
  8
0
  6
Continuous
 62
     7
370
    18
100
AcDbLine
 10
150.2097558172
 20
241.4345408975
 30
0.0
 11
150.2097558172
 21
239.5656884385
 31
0.0
  0
LINE
  5
38C
330
1F
100
AcDbEntity
  8
0
  6
Continuous
 62
     7
370
    18
100
AcDbLine
 10
149.4097558172
 20
222.0533933566
 30
0.0
 11
149.4097558172
 21
220.1845408975
 31
0.0
  0
LINE
  5
38D
330
1F
100
AcDbEntity
  8
0
  6
Continuous
 62
     7
370
    18
100
AcDbLine
 10
150.2097558172
 20
222.0533933566
 30
0.0
 11
150.2097558172
 21
220.1845408975
 31
0.0
  0
LINE
  5
38E
330
1F
100
AcDbEntity
  8
0
  6
Continuous
 62
     7
370
    18
100
AcDbLine
 10
63.3597558172
 20
233.024704832
 30
0.0
 11
63.3597558172
 21
232.2832691629
 31
0.0
  0
LINE
  5
38F
330
1F
100
AcDbEntity
  8
0
  6
Continuous
 62
     7
370
    18
100
AcDbLine
 10
63.3597558172
 20
229.3358126322
 30
0.0
 11
63.3597558172
 21
228.5943769631
 31
0.0
  0
LINE
  5
390
330
1F
100
AcDbEntity
  8
0
  6
Continuous
 62
     7
370
    18
100
AcDbLine
 10
64.1597558172
 20
239.5656884385
 30
0.0
 11
64.1597558172
 21
239.2363952929
 31
0.0
  0
LINE
  5
391
330
1F
100
AcDbEntity
  8
0
  6
Continuous
 62
     7
370
    18
100
AcDbLine
 10
63.3597558172
 20
239.5656884385
 30
0.0
 11
63.3597558172
 21
233.024704832
 31
0.0
  0
LINE
  5
392
330
1F
100
AcDbEntity
  8
0
  6
Continuous
 62
     7
370
    18
100
AcDbLine
 10
64.1597558172
 20
222.3826865022
 30
0.0
 11
64.1597558172
 21
222.0533933566
 31
0.0
  0
LINE
  5
393
330
1F
100
AcDbEntity
  8
0
  6
Continuous
 62
     7
370
    18
100
AcDbLine
 10
63.3597558172
 20
228.5943769631
 30
0.0
 11
63.3597558172
 21
222.0533933566
 31
0.0
  0
LINE
  5
394
330
1F
100
AcDbEntity
  8
0
  6
Continuous
 62
     7
370
    18
100
AcDbLine
 10
64.1597558172
 20
241.4345408975
 30
0.0
 11
64.1597558172
 21
239.5656884385
 31
0.0
  0
LINE
  5
395
330
1F
100
AcDbEntity
  8
0
  6
Continuous
 62
     7
370
    18
100
AcDbLine
 10
63.3597558172
 20
241.4345408975
 30
0.0
 11
63.3597558172
 21
239.5656884385
 31
0.0
  0
LINE
  5
396
330
1F
100
AcDbEntity
  8
0
  6
Continuous
 62
     7
370
    18
100
AcDbLine
 10
64.1597558172
 20
222.0533933566
 30
0.0
 11
64.1597558172
 21
220.1845408975
 31
0.0
  0
LINE
  5
397
330
1F
100
AcDbEntity
  8
0
  6
Continuous
 62
     7
370
    18
100
AcDbLine
 10
63.3597558172
 20
222.0533933566
 30
0.0
 11
63.3597558172
 21
220.1845408975
 31
0.0
  0
SPLINE
  5
398
330
1F
100
AcDbEntity
  8
0
  6
Continuous
 62
     7
370
    18
100
AcDbSpline
210
0.0
220
0.0
230
1.0
 70
     8
 71
     3
 72
    11
 73
     7
 74
     0
 42
0.000000001
 43
0.00000001
 40
0.0
 40
0.0
 40
0.0
 40
0.0
 40
0.3159601765838981
 40
0.6359095049530658
 40
0.9747462250975865
 40
1.0
 40
1.0
 40
1.0
 40
1.0
 10
151.8347558172407
 20
226.8167290653371
 30
0.0
 10
151.7837183469818
 20
226.8163438552969
 30
0.0
 10
151.6809990334362
 20
226.8155685717515
 30
0.0
 10
151.5482952634492
 20
226.8118199404913
 30
0.0
 10
151.4670610667175
 20
226.8086597056225
 30
0.0
 10
151.4432323461548
 20
226.8096853395452
 30
0.0
 10
151.4415795561109
 20
226.8097564788048
 30
0.0
  0
SPLINE
  5
399
330
1F
100
AcDbEntity
  8
0
  6
Continuous
 62
     7
370
    18
100
AcDbSpline
210
0.0
220
0.0
230
1.0
 70
     8
 71
     3
 72
    11
 73
     7
 74
     0
 42
0.000000001
 43
0.00000001
 40
0.0
 40
0.0
 40
0.0
 40
0.0
 40
0.3159601765839512
 40
0.635909504953166
 40
0.9747462250977438
 40
1.0
 40
1.0
 40
1.0
 40
1.0
 10
151.8347558172407
 20
234.8023527297318
 30
0.0
 10
151.7837183469817
 20
234.8027379397719
 30
0.0
 10
151.6809990334362
 20
234.8035132233174
 30
0.0
 10
151.5482952634492
 20
234.8072618545776
 30
0.0
 10
151.4670610667175
 20
234.8104220894463
 30
0.0
 10
151.4432323461548
 20
234.8093964555236
 30
0.0
 10
151.4415795561109
 20
234.8093253162641
 30
0.0
  0
LINE
  5
39A
330
1F
100
AcDbEntity
  8
0
  6
Continuous
 62
     7
370
    18
100
AcDbLine
 10
151.5847558172
 20
234.2430598491
 30
0.0
 11
151.5847558172
 21
231.0772856446
 31
0.0
  0
LINE
  5
39B
330
1F
100
AcDbEntity
  8
0
  6
Continuous
 62
     7
370
    18
100
AcDbLine
 10
153.3347558172
 20
230.565119694
 30
0.0
 11
153.3347558172
 21
229.7646791981
 31
0.0
  0
LINE
  5
39C
330
1F
100
AcDbEntity
  8
0
  6
Continuous
 62
     7
370
    18
100
AcDbLine
 10
153.3347558172
 20
229.7646791981
 30
0.0
 11
153.3347558172
 21
229.458202706
 31
0.0
  0
LINE
  5
39D
330
1F
100
AcDbEntity
  8
0
  6
Continuous
 62
     7
370
    18
100
AcDbLine
 10
151.5847558172
 20
229.2043062849
 30
0.0
 11
151.5847558172
 21
227.078283196
 31
0.0
  0
LINE
  5
39E
330
1F
100
AcDbEntity
  8
0
  6
Continuous
 62
     7
370
    18
100
AcDbLine
 10
153.3347558172
 20
229.458202706
 30
0.0
 11
153.3347558172
 21
228.2451599821
 31
0.0
  0
LINE
  5
39F
330
1F
100
AcDbEntity
  8
0
  6
Continuous
 62
     7
370
    18
100
AcDbLine
 10
153.3347558172
 20
234.416487426
 30
0.0
 11
153.3347558172
 21
232.9730807744
 31
0.0
  0
ARC
  5
3A0
330
1F
100
AcDbEntity
  8
0
  6
Continuous
 62
     7
370
    18
100
AcDbCircle
 10
153.0849802456
 20
234.5525771578
 30
0.0
 40
0.2497756727812724
100
AcDbArc
 50
0.051574085
 51
90.0514814042
  0
LINE
  5
3A1
330
1F
100
AcDbEntity
  8
0
  6
Continuous
 62
     7
370
    18
100
AcDbLine
 10
153.3347558172
 20
234.5528019902
 30
0.0
 11
153.3347558172
 21
234.416487426
 31
0.0
  0
LINE
  5
3A2
330
1F
100
AcDbEntity
  8
0
  6
Continuous
 62
     7
370
    18
100
AcDbLine
 10
153.3347558172
 20
228.2451599821
 30
0.0
 11
153.3347558172
 21
227.0662798048
 31
0.0
  0
LINE
  5
3A3
330
1F
100
AcDbEntity
  8
0
  6
Continuous
 62
     7
370
    18
100
AcDbLine
 10
153.3347558172
 20
232.9730807744
 30
0.0
 11
153.3347558172
 21
231.4292082167
 31
0.0
  0
LINE
  5
3A4
330
1F
100
AcDbEntity
  8
0
  6
Continuous
 62
     7
370
    18
100
AcDbLine
 10
151.8347558172
 20
234.8028019902
 30
0.0
 11
151.8347558172
 21
234.8023527297
 31
0.0
  0
LINE
  5
3A5
330
1F
100
AcDbEntity
  8
0
  6
Continuous
 62
     7
370
    18
100
AcDbLine
 10
153.0847558172
 20
234.8023527297
 30
0.0
 11
153.0847558172
 21
234.8028019902
 31
0.0
  0
LINE
  5
3A6
330
1F
100
AcDbEntity
  8
0
  6
Continuous
 62
     7
370
    18
100
AcDbLine
 10
153.3347558172
 20
231.4292082167
 30
0.0
 11
153.3347558172
 21
231.0539621011
 31
0.0
  0
LINE
  5
3A7
330
1F
100
AcDbEntity
  8
0
  6
Continuous
 62
     7
370
    18
100
AcDbLine
 10
108.9999197517
 20
275.8095408975
 30
0.0
 11
104.5695918828
 21
275.8095408975
 31
0.0
  0
LINE
  5
3A8
330
1F
100
AcDbEntity
  8
0
  6
Continuous
 62
     7
370
    18
100
AcDbLine
 10
98.0286082763
 20
273.8095408975
 30
0.0
 11
100.5475689514
 21
273.8095408975
 31
0.0
  0
LINE
  5
3A9
330
1F
100
AcDbEntity
  8
0
  6
Continuous
 62
     7
370
    18
100
AcDbLine
 10
104.5695918828
 20
275.8095408975
 30
0.0
 11
98.0286082763
 21
275.8095408975
 31
0.0
  0
LINE
  5
3AA
330
1F
100
AcDbEntity
  8
0
  6
Continuous
 62
     7
370
    18
100
AcDbLine
 10
113.0219426831
 20
273.8095408975
 30
0.0
 11
115.5409033582
 21
273.8095408975
 31
0.0
  0
LINE
  5
3AB
330
1F
100
AcDbEntity
  8
0
  6
Continuous
 62
     7
370
    18
100
AcDbLine
 10
115.5409033582
 20
275.8095408975
 30
0.0
 11
108.9999197517
 21
275.8095408975
 31
0.0
  0
LINE
  5
3AC
330
1F
100
AcDbEntity
  8
0
  6
Continuous
 62
     7
370
    18
100
AcDbLine
 10
102.4097558172
 20
279.0595408975
 30
0.0
 11
111.1597558172
 21
279.0595408975
 31
0.0
  0
LINE
  5
3AD
330
1F
100
AcDbEntity
  8
0
  6
Continuous
 62
     7
370
    18
100
AcDbLine
 10
96.1597558172
 20
273.8095408975
 30
0.0
 11
98.0286082763
 21
273.8095408975
 31
0.0
  0
LINE
  5
3AE
330
1F
100
AcDbEntity
  8
0
  6
Continuous
 62
     7
370
    18
100
AcDbLine
 10
98.0286082763
 20
275.8095408975
 30
0.0
 11
96.1597558172
 21
275.8095408975
 31
0.0
  0
LINE
  5
3AF
330
1F
100
AcDbEntity
  8
0
  6
Continuous
 62
     7
370
    18
100
AcDbLine
 10
115.5409033582
 20
273.8095408975
 30
0.0
 11
117.4097558172
 21
273.8095408975
 31
0.0
  0
LINE
  5
3B0
330
1F
100
AcDbEntity
  8
0
  6
Continuous
 62
     7
370
    18
100
AcDbLine
 10
117.4097558172
 20
275.8095408975
 30
0.0
 11
115.5409033582
 21
275.8095408975
 31
0.0
  0
LINE
  5
3B1
330
1F
100
AcDbEntity
  8
0
  6
Continuous
 62
     7
370
    18
100
AcDbLine
 10
96.7847558172
 20
273.3095408975
 30
0.0
 11
96.7847558172
 21
273.8095408975
 31
0.0
  0
LINE
  5
3B2
330
1F
100
AcDbEntity
  8
0
  6
Continuous
 62
     7
370
    18
100
AcDbLine
 10
98.0286082763
 20
273.8095408975
 30
0.0
 11
96.7847558172
 21
273.8095408975
 31
0.0
  0
LINE
  5
3B3
330
1F
100
AcDbEntity
  8
0
  6
Continuous
 62
     7
370
    18
100
AcDbLine
 10
116.7847558172
 20
273.3095408975
 30
0.0
 11
116.7847558172
 21
273.8095408975
 31
0.0
  0
LINE
  5
3B4
330
1F
100
AcDbEntity
  8
0
  6
Continuous
 62
     7
370
    18
100
AcDbLine
 10
116.7847558172
 20
273.8095408975
 30
0.0
 11
115.5409033582
 21
273.8095408975
 31
0.0
  0
SPLINE
  5
3B5
330
1F
100
AcDbEntity
  8
0
  6
Continuous
 62
     7
370
    18
100
AcDbSpline
210
0.0
220
0.0
230
1.0
 70
     8
 71
     3
 72
     9
 73
     5
 74
     0
 42
0.000000001
 43
0.00000001
 40
0.0
 40
0.0
 40
0.0
 40
0.0
 40
0.5626570992419816
 40
1.0
 40
1.0
 40
1.0
 40
1.0
 10
87.8435671516966
 20
272.8598883334487
 30
0.0
 10
89.39629787364753
 20
273.0862543141047
 30
0.0
 10
92.1559373130908
 20
273.4885703622999
 30
0.0
 10
94.94150678439682
 20
273.7340569606058
 30
0.0
 10
96.15975581724078
 20
273.8414187816061
 30
0.0
  0
SPLINE
  5
3B6
330
1F
100
AcDbEntity
  8
0
  6
Continuous
 62
     7
370
    18
100
AcDbSpline
210
0.0
220
0.0
230
1.0
 70
     8
 71
     3
 72
     9
 73
     5
 74
     0
 42
0.000000001
 43
0.00000001
 40
0.0
 40
0.0
 40
0.0
 40
0.0
 40
0.4317114418071051
 40
1.0
 40
1.0
 40
1.0
 40
1.0
 10
117.3708785337899
 20
273.8434113096439
 30
0.0
 10
118.5791434842383
 20
273.73796351478
 30
0.0
 10
121.3779225608148
 20
273.4937082445873
 30
0.0
 10
124.150385510478
 20
273.0895607375309
 30
0.0
 10
125.7259444827853
 20
272.8598883334485
 30
0.0
  0
SPLINE
  5
3B7
330
1F
100
AcDbEntity
  8
0
  6
Continuous
 62
     7
370
    18
100
AcDbSpline
210
0.0
220
0.0
230
1.0
 70
     8
 71
     3
 72
     9
 73
     5
 74
     0
 42
0.000000001
 43
0.00000001
 40
0.0
 40
0.0
 40
0.0
 40
0.0
 40
0.5620960862501871
 40
1.0
 40
1.0
 40
1.0
 40
1.0
 10
148.8351032531557
 20
249.7507295630783
 30
0.0
 10
149.0612830167171
 20
248.1995572793124
 30
0.0
 10
149.4636693152416
 20
245.4399360655908
 30
0.0
 10
149.7091351020422
 20
242.6543569112705
 30
0.0
 10
149.8166255307739
 20
241.4345408975338
 30
0.0
  0
LINE
  5
3B8
330
1F
100
AcDbEntity
  8
0
  6
Continuous
 62
     7
370
    18
100
AcDbLine
 10
150.2116260027
 20
226.8095408975
 30
0.0
 11
150.2097558172
 21
226.7092535514
 31
0.0
  0
SPLINE
  5
3B9
330
1F
100
AcDbEntity
  8
0
  6
Continuous
 62
     7
370
    18
100
AcDbSpline
210
0.0
220
0.0
230
1.0
 70
     8
 71
     3
 72
     9
 73
     5
 74
     0
 42
0.000000001
 43
0.00000001
 40
0.0
 40
0.0
 40
0.0
 40
0.0
 40
0.4284782001906949
 40
1.0
 40
1.0
 40
1.0
 40
1.0
 10
149.8149462838689
 20
220.1845408975338
 30
0.0
 10
149.7107430300045
 20
218.9908883075381
 30
0.0
 10
149.467549201665
 20
216.2050929287662
 30
0.0
 10
149.0651074737893
 20
213.4455125670408
 30
0.0
 10
148.8351032531555
 20
211.8683522319891
 30
0.0
  0
SPLINE
  5
3BA
330
1F
100
AcDbEntity
  8
0
  6
Continuous
 62
     7
370
    18
100
AcDbSpline
210
0.0
220
0.0
230
1.0
 70
     8
 71
     3
 72
     9
 73
     5
 74
     0
 42
0.000000001
 43
0.00000001
 40
0.0
 40
0.0
 40
0.0
 40
0.0
 40
0.5620960862501497
 40
1.0
 40
1.0
 40
1.0
 40
1.0
 10
64.73440838132576
 20
211.8683522319895
 30
0.0
 10
64.50822861776443
 20
213.4195245157553
 30
0.0
 10
64.10584231923988
 20
216.1791457294771
 30
0.0
 10
63.86037653243925
 20
218.9647248837976
 30
0.0
 10
63.75288610370757
 20
220.1845408975345
 30
0.0
  0
SPLINE
  5
3BB
330
1F
100
AcDbEntity
  8
0
  6
Continuous
 62
     7
370
    18
100
AcDbSpline
210
0.0
220
0.0
230
1.0
 70
     8
 71
     3
 72
     9
 73
     5
 74
     0
 42
0.000000001
 43
0.00000001
 40
0.0
 40
0.0
 40
0.0
 40
0.0
 40
0.4865765431920903
 40
1.0
 40
1.0
 40
1.0
 40
1.0
 10
63.35975581724071
 20
226.809512456507
 30
0.0
 10
63.32165310107145
 20
228.1232910328927
 30
0.0
 10
63.24334534723011
 20
230.8233360613007
 30
0.0
 10
63.32026398456653
 20
233.5235004891737
 30
0.0
 10
63.35975581724074
 20
234.909828243682
 30
0.0
  0
SPLINE
  5
3BC
330
1F
100
AcDbEntity
  8
0
  6
Continuous
 62
     7
370
    18
100
AcDbSpline
210
0.0
220
0.0
230
1.0
 70
     8
 71
     3
 72
     9
 73
     5
 74
     0
 42
0.000000001
 43
0.00000001
 40
0.0
 40
0.0
 40
0.0
 40
0.0
 40
0.4284782001906564
 40
1.0
 40
1.0
 40
1.0
 40
1.0
 10
63.75456535061274
 20
241.4345408975345
 30
0.0
 10
63.85876860447715
 20
242.62819348753
 30
0.0
 10
64.10196243281666
 20
245.4139888663017
 30
0.0
 10
64.50440416069222
 20
248.1735692280269
 30
0.0
 10
64.73440838132606
 20
249.7507295630786
 30
0.0
  0
SPLINE
  5
3BD
330
1F
100
AcDbEntity
  8
0
  6
Continuous
 62
     7
370
    18
100
AcDbSpline
210
0.0
220
0.0
230
1.0
 70
     8
 71
     3
 72
     9
 73
     5
 74
     0
 42
0.000000001
 43
0.00000001
 40
0.0
 40
0.0
 40
0.0
 40
0.0
 40
0.9696815697839973
 40
1.0
 40
1.0
 40
1.0
 40
1.0
 10
117.6038924745029
 20
187.7963906877663
 30
0.0
 10
117.1914729990068
 20
187.7488763066878
 30
0.0
 10
116.7661586604162
 20
187.6998763230241
 30
0.0
 10
116.3380840032949
 20
187.6752720301939
 30
0.0
 10
116.3251054516757
 20
187.6745260666587
 30
0.0
  0
SPLINE
  5
3BE
330
1F
100
AcDbEntity
  8
0
  6
Continuous
 62
     7
370
    18
100
AcDbSpline
210
0.0
220
0.0
230
1.0
 70
     8
 71
     3
 72
    10
 73
     6
 74
     0
 42
0.000000001
 43
0.00000001
 40
0.0
 40
0.0
 40
0.0
 40
0.0
 40
0.2981160842632107
 40
0.6490550876277612
 40
0.9999999999999999
 40
0.9999999999999999
 40
0.9999999999999999
 40
0.9999999999999999
 10
101.408907224435
 20
187.4345408975325
 30
0.0
 10
100.052949349797
 20
187.5021588910694
 30
0.0
 10
97.10077265219341
 20
187.6493760492069
 30
0.0
 10
92.5721794009206
 20
188.0863544273736
 30
0.0
 10
89.4197800812251
 20
188.5349125247662
 30
0.0
 10
87.843567151696
 20
188.759193461619
 30
0.0
  0
LINE
  5
3BF
330
1F
100
AcDbEntity
  8
0
  6
Continuous
 62
     7
370
    18
100
AcDbLine
 10
127.4044512218
 20
269.7835174762
 30
0.0
 11
127.8888710496
 21
268.9314990728
 31
0.0
  0
LINE
  5
3C0
330
1F
100
AcDbEntity
  8
0
  6
Continuous
 62
     7
370
    18
100
AcDbLine
 10
85.6806405848
 20
268.9314990728
 30
0.0
 11
86.1650604127
 21
269.7835174762
 31
0.0
  0
LINE
  5
3C1
330
1F
100
AcDbEntity
  8
0
  6
Continuous
 62
     7
370
    18
100
AcDbLine
 10
67.8107792386
 20
251.4292363021
 30
0.0
 11
68.6627976419
 21
251.9136561299
 31
0.0
  0
LINE
  5
3C2
330
1F
100
AcDbEntity
  8
0
  6
Continuous
 62
     7
370
    18
100
AcDbLine
 10
144.9067139926
 20
251.9136561299
 30
0.0
 11
145.7587323959
 21
251.4292363021
 31
0.0
  0
LINE
  5
3C3
330
1F
100
AcDbEntity
  8
0
  6
Continuous
 62
     7
370
    18
100
AcDbLine
 10
145.7587323959
 20
210.189845493
 30
0.0
 11
144.9067139926
 21
209.7054256651
 31
0.0
  0
LINE
  5
3C4
330
1F
100
AcDbEntity
  8
0
  6
Continuous
 62
     7
370
    18
100
AcDbLine
 10
68.6627976419
 20
209.7054256651
 30
0.0
 11
67.8107792386
 21
210.189845493
 31
0.0
  0
LINE
  5
3C5
330
1F
100
AcDbEntity
  8
0
  6
Continuous
 62
     7
370
    18
100
AcDbLine
 10
86.1650604127
 20
191.8355643189
 30
0.0
 11
85.6806405848
 21
192.6875827222
 31
0.0
  0
LWPOLYLINE
  5
3C6
330
1F
100
AcDbEntity
  8
0
  6
Continuous
 62
     7
370
    18
100
AcDbPolyline
 90
        3
 70
   128
 43
0.0
 10
127.8888710496
 20
268.9314990728
 10
128.0400513971
 20
268.7286378419
 10
128.0729860009
 20
268.6871563933
  0
LWPOLYLINE
  5
3C7
330
1F
100
AcDbEntity
  8
0
  6
Continuous
 62
     7
370
    18
100
AcDbPolyline
 90
        3
 70
   128
 43
0.0
 10
68.6627976419
 20
251.9136561299
 10
68.8656588729
 20
252.0648364774
 10
68.9071403215
 20
252.0977710812
  0
LWPOLYLINE
  5
3C8
330
1F
100
AcDbEntity
  8
0
  6
Continuous
 62
     7
370
    18
100
AcDbPolyline
 90
        3
 70
   128
 43
0.0
 10
144.9067139926
 20
209.7054256651
 10
144.7038527616
 20
209.5542453176
 10
144.662371313
 20
209.5213107138
  0
LWPOLYLINE
  5
3C9
330
1F
100
AcDbEntity
  8
0
  6
Continuous
 62
     7
370
    18
100
AcDbPolyline
 90
        3
 70
   128
 43
0.0
 10
85.6806405848
 20
192.6875827222
 10
85.5294602373
 20
192.8904439532
 10
85.4965256335
 20
192.9319254018
  0
LWPOLYLINE
  5
3CA
330
1F
100
AcDbEntity
  8
0
  6
Continuous
 62
     7
370
    18
100
AcDbPolyline
 90
        3
 70
   128
 43
0.0
 10
85.4965256335
 20
268.6871563933
 10
85.5294602373
 20
268.7286378419
 10
85.6806405848
 20
268.9314990728
  0
LWPOLYLINE
  5
3CB
330
1F
100
AcDbEntity
  8
0
  6
Continuous
 62
     7
370
    18
100
AcDbPolyline
 90
        3
 70
   128
 43
0.0
 10
144.662371313
 20
252.0977710812
 10
144.7038527616
 20
252.0648364774
 10
144.9067139926
 20
251.9136561299
  0
LWPOLYLINE
  5
3CC
330
1F
100
AcDbEntity
  8
0
  6
Continuous
 62
     7
370
    18
100
AcDbPolyline
 90
        3
 70
   128
 43
0.0
 10
68.9071403215
 20
209.5213107138
 10
68.8656588729
 20
209.5542453176
 10
68.6627976419
 20
209.7054256651
  0
LWPOLYLINE
  5
3CD
330
1F
100
AcDbEntity
  8
0
  6
Continuous
 62
     7
370
    18
100
AcDbPolyline
 90
        3
 70
   128
 43
0.0
 10
132.7191268961
 20
196.3541491316
 10
132.6992203583
 20
196.3391746019
 10
131.7847558172
 20
195.6703089054
  0
LINE
  5
3CE
330
1F
100
AcDbEntity
  8
0
  6
Continuous
 62
     7
370
    18
100
AcDbLine
 10
86.1650604127
 20
269.7835174762
 30
0.0
 11
87.2528017814
 21
272.2270787658
 31
0.0
  0
LINE
  5
3CF
330
1F
100
AcDbEntity
  8
0
  6
Continuous
 62
     7
370
    18
100
AcDbLine
 10
126.316709853
 20
272.2270787658
 30
0.0
 11
127.4044512218
 21
269.7835174762
 31
0.0
  0
LINE
  5
3D0
330
1F
100
AcDbEntity
  8
0
  6
Continuous
 62
     7
370
    18
100
AcDbLine
 10
145.7587323959
 20
251.4292363021
 30
0.0
 11
148.2022936855
 21
250.3414949333
 31
0.0
  0
LINE
  5
3D1
330
1F
100
AcDbEntity
  8
0
  6
Continuous
 62
     7
370
    18
100
AcDbLine
 10
65.367217949
 20
250.3414949333
 30
0.0
 11
67.8107792386
 21
251.4292363021
 31
0.0
  0
LINE
  5
3D2
330
1F
100
AcDbEntity
  8
0
  6
Continuous
 62
     7
370
    18
100
AcDbLine
 10
67.8107792386
 20
210.189845493
 30
0.0
 11
65.367217949
 21
211.2775868617
 31
0.0
  0
LINE
  5
3D3
330
1F
100
AcDbEntity
  8
0
  6
Continuous
 62
     7
370
    18
100
AcDbLine
 10
148.2022936855
 20
211.2775868617
 30
0.0
 11
145.7587323959
 21
210.189845493
 31
0.0
  0
LINE
  5
3D4
330
1F
100
AcDbEntity
  8
0
  6
Continuous
 62
     7
370
    18
100
AcDbLine
 10
87.2528017814
 20
189.3920030293
 30
0.0
 11
86.1650604127
 21
191.8355643189
 31
0.0
  0
SPLINE
  5
3D5
330
1F
100
AcDbEntity
  8
0
  6
Continuous
 62
     7
370
    18
100
AcDbSpline
210
0.0
220
0.0
230
1.0
 70
    24
 71
     3
 72
     9
 73
     5
 74
     0
 42
0.000000001
 43
0.00000001
 40
0.0
 40
0.0
 40
0.0
 40
0.0
 40
0.7415172828690376
 40
1.0
 40
1.0
 40
1.0
 40
1.0
 10
65.3672179489965
 20
211.2775868617287
 30
0.0
 10
65.32490701396787
 20
211.2964214023545
 30
0.0
 10
65.26784706943776
 20
211.3218214045673
 30
0.0
 10
65.22091268452519
 20
211.3427140551027
 30
0.0
 10
65.20878095718611
 20
211.3481144441812
 30
0.0
  0
SPLINE
  5
3D6
330
1F
100
AcDbEntity
  8
0
  6
Continuous
 62
     7
370
    18
100
AcDbSpline
210
0.0
220
0.0
230
1.0
 70
    24
 71
     3
 72
     9
 73
     5
 74
     0
 42
0.000000001
 43
0.00000001
 40
0.0
 40
0.0
 40
0.0
 40
0.0
 40
0.7415172828675585
 40
0.9999999999999999
 40
0.9999999999999999
 40
0.9999999999999999
 40
0.9999999999999999
 10
87.25280178143589
 20
272.227078765778
 30
0.0
 10
87.27163632206158
 20
272.2693897008065
 30
0.0
 10
87.29703632427443
 20
272.3264496453367
 30
0.0
 10
87.31792897480989
 20
272.3733840302493
 30
0.0
 10
87.32332936388838
 20
272.3855157575885
 30
0.0
  0
SPLINE
  5
3D7
330
1F
100
AcDbEntity
  8
0
  6
Continuous
 62
     7
370
    18
100
AcDbSpline
210
0.0
220
0.0
230
1.0
 70
    24
 71
     3
 72
     9
 73
     5
 74
     0
 42
0.000000001
 43
0.00000001
 40
0.0
 40
0.0
 40
0.0
 40
0.0
 40
0.7412590637540776
 40
0.9999999999999999
 40
0.9999999999999999
 40
0.9999999999999999
 40
0.9999999999999999
 10
126.2461822705935
 20
272.3855157575883
 30
0.0
 10
126.2625288578599
 20
272.3487938961152
 30
0.0
 10
126.2845813197666
 20
272.299254047945
 30
0.0
 10
126.3101056610774
 20
272.2419147813118
 30
0.0
 10
126.3167098530452
 20
272.2270787657795
 30
0.0
  0
SPLINE
  5
3D8
330
1F
100
AcDbEntity
  8
0
  6
Continuous
 62
     7
370
    18
100
AcDbSpline
210
0.0
220
0.0
230
1.0
 70
    24
 71
     3
 72
     9
 73
     5
 74
     0
 42
0.000000001
 43
0.00000001
 40
0.0
 40
0.0
 40
0.0
 40
0.0
 40
0.7415172828683486
 40
1.0
 40
1.0
 40
1.0
 40
1.0
 10
148.202293685485
 20
250.341494933339
 30
0.0
 10
148.2446046205135
 20
250.3226603927133
 30
0.0
 10
148.3016645650436
 20
250.2972603905004
 30
0.0
 10
148.3485989499562
 20
250.276367739965
 30
0.0
 10
148.3607306772953
 20
250.2709673508866
 30
0.0
  0
SPLINE
  5
3D9
330
1F
100
AcDbEntity
  8
0
  6
Continuous
 62
     7
370
    18
100
AcDbSpline
210
0.0
220
0.0
230
1.0
 70
    24
 71
     3
 72
     9
 73
     5
 74
     0
 42
0.000000001
 43
0.00000001
 40
0.0
 40
0.0
 40
0.0
 40
0.0
 40
0.7412590637548423
 40
0.9999999999999999
 40
0.9999999999999999
 40
0.9999999999999999
 40
0.9999999999999999
 10
65.20878095718635
 20
250.2709673508869
 30
0.0
 10
65.24550281865955
 20
250.2873139381533
 30
0.0
 10
65.29504266682973
 20
250.3093664000599
 30
0.0
 10
65.35238193346277
 20
250.3348907413707
 30
0.0
 10
65.36721794899502
 20
250.3414949333385
 30
0.0
  0
SPLINE
  5
3DA
330
1F
100
AcDbEntity
  8
0
  6
Continuous
 62
     7
370
    18
100
AcDbSpline
210
0.0
220
0.0
230
1.0
 70
    24
 71
     3
 72
     9
 73
     5
 74
     0
 42
0.000000001
 43
0.00000001
 40
0.0
 40
0.0
 40
0.0
 40
0.0
 40
0.7412590637543102
 40
1.0
 40
1.0
 40
1.0
 40
1.0
 10
148.3607306772953
 20
211.3481144441809
 30
0.0
 10
148.3240088158221
 20
211.3317678569145
 30
0.0
 10
148.2744689676519
 20
211.3097153950078
 30
0.0
 10
148.2171297010188
 20
211.284191053697
 30
0.0
 10
148.2022936854866
 20
211.2775868617292
 30
0.0
  0
SPLINE
  5
3DB
330
1F
100
AcDbEntity
  8
0
  6
Continuous
 62
     7
370
    18
100
AcDbSpline
210
0.0
220
0.0
230
1.0
 70
    24
 71
     3
 72
     9
 73
     5
 74
     0
 42
0.000000001
 43
0.00000001
 40
0.0
 40
0.0
 40
0.0
 40
0.0
 40
0.7412590637534122
 40
1.0
 40
1.0
 40
1.0
 40
1.0
 10
87.32332936388775
 20
189.2335660374792
 30
0.0
 10
87.30698277662138
 20
189.2702878989524
 30
0.0
 10
87.28493031471473
 20
189.3198277471226
 30
0.0
 10
87.2594059734039
 20
189.3771670137556
 30
0.0
 10
87.25280178143606
 20
189.392003029288
 30
0.0
  0
SPLINE
  5
3DC
330
1F
100
AcDbEntity
  8
0
  6
Continuous
 62
     7
370
    18
100
AcDbSpline
210
0.0
220
0.0
230
1.0
 70
     8
 71
     3
 72
    10
 73
     6
 74
     0
 42
0.000000001
 43
0.00000001
 40
0.0
 40
0.0
 40
0.0
 40
0.0
 40
0.3624865590082286
 40
0.768174684709353
 40
1.0
 40
1.0
 40
1.0
 40
1.0
 10
148.3607306772953
 20
250.2709673508866
 30
0.0
 10
148.3758284800013
 20
250.2645613083748
 30
0.0
 10
148.4078234589745
 20
250.2509857438074
 30
0.0
 10
148.4258443347939
 20
250.2447117565791
 30
0.0
 10
148.4281098004275
 20
250.2438700224819
 30
0.0
 10
148.4289336140933
 20
250.2435639343904
 30
0.0
  0
ARC
  5
3DD
330
1F
100
AcDbEntity
  8
0
  6
Continuous
 62
     7
370
    18
100
AcDbCircle
 10
148.217397224
 20
249.6554980269
 30
0.0
 40
0.6249553231362474
100
AcDbArc
 50
8.8219646242
 51
70.2155581602
  0
SPLINE
  5
3DE
330
1F
100
AcDbEntity
  8
0
  6
Continuous
 62
     7
370
    18
100
AcDbSpline
210
0.0
220
0.0
230
1.0
 70
     8
 71
     3
 72
    10
 73
     6
 74
     0
 42
0.000000001
 43
0.00000001
 40
0.0
 40
0.0
 40
0.0
 40
0.0
 40
0.3624865590084652
 40
0.7681746847096835
 40
1.0
 40
1.0
 40
1.0
 40
1.0
 10
87.32332936388838
 20
272.3855157575885
 30
0.0
 10
87.32973540640006
 20
272.4006135602945
 30
0.0
 10
87.3433109709675
 20
272.4326085392676
 30
0.0
 10
87.34958495819578
 20
272.450629415087
 30
0.0
 10
87.35042669229298
 20
272.4528948807206
 30
0.0
 10
87.35073278038452
 20
272.4537186943864
 30
0.0
  0
ARC
  5
3DF
330
1F
100
AcDbEntity
  8
0
  6
Continuous
 62
     7
370
    18
100
AcDbCircle
 10
87.9387986879
 20
272.2421823043
 30
0.0
 40
0.624955323136254
100
AcDbArc
 50
98.8219646242
 51
160.2155581602
  0
SPLINE
  5
3E0
330
1F
100
AcDbEntity
  8
0
  6
Continuous
 62
     7
370
    18
100
AcDbSpline
210
0.0
220
0.0
230
1.0
 70
     8
 71
     3
 72
    10
 73
     6
 74
     0
 42
0.000000001
 43
0.00000001
 40
0.0
 40
0.0
 40
0.0
 40
0.0
 40
0.3624865590079903
 40
0.7681746847086547
 40
1.0
 40
1.0
 40
1.0
 40
1.0
 10
65.20878095718611
 20
211.3481144441812
 30
0.0
 10
65.1936831544801
 20
211.3545204866929
 30
0.0
 10
65.16168817550701
 20
211.3680960512603
 30
0.0
 10
65.14366729968754
 20
211.3743700384886
 30
0.0
 10
65.14140183405391
 20
211.3752117725858
 30
0.0
 10
65.14057802038815
 20
211.3755178606773
 30
0.0
  0
ARC
  5
3E1
330
1F
100
AcDbEntity
  8
0
  6
Continuous
 62
     7
370
    18
100
AcDbCircle
 10
65.3521144105
 20
211.9635837682
 30
0.0
 40
0.624955323136123
100
AcDbArc
 50
188.8219646242
 51
250.2155581602
  0
SPLINE
  5
3E2
330
1F
100
AcDbEntity
  8
0
  6
Continuous
 62
     7
370
    18
100
AcDbSpline
210
0.0
220
0.0
230
1.0
 70
     8
 71
     3
 72
    10
 73
     6
 74
     0
 42
0.000000001
 43
0.00000001
 40
0.0
 40
0.0
 40
0.0
 40
0.0
 40
0.4115530512456234
 40
0.7944430987448833
 40
1.0
 40
1.0
 40
1.0
 40
1.0
 10
65.14057802038842
 20
250.2435639343907
 30
0.0
 10
65.1428252729134
 20
250.2443778993021
 30
0.0
 10
65.14716326592355
 20
250.2459491397644
 30
0.0
 10
65.17382638970523
 20
250.2558329888084
 30
0.0
 10
65.19973169051588
 20
250.26704926841
 30
0.0
 10
65.20878095718635
 20
250.2709673508869
 30
0.0
  0
ARC
  5
3E3
330
1F
100
AcDbEntity
  8
0
  6
Continuous
 62
     7
370
    18
100
AcDbCircle
 10
65.3521144105
 20
249.6554980269
 30
0.0
 40
0.6249553231361449
100
AcDbArc
 50
109.7844418398
 51
171.1780353758
  0
SPLINE
  5
3E4
330
1F
100
AcDbEntity
  8
0
  6
Continuous
 62
     7
370
    18
100
AcDbSpline
210
0.0
220
0.0
230
1.0
 70
     8
 71
     3
 72
    10
 73
     6
 74
     0
 42
0.000000001
 43
0.00000001
 40
0.0
 40
0.0
 40
0.0
 40
0.0
 40
0.4115530512457973
 40
0.7944430987451667
 40
1.0
 40
1.0
 40
1.0
 40
1.0
 10
126.2187788540974
 20
272.4537186943862
 30
0.0
 10
126.2195928190087
 20
272.4514714418612
 30
0.0
 10
126.221164059471
 20
272.447133448851
 30
0.0
 10
126.231047908515
 20
272.4204703250693
 30
0.0
 10
126.2422641881166
 20
272.3945650242588
 30
0.0
 10
126.2461822705935
 20
272.3855157575883
 30
0.0
  0
ARC
  5
3E5
330
1F
100
AcDbEntity
  8
0
  6
Continuous
 62
     7
370
    18
100
AcDbCircle
 10
125.6307129466
 20
272.2421823043
 30
0.0
 40
0.6249553231360118
100
AcDbArc
 50
19.7844418398
 51
81.1780353758
  0
SPLINE
  5
3E6
330
1F
100
AcDbEntity
  8
0
  6
Continuous
 62
     7
370
    18
100
AcDbSpline
210
0.0
220
0.0
230
1.0
 70
     8
 71
     3
 72
    10
 73
     6
 74
     0
 42
0.000000001
 43
0.00000001
 40
0.0
 40
0.0
 40
0.0
 40
0.0
 40
0.411553051245675
 40
0.794443098744893
 40
1.0
 40
1.0
 40
1.0
 40
1.0
 10
87.35073278038391
 20
189.1653631006814
 30
0.0
 10
87.34991881547249
 20
189.1676103532063
 30
0.0
 10
87.34834757501022
 20
189.1719483462165
 30
0.0
 10
87.33846372596624
 20
189.1986114699982
 30
0.0
 10
87.32724744636468
 20
189.2245167708087
 30
0.0
 10
87.32332936388775
 20
189.2335660374792
 30
0.0
  0
ARC
  5
3E7
330
1F
100
AcDbEntity
  8
0
  6
Continuous
 62
     7
370
    18
100
AcDbCircle
 10
87.9387986879
 20
189.3768994908
 30
0.0
 40
0.6249553231361085
100
AcDbArc
 50
199.7844418398
 51
261.1780353758
  0
SPLINE
  5
3E8
330
1F
100
AcDbEntity
  8
0
  6
Continuous
 62
     7
370
    18
100
AcDbSpline
210
0.0
220
0.0
230
1.0
 70
     8
 71
     3
 72
    10
 73
     6
 74
     0
 42
0.000000001
 43
0.00000001
 40
0.0
 40
0.0
 40
0.0
 40
0.0
 40
0.4115530512457413
 40
0.7944430987450743
 40
1.0
 40
1.0
 40
1.0
 40
1.0
 10
148.4289336140932
 20
211.375517860677
 30
0.0
 10
148.4266863615682
 20
211.3747038957656
 30
0.0
 10
148.4223483685581
 20
211.3731326553033
 30
0.0
 10
148.3956852447764
 20
211.3632488062593
 30
0.0
 10
148.3697799439658
 20
211.3520325266578
 30
0.0
 10
148.3607306772953
 20
211.3481144441809
 30
0.0
  0
ARC
  5
3E9
330
1F
100
AcDbEntity
  8
0
  6
Continuous
 62
     7
370
    18
100
AcDbCircle
 10
148.217397224
 20
211.9635837682
 30
0.0
 40
0.6249553231361834
100
AcDbArc
 50
289.7844418398
 51
351.1780353758
  0
ARC
  5
3EA
330
1F
100
AcDbEntity
  8
0
  6
Continuous
 62
     7
370
    18
100
AcDbCircle
 10
125.6306668005
 20
272.242196717
 30
0.0
 40
0.6249966157714055
100
AcDbArc
 50
19.7827866732
 51
81.2313486435
  0
ARC
  5
3EB
330
1F
100
AcDbEntity
  8
0
  6
Continuous
 62
     7
370
    18
100
AcDbCircle
 10
87.9388448339
 20
272.242196717
 30
0.0
 40
0.6249966157712067
100
AcDbArc
 50
98.7686513565
 51
160.2172133268
  0
ARC
  5
3EC
330
1F
100
AcDbEntity
  8
0
  6
Continuous
 62
     7
370
    18
100
AcDbCircle
 10
148.2174116367
 20
249.6554518808
 30
0.0
 40
0.6249966157712219
100
AcDbArc
 50
8.7686513565
 51
70.2172133268
  0
ARC
  5
3ED
330
1F
100
AcDbEntity
  8
0
  6
Continuous
 62
     7
370
    18
100
AcDbCircle
 10
65.3520999977
 20
249.6554518808
 30
0.0
 40
0.62499661577125
100
AcDbArc
 50
109.7827866732
 51
171.2313486435
  0
ARC
  5
3EE
330
1F
100
AcDbEntity
  8
0
  6
Continuous
 62
     7
370
    18
100
AcDbCircle
 10
148.2174116367
 20
211.9636299142
 30
0.0
 40
0.6249966157713105
100
AcDbArc
 50
289.7827866732
 51
351.2313486435
  0
ARC
  5
3EF
330
1F
100
AcDbEntity
  8
0
  6
Continuous
 62
     7
370
    18
100
AcDbCircle
 10
87.9388448339
 20
189.376885078
 30
0.0
 40
0.6249966157712694
100
AcDbArc
 50
199.7827866732
 51
261.2313486435
  0
ARC
  5
3F0
330
1F
100
AcDbEntity
  8
0
  6
Continuous
 62
     7
370
    18
100
AcDbCircle
 10
65.3520999977
 20
211.9636299142
 30
0.0
 40
0.6249966157714306
100
AcDbArc
 50
188.7686513565
 51
250.2172133268
  0
SPLINE
  5
3F1
330
1F
100
AcDbEntity
  8
0
  6
Continuous
 62
     7
370
    18
100
AcDbSpline
210
0.0
220
0.0
230
1.0
 70
     8
 71
     3
 72
     9
 73
     5
 74
     0
 42
0.000000001
 43
0.00000001
 40
0.0
 40
0.0
 40
0.0
 40
0.0
 40
0.5547008760669132
 40
1.0
 40
1.0
 40
1.0
 40
1.0
 10
148.8351032531555
 20
211.8683522319891
 30
0.0
 10
148.8331896239301
 20
211.8558678947287
 30
0.0
 10
148.8297397840109
 20
211.8333614632463
 30
0.0
 10
148.8099641967101
 20
211.7062008219222
 30
0.0
 10
148.8011581450098
 20
211.6495762997419
 30
0.0
  0
SPLINE
  5
3F2
330
1F
100
AcDbEntity
  8
0
  6
Continuous
 62
     7
370
    18
100
AcDbSpline
210
0.0
220
0.0
230
1.0
 70
     8
 71
     3
 72
     9
 73
     5
 74
     0
 42
0.000000001
 43
0.00000001
 40
0.0
 40
0.0
 40
0.0
 40
0.0
 40
0.5547008760675397
 40
1.0
 40
1.0
 40
1.0
 40
1.0
 10
125.7259444827853
 20
272.8598883334485
 30
0.0
 10
125.7384288200457
 20
272.8579747042231
 30
0.0
 10
125.760935251528
 20
272.8545248643039
 30
0.0
 10
125.8880958928522
 20
272.8347492770031
 30
0.0
 10
125.9447204150325
 20
272.8259432253028
 30
0.0
  0
SPLINE
  5
3F3
330
1F
100
AcDbEntity
  8
0
  6
Continuous
 62
     7
370
    18
100
AcDbSpline
210
0.0
220
0.0
230
1.0
 70
     8
 71
     3
 72
     9
 73
     5
 74
     0
 42
0.000000001
 43
0.00000001
 40
0.0
 40
0.0
 40
0.0
 40
0.0
 40
0.5568968030729216
 40
1.0
 40
1.0
 40
1.0
 40
1.0
 10
87.6247912194492
 20
272.825943225303
 30
0.0
 10
87.69377498573324
 20
272.8366642983703
 30
0.0
 10
87.8176467082919
 20
272.8559157521552
 30
0.0
 10
87.83560830900062
 20
272.8586685568763
 30
0.0
 10
87.8435671516966
 20
272.8598883334487
 30
0.0
  0
SPLINE
  5
3F4
330
1F
100
AcDbEntity
  8
0
  6
Continuous
 62
     7
370
    18
100
AcDbSpline
210
0.0
220
0.0
230
1.0
 70
     8
 71
     3
 72
     9
 73
     5
 74
     0
 42
0.000000001
 43
0.00000001
 40
0.0
 40
0.0
 40
0.0
 40
0.0
 40
0.554700876067268
 40
1.0
 40
1.0
 40
1.0
 40
1.0
 10
64.73440838132606
 20
249.7507295630786
 30
0.0
 10
64.7363220105515
 20
249.763213900339
 30
0.0
 10
64.73977185047063
 20
249.7857203318214
 30
0.0
 10
64.75954743777149
 20
249.9128809731457
 30
0.0
 10
64.76835348947179
 20
249.9695054953261
 30
0.0
  0
SPLINE
  5
3F5
330
1F
100
AcDbEntity
  8
0
  6
Continuous
 62
     7
370
    18
100
AcDbSpline
210
0.0
220
0.0
230
1.0
 70
     8
 71
     3
 72
     9
 73
     5
 74
     0
 42
0.000000001
 43
0.00000001
 40
0.0
 40
0.0
 40
0.0
 40
0.0
 40
0.5568968030726341
 40
1.0
 40
1.0
 40
1.0
 40
1.0
 10
148.8011581450099
 20
249.969505495326
 30
0.0
 10
148.8118792180772
 20
249.9005217290419
 30
0.0
 10
148.8311306718621
 20
249.776650006483
 30
0.0
 10
148.8338834765833
 20
249.7586884057743
 30
0.0
 10
148.8351032531557
 20
249.7507295630783
 30
0.0
  0
SPLINE
  5
3F6
330
1F
100
AcDbEntity
  8
0
  6
Continuous
 62
     7
370
    18
100
AcDbSpline
210
0.0
220
0.0
230
1.0
 70
     8
 71
     3
 72
     9
 73
     5
 74
     0
 42
0.000000001
 43
0.00000001
 40
0.0
 40
0.0
 40
0.0
 40
0.0
 40
0.5568968030726631
 40
1.0
 40
1.0
 40
1.0
 40
1.0
 10
64.76835348947152
 20
211.6495762997421
 30
0.0
 10
64.75763241640422
 20
211.7185600660261
 30
0.0
 10
64.73838096261939
 20
211.8424317885847
 30
0.0
 10
64.73562815789823
 20
211.8603933892935
 30
0.0
 10
64.73440838132576
 20
211.8683522319895
 30
0.0
  0
SPLINE
  5
3F7
330
1F
100
AcDbEntity
  8
0
  6
Continuous
 62
     7
370
    18
100
AcDbSpline
210
0.0
220
0.0
230
1.0
 70
     8
 71
     3
 72
     9
 73
     5
 74
     0
 42
0.000000001
 43
0.00000001
 40
0.0
 40
0.0
 40
0.0
 40
0.0
 40
0.5547008760675481
 40
1.0
 40
1.0
 40
1.0
 40
1.0
 10
87.843567151696
 20
188.759193461619
 30
0.0
 10
87.83108281443558
 20
188.7611070908444
 30
0.0
 10
87.80857638295322
 20
188.7645569307636
 30
0.0
 10
87.68141574162911
 20
188.7843325180644
 30
0.0
 10
87.62479121944877
 20
188.7931385697647
 30
0.0
  0
SPLINE
  5
3F8
330
1F
100
AcDbEntity
  8
0
  6
Continuous
 62
     7
370
    18
100
AcDbSpline
210
0.0
220
0.0
230
1.0
 70
     8
 71
     3
 72
    10
 73
     6
 74
     0
 42
0.000000001
 43
0.00000001
 40
0.0
 40
0.0
 40
0.0
 40
0.0
 40
0.4311088895804189
 40
0.8289209427802435
 40
1.0
 40
1.0
 40
1.0
 40
1.0
 10
86.21928230116875
 20
272.5983262371067
 30
0.0
 10
86.45084240441672
 20
272.6367909583025
 30
0.0
 10
86.89607799044559
 20
272.7107495653458
 30
0.0
 10
87.375593326114
 20
272.7869452361447
 30
0.0
 10
87.56717735538093
 20
272.8169269980137
 30
0.0
 10
87.6247912194492
 20
272.825943225303
 30
0.0
  0
SPLINE
  5
3F9
330
1F
100
AcDbEntity
  8
0
  6
Continuous
 62
     7
370
    18
100
AcDbSpline
210
0.0
220
0.0
230
1.0
 70
     8
 71
     3
 72
    10
 73
     6
 74
     0
 42
0.000000001
 43
0.00000001
 40
0.0
 40
0.0
 40
0.0
 40
0.0
 40
0.4311088895803853
 40
0.8289209427801933
 40
1.0
 40
1.0
 40
1.0
 40
1.0
 10
64.99597047766784
 20
210.2440673814616
 30
0.0
 10
64.95750575647207
 20
210.4756274847095
 30
0.0
 10
64.88354714942878
 20
210.9208630707384
 30
0.0
 10
64.80735147862974
 20
211.4003784064068
 30
0.0
 10
64.77736971676072
 20
211.5919624356738
 30
0.0
 10
64.76835348947152
 20
211.6495762997421
 30
0.0
  0
SPLINE
  5
3FA
330
1F
100
AcDbEntity
  8
0
  6
Continuous
 62
     7
370
    18
100
AcDbSpline
210
0.0
220
0.0
230
1.0
 70
     8
 71
     3
 72
    10
 73
     6
 74
     0
 42
0.000000001
 43
0.00000001
 40
0.0
 40
0.0
 40
0.0
 40
0.0
 40
0.4311088895805602
 40
0.8289209427805039
 40
0.9999999999999999
 40
0.9999999999999999
 40
0.9999999999999999
 40
0.9999999999999999
 10
148.5735411568137
 20
251.3750144136061
 30
0.0
 10
148.6120058780094
 20
251.1434543103581
 30
0.0
 10
148.6859644850528
 20
250.6982187243292
 30
0.0
 10
148.7621601558517
 20
250.218703388661
 30
0.0
 10
148.7921419177207
 20
250.0271193593941
 30
0.0
 10
148.8011581450099
 20
249.969505495326
 30
0.0
  0
SPLINE
  5
3FB
330
1F
100
AcDbEntity
  8
0
  6
Continuous
 62
     7
370
    18
100
AcDbSpline
210
0.0
220
0.0
230
1.0
 70
     8
 71
     3
 72
    10
 73
     6
 74
     0
 42
0.000000001
 43
0.00000001
 40
0.0
 40
0.0
 40
0.0
 40
0.0
 40
0.3127341939947647
 40
0.6244285230285027
 40
0.9999999999999999
 40
0.9999999999999999
 40
0.9999999999999999
 40
0.9999999999999999
 10
125.9447204150325
 20
272.8259432253028
 30
0.0
 10
126.0570225248432
 20
272.8083360206507
 30
0.0
 10
126.2812533314151
 20
272.77318015664
 30
0.0
 10
126.779777498936
 20
272.6932217445146
 30
0.0
 10
127.1486505578885
 20
272.6318591649084
 30
0.0
 10
127.3502293333131
 20
272.5983262371064
 30
0.0
  0
SPLINE
  5
3FC
330
1F
100
AcDbEntity
  8
0
  6
Continuous
 62
     7
370
    18
100
AcDbSpline
210
0.0
220
0.0
230
1.0
 70
     8
 71
     3
 72
    10
 73
     6
 74
     0
 42
0.000000001
 43
0.00000001
 40
0.0
 40
0.0
 40
0.0
 40
0.0
 40
0.3127341939948229
 40
0.6244285230285982
 40
0.9999999999999999
 40
0.9999999999999999
 40
0.9999999999999999
 40
0.9999999999999999
 10
148.8011581450098
 20
211.6495762997419
 30
0.0
 10
148.7835509403577
 20
211.5372741899311
 30
0.0
 10
148.748395076347
 20
211.3130433833591
 30
0.0
 10
148.6684366642216
 20
210.8145192158383
 30
0.0
 10
148.6070740846154
 20
210.4456461568858
 30
0.0
 10
148.5735411568135
 20
210.2440673814612
 30
0.0
  0
SPLINE
  5
3FD
330
1F
100
AcDbEntity
  8
0
  6
Continuous
 62
     7
370
    18
100
AcDbSpline
210
0.0
220
0.0
230
1.0
 70
     8
 71
     3
 72
    10
 73
     6
 74
     0
 42
0.000000001
 43
0.00000001
 40
0.0
 40
0.0
 40
0.0
 40
0.0
 40
0.312734193994936
 40
0.6244285230288149
 40
1.0
 40
1.0
 40
1.0
 40
1.0
 10
64.7683534894718
 20
249.9695054953261
 30
0.0
 10
64.78596069412392
 20
250.0818076051369
 30
0.0
 10
64.8211165581346
 20
250.306038411709
 30
0.0
 10
64.90107497026
 20
250.8045625792297
 30
0.0
 10
64.96243754986622
 20
251.173435638182
 30
0.0
 10
64.99597047766811
 20
251.3750144136065
 30
0.0
  0
SPLINE
  5
3FE
330
1F
100
AcDbEntity
  8
0
  6
Continuous
 62
     7
370
    18
100
AcDbSpline
210
0.0
220
0.0
230
1.0
 70
     8
 71
     3
 72
    10
 73
     6
 74
     0
 42
0.000000001
 43
0.00000001
 40
0.0
 40
0.0
 40
0.0
 40
0.0
 40
0.3127341939950025
 40
0.6244285230287888
 40
1.0
 40
1.0
 40
1.0
 40
1.0
 10
87.62479121944877
 20
188.7931385697647
 30
0.0
 10
87.51248910963798
 20
188.8107457744168
 30
0.0
 10
87.28825830306589
 20
188.8459016384275
 30
0.0
 10
86.789734135545
 20
188.9258600505529
 30
0.0
 10
86.42086107659266
 20
188.9872226301592
 30
0.0
 10
86.21928230116815
 20
189.0207555579611
 30
0.0
  0
ARC
  5
3FF
330
1F
100
AcDbEntity
  8
0
  6
Continuous
 62
     7
370
    18
100
AcDbCircle
 10
106.7847558172
 20
150.062112002
 30
0.0
 40
124.25
100
AcDbArc
 50
79.8179325968
 51
80.4727370637
  0
ARC
  5
400
330
1F
100
AcDbEntity
  8
0
  6
Continuous
 62
     7
370
    18
100
AcDbCircle
 10
106.7847558172
 20
150.062112002
 30
0.0
 40
124.25
100
AcDbArc
 50
99.5272629363
 51
100.1820674032
  0
CIRCLE
  5
401
330
1F
100
AcDbEntity
  8
0
  6
Continuous
 62
     7
370
    18
100
AcDbCircle
 10
74.0810671874
 20
263.5132295274
 30
0.0
 40
1.499999999999943
  0
ARC
  5
402
330
1F
100
AcDbEntity
  8
0
  6
Continuous
 62
     7
370
    18
100
AcDbCircle
 10
124.4624253469
 20
248.4872104272
 30
0.0
 40
24.25000000000005
100
AcDbArc
 50
10.1820674032
 51
79.8179325968
  0
CIRCLE
  5
403
330
1F
100
AcDbEntity
  8
0
  6
Continuous
 62
     7
370
    18
100
AcDbCircle
 10
139.4884444471
 20
263.5132295274
 30
0.0
 40
1.5
  0
ARC
  5
404
330
1F
100
AcDbEntity
  8
0
  6
Continuous
 62
     7
370
    18
100
AcDbCircle
 10
89.1070862876
 20
248.4872104272
 30
0.0
 40
24.25000000000001
100
AcDbArc
 50
100.1820674032
 51
169.8179325968
  0
ARC
  5
405
330
1F
100
AcDbEntity
  8
0
  6
Continuous
 62
     7
370
    18
100
AcDbCircle
 10
26.0373269218
 20
230.8095408975
 30
0.0
 40
124.25
100
AcDbArc
 50
9.5272629363
 51
10.1820674032
  0
ARC
  5
406
330
1F
100
AcDbEntity
  8
0
  6
Continuous
 62
     7
370
    18
100
AcDbCircle
 10
187.5321847127
 20
230.8095408975
 30
0.0
 40
124.25
100
AcDbArc
 50
169.8179325968
 51
170.4727370637
  0
ARC
  5
407
330
1F
100
AcDbEntity
  8
0
  6
Continuous
 62
     7
370
    18
100
AcDbCircle
 10
26.0373269218
 20
230.8095408975
 30
0.0
 40
124.25
100
AcDbArc
 50
349.8179325968
 51
350.4727370637
  0
CIRCLE
  5
408
330
1F
100
AcDbEntity
  8
0
  6
Continuous
 62
     7
370
    18
100
AcDbCircle
 10
74.0810671874
 20
198.1058522677
 30
0.0
 40
1.5
  0
ARC
  5
409
330
1F
100
AcDbEntity
  8
0
  6
Continuous
 62
     7
370
    18
100
AcDbCircle
 10
124.4624253469
 20
213.1318713679
 30
0.0
 40
24.25000000000002
100
AcDbArc
 50
284.8067714556
 51
349.8179325968
  0
CIRCLE
  5
40A
330
1F
100
AcDbEntity
  8
0
  6
Continuous
 62
     7
370
    18
100
AcDbCircle
 10
139.4884444471
 20
198.1058522677
 30
0.0
 40
1.5
  0
ARC
  5
40B
330
1F
100
AcDbEntity
  8
0
  6
Continuous
 62
     7
370
    18
100
AcDbCircle
 10
187.5321847127
 20
230.8095408975
 30
0.0
 40
124.25
100
AcDbArc
 50
189.5272629363
 51
190.1820674032
  0
ARC
  5
40C
330
1F
100
AcDbEntity
  8
0
  6
Continuous
 62
     7
370
    18
100
AcDbCircle
 10
89.1070862876
 20
213.1318713679
 30
0.0
 40
24.25000000000002
100
AcDbArc
 50
190.1820674032
 51
259.8179325968
  0
ARC
  5
40D
330
1F
100
AcDbEntity
  8
0
  6
Continuous
 62
     7
370
    18
100
AcDbCircle
 10
106.7847558172
 20
311.556969793
 30
0.0
 40
124.25
100
AcDbArc
 50
259.8179325968
 51
260.4727370637
  0
ARC
  5
40E
330
1F
100
AcDbEntity
  8
0
  6
Continuous
 62
     7
370
    18
100
AcDbCircle
 10
26.0373269218
 20
230.8095408975
 30
0.0
 40
125.0000000000001
100
AcDbArc
 50
349.8179325968
 51
355.410964943
  0
LWPOLYLINE
  5
40F
330
1F
100
AcDbEntity
  8
0
  6
Continuous
 62
     7
370
    18
100
AcDbPolyline
 90
        3
 70
   128
 43
0.0
 10
150.8810302339
 20
224.5605615156
 10
150.932227186
 20
225.6847103643
 10
150.9733105294
 20
226.8095408975
  0
LWPOLYLINE
  5
410
330
1F
100
AcDbEntity
  8
0
  6
Continuous
 62
     7
370
    18
100
AcDbPolyline
 90
        3
 70
   128
 43
0.0
 10
150.9733105294
 20
234.8095408975
 10
150.932227186
 20
235.9343714308
 10
150.868212523
 20
237.3095408975
  0
ARC
  5
411
330
1F
100
AcDbEntity
  8
0
  6
Continuous
 62
     7
370
    18
100
AcDbCircle
 10
26.0373269218
 20
230.8095408975
 30
0.0
 40
125.0
100
AcDbArc
 50
4.4736148916
 51
10.1820674032
  0
ARC
  5
412
330
1F
100
AcDbEntity
  8
0
  6
Continuous
 62
     7
370
    18
100
AcDbCircle
 10
124.4624253469
 20
213.1318713679
 30
0.0
 40
25.00000000000001
100
AcDbArc
 50
284.3528786764
 51
349.8179325968
  0
ARC
  5
413
330
1F
100
AcDbEntity
  8
0
  6
Continuous
 62
     7
370
    18
100
AcDbCircle
 10
106.7847558172
 20
311.556969793
 30
0.0
 40
125.0
100
AcDbArc
 50
259.8179325968
 51
277.7016113572
  0
ARC
  5
414
330
1F
100
AcDbEntity
  8
0
  6
Continuous
 62
     7
370
    18
100
AcDbCircle
 10
89.1070862876
 20
213.1318713679
 30
0.0
 40
25.00000000000001
100
AcDbArc
 50
190.1820674032
 51
259.8179325968
  0
ARC
  5
415
330
1F
100
AcDbEntity
  8
0
  6
Continuous
 62
     7
370
    18
100
AcDbCircle
 10
187.5321847127
 20
230.8095408975
 30
0.0
 40
125.0
100
AcDbArc
 50
169.8179325968
 51
175.4536308052
  0
ARC
  5
416
330
1F
100
AcDbEntity
  8
0
  6
Continuous
 62
     7
370
    18
100
AcDbCircle
 10
187.5321847127
 20
230.8095408975
 30
0.0
 40
125.0
100
AcDbArc
 50
177.0919000272
 51
182.9674636479
  0
ARC
  5
417
330
1F
100
AcDbEntity
  8
0
  6
Continuous
 62
     7
370
    18
100
AcDbCircle
 10
187.5321847127
 20
230.8095408975
 30
0.0
 40
125.0
100
AcDbArc
 50
184.4868988525
 51
190.1820674032
  0
ARC
  5
418
330
1F
100
AcDbEntity
  8
0
  6
Continuous
 62
     7
370
    18
100
AcDbCircle
 10
106.7847558172
 20
150.062112002
 30
0.0
 40
125.0
100
AcDbArc
 50
79.8179325968
 51
85.1239751304
  0
ARC
  5
419
330
1F
100
AcDbEntity
  8
0
  6
Continuous
 62
     7
370
    18
100
AcDbCircle
 10
106.7847558172
 20
150.062112002
 30
0.0
 40
125.0
100
AcDbArc
 50
94.8760248696
 51
100.1820674032
  0
ARC
  5
41A
330
1F
100
AcDbEntity
  8
0
  6
Continuous
 62
     7
370
    18
100
AcDbCircle
 10
89.1070862876
 20
248.4872104272
 30
0.0
 40
25.00000000000001
100
AcDbArc
 50
100.1820674032
 51
169.8179325968
  0
ARC
  5
41B
330
1F
100
AcDbEntity
  8
0
  6
Continuous
 62
     7
370
    18
100
AcDbCircle
 10
124.4624253469
 20
248.4872104272
 30
0.0
 40
25.00000000000001
100
AcDbArc
 50
10.1820674032
 51
79.8179325968
  0
ARC
  5
41C
330
1F
100
AcDbEntity
  8
0
  6
CENTERX2
 62
     7
370
    18
100
AcDbCircle
 10
106.7847558172
 20
230.8095408975
 30
0.0
 40
50.00000000000001
100
AcDbArc
 50
25.9010411772
 51
42.3618578525
  0
ARC
  5
41D
330
1F
100
AcDbEntity
  8
0
  6
CENTERX2
 62
     7
370
    18
100
AcDbCircle
 10
106.7847558172
 20
230.8095408975
 30
0.0
 40
49.99999999999998
100
AcDbArc
 50
205.0865894598
 51
221.5861627478
  0
INSERT
  5
441
330
1F
100
AcDbEntity
  8
0
  6
Continuous
 62
     7
370
    18
100
AcDbBlockReference
  2
SW_CENTERMARKSYMBOL_2
 10
139.4884444471
 20
263.5132295274
 30
0.0
  0
ENDSEC
  0
SECTION
  2
OBJECTS
  0
DICTIONARY
  5
C
330
0
100
AcDbDictionary
281
     1
  3
ACAD_GROUP
350
D
  3
ACAD_LAYOUT
350
1A
  3
ACAD_MLINESTYLE
350
17
  3
ACAD_PLOTSETTINGS
350
19
  3
ACAD_PLOTSTYLENAME
350
E
  3
ACAD_SCALELIST
350
47
  0
DICTIONARY
  5
D
102
{ACAD_REACTORS
330
C
102
}
330
C
100
AcDbDictionary
281
     1
  0
DICTIONARY
  5
1A
102
{ACAD_REACTORS
330
C
102
}
330
C
100
AcDbDictionary
281
     1
  3
Layout1
350
1E
  3
Layout2
350
26
  3
Model
350
22
  0
DICTIONARY
  5
17
102
{ACAD_REACTORS
330
C
102
}
330
C
100
AcDbDictionary
281
     1
  3
Standard
350
18
  0
DICTIONARY
  5
19
102
{ACAD_REACTORS
330
C
102
}
330
C
100
AcDbDictionary
281
     1
  0
ACDBDICTIONARYWDFLT
  5
E
102
{ACAD_REACTORS
330
C
102
}
330
C
100
AcDbDictionary
281
     1
  3
Normal
350
F
100
AcDbDictionaryWithDefault
340
F
  0
DICTIONARY
  5
47
102
{ACAD_REACTORS
330
C
102
}
330
C
100
AcDbDictionary
281
     1
  3
A0
350
48
  3
A1
350
49
  3
A2
350
4A
  3
A3
350
4B
  3
A4
350
4C
  3
A5
350
4D
  3
A6
350
4E
  3
A7
350
4F
  3
A8
350
50
  3
A9
350
51
  3
B0
350
52
  3
B1
350
53
  3
B2
350
54
  3
B3
350
55
  3
B4
350
56
  3
B5
350
57
  3
B6
350
58
  3
B7
350
59
  3
B8
350
5A
  3
B9
350
5B
  3
C0
350
5C
  3
C1
350
5D
  3
C2
350
5E
  3
C3
350
5F
  3
C4
350
60
  3
C5
350
61
  3
C6
350
62
  3
C7
350
63
  3
C8
350
64
  3
C9
350
65
  3
D0
350
66
  3
D1
350
67
  3
D2
350
68
  0
LAYOUT
  5
1E
102
{ACAD_REACTORS
330
1A
102
}
330
1A
100
AcDbPlotSettings
  1

  2
none_device
  4

  6

 40
0.0
 41
0.0
 42
0.0
 43
0.0
 44
0.0
 45
0.0
 46
0.0
 47
0.0
 48
0.0
 49
0.0
140
0.0
141
0.0
142
1.0
143
1.0
 70
   688
 72
     1
 73
     0
 74
     5
  7

 75
    16
147
1.0
148
0.0
149
0.0
100
AcDbLayout
  1
Layout1
 70
     1
 71
     1
 10
0.0
 20
0.0
 11
420.0
 21
297.0
 12
0.0
 22
0.0
 32
0.0
 14
1.0000000000E+20
 24
1.0000000000E+20
 34
1.0000000000E+20
 15
-1.0000000000E+20
 25
-1.0000000000E+20
 35
-1.0000000000E+20
146
0.0
 13
0.0
 23
0.0
 33
0.0
 16
1.0
 26
0.0
 36
0.0
 17
0.0
 27
1.0
 37
0.0
 76
     0
330
1B
  0
LAYOUT
  5
26
102
{ACAD_REACTORS
330
1A
102
}
330
1A
100
AcDbPlotSettings
  1

  2
none_device
  4

  6

 40
0.0
 41
0.0
 42
0.0
 43
0.0
 44
0.0
 45
0.0
 46
0.0
 47
0.0
 48
0.0
 49
0.0
140
0.0
141
0.0
142
1.0
143
1.0
 70
   688
 72
     1
 73
     0
 74
     5
  7

 75
    16
147
1.0
148
0.0
149
0.0
100
AcDbLayout
  1
Layout2
 70
     1
 71
     2
 10
0.0
 20
0.0
 11
0.0
 21
0.0
 12
0.0
 22
0.0
 32
0.0
 14
0.0
 24
0.0
 34
0.0
 15
0.0
 25
0.0
 35
0.0
146
0.0
 13
0.0
 23
0.0
 33
0.0
 16
1.0
 26
0.0
 36
0.0
 17
0.0
 27
1.0
 37
0.0
 76
     0
330
23
  0
LAYOUT
  5
22
102
{ACAD_REACTORS
330
1A
102
}
330
1A
100
AcDbPlotSettings
  1

  2
none_device
  4
Letter_(8.50_x_11.00_Inches)
  6

 40
6.35
 41
6.35
 42
6.35000508
 43
6.35000508
 44
215.9
 45
279.4
 46
0.0
 47
0.0
 48
0.0
 49
0.0
140
0.0
141
0.0
142
1.0
143
1.0
 70
  1712
 72
     1
 73
     0
 74
     0
  7

 75
     0
147
1.0
148
0.0
149
0.0
100
AcDbLayout
  1
Model
 70
     1
 71
     0
 10
0.0
 20
0.0
 11
210.0
 21
297.0
 12
0.0
 22
0.0
 32
0.0
 14
0.0
 24
0.0
 34
0.0
 15
210.0
 25
297.0
 35
0.0
146
0.0
 13
0.0
 23
0.0
 33
0.0
 16
1.0
 26
0.0
 36
0.0
 17
0.0
 27
1.0
 37
0.0
 76
     0
330
1F
331
29
  0
MLINESTYLE
  5
18
102
{ACAD_REACTORS
330
17
102
}
330
17
100
AcDbMlineStyle
  2
Standard
 70
     0
  3

 62
   256
 51
90.0
 52
90.0
 71
     2
 49
0.5
 62
   256
  6
BYLAYER
 49
-0.5
 62
   256
  6
BYLAYER
  0
ACDBPLACEHOLDER
  5
F
102
{ACAD_REACTORS
330
E
102
}
330
E
  0
SCALE
  5
48
102
{ACAD_REACTORS
330
47
102
}
330
47
100
AcDbScale
 70
     0
300
1:1
140
1.0
141
1.0
290
     1
  0
SCALE
  5
49
102
{ACAD_REACTORS
330
47
102
}
330
47
100
AcDbScale
 70
     0
300
1:2
140
1.0
141
2.0
290
     0
  0
SCALE
  5
4A
102
{ACAD_REACTORS
330
47
102
}
330
47
100
AcDbScale
 70
     0
300
1:4
140
1.0
141
4.0
290
     0
  0
SCALE
  5
4B
102
{ACAD_REACTORS
330
47
102
}
330
47
100
AcDbScale
 70
     0
300
1:5
140
1.0
141
5.0
290
     0
  0
SCALE
  5
4C
102
{ACAD_REACTORS
330
47
102
}
330
47
100
AcDbScale
 70
     0
300
1:8
140
1.0
141
8.0
290
     0
  0
SCALE
  5
4D
102
{ACAD_REACTORS
330
47
102
}
330
47
100
AcDbScale
 70
     0
300
1:10
140
1.0
141
10.0
290
     0
  0
SCALE
  5
4E
102
{ACAD_REACTORS
330
47
102
}
330
47
100
AcDbScale
 70
     0
300
1:16
140
1.0
141
16.0
290
     0
  0
SCALE
  5
4F
102
{ACAD_REACTORS
330
47
102
}
330
47
100
AcDbScale
 70
     0
300
1:20
140
1.0
141
20.0
290
     0
  0
SCALE
  5
50
102
{ACAD_REACTORS
330
47
102
}
330
47
100
AcDbScale
 70
     0
300
1:30
140
1.0
141
30.0
290
     0
  0
SCALE
  5
51
102
{ACAD_REACTORS
330
47
102
}
330
47
100
AcDbScale
 70
     0
300
1:40
140
1.0
141
40.0
290
     0
  0
SCALE
  5
52
102
{ACAD_REACTORS
330
47
102
}
330
47
100
AcDbScale
 70
     0
300
1:50
140
1.0
141
50.0
290
     0
  0
SCALE
  5
53
102
{ACAD_REACTORS
330
47
102
}
330
47
100
AcDbScale
 70
     0
300
1:100
140
1.0
141
100.0
290
     0
  0
SCALE
  5
54
102
{ACAD_REACTORS
330
47
102
}
330
47
100
AcDbScale
 70
     0
300
2:1
140
2.0
141
1.0
290
     0
  0
SCALE
  5
55
102
{ACAD_REACTORS
330
47
102
}
330
47
100
AcDbScale
 70
     0
300
4:1
140
4.0
141
1.0
290
     0
  0
SCALE
  5
56
102
{ACAD_REACTORS
330
47
102
}
330
47
100
AcDbScale
 70
     0
300
8:1
140
8.0
141
1.0
290
     0
  0
SCALE
  5
57
102
{ACAD_REACTORS
330
47
102
}
330
47
100
AcDbScale
 70
     0
300
10:1
140
10.0
141
1.0
290
     0
  0
SCALE
  5
58
102
{ACAD_REACTORS
330
47
102
}
330
47
100
AcDbScale
 70
     0
300
100:1
140
100.0
141
1.0
290
     0
  0
SCALE
  5
59
102
{ACAD_REACTORS
330
47
102
}
330
47
100
AcDbScale
 70
     0
300
1/128" = 1'-0"
140
0.0078125
141
12.0
290
     0
  0
SCALE
  5
5A
102
{ACAD_REACTORS
330
47
102
}
330
47
100
AcDbScale
 70
     0
300
1/64" = 1'-0"
140
0.015625
141
12.0
290
     0
  0
SCALE
  5
5B
102
{ACAD_REACTORS
330
47
102
}
330
47
100
AcDbScale
 70
     0
300
1/32" = 1'-0"
140
0.03125
141
12.0
290
     0
  0
SCALE
  5
5C
102
{ACAD_REACTORS
330
47
102
}
330
47
100
AcDbScale
 70
     0
300
1/16" = 1'-0"
140
0.0625
141
12.0
290
     0
  0
SCALE
  5
5D
102
{ACAD_REACTORS
330
47
102
}
330
47
100
AcDbScale
 70
     0
300
3/32" = 1'-0"
140
0.09375
141
12.0
290
     0
  0
SCALE
  5
5E
102
{ACAD_REACTORS
330
47
102
}
330
47
100
AcDbScale
 70
     0
300
1/8" = 1'-0"
140
0.125
141
12.0
290
     0
  0
SCALE
  5
5F
102
{ACAD_REACTORS
330
47
102
}
330
47
100
AcDbScale
 70
     0
300
3/16" = 1'-0"
140
0.1875
141
12.0
290
     0
  0
SCALE
  5
60
102
{ACAD_REACTORS
330
47
102
}
330
47
100
AcDbScale
 70
     0
300
1/4" = 1'-0"
140
0.25
141
12.0
290
     0
  0
SCALE
  5
61
102
{ACAD_REACTORS
330
47
102
}
330
47
100
AcDbScale
 70
     0
300
3/8" = 1'-0"
140
0.375
141
12.0
290
     0
  0
SCALE
  5
62
102
{ACAD_REACTORS
330
47
102
}
330
47
100
AcDbScale
 70
     0
300
1/2" = 1'-0"
140
0.5
141
12.0
290
     0
  0
SCALE
  5
63
102
{ACAD_REACTORS
330
47
102
}
330
47
100
AcDbScale
 70
     0
300
3/4" = 1'-0"
140
0.75
141
12.0
290
     0
  0
SCALE
  5
64
102
{ACAD_REACTORS
330
47
102
}
330
47
100
AcDbScale
 70
     0
300
1" = 1'-0"
140
1.0
141
12.0
290
     0
  0
SCALE
  5
65
102
{ACAD_REACTORS
330
47
102
}
330
47
100
AcDbScale
 70
     0
300
1-1/2" = 1'-0"
140
1.5
141
12.0
290
     0
  0
SCALE
  5
66
102
{ACAD_REACTORS
330
47
102
}
330
47
100
AcDbScale
 70
     0
300
3" = 1'-0"
140
3.0
141
12.0
290
     0
  0
SCALE
  5
67
102
{ACAD_REACTORS
330
47
102
}
330
47
100
AcDbScale
 70
     0
300
6" = 1'-0"
140
6.0
141
12.0
290
     0
  0
SCALE
  5
68
102
{ACAD_REACTORS
330
47
102
}
330
47
100
AcDbScale
 70
     0
300
1'-0" = 1'-0"
140
12.0
141
12.0
290
     0
  0
ENDSEC
  0
EOF
