  0
SECTION
  2
HEADER
  9
$ACADVER
  1
AC1015
  9
$ACADMAINTVER
 70
     6
  9
$DWGCODEPAGE
  3
DOS932
  9
$INSBASE
 10
0.0
 20
0.0
 30
0.0
  9
$EXTMIN
 10
0.0
 20
0.0
 30
0.0
  9
$EXTMAX
 10
420.0
 20
297.0
 30
0.0
  9
$LIMMIN
 10
0.0
 20
0.0
  9
$LIMMAX
 10
2100.0
 20
1485.0
  9
$ORTHOMODE
 70
     0
  9
$REGENMODE
 70
     1
  9
$FILLMODE
 70
     1
  9
$QTEXTMODE
 70
     0
  9
$MIRRTEXT
 70
     1
  9
$LTSCALE
 40
1.0
  9
$ATTMODE
 70
     1
  9
$TEXTSIZE
 40
17.5
  9
$TRACEWID
 40
1.0
  9
$TEXTSTYLE
  7
STANDARD
  9
$CLAYER
  8
0
  9
$CELTYPE
  6
ByLayer
  9
$CECOLOR
 62
   256
  9
$CELTSCALE
 40
1.0
  9
$DISPSILH
 70
     0
  9
$DIMSCALE
 40
1.0
  9
$DIMASZ
 40
17.78
  9
$DIMEXO
 40
5.0
  9
$DIMDLI
 40
3.75
  9
$DIMRND
 40
0.0
  9
$DIMDLE
 40
0.0
  9
$DIMEXE
 40
5.0
  9
$DIMTP
 40
0.0
  9
$DIMTM
 40
0.0
  9
$DIMTXT
 40
17.5
  9
$DIMCEN
 40
2.5
  9
$DIMTSZ
 40
0.0
  9
$DIMTOL
 70
     0
  9
$DIMLIM
 70
     0
  9
$DIMTIH
 70
     1
  9
$DIMTOH
 70
     1
  9
$DIMSE1
 70
     0
  9
$DIMSE2
 70
     0
  9
$DIMTAD
 70
     1
  9
$DIMZIN
 70
     1
  9
$DIMBLK
  1

  9
$DIMASO
 70
     1
  9
$DIMSHO
 70
     1
  9
$DIMPOST
  1

  9
$DIMAPOST
  1

  9
$DIMALT
 70
     0
  9
$DIMALTD
 70
     3
  9
$DIMALTF
 40
0.0393700787
  9
$DIMLFAC
 40
1.0
  9
$DIMTOFL
 70
     1
  9
$DIMTVP
 40
0.0
  9
$DIMTIX
 70
     0
  9
$DIMSOXD
 70
     0
  9
$DIMSAH
 70
     0
  9
$DIMBLK1
  1

  9
$DIMBLK2
  1

  9
$DIMSTYLE
  2
ISO-25
  9
$DIMCLRD
 70
     0
  9
$DIMCLRE
 70
     0
  9
$DIMCLRT
 70
     0
  9
$DIMTFAC
 40
1.0
  9
$DIMGAP
 40
7.62
  9
$DIMJUST
 70
     0
  9
$DIMSD1
 70
     0
  9
$DIMSD2
 70
     0
  9
$DIMTOLJ
 70
     0
  9
$DIMTZIN
 70
     1
  9
$DIMALTZ
 70
     0
  9
$DIMALTTZ
 70
     0
  9
$DIMUPT
 70
     0
  9
$DIMDEC
 70
     3
  9
$DIMTDEC
 70
     3
  9
$DIMALTU
 70
     2
  9
$DIMALTTD
 70
     3
  9
$DIMTXSTY
  7
STANDARD
  9
$DIMAUNIT
 70
     0
  9
$DIMADEC
 70
     0
  9
$DIMALTRND
 40
0.0
  9
$DIMAZIN
 70
     0
  9
$DIMDSEP
 70
    44
  9
$DIMATFIT
 70
     3
  9
$DIMFRAC
 70
     0
  9
$DIMLDRBLK
  1

  9
$DIMLUNIT
 70
     2
  9
$DIMLWD
 70
    -2
  9
$DIMLWE
 70
    -2
  9
$DIMTMOVE
 70
     0
  9
$LUNITS
 70
     2
  9
$LUPREC
 70
     3
  9
$SKETCHINC
 40
1.0
  9
$FILLETRAD
 40
10.0
  9
$AUNITS
 70
     0
  9
$AUPREC
 70
     0
  9
$MENU
  1
.
  9
$ELEVATION
 40
0.0
  9
$PELEVATION
 40
0.0
  9
$THICKNESS
 40
0.0
  9
$LIMCHECK
 70
     0
  9
$CHAMFERA
 40
0.0
  9
$CHAMFERB
 40
0.0
  9
$CHAMFERC
 40
0.0
  9
$CHAMFERD
 40
0.0
  9
$SKPOLY
 70
     0
  9
$TDCREATE
 40
2460160.655980092
  9
$TDUCREATE
 40
2460160.280980092
  9
$TDUPDATE
 40
2460160.655981991
  9
$TDUUPDATE
 40
2460160.280981991
  9
$TDINDWG
 40
0.0000000116
  9
$TDUSRTIMER
 40
0.0000000116
  9
$USRTIMER
 70
     1
  9
$ANGBASE
 50
0.0
  9
$ANGDIR
 70
     0
  9
$PDMODE
 70
     0
  9
$PDSIZE
 40
-1.0
  9
$PLINEWID
 40
0.0
  9
$SPLFRAME
 70
     0
  9
$SPLINETYPE
 70
     6
  9
$SPLINESEGS
 70
     8
  9
$HANDSEED
  5
531
  9
$SURFTAB1
 70
     6
  9
$SURFTAB2
 70
     6
  9
$SURFTYPE
 70
     6
  9
$SURFU
 70
     6
  9
$SURFV
 70
     6
  9
$UCSBASE
  2

  9
$UCSNAME
  2

  9
$UCSORG
 10
0.0
 20
0.0
 30
0.0
  9
$UCSXDIR
 10
1.0
 20
0.0
 30
0.0
  9
$UCSYDIR
 10
0.0
 20
1.0
 30
0.0
  9
$UCSORTHOREF
  2

  9
$UCSORTHOVIEW
 70
     0
  9
$UCSORGTOP
 10
0.0
 20
0.0
 30
0.0
  9
$UCSORGBOTTOM
 10
0.0
 20
0.0
 30
0.0
  9
$UCSORGLEFT
 10
0.0
 20
0.0
 30
0.0
  9
$UCSORGRIGHT
 10
0.0
 20
0.0
 30
0.0
  9
$UCSORGFRONT
 10
0.0
 20
0.0
 30
0.0
  9
$UCSORGBACK
 10
0.0
 20
0.0
 30
0.0
  9
$PUCSBASE
  2

  9
$PUCSNAME
  2

  9
$PUCSORG
 10
0.0
 20
0.0
 30
0.0
  9
$PUCSXDIR
 10
1.0
 20
0.0
 30
0.0
  9
$PUCSYDIR
 10
0.0
 20
1.0
 30
0.0
  9
$PUCSORTHOREF
  2

  9
$PUCSORTHOVIEW
 70
     0
  9
$PUCSORGTOP
 10
0.0
 20
0.0
 30
0.0
  9
$PUCSORGBOTTOM
 10
0.0
 20
0.0
 30
0.0
  9
$PUCSORGLEFT
 10
0.0
 20
0.0
 30
0.0
  9
$PUCSORGRIGHT
 10
0.0
 20
0.0
 30
0.0
  9
$PUCSORGFRONT
 10
0.0
 20
0.0
 30
0.0
  9
$PUCSORGBACK
 10
0.0
 20
0.0
 30
0.0
  9
$USERI1
 70
     0
  9
$USERI2
 70
     0
  9
$USERI3
 70
     0
  9
$USERI4
 70
     0
  9
$USERI5
 70
     0
  9
$USERR1
 40
0.0
  9
$USERR2
 40
0.0
  9
$USERR3
 40
0.0
  9
$USERR4
 40
0.0
  9
$USERR5
 40
0.0
  9
$WORLDVIEW
 70
     1
  9
$SHADEDGE
 70
     3
  9
$SHADEDIF
 70
    70
  9
$TILEMODE
 70
     0
  9
$MAXACTVP
 70
    64
  9
$PINSBASE
 10
0.0
 20
0.0
 30
0.0
  9
$PLIMCHECK
 70
     0
  9
$PEXTMIN
 10
0.0
 20
0.0
 30
0.0
  9
$PEXTMAX
 10
420.0
 20
297.0
 30
0.0
  9
$PLIMMIN
 10
0.0
 20
0.0
  9
$PLIMMAX
 10
420.0
 20
297.0
  9
$UNITMODE
 70
     0
  9
$VISRETAIN
 70
     1
  9
$PLINEGEN
 70
     0
  9
$PSLTSCALE
 70
     1
  9
$TREEDEPTH
 70
  3020
  9
$CMLSTYLE
  2
Standard
  9
$CMLJUST
 70
     0
  9
$CMLSCALE
 40
20.0
  9
$PROXYGRAPHICS
 70
     1
  9
$MEASUREMENT
 70
     1
  9
$CELWEIGHT
370
    -1
  9
$ENDCAPS
280
     0
  9
$JOINSTYLE
280
     0
  9
$LWDISPLAY
290
     1
  9
$INSUNITS
 70
     4
  9
$HYPERLINKBASE
  1

  9
$STYLESHEET
  1

  9
$XEDIT
290
     1
  9
$CEPSNTYPE
380
     0
  9
$PSTYLEMODE
290
     1
  9
$FINGERPRINTGUID
  2
{b657bdd0-3699-4981-9684-e338650abb66}
  9
$VERSIONGUID
  2
{FAEB1C32-E019-11D5-929B-00C0DF256EC4}
  9
$EXTNAMES
290
     1
  9
$PSVPSCALE
 40
0.0
  9
$OLESTARTUP
290
     0
  0
ENDSEC
  0
SECTION
  2
CLASSES
  0
CLASS
  1
ACDBDICTIONARYWDFLT
  2
AcDbDictionaryWithDefault
  3
ObjectDBX Classes
 90
        0
280
     0
281
     0
  0
CLASS
  1
VISUALSTYLE
  2
AcDbVisualStyle
  3
ObjectDBX Classes
 90
     4095
280
     0
281
     0
  0
CLASS
  1
MATERIAL
  2
AcDbMaterial
  3
ObjectDBX Classes
 90
     1153
280
     0
281
     0
  0
CLASS
  1
SCALE
  2
AcDbScale
  3
ObjectDBX Classes
 90
     1153
280
     0
281
     0
  0
CLASS
  1
TABLESTYLE
  2
AcDbTableStyle
  3
ObjectDBX Classes
 90
     4095
280
     0
281
     0
  0
CLASS
  1
MLEADERSTYLE
  2
AcDbMLeaderStyle
  3
ACDB_MLEADERSTYLE_CLASS
 90
     4095
280
     0
281
     0
  0
CLASS
  1
SUN
  2
AcDbSun
  3
SCENEOE
 90
     1153
280
     0
281
     0
  0
CLASS
  1
ACDBPLACEHOLDER
  2
AcDbPlaceHolder
  3
ObjectDBX Classes
 90
        0
280
     0
281
     0
  0
CLASS
  1
LAYOUT
  2
AcDbLayout
  3
ObjectDBX Classes
 90
        0
280
     0
281
     0
  0
ENDSEC
  0
SECTION
  2
TABLES
  0
TABLE
  2
VPORT
  5
8
330
0
100
AcDbSymbolTable
 70
     1
  0
VPORT
  5
29
330
8
100
AcDbSymbolTableRecord
100
AcDbViewportTableRecord
  2
*Active
 70
     0
 10
0.0
 20
0.0
 11
1.0
 21
1.0
 12
210.0
 22
148.5
 13
0.0
 23
0.0
 14
10.0
 24
10.0
 15
10.0
 25
10.0
 16
0.0
 26
0.0
 36
1.0
 17
0.0
 27
0.0
 37
0.0
 40
297.0
 41
1.4141414141
 42
50.0
 43
0.0
 44
0.0
 50
0.0
 51
0.0
 71
     0
 72
  2000
 73
     1
 74
     3
 75
     0
 76
     0
 77
     0
 78
     0
281
     0
 65
     1
110
0.0
120
0.0
130
0.0
111
1.0
121
0.0
131
0.0
112
0.0
122
1.0
132
0.0
 79
     0
146
0.0
  0
ENDTAB
  0
TABLE
  2
LTYPE
  5
5
330
0
100
AcDbSymbolTable
 70
     8
  0
LTYPE
  5
14
330
5
100
AcDbSymbolTableRecord
100
AcDbLinetypeTableRecord
  2
ByBlock
 70
     0
  3

 72
    65
 73
     0
 40
0.0
  0
LTYPE
  5
15
330
5
100
AcDbSymbolTableRecord
100
AcDbLinetypeTableRecord
  2
ByLayer
 70
     0
  3

 72
    65
 73
     0
 40
0.0
  0
LTYPE
  5
16
330
5
100
AcDbSymbolTableRecord
100
AcDbLinetypeTableRecord
  2
Continuous
 70
     0
  3
Solid line
 72
    65
 73
     0
 40
0.0
  0
LTYPE
  5
6E
330
5
100
AcDbSymbolTableRecord
100
AcDbLinetypeTableRecord
  2
SLD-実線
 70
     0
  3
SolidWorks Line Style
 72
    65
 73
     0
 40
0.0
  0
LTYPE
  5
6F
330
5
100
AcDbSymbolTableRecord
100
AcDbLinetypeTableRecord
  2
SLD-破線
 70
     0
  3
SolidWorks Line Style
 72
    65
 73
     2
 40
1.905
 49
1.27
 74
     0
 49
-0.635
 74
     0
  0
LTYPE
  5
70
330
5
100
AcDbSymbolTableRecord
100
AcDbLinetypeTableRecord
  2
SLD-2点鎖線
 70
     0
  3
SolidWorks Line Style
 72
    65
 73
     6
 40
12.7
 49
6.35
 74
     0
 49
-1.27
 74
     0
 49
1.27
 74
     0
 49
-1.27
 74
     0
 49
1.27
 74
     0
 49
-1.27
 74
     0
  0
LTYPE
  5
71
330
5
100
AcDbSymbolTableRecord
100
AcDbLinetypeTableRecord
  2
SLD-鎖線
 70
     0
  3
SolidWorks Line Style
 72
    65
 73
     4
 40
10.16
 49
6.35
 74
     0
 49
-1.27
 74
     0
 49
1.27
 74
     0
 49
-1.27
 74
     0
  0
LTYPE
  5
72
330
5
100
AcDbSymbolTableRecord
100
AcDbLinetypeTableRecord
  2
SLD-1点鎖線(中心線)
 70
     0
  3
SolidWorks Line Style
 72
    65
 73
     4
 40
34.29
 49
30.48
 74
     0
 49
-1.27
 74
     0
 49
1.27
 74
     0
 49
-1.27
 74
     0
  0
LTYPE
  5
73
330
5
100
AcDbSymbolTableRecord
100
AcDbLinetypeTableRecord
  2
SLD-点線
 70
     0
  3
SolidWorks Line Style
 72
    65
 73
     2
 40
0.635
 49
0.0
 74
     0
 49
-0.635
 74
     0
  0
LTYPE
  5
74
330
5
100
AcDbSymbolTableRecord
100
AcDbLinetypeTableRecord
  2
SLD-細-太鎖線(切断面)
 70
     0
  3
SolidWorks Line Style
 72
    65
 73
     4
 40
10.16
 49
6.35
 74
     0
 49
-1.27
 74
     0
 49
1.27
 74
     0
 49
-1.27
 74
     0
  0
ENDTAB
  0
TABLE
  2
LAYER
  5
2
330
0
100
AcDbSymbolTable
 70
     3
  0
LAYER
  5
10
330
2
100
AcDbSymbolTableRecord
100
AcDbLayerTableRecord
  2
0
 70
     0
 62
     7
  6
Continuous
370
    -3
390
F
  0
LAYER
  5
75
330
2
100
AcDbSymbolTableRecord
100
AcDbLayerTableRecord
  2
SLD-0_0
 70
     0
 62
   179
  6
SLD-実線
370
    -3
390
F
  0
LAYER
  5
76
330
2
100
AcDbSymbolTableRecord
100
AcDbLayerTableRecord
  2
SLD-0
 70
     0
 62
     3
  6
SLD-実線
370
    -3
390
F
  0
ENDTAB
  0
TABLE
  2
STYLE
  5
3
330
0
100
AcDbSymbolTable
 70
     1
  0
STYLE
  5
11
330
3
100
AcDbSymbolTableRecord
100
AcDbTextStyleTableRecord
  2
STANDARD
 70
     0
 40
0.0
 41
1.0
 50
0.0
 71
     0
 42
17.5
  3
GOTHIC.TTF
  4

1001
ACAD
1000
CENTURY GOTHIC
1071
       34
  0
ENDTAB
  0
TABLE
  2
VIEW
  5
6
330
0
100
AcDbSymbolTable
 70
     0
  0
ENDTAB
  0
TABLE
  2
UCS
  5
7
330
0
100
AcDbSymbolTable
 70
     0
  0
ENDTAB
  0
TABLE
  2
APPID
  5
9
330
0
100
AcDbSymbolTable
 70
     1
  0
APPID
  5
12
330
9
100
AcDbSymbolTableRecord
100
AcDbRegAppTableRecord
  2
ACAD
 70
     0
  0
ENDTAB
  0
TABLE
  2
DIMSTYLE
  5
A
330
0
100
AcDbSymbolTable
 70
     1
100
AcDbDimStyleTable
  0
DIMSTYLE
105
27
330
A
100
AcDbSymbolTableRecord
100
AcDbDimStyleTableRecord
  2
ISO-25
 70
     0
 41
2.5
 42
0.625
 43
3.75
 44
1.25
 73
     0
 74
     0
 77
     1
 78
     8
140
2.5
141
2.5
143
0.0393700787
147
0.625
171
     3
172
     1
178
     0
271
     2
272
     2
274
     3
278
    44
283
     0
284
     8
340
11
  0
ENDTAB
  0
TABLE
  2
BLOCK_RECORD
  5
1
330
0
100
AcDbSymbolTable
 70
     0
  0
BLOCK_RECORD
  5
1F
330
1
100
AcDbSymbolTableRecord
100
AcDbBlockTableRecord
  2
*Model_Space
340
22
  0
BLOCK_RECORD
  5
1B
330
1
100
AcDbSymbolTableRecord
100
AcDbBlockTableRecord
  2
*Paper_Space
340
1E
  0
ENDTAB
  0
ENDSEC
  0
SECTION
  2
BLOCKS
  0
BLOCK
  5
20
330
1F
100
AcDbEntity
  8
0
100
AcDbBlockBegin
  2
*Model_Space
 70
     0
 10
0.0
 20
0.0
 30
0.0
  3
*Model_Space
  1

  0
ENDBLK
  5
21
330
1F
100
AcDbEntity
  8
0
100
AcDbBlockEnd
  0
BLOCK
  5
1C
330
1B
100
AcDbEntity
 67
     1
  8
0
100
AcDbBlockBegin
  2
*Paper_Space
 70
     0
 10
0.0
 20
0.0
 30
0.0
  3
*Paper_Space
  1

  0
ENDBLK
  5
1D
330
1B
100
AcDbEntity
 67
     1
  8
0
100
AcDbBlockEnd
  0
ENDSEC
  0
SECTION
  2
ENTITIES
  0
VIEWPORT
  5
77
330
1B
100
AcDbEntity
 67
     1
  8
0
100
AcDbViewport
 10
210.0
 20
148.5
 30
0.0
 40
444.36
 41
314.226
 68
     1
 69
     1
 12
210.0
 22
148.5
 13
0.0
 23
0.0
 14
10.0
 24
10.0
 15
10.0
 25
10.0
 16
0.0
 26
0.0
 36
1.0
 17
0.0
 27
0.0
 37
0.0
 42
50.0
 43
0.0
 44
0.0
 45
314.226
 50
0.0
 51
0.0
 72
   100
 90
   557152
  1

281
     0
 71
     1
 74
     0
110
0.0
120
0.0
130
0.0
111
1.0
121
0.0
131
0.0
112
0.0
122
1.0
132
0.0
 79
     0
146
0.0
  0
LINE
  5
79
330
1B
100
AcDbEntity
 67
     1
  8
SLD-0_0
  6
SLD-実線
 62
   179
370
    25
100
AcDbLine
 10
185.7492572937
 20
684.0742649817
 30
0.0
 11
185.7492572937
 21
683.4964501047
 31
0.0
  0
LINE
  5
7A
330
1B
100
AcDbEntity
 67
     1
  8
SLD-0_0
  6
SLD-実線
 62
   179
370
    25
100
AcDbLine
 10
193.7492567424
 20
683.4964501047
 30
0.0
 11
193.7492567424
 21
684.0742649817
 31
0.0
  0
LINE
  5
7B
330
1B
100
AcDbEntity
 67
     1
  8
SLD-0_0
  6
SLD-実線
 62
   179
370
    25
100
AcDbLine
 10
243.7492574875
 20
684.0742649817
 30
0.0
 11
243.7492574875
 21
683.4964501047
 31
0.0
  0
LINE
  5
7C
330
1B
100
AcDbEntity
 67
     1
  8
SLD-0_0
  6
SLD-実線
 62
   179
370
    25
100
AcDbLine
 10
251.7492569361
 20
683.4964501047
 30
0.0
 11
251.7492569361
 21
684.0742649817
 31
0.0
  0
LINE
  5
7D
330
1B
100
AcDbEntity
 67
     1
  8
SLD-0_0
  6
SLD-実線
 62
   179
370
    25
100
AcDbLine
 10
243.7492574875
 20
768.4679376268
 30
0.0
 11
243.7492574875
 21
767.8901152992
 31
0.0
  0
LINE
  5
7E
330
1B
100
AcDbEntity
 67
     1
  8
SLD-0_0
  6
SLD-実線
 62
   179
370
    25
100
AcDbLine
 10
251.7492569361
 20
767.8901152992
 30
0.0
 11
251.7492569361
 21
768.4679376268
 31
0.0
  0
LINE
  5
7F
330
1B
100
AcDbEntity
 67
     1
  8
SLD-0_0
  6
SLD-実線
 62
   179
370
    25
100
AcDbLine
 10
185.7492572937
 20
768.4679376268
 30
0.0
 11
185.7492572937
 21
767.8901152992
 31
0.0
  0
LINE
  5
80
330
1B
100
AcDbEntity
 67
     1
  8
SLD-0_0
  6
SLD-実線
 62
   179
370
    25
100
AcDbLine
 10
193.7492567424
 20
767.8901152992
 30
0.0
 11
193.7492567424
 21
768.4679376268
 31
0.0
  0
LINE
  5
81
330
1B
100
AcDbEntity
 67
     1
  8
SLD-0_0
  6
SLD-実線
 62
   179
370
    25
100
AcDbLine
 10
239.9492564921
 20
766.0289453649
 30
0.0
 11
198.5492579017
 21
766.0289453649
 31
0.0
  0
LINE
  5
82
330
1B
100
AcDbEntity
 67
     1
  8
SLD-0_0
  6
SLD-実線
 62
   179
370
    25
100
AcDbLine
 10
248.7492564444
 20
773.5912250661
 30
0.0
 11
189.7492579494
 21
773.5912250661
 31
0.0
  0
LINE
  5
83
330
1B
100
AcDbEntity
 67
     1
  8
SLD-0_0
  6
SLD-実線
 62
   179
370
    25
100
AcDbLine
 10
155.0492571149
 20
793.3015292951
 30
0.0
 11
155.0492591534
 21
763.3066820287
 31
0.0
  0
LINE
  5
84
330
1B
100
AcDbEntity
 67
     1
  8
SLD-0_0
  6
SLD-実線
 62
   179
370
    25
100
AcDbLine
 10
282.4492616206
 20
763.3066820287
 30
0.0
 11
282.449263659
 21
793.3015292951
 31
0.0
  0
LINE
  5
85
330
1B
100
AcDbEntity
 67
     1
  8
SLD-0_0
  6
SLD-実線
 62
   179
370
    25
100
AcDbLine
 10
280.5509145936
 20
795.9523830429
 30
0.0
 11
268.562843427
 21
800.029953041
 31
0.0
  0
LINE
  5
86
330
1B
100
AcDbEntity
 67
     1
  8
SLD-0_0
  6
SLD-実線
 62
   179
370
    25
100
AcDbLine
 10
168.935677347
 20
800.029953041
 30
0.0
 11
156.9476061803
 21
795.9523830429
 31
0.0
  0
LINE
  5
87
330
1B
100
AcDbEntity
 67
     1
  8
SLD-0_0
  6
SLD-実線
 62
   179
370
    25
100
AcDbLine
 10
169.7492603869
 20
803.5066837386
 30
0.0
 11
169.7492603869
 21
801.1660366472
 31
0.0
  0
LINE
  5
88
330
1B
100
AcDbEntity
 67
     1
  8
SLD-0_0
  6
SLD-実線
 62
   179
370
    25
100
AcDbLine
 10
267.7492603869
 20
801.1660366472
 30
0.0
 11
267.7492603869
 21
803.5066837386
 31
0.0
  0
LINE
  5
89
330
1B
100
AcDbEntity
 67
     1
  8
SLD-0_0
  6
SLD-実線
 62
   179
370
    25
100
AcDbLine
 10
231.2492573012
 20
805.3066926383
 30
0.0
 11
231.2492573012
 21
805.3566860341
 31
0.0
  0
LINE
  5
8A
330
1B
100
AcDbEntity
 67
     1
  8
SLD-0_0
  6
SLD-実線
 62
   179
370
    25
100
AcDbLine
 10
206.2492569287
 20
805.3566860341
 30
0.0
 11
206.2492569287
 21
805.3066926383
 31
0.0
  0
LINE
  5
8B
330
1B
100
AcDbEntity
 67
     1
  8
SLD-0_0
  6
SLD-実線
 62
   179
370
    25
100
AcDbLine
 10
209.7492575024
 20
805.40667943
 30
0.0
 11
209.7492575024
 21
805.3566860341
 31
0.0
  0
LINE
  5
8C
330
1B
100
AcDbEntity
 67
     1
  8
SLD-0_0
  6
SLD-実線
 62
   179
370
    25
100
AcDbLine
 10
255.0564392779
 20
302.6066767358
 30
0.0
 11
255.0564392779
 21
301.1066960477
 31
0.0
  0
LINE
  5
8D
330
1B
100
AcDbEntity
 67
     1
  8
SLD-0_0
  6
SLD-実線
 62
   179
370
    25
100
AcDbLine
 10
263.5564378772
 20
301.1066960477
 30
0.0
 11
263.5564378772
 21
302.6066767358
 31
0.0
  0
LINE
  5
8E
330
1B
100
AcDbEntity
 67
     1
  8
SLD-0_0
  6
SLD-実線
 62
   179
370
    25
100
AcDbLine
 10
280.122155634
 20
302.6066767358
 30
0.0
 11
280.122155634
 21
301.1066960477
 31
0.0
  0
LINE
  5
8F
330
1B
100
AcDbEntity
 67
     1
  8
SLD-0_0
  6
SLD-実線
 62
   179
370
    25
100
AcDbLine
 10
288.6221579586
 20
301.1066960477
 30
0.0
 11
288.6221579586
 21
302.6066767358
 31
0.0
  0
LINE
  5
90
330
1B
100
AcDbEntity
 67
     1
  8
SLD-0_0
  6
SLD-実線
 62
   179
370
    25
100
AcDbLine
 10
148.8763562713
 20
302.6066767358
 30
0.0
 11
148.8763562713
 21
301.1066960477
 31
0.0
  0
LINE
  5
91
330
1B
100
AcDbEntity
 67
     1
  8
SLD-0_0
  6
SLD-実線
 62
   179
370
    25
100
AcDbLine
 10
157.3763585959
 20
301.1066960477
 30
0.0
 11
157.3763585959
 21
302.6066767358
 31
0.0
  0
LINE
  5
92
330
1B
100
AcDbEntity
 67
     1
  8
SLD-0_0
  6
SLD-実線
 62
   179
370
    25
100
AcDbLine
 10
173.9420763526
 20
302.6066767358
 30
0.0
 11
173.9420763526
 21
301.1066960477
 31
0.0
  0
LINE
  5
93
330
1B
100
AcDbEntity
 67
     1
  8
SLD-0_0
  6
SLD-実線
 62
   179
370
    25
100
AcDbLine
 10
182.4420749519
 20
301.1066960477
 30
0.0
 11
182.4420749519
 21
302.6066767358
 31
0.0
  0
LINE
  5
94
330
1B
100
AcDbEntity
 67
     1
  8
SLD-0_0
  6
SLD-実線
 62
   179
370
    25
100
AcDbLine
 10
149.1247288261
 20
297.6076351785
 30
0.0
 11
149.1263605032
 21
297.6066815042
 31
0.0
  0
LINE
  5
95
330
1B
100
AcDbEntity
 67
     1
  8
SLD-0_0
  6
SLD-実線
 62
   179
370
    25
100
AcDbLine
 10
157.1263580893
 20
297.6066815042
 30
0.0
 11
157.1279897664
 21
297.6076351785
 31
0.0
  0
LINE
  5
96
330
1B
100
AcDbEntity
 67
     1
  8
SLD-0_0
  6
SLD-実線
 62
   179
370
    25
100
AcDbLine
 10
261.806438056
 20
312.9066871786
 30
0.0
 11
261.806438056
 21
313.1066905641
 31
0.0
  0
LINE
  5
97
330
1B
100
AcDbEntity
 67
     1
  8
SLD-0_0
  6
SLD-実線
 62
   179
370
    25
100
AcDbLine
 10
286.8721581374
 20
312.9066871786
 30
0.0
 11
286.8721581374
 21
313.1066905641
 31
0.0
  0
LINE
  5
98
330
1B
100
AcDbEntity
 67
     1
  8
SLD-0_0
  6
SLD-実線
 62
   179
370
    25
100
AcDbLine
 10
173.7065560494
 20
773.8066809558
 30
0.0
 11
172.7225876723
 21
773.8066809558
 31
0.0
  0
LINE
  5
99
330
1B
100
AcDbEntity
 67
     1
  8
SLD-0_0
  6
SLD-実線
 62
   179
370
    25
100
AcDbLine
 10
172.7225876723
 20
765.8066796445
 30
0.0
 11
173.7065560494
 21
765.8066796445
 31
0.0
  0
LINE
  5
9A
330
1B
100
AcDbEntity
 67
     1
  8
SLD-0_0
  6
SLD-実線
 62
   179
370
    25
100
AcDbLine
 10
263.7919581805
 20
765.8066796445
 30
0.0
 11
264.7759265576
 21
765.8066796445
 31
0.0
  0
LINE
  5
9B
330
1B
100
AcDbEntity
 67
     1
  8
SLD-0_0
  6
SLD-実線
 62
   179
370
    25
100
AcDbLine
 10
264.7759265576
 20
773.8066809558
 30
0.0
 11
263.7919581805
 21
773.8066809558
 31
0.0
  0
LINE
  5
9C
330
1B
100
AcDbEntity
 67
     1
  8
SLD-0_0
  6
SLD-実線
 62
   179
370
    25
100
AcDbLine
 10
152.8112686549
 20
652.8066890621
 30
0.0
 11
152.8112686549
 21
650.8066850089
 31
0.0
  0
LINE
  5
9D
330
1B
100
AcDbEntity
 67
     1
  8
SLD-0_0
  6
SLD-実線
 62
   179
370
    25
100
AcDbLine
 10
154.8112652574
 20
638.8066867673
 30
0.0
 11
154.8112652574
 21
636.8066864395
 31
0.0
  0
LINE
  5
9E
330
1B
100
AcDbEntity
 67
     1
  8
SLD-0_0
  6
SLD-実線
 62
   179
370
    25
100
AcDbLine
 10
159.8112679396
 20
636.8066864395
 30
0.0
 11
159.8112679396
 21
638.8066867673
 31
0.0
  0
LINE
  5
9F
330
1B
100
AcDbEntity
 67
     1
  8
SLD-0_0
  6
SLD-実線
 62
   179
370
    25
100
AcDbLine
 10
284.687245575
 20
650.8066850089
 30
0.0
 11
284.687245575
 21
652.8066890621
 31
0.0
  0
LINE
  5
A0
330
1B
100
AcDbEntity
 67
     1
  8
SLD-0_0
  6
SLD-実線
 62
   179
370
    25
100
AcDbLine
 10
282.6872489725
 20
636.8066864395
 30
0.0
 11
282.6872489725
 21
637.8066847407
 31
0.0
  0
LINE
  5
A1
330
1B
100
AcDbEntity
 67
     1
  8
SLD-0_0
  6
SLD-実線
 62
   179
370
    25
100
AcDbLine
 10
292.7492580686
 20
302.6066767358
 30
0.0
 11
292.7492580686
 21
304.9067007684
 31
0.0
  0
LINE
  5
A2
330
1B
100
AcDbEntity
 67
     1
  8
SLD-0_0
  6
SLD-実線
 62
   179
370
    25
100
AcDbLine
 10
144.7492561613
 20
304.9067007684
 30
0.0
 11
144.7492561613
 21
302.6066767358
 31
0.0
  0
LINE
  5
A3
330
1B
100
AcDbEntity
 67
     1
  8
SLD-0_0
  6
SLD-実線
 62
   179
370
    25
100
AcDbLine
 10
182.6965644334
 20
302.6066767358
 30
0.0
 11
183.7965644274
 21
301.5066730165
 31
0.0
  0
LINE
  5
A4
330
1B
100
AcDbEntity
 67
     1
  8
SLD-0_0
  6
SLD-実線
 62
   179
370
    25
100
AcDbLine
 10
253.7019498024
 20
301.5066730165
 30
0.0
 11
254.8019497965
 21
302.6066767358
 31
0.0
  0
LINE
  5
A5
330
1B
100
AcDbEntity
 67
     1
  8
SLD-0_0
  6
SLD-実線
 62
   179
370
    25
100
AcDbLine
 10
205.2965660889
 20
301.5066730165
 30
0.0
 11
208.1965658192
 21
298.6066984319
 31
0.0
  0
LINE
  5
A6
330
1B
100
AcDbEntity
 67
     1
  8
SLD-0_0
  6
SLD-実線
 62
   179
370
    25
100
AcDbLine
 10
229.3019484107
 20
298.6066984319
 30
0.0
 11
232.201948141
 21
301.5066730165
 31
0.0
  0
LINE
  5
A7
330
1B
100
AcDbEntity
 67
     1
  8
SLD-0_0
  6
SLD-実線
 62
   179
370
    25
100
AcDbLine
 10
201.8022912864
 20
643.3393629574
 30
0.0
 11
201.8022912864
 21
637.8066847407
 31
0.0
  0
LINE
  5
A8
330
1B
100
AcDbEntity
 67
     1
  8
SLD-0_0
  6
SLD-実線
 62
   179
370
    25
100
AcDbLine
 10
191.8750352536
 20
675.9658651733
 30
0.0
 11
191.412225676
 21
650.8069308781
 31
0.0
  0
LINE
  5
A9
330
1B
100
AcDbEntity
 67
     1
  8
SLD-0_0
  6
SLD-実線
 62
   179
370
    25
100
AcDbLine
 10
182.5568474207
 20
749.8108940505
 30
0.0
 11
182.0368825768
 21
726.3583885812
 31
0.0
  0
LINE
  5
AA
330
1B
100
AcDbEntity
 67
     1
  8
SLD-0_0
  6
SLD-実線
 62
   179
370
    25
100
AcDbLine
 10
182.0368825768
 20
726.3583885812
 30
0.0
 11
180.2331007395
 21
644.8287563705
 31
0.0
  0
LINE
  5
AB
330
1B
100
AcDbEntity
 67
     1
  8
SLD-0_0
  6
SLD-実線
 62
   179
370
    25
100
AcDbLine
 10
184.0492583189
 20
751.717750945
 30
0.0
 11
182.8429999523
 21
750.4893879951
 31
0.0
  0
LINE
  5
AC
330
1B
100
AcDbEntity
 67
     1
  8
SLD-0_0
  6
SLD-実線
 62
   179
370
    25
100
AcDbLine
 10
171.9086378191
 20
643.3066847109
 30
0.0
 11
171.9086378191
 21
637.8066847407
 31
0.0
  0
LINE
  5
AD
330
1B
100
AcDbEntity
 67
     1
  8
SLD-0_0
  6
SLD-実線
 62
   179
370
    25
100
AcDbLine
 10
265.5898764108
 20
637.8066847407
 30
0.0
 11
265.5898764108
 21
643.3066847109
 31
0.0
  0
LINE
  5
AE
330
1B
100
AcDbEntity
 67
     1
  8
SLD-0_0
  6
SLD-実線
 62
   179
370
    25
100
AcDbLine
 10
268.5250723184
 20
644.8313430211
 30
0.0
 11
267.7815429245
 21
674.9747814917
 31
0.0
  0
LINE
  5
AF
330
1B
100
AcDbEntity
 67
     1
  8
SLD-0_0
  6
SLD-実線
 62
   179
370
    25
100
AcDbLine
 10
267.7815429245
 20
674.9747814917
 30
0.0
 11
265.6019798789
 21
763.3066820287
 31
0.0
  0
LINE
  5
B0
330
1B
100
AcDbEntity
 67
     1
  8
SLD-0_0
  6
SLD-実線
 62
   179
370
    25
100
AcDbLine
 10
171.896471021
 20
763.3066820287
 30
0.0
 11
171.5513936553
 21
749.324967184
 31
0.0
  0
LINE
  5
B1
330
1B
100
AcDbEntity
 67
     1
  8
SLD-0_0
  6
SLD-実線
 62
   179
370
    25
100
AcDbLine
 10
171.5513936553
 20
749.324967184
 30
0.0
 11
168.9735523735
 21
644.831341722
 31
0.0
  0
LINE
  5
B2
330
1B
100
AcDbEntity
 67
     1
  8
SLD-0_0
  6
SLD-実線
 62
   179
370
    25
100
AcDbLine
 10
284.7218460713
 20
644.8346423292
 30
0.0
 11
282.8472129379
 21
715.2647422933
 31
0.0
  0
LINE
  5
B3
330
1B
100
AcDbEntity
 67
     1
  8
SLD-0_0
  6
SLD-実線
 62
   179
370
    25
100
AcDbLine
 10
161.1405632768
 20
763.3066820287
 30
0.0
 11
160.5854950223
 21
753.7317620897
 31
0.0
  0
LINE
  5
B4
330
1B
100
AcDbEntity
 67
     1
  8
SLD-0_0
  6
SLD-実線
 62
   179
370
    25
100
AcDbLine
 10
276.9121921931
 20
753.7460374021
 30
0.0
 11
276.3579509531
 21
763.3066820287
 31
0.0
  0
LINE
  5
B5
330
1B
100
AcDbEntity
 67
     1
  8
SLD-0_0
  6
SLD-実線
 62
   179
370
    25
100
AcDbLine
 10
273.9369332169
 20
650.8068340206
 30
0.0
 11
273.7819462393
 21
656.5871807122
 31
0.0
  0
LINE
  5
B6
330
1B
100
AcDbEntity
 67
     1
  8
SLD-0_0
  6
SLD-実線
 62
   179
370
    25
100
AcDbLine
 10
273.7819462393
 20
656.5871807122
 30
0.0
 11
271.2791025017
 21
749.8156326198
 31
0.0
  0
LINE
  5
B7
330
1B
100
AcDbEntity
 67
     1
  8
SLD-0_0
  6
SLD-実線
 62
   179
370
    25
100
AcDbLine
 10
270.8510601981
 20
750.6095216565
 30
0.0
 11
270.37303367
 21
750.9422647142
 31
0.0
  0
LINE
  5
B8
330
1B
100
AcDbEntity
 67
     1
  8
SLD-0_0
  6
SLD-実線
 62
   179
370
    25
100
AcDbLine
 10
270.37303367
 20
750.9422647142
 30
0.0
 11
267.5676181291
 21
752.895091691
 31
0.0
  0
LINE
  5
B9
330
1B
100
AcDbEntity
 67
     1
  8
SLD-0_0
  6
SLD-実線
 62
   179
370
    25
100
AcDbLine
 10
165.5648856733
 20
662.4844568157
 30
0.0
 11
154.7191909824
 21
650.8055078172
 31
0.0
  0
LINE
  5
BA
330
1B
100
AcDbEntity
 67
     1
  8
SLD-0_0
  6
SLD-実線
 62
   179
370
    25
100
AcDbLine
 10
267.5738877926
 20
752.8915303134
 30
0.0
 11
267.5663962338
 21
752.8961794757
 31
0.0
  0
LINE
  5
BB
330
1B
100
AcDbEntity
 67
     1
  8
SLD-0_0
  6
SLD-実線
 62
   179
370
    25
100
AcDbLine
 10
279.833088008
 20
650.8070798897
 30
0.0
 11
279.6639523778
 21
656.8933697724
 31
0.0
  0
LINE
  5
BC
330
1B
100
AcDbEntity
 67
     1
  8
SLD-0_0
  6
SLD-実線
 62
   179
370
    25
100
AcDbLine
 10
279.6639523778
 20
656.8933697724
 30
0.0
 11
277.0772560809
 21
749.8166160964
 31
0.0
  0
LINE
  5
BD
330
1B
100
AcDbEntity
 67
     1
  8
SLD-0_0
  6
SLD-実線
 62
   179
370
    25
100
AcDbLine
 10
276.6085857544
 20
750.6364327592
 30
0.0
 11
276.0767474149
 21
750.9692954206
 31
0.0
  0
LINE
  5
BE
330
1B
100
AcDbEntity
 67
     1
  8
SLD-0_0
  6
SLD-実線
 62
   179
370
    25
100
AcDbLine
 10
276.0767474149
 20
750.9692954206
 30
0.0
 11
272.9281469558
 21
752.9399441862
 31
0.0
  0
LINE
  5
BF
330
1B
100
AcDbEntity
 67
     1
  8
SLD-0_0
  6
SLD-実線
 62
   179
370
    25
100
AcDbLine
 10
149.0451864276
 20
650.8066850089
 30
0.0
 11
149.0451898898
 21
639.8066860818
 31
0.0
  0
LINE
  5
C0
330
1B
100
AcDbEntity
 67
     1
  8
SLD-0_0
  6
SLD-実線
 62
   179
370
    25
100
AcDbLine
 10
280.180839101
 20
750.6503631435
 30
0.0
 11
279.6149312828
 21
750.9837346458
 31
0.0
  0
LINE
  5
C1
330
1B
100
AcDbEntity
 67
     1
  8
SLD-0_0
  6
SLD-実線
 62
   179
370
    25
100
AcDbLine
 10
279.6149312828
 20
750.9837346458
 30
0.0
 11
276.2494742249
 21
752.9663192415
 31
0.0
  0
LINE
  5
C2
330
1B
100
AcDbEntity
 67
     1
  8
SLD-0_0
  6
SLD-実線
 62
   179
370
    25
100
AcDbLine
 10
156.6185898457
 20
749.8164968872
 30
0.0
 11
156.0603550945
 21
729.6760874175
 31
0.0
  0
LINE
  5
C3
330
1B
100
AcDbEntity
 67
     1
  8
SLD-0_0
  6
SLD-実線
 62
   179
370
    25
100
AcDbLine
 10
156.0603550945
 20
729.6760874175
 30
0.0
 11
153.9470873151
 21
653.3449190044
 31
0.0
  0
LINE
  5
C4
330
1B
100
AcDbEntity
 67
     1
  8
SLD-0_0
  6
SLD-実線
 62
   179
370
    25
100
AcDbLine
 10
161.0571316753
 20
752.9674517297
 30
0.0
 11
157.1118575741
 21
750.6511511472
 31
0.0
  0
LINE
  5
C5
330
1B
100
AcDbEntity
 67
     1
  8
SLD-0_0
  6
SLD-実線
 62
   179
370
    25
100
AcDbLine
 10
153.7492594991
 20
638.8066867673
 30
0.0
 11
153.7492594991
 21
637.8066847407
 31
0.0
  0
LINE
  5
C6
330
1B
100
AcDbEntity
 67
     1
  8
SLD-0_0
  6
SLD-実線
 62
   179
370
    25
100
AcDbLine
 10
283.7492547307
 20
637.8066847407
 30
0.0
 11
283.7492547307
 21
643.4002565526
 31
0.0
  0
LINE
  5
C7
330
1B
100
AcDbEntity
 67
     1
  8
SLD-0_0
  6
SLD-実線
 62
   179
370
    25
100
AcDbLine
 10
288.45332434
 20
639.8066860818
 30
0.0
 11
288.4533278022
 21
650.8066850089
 31
0.0
  0
LINE
  5
C8
330
1B
100
AcDbEntity
 67
     1
  8
SLD-0_0
  6
SLD-実線
 62
   179
370
    25
100
AcDbLine
 10
204.7492566828
 20
572.3066861116
 30
0.0
 11
208.0704330776
 21
572.0161209189
 31
0.0
  0
LINE
  5
C9
330
1B
100
AcDbEntity
 67
     1
  8
SLD-0_0
  6
SLD-実線
 62
   179
370
    25
100
AcDbLine
 10
229.4280811522
 20
572.0161209189
 30
0.0
 11
232.7492575471
 21
572.3066861116
 31
0.0
  0
LINE
  5
CA
330
1B
100
AcDbEntity
 67
     1
  8
SLD-0_0
  6
SLD-実線
 62
   179
370
    25
100
AcDbLine
 10
204.7492566828
 20
573.8066858918
 30
0.0
 11
204.7492566828
 21
572.3066861116
 31
0.0
  0
LINE
  5
CB
330
1B
100
AcDbEntity
 67
     1
  8
SLD-0_0
  6
SLD-実線
 62
   179
370
    25
100
AcDbLine
 10
232.7492575471
 20
572.3066861116
 30
0.0
 11
232.7492575471
 21
573.8066858918
 31
0.0
  0
LINE
  5
CC
330
1B
100
AcDbEntity
 67
     1
  8
SLD-0_0
  6
SLD-実線
 62
   179
370
    25
100
AcDbLine
 10
209.3662846559
 20
570.9853543014
 30
0.0
 11
209.7492575455
 21
569.806685756
 31
0.0
  0
LINE
  5
CD
330
1B
100
AcDbEntity
 67
     1
  8
SLD-0_0
  6
SLD-実線
 62
   179
370
    25
100
AcDbLine
 10
227.7492567706
 20
569.806685756
 30
0.0
 11
228.1322296603
 21
570.9853543014
 31
0.0
  0
LINE
  5
CE
330
1B
100
AcDbEntity
 67
     1
  8
SLD-0_0
  6
SLD-実線
 62
   179
370
    25
100
AcDbLine
 10
210.249256653
 20
574.8066860558
 30
0.0
 11
210.249256653
 21
573.8066858918
 31
0.0
  0
LINE
  5
CF
330
1B
100
AcDbEntity
 67
     1
  8
SLD-0_0
  6
SLD-実線
 62
   179
370
    25
100
AcDbLine
 10
227.2492575769
 20
573.8066858918
 30
0.0
 11
227.2492575769
 21
574.8066860558
 31
0.0
  0
LINE
  5
D0
330
1B
100
AcDbEntity
 67
     1
  8
SLD-0_0
  6
SLD-実線
 62
   179
370
    25
100
AcDbLine
 10
210.249256653
 20
566.8066861414
 30
0.0
 11
210.249256653
 21
327.9066877746
 31
0.0
  0
LINE
  5
D1
330
1B
100
AcDbEntity
 67
     1
  8
SLD-0_0
  6
SLD-実線
 62
   179
370
    25
100
AcDbLine
 10
227.2492575769
 20
327.9066877746
 30
0.0
 11
227.2492575769
 21
566.8066861414
 31
0.0
  0
LINE
  5
D2
330
1B
100
AcDbEntity
 67
     1
  8
SLD-0_0
  6
SLD-実線
 62
   179
370
    25
100
AcDbLine
 10
210.4992571596
 20
569.8066857018
 30
0.0
 11
210.4992571596
 21
566.8066861414
 31
0.0
  0
LINE
  5
D3
330
1B
100
AcDbEntity
 67
     1
  8
SLD-0_0
  6
SLD-実線
 62
   179
370
    25
100
AcDbLine
 10
226.9992570702
 20
566.8066861414
 30
0.0
 11
226.9992570702
 21
569.8066857018
 31
0.0
  0
LINE
  5
D4
330
1B
100
AcDbEntity
 67
     1
  8
SLD-0_0
  6
SLD-実線
 62
   179
370
    25
100
AcDbLine
 10
142.7492595587
 20
577.8066860818
 30
0.0
 11
142.7492595587
 21
574.8066860558
 31
0.0
  0
LINE
  5
D5
330
1B
100
AcDbEntity
 67
     1
  8
SLD-0_0
  6
SLD-実線
 62
   179
370
    25
100
AcDbLine
 10
294.7492546711
 20
574.8066860558
 30
0.0
 11
294.7492546711
 21
577.8066860818
 31
0.0
  0
LINE
  5
D6
330
1B
100
AcDbEntity
 67
     1
  8
SLD-0_0
  6
SLD-実線
 62
   179
370
    25
100
AcDbLine
 10
292.7492580686
 20
304.9067007684
 30
0.0
 11
292.7492580686
 21
310.9066831254
 31
0.0
  0
LINE
  5
D7
330
1B
100
AcDbEntity
 67
     1
  8
SLD-0_0
  6
SLD-実線
 62
   179
370
    25
100
AcDbLine
 10
144.7492561613
 20
312.9066871786
 30
0.0
 11
144.7492561613
 21
304.9067007684
 31
0.0
  0
LINE
  5
D8
330
1B
100
AcDbEntity
 67
     1
  8
SLD-0_0
  6
SLD-実線
 62
   179
370
    25
100
AcDbLine
 10
279.7492571149
 20
590.8066860818
 30
0.0
 11
279.7492578004
 21
624.8066844725
 31
0.0
  0
LINE
  5
D9
330
1B
100
AcDbEntity
 67
     1
  8
SLD-0_0
  6
SLD-実線
 62
   179
370
    25
100
AcDbLine
 10
160.7492587839
 20
638.8066867673
 30
0.0
 11
160.7492587839
 21
638.2066877865
 31
0.0
  0
LINE
  5
DA
330
1B
100
AcDbEntity
 67
     1
  8
SLD-0_0
  6
SLD-実線
 62
   179
370
    25
100
AcDbLine
 10
194.7492569063
 20
329.9066918277
 30
0.0
 11
194.7492571149
 21
328.9066860818
 31
0.0
  0
LINE
  5
DB
330
1B
100
AcDbEntity
 67
     1
  8
SLD-0_0
  6
SLD-実線
 62
   179
370
    25
100
AcDbLine
 10
242.7492535505
 20
328.9066896461
 30
0.0
 11
242.7492535505
 21
329.9066896461
 31
0.0
  0
LINE
  5
DC
330
1B
100
AcDbEntity
 67
     1
  8
SLD-0_0
  6
SLD-実線
 62
   179
370
    25
100
AcDbLine
 10
189.2342570547
 20
683.8217573546
 30
0.0
 11
189.2342570547
 21
682.6914372228
 31
0.0
  0
LINE
  5
DD
330
1B
100
AcDbEntity
 67
     1
  8
SLD-0_0
  6
SLD-実線
 62
   179
370
    25
100
AcDbLine
 10
190.2642569814
 20
682.6914372228
 30
0.0
 11
190.2642569814
 21
683.8217573547
 31
0.0
  0
LINE
  5
DE
330
1B
100
AcDbEntity
 67
     1
  8
SLD-0_0
  6
SLD-実線
 62
   179
370
    25
100
AcDbLine
 10
190.2642569814
 20
685.4313733363
 30
0.0
 11
190.2642569814
 21
686.3724040174
 31
0.0
  0
LINE
  5
DF
330
1B
100
AcDbEntity
 67
     1
  8
SLD-0_0
  6
SLD-実線
 62
   179
370
    25
100
AcDbLine
 10
189.2342570547
 20
686.3724040174
 30
0.0
 11
189.2342570547
 21
685.4313733363
 31
0.0
  0
LINE
  5
E0
330
1B
100
AcDbEntity
 67
     1
  8
SLD-0_0
  6
SLD-実線
 62
   179
370
    25
100
AcDbLine
 10
189.2342570547
 20
682.8688057446
 30
0.0
 11
190.2642569814
 21
682.8688057446
 31
0.0
  0
LINE
  5
E1
330
1B
100
AcDbEntity
 67
     1
  8
SLD-0_0
  6
SLD-実線
 62
   179
370
    25
100
AcDbLine
 10
193.7492567424
 20
684.0742649817
 30
0.0
 11
193.5715492193
 21
685.1676898384
 31
0.0
  0
LINE
  5
E2
330
1B
100
AcDbEntity
 67
     1
  8
SLD-0_0
  6
SLD-実線
 62
   179
370
    25
100
AcDbLine
 10
193.5715492193
 20
685.1676898384
 30
0.0
 11
193.0542125676
 21
686.163959124
 31
0.0
  0
LINE
  5
E3
330
1B
100
AcDbEntity
 67
     1
  8
SLD-0_0
  6
SLD-実線
 62
   179
370
    25
100
AcDbLine
 10
193.0542125676
 20
686.163959124
 30
0.0
 11
192.2432168696
 21
686.9745524907
 31
0.0
  0
LINE
  5
E4
330
1B
100
AcDbEntity
 67
     1
  8
SLD-0_0
  6
SLD-実線
 62
   179
370
    25
100
AcDbLine
 10
192.2432168696
 20
686.9745524907
 30
0.0
 11
191.2106204156
 21
687.5274451756
 31
0.0
  0
LINE
  5
E5
330
1B
100
AcDbEntity
 67
     1
  8
SLD-0_0
  6
SLD-実線
 62
   179
370
    25
100
AcDbLine
 10
191.2106204156
 20
687.5274451756
 30
0.0
 11
190.0481771056
 21
687.7735005998
 31
0.0
  0
LINE
  5
E6
330
1B
100
AcDbEntity
 67
     1
  8
SLD-0_0
  6
SLD-実線
 62
   179
370
    25
100
AcDbLine
 10
190.0481771056
 20
687.7735005998
 30
0.0
 11
188.8591724757
 21
687.6908662104
 31
0.0
  0
LINE
  5
E7
330
1B
100
AcDbEntity
 67
     1
  8
SLD-0_0
  6
SLD-実線
 62
   179
370
    25
100
AcDbLine
 10
188.8591724757
 20
687.6908662104
 30
0.0
 11
187.7492576216
 21
687.2868808293
 31
0.0
  0
LINE
  5
E8
330
1B
100
AcDbEntity
 67
     1
  8
SLD-0_0
  6
SLD-実線
 62
   179
370
    25
100
AcDbLine
 10
187.7492576216
 20
687.2868808293
 30
0.0
 11
186.8170484279
 21
686.5974413537
 31
0.0
  0
LINE
  5
E9
330
1B
100
AcDbEntity
 67
     1
  8
SLD-0_0
  6
SLD-実線
 62
   179
370
    25
100
AcDbLine
 10
186.8170484279
 20
686.5974413537
 30
0.0
 11
186.1453823123
 21
685.6837990069
 31
0.0
  0
LINE
  5
EA
330
1B
100
AcDbEntity
 67
     1
  8
SLD-0_0
  6
SLD-実線
 62
   179
370
    25
100
AcDbLine
 10
186.1453823123
 20
685.6837990069
 30
0.0
 11
185.7939347003
 21
684.627150216
 31
0.0
  0
LINE
  5
EB
330
1B
100
AcDbEntity
 67
     1
  8
SLD-0_0
  6
SLD-実線
 62
   179
370
    25
100
AcDbLine
 10
185.7939347003
 20
684.627150216
 30
0.0
 11
185.7939347003
 21
683.5213722968
 31
0.0
  0
LINE
  5
EC
330
1B
100
AcDbEntity
 67
     1
  8
SLD-0_0
  6
SLD-実線
 62
   179
370
    25
100
AcDbLine
 10
185.7939347003
 20
683.5213722968
 30
0.0
 11
186.1453823123
 21
682.4647235059
 31
0.0
  0
LINE
  5
ED
330
1B
100
AcDbEntity
 67
     1
  8
SLD-0_0
  6
SLD-実線
 62
   179
370
    25
100
AcDbLine
 10
186.1453823123
 20
682.4647235059
 30
0.0
 11
186.8170484279
 21
681.5510886096
 31
0.0
  0
LINE
  5
EE
330
1B
100
AcDbEntity
 67
     1
  8
SLD-0_0
  6
SLD-実線
 62
   179
370
    25
100
AcDbLine
 10
186.8170484279
 20
681.5510886096
 30
0.0
 11
187.7492576216
 21
680.8616416835
 31
0.0
  0
LINE
  5
EF
330
1B
100
AcDbEntity
 67
     1
  8
SLD-0_0
  6
SLD-実線
 62
   179
370
    25
100
AcDbLine
 10
187.7492576216
 20
680.8616416835
 30
0.0
 11
188.8591724757
 21
680.4576563024
 31
0.0
  0
LINE
  5
F0
330
1B
100
AcDbEntity
 67
     1
  8
SLD-0_0
  6
SLD-実線
 62
   179
370
    25
100
AcDbLine
 10
188.8591724757
 20
680.4576563024
 30
0.0
 11
190.0481771056
 21
680.375021913
 31
0.0
  0
LINE
  5
F1
330
1B
100
AcDbEntity
 67
     1
  8
SLD-0_0
  6
SLD-実線
 62
   179
370
    25
100
AcDbLine
 10
190.0481771056
 20
680.375021913
 30
0.0
 11
191.2106204156
 21
680.6210847878
 31
0.0
  0
LINE
  5
F2
330
1B
100
AcDbEntity
 67
     1
  8
SLD-0_0
  6
SLD-実線
 62
   179
370
    25
100
AcDbLine
 10
191.2106204156
 20
680.6210847878
 30
0.0
 11
192.2432168696
 21
681.1739700221
 31
0.0
  0
LINE
  5
F3
330
1B
100
AcDbEntity
 67
     1
  8
SLD-0_0
  6
SLD-実線
 62
   179
370
    25
100
AcDbLine
 10
192.2432168696
 20
681.1739700221
 30
0.0
 11
193.0542125676
 21
681.9845633888
 31
0.0
  0
LINE
  5
F4
330
1B
100
AcDbEntity
 67
     1
  8
SLD-0_0
  6
SLD-実線
 62
   179
370
    25
100
AcDbLine
 10
193.0542125676
 20
681.9845633888
 30
0.0
 11
193.5715492193
 21
682.9808326744
 31
0.0
  0
LINE
  5
F5
330
1B
100
AcDbEntity
 67
     1
  8
SLD-0_0
  6
SLD-実線
 62
   179
370
    25
100
AcDbLine
 10
193.5715492193
 20
682.9808326744
 30
0.0
 11
193.7492567424
 21
684.0742649817
 31
0.0
  0
LINE
  5
F6
330
1B
100
AcDbEntity
 67
     1
  8
SLD-0_0
  6
SLD-実線
 62
   179
370
    25
100
AcDbLine
 10
187.7647008125
 20
685.0095289135
 30
0.0
 11
188.7659377728
 21
684.2583464765
 31
0.0
  0
LINE
  5
F7
330
1B
100
AcDbEntity
 67
     1
  8
SLD-0_0
  6
SLD-実線
 62
   179
370
    25
100
AcDbLine
 10
188.7659377728
 20
684.2583464765
 30
0.0
 11
188.7659377728
 21
684.1427134656
 31
0.0
  0
LINE
  5
F8
330
1B
100
AcDbEntity
 67
     1
  8
SLD-0_0
  6
SLD-実線
 62
   179
370
    25
100
AcDbLine
 10
190.7325762634
 20
684.1427134656
 30
0.0
 11
190.7325762634
 21
684.2583464765
 31
0.0
  0
LINE
  5
F9
330
1B
100
AcDbEntity
 67
     1
  8
SLD-0_0
  6
SLD-実線
 62
   179
370
    25
100
AcDbLine
 10
191.7338132237
 20
685.0095289135
 30
0.0
 11
190.7325762634
 21
684.2583464765
 31
0.0
  0
LINE
  5
FA
330
1B
100
AcDbEntity
 67
     1
  8
SLD-0_0
  6
SLD-実線
 62
   179
370
    25
100
AcDbLine
 10
188.7659377728
 20
684.2583464765
 30
0.0
 11
189.0717785184
 21
684.2583464765
 31
0.0
  0
LINE
  5
FB
330
1B
100
AcDbEntity
 67
     1
  8
SLD-0_0
  6
SLD-実線
 62
   179
370
    25
100
AcDbLine
 10
190.4267355178
 20
684.2583464765
 30
0.0
 11
190.7325762634
 21
684.2583464765
 31
0.0
  0
LINE
  5
FC
330
1B
100
AcDbEntity
 67
     1
  8
SLD-0_0
  6
SLD-実線
 62
   179
370
    25
100
AcDbLine
 10
190.2642569814
 20
684.6926706218
 30
0.0
 11
189.2342570547
 21
684.6926706218
 31
0.0
  0
LINE
  5
FD
330
1B
100
AcDbEntity
 67
     1
  8
SLD-0_0
  6
SLD-実線
 62
   179
370
    25
100
AcDbLine
 10
190.5475727592
 20
684.0541186118
 30
0.0
 11
190.5011277024
 21
684.1504099154
 31
0.0
  0
LINE
  5
FE
330
1B
100
AcDbEntity
 67
     1
  8
SLD-0_0
  6
SLD-実線
 62
   179
370
    25
100
AcDbLine
 10
190.5011277024
 20
684.1504099154
 30
0.0
 11
190.4267355178
 21
684.2583464765
 31
0.0
  0
LINE
  5
FF
330
1B
100
AcDbEntity
 67
     1
  8
SLD-0_0
  6
SLD-実線
 62
   179
370
    25
100
AcDbLine
 10
189.0717785184
 20
684.2583464765
 30
0.0
 11
188.9973863338
 21
684.1504099154
 31
0.0
  0
LINE
  5
100
330
1B
100
AcDbEntity
 67
     1
  8
SLD-0_0
  6
SLD-実線
 62
   179
370
    25
100
AcDbLine
 10
188.9973863338
 20
684.1504099154
 30
0.0
 11
188.9509431396
 21
684.0541186118
 31
0.0
  0
LINE
  5
101
330
1B
100
AcDbEntity
 67
     1
  8
SLD-0_0
  6
SLD-実線
 62
   179
370
    25
100
AcDbLine
 10
247.2342572484
 20
683.8217573546
 30
0.0
 11
247.2342572484
 21
682.6914372228
 31
0.0
  0
LINE
  5
102
330
1B
100
AcDbEntity
 67
     1
  8
SLD-0_0
  6
SLD-実線
 62
   179
370
    25
100
AcDbLine
 10
248.2642571751
 20
682.6914372228
 30
0.0
 11
248.2642571751
 21
683.8217573547
 31
0.0
  0
LINE
  5
103
330
1B
100
AcDbEntity
 67
     1
  8
SLD-0_0
  6
SLD-実線
 62
   179
370
    25
100
AcDbLine
 10
248.2642571751
 20
685.4313733363
 30
0.0
 11
248.2642571751
 21
686.3724040174
 31
0.0
  0
LINE
  5
104
330
1B
100
AcDbEntity
 67
     1
  8
SLD-0_0
  6
SLD-実線
 62
   179
370
    25
100
AcDbLine
 10
247.2342572484
 20
686.3724040174
 30
0.0
 11
247.2342572484
 21
685.4313733363
 31
0.0
  0
LINE
  5
105
330
1B
100
AcDbEntity
 67
     1
  8
SLD-0_0
  6
SLD-実線
 62
   179
370
    25
100
AcDbLine
 10
247.2342572484
 20
682.8688057446
 30
0.0
 11
248.2642571751
 21
682.8688057446
 31
0.0
  0
LINE
  5
106
330
1B
100
AcDbEntity
 67
     1
  8
SLD-0_0
  6
SLD-実線
 62
   179
370
    25
100
AcDbLine
 10
251.7492569361
 20
684.0742649817
 30
0.0
 11
251.571549413
 21
685.1676898384
 31
0.0
  0
LINE
  5
107
330
1B
100
AcDbEntity
 67
     1
  8
SLD-0_0
  6
SLD-実線
 62
   179
370
    25
100
AcDbLine
 10
251.571549413
 20
685.1676898384
 30
0.0
 11
251.0542108987
 21
686.163959124
 31
0.0
  0
LINE
  5
108
330
1B
100
AcDbEntity
 67
     1
  8
SLD-0_0
  6
SLD-実線
 62
   179
370
    25
100
AcDbLine
 10
251.0542108987
 20
686.163959124
 30
0.0
 11
250.2432152007
 21
686.9745524907
 31
0.0
  0
LINE
  5
109
330
1B
100
AcDbEntity
 67
     1
  8
SLD-0_0
  6
SLD-実線
 62
   179
370
    25
100
AcDbLine
 10
250.2432152007
 20
686.9745524907
 30
0.0
 11
249.2106206093
 21
687.5274451756
 31
0.0
  0
LINE
  5
10A
330
1B
100
AcDbEntity
 67
     1
  8
SLD-0_0
  6
SLD-実線
 62
   179
370
    25
100
AcDbLine
 10
249.2106206093
 20
687.5274451756
 30
0.0
 11
248.0481772993
 21
687.7735005998
 31
0.0
  0
LINE
  5
10B
330
1B
100
AcDbEntity
 67
     1
  8
SLD-0_0
  6
SLD-実線
 62
   179
370
    25
100
AcDbLine
 10
248.0481772993
 20
687.7735005998
 30
0.0
 11
246.8591726695
 21
687.6908662104
 31
0.0
  0
LINE
  5
10C
330
1B
100
AcDbEntity
 67
     1
  8
SLD-0_0
  6
SLD-実線
 62
   179
370
    25
100
AcDbLine
 10
246.8591726695
 20
687.6908662104
 30
0.0
 11
245.7492578153
 21
687.2868808293
 31
0.0
  0
LINE
  5
10D
330
1B
100
AcDbEntity
 67
     1
  8
SLD-0_0
  6
SLD-実線
 62
   179
370
    25
100
AcDbLine
 10
245.7492578153
 20
687.2868808293
 30
0.0
 11
244.8170504842
 21
686.5974413537
 31
0.0
  0
LINE
  5
10E
330
1B
100
AcDbEntity
 67
     1
  8
SLD-0_0
  6
SLD-実線
 62
   179
370
    25
100
AcDbLine
 10
244.8170504842
 20
686.5974413537
 30
0.0
 11
244.1453825061
 21
685.6837990069
 31
0.0
  0
LINE
  5
10F
330
1B
100
AcDbEntity
 67
     1
  8
SLD-0_0
  6
SLD-実線
 62
   179
370
    25
100
AcDbLine
 10
244.1453825061
 20
685.6837990069
 30
0.0
 11
243.7939330314
 21
684.627150216
 31
0.0
  0
LINE
  5
110
330
1B
100
AcDbEntity
 67
     1
  8
SLD-0_0
  6
SLD-実線
 62
   179
370
    25
100
AcDbLine
 10
243.7939330314
 20
684.627150216
 30
0.0
 11
243.7939330314
 21
683.5213722968
 31
0.0
  0
LINE
  5
111
330
1B
100
AcDbEntity
 67
     1
  8
SLD-0_0
  6
SLD-実線
 62
   179
370
    25
100
AcDbLine
 10
243.7939330314
 20
683.5213722968
 30
0.0
 11
244.1453825061
 21
682.4647235059
 31
0.0
  0
LINE
  5
112
330
1B
100
AcDbEntity
 67
     1
  8
SLD-0_0
  6
SLD-実線
 62
   179
370
    25
100
AcDbLine
 10
244.1453825061
 20
682.4647235059
 30
0.0
 11
244.8170504842
 21
681.5510886096
 31
0.0
  0
LINE
  5
113
330
1B
100
AcDbEntity
 67
     1
  8
SLD-0_0
  6
SLD-実線
 62
   179
370
    25
100
AcDbLine
 10
244.8170504842
 20
681.5510886096
 30
0.0
 11
245.7492578153
 21
680.8616416835
 31
0.0
  0
LINE
  5
114
330
1B
100
AcDbEntity
 67
     1
  8
SLD-0_0
  6
SLD-実線
 62
   179
370
    25
100
AcDbLine
 10
245.7492578153
 20
680.8616416835
 30
0.0
 11
246.8591726695
 21
680.4576563024
 31
0.0
  0
LINE
  5
115
330
1B
100
AcDbEntity
 67
     1
  8
SLD-0_0
  6
SLD-実線
 62
   179
370
    25
100
AcDbLine
 10
246.8591726695
 20
680.4576563024
 30
0.0
 11
248.0481772993
 21
680.375021913
 31
0.0
  0
LINE
  5
116
330
1B
100
AcDbEntity
 67
     1
  8
SLD-0_0
  6
SLD-実線
 62
   179
370
    25
100
AcDbLine
 10
248.0481772993
 20
680.375021913
 30
0.0
 11
249.2106206093
 21
680.6210847878
 31
0.0
  0
LINE
  5
117
330
1B
100
AcDbEntity
 67
     1
  8
SLD-0_0
  6
SLD-実線
 62
   179
370
    25
100
AcDbLine
 10
249.2106206093
 20
680.6210847878
 30
0.0
 11
250.2432152007
 21
681.1739700221
 31
0.0
  0
LINE
  5
118
330
1B
100
AcDbEntity
 67
     1
  8
SLD-0_0
  6
SLD-実線
 62
   179
370
    25
100
AcDbLine
 10
250.2432152007
 20
681.1739700221
 30
0.0
 11
251.0542108987
 21
681.9845633888
 31
0.0
  0
LINE
  5
119
330
1B
100
AcDbEntity
 67
     1
  8
SLD-0_0
  6
SLD-実線
 62
   179
370
    25
100
AcDbLine
 10
251.0542108987
 20
681.9845633888
 30
0.0
 11
251.571549413
 21
682.9808326744
 31
0.0
  0
LINE
  5
11A
330
1B
100
AcDbEntity
 67
     1
  8
SLD-0_0
  6
SLD-実線
 62
   179
370
    25
100
AcDbLine
 10
251.571549413
 20
682.9808326744
 30
0.0
 11
251.7492569361
 21
684.0742649817
 31
0.0
  0
LINE
  5
11B
330
1B
100
AcDbEntity
 67
     1
  8
SLD-0_0
  6
SLD-実線
 62
   179
370
    25
100
AcDbLine
 10
245.7647010063
 20
685.0095289135
 30
0.0
 11
246.7659379665
 21
684.2583464765
 31
0.0
  0
LINE
  5
11C
330
1B
100
AcDbEntity
 67
     1
  8
SLD-0_0
  6
SLD-実線
 62
   179
370
    25
100
AcDbLine
 10
246.7659379665
 20
684.2583464765
 30
0.0
 11
246.7659379665
 21
684.1427134656
 31
0.0
  0
LINE
  5
11D
330
1B
100
AcDbEntity
 67
     1
  8
SLD-0_0
  6
SLD-実線
 62
   179
370
    25
100
AcDbLine
 10
248.7325764571
 20
684.1427134656
 30
0.0
 11
248.7325764571
 21
684.2583464765
 31
0.0
  0
LINE
  5
11E
330
1B
100
AcDbEntity
 67
     1
  8
SLD-0_0
  6
SLD-実線
 62
   179
370
    25
100
AcDbLine
 10
249.7338134174
 20
685.0095289135
 30
0.0
 11
248.7325764571
 21
684.2583464765
 31
0.0
  0
LINE
  5
11F
330
1B
100
AcDbEntity
 67
     1
  8
SLD-0_0
  6
SLD-実線
 62
   179
370
    25
100
AcDbLine
 10
246.7659379665
 20
684.2583464765
 30
0.0
 11
247.0717787121
 21
684.2583464765
 31
0.0
  0
LINE
  5
120
330
1B
100
AcDbEntity
 67
     1
  8
SLD-0_0
  6
SLD-実線
 62
   179
370
    25
100
AcDbLine
 10
248.4267357115
 20
684.2583464765
 30
0.0
 11
248.7325764571
 21
684.2583464765
 31
0.0
  0
LINE
  5
121
330
1B
100
AcDbEntity
 67
     1
  8
SLD-0_0
  6
SLD-実線
 62
   179
370
    25
100
AcDbLine
 10
248.2642571751
 20
684.6926706218
 30
0.0
 11
247.2342572484
 21
684.6926706218
 31
0.0
  0
LINE
  5
122
330
1B
100
AcDbEntity
 67
     1
  8
SLD-0_0
  6
SLD-実線
 62
   179
370
    25
100
AcDbLine
 10
248.5475710903
 20
684.0541186118
 30
0.0
 11
248.5011278961
 21
684.1504099154
 31
0.0
  0
LINE
  5
123
330
1B
100
AcDbEntity
 67
     1
  8
SLD-0_0
  6
SLD-実線
 62
   179
370
    25
100
AcDbLine
 10
248.5011278961
 20
684.1504099154
 30
0.0
 11
248.4267357115
 21
684.2583464765
 31
0.0
  0
LINE
  5
124
330
1B
100
AcDbEntity
 67
     1
  8
SLD-0_0
  6
SLD-実線
 62
   179
370
    25
100
AcDbLine
 10
247.0717787121
 20
684.2583464765
 30
0.0
 11
246.9973865275
 21
684.1504099154
 31
0.0
  0
LINE
  5
125
330
1B
100
AcDbEntity
 67
     1
  8
SLD-0_0
  6
SLD-実線
 62
   179
370
    25
100
AcDbLine
 10
246.9973865275
 20
684.1504099154
 30
0.0
 11
246.9509414707
 21
684.0541186118
 31
0.0
  0
LINE
  5
126
330
1B
100
AcDbEntity
 67
     1
  8
SLD-0_0
  6
SLD-実線
 62
   179
370
    25
100
AcDbLine
 10
248.2642571751
 20
769.8250459814
 30
0.0
 11
248.2642571751
 21
770.7660692118
 31
0.0
  0
LINE
  5
127
330
1B
100
AcDbEntity
 67
     1
  8
SLD-0_0
  6
SLD-実線
 62
   179
370
    25
100
AcDbLine
 10
247.2342572485
 20
770.7660692118
 30
0.0
 11
247.2342572485
 21
769.8250459814
 31
0.0
  0
LINE
  5
128
330
1B
100
AcDbEntity
 67
     1
  8
SLD-0_0
  6
SLD-実線
 62
   179
370
    25
100
AcDbLine
 10
247.2342572484
 20
768.2154225492
 30
0.0
 11
247.2342572484
 21
767.085109868
 31
0.0
  0
LINE
  5
129
330
1B
100
AcDbEntity
 67
     1
  8
SLD-0_0
  6
SLD-実線
 62
   179
370
    25
100
AcDbLine
 10
248.2642571751
 20
767.085109868
 30
0.0
 11
248.2642571751
 21
768.2154225492
 31
0.0
  0
LINE
  5
12A
330
1B
100
AcDbEntity
 67
     1
  8
SLD-0_0
  6
SLD-実線
 62
   179
370
    25
100
AcDbLine
 10
247.2342572484
 20
767.2624783897
 30
0.0
 11
248.2642571751
 21
767.2624783897
 31
0.0
  0
LINE
  5
12B
330
1B
100
AcDbEntity
 67
     1
  8
SLD-0_0
  6
SLD-実線
 62
   179
370
    25
100
AcDbLine
 10
247.7492562805
 20
772.1775370025
 30
0.0
 11
246.5702372913
 21
772.0127301597
 31
0.0
  0
LINE
  5
12C
330
1B
100
AcDbEntity
 67
     1
  8
SLD-0_0
  6
SLD-実線
 62
   179
370
    25
100
AcDbLine
 10
246.5702372913
 20
772.0127301597
 30
0.0
 11
245.4959771905
 21
771.5329574727
 31
0.0
  0
LINE
  5
12D
330
1B
100
AcDbEntity
 67
     1
  8
SLD-0_0
  6
SLD-実線
 62
   179
370
    25
100
AcDbLine
 10
245.4959771905
 20
771.5329574727
 30
0.0
 11
244.6219309543
 21
770.7808362626
 31
0.0
  0
LINE
  5
12E
330
1B
100
AcDbEntity
 67
     1
  8
SLD-0_0
  6
SLD-実線
 62
   179
370
    25
100
AcDbLine
 10
244.6219309543
 20
770.7808362626
 30
0.0
 11
244.0257615719
 21
769.8231982374
 31
0.0
  0
LINE
  5
12F
330
1B
100
AcDbEntity
 67
     1
  8
SLD-0_0
  6
SLD-実線
 62
   179
370
    25
100
AcDbLine
 10
244.0257615719
 20
769.8231982374
 30
0.0
 11
243.7604426716
 21
768.7451439285
 31
0.0
  0
LINE
  5
130
330
1B
100
AcDbEntity
 67
     1
  8
SLD-0_0
  6
SLD-実線
 62
   179
370
    25
100
AcDbLine
 10
243.7604426716
 20
768.7451439285
 30
0.0
 11
243.8495460276
 21
767.6424580001
 31
0.0
  0
LINE
  5
131
330
1B
100
AcDbEntity
 67
     1
  8
SLD-0_0
  6
SLD-実線
 62
   179
370
    25
100
AcDbLine
 10
243.8495460276
 20
767.6424580001
 30
0.0
 11
244.2851553981
 21
766.6131304883
 31
0.0
  0
LINE
  5
132
330
1B
100
AcDbEntity
 67
     1
  8
SLD-0_0
  6
SLD-実線
 62
   179
370
    25
100
AcDbLine
 10
244.2851553981
 20
766.6131304883
 30
0.0
 11
245.0285668794
 21
765.7485949182
 31
0.0
  0
LINE
  5
133
330
1B
100
AcDbEntity
 67
     1
  8
SLD-0_0
  6
SLD-実線
 62
   179
370
    25
100
AcDbLine
 10
245.0285668794
 20
765.7485949182
 30
0.0
 11
246.0137217615
 21
765.1256816768
 31
0.0
  0
LINE
  5
134
330
1B
100
AcDbEntity
 67
     1
  8
SLD-0_0
  6
SLD-実線
 62
   179
370
    25
100
AcDbLine
 10
246.0137217615
 20
765.1256816768
 30
0.0
 11
247.1530887608
 21
764.799748578
 31
0.0
  0
LINE
  5
135
330
1B
100
AcDbEntity
 67
     1
  8
SLD-0_0
  6
SLD-実線
 62
   179
370
    25
100
AcDbLine
 10
247.1530887608
 20
764.799748578
 30
0.0
 11
248.3454256628
 21
764.799748578
 31
0.0
  0
LINE
  5
136
330
1B
100
AcDbEntity
 67
     1
  8
SLD-0_0
  6
SLD-実線
 62
   179
370
    25
100
AcDbLine
 10
248.3454256628
 20
764.799748578
 30
0.0
 11
249.4847926621
 21
765.1256816768
 31
0.0
  0
LINE
  5
137
330
1B
100
AcDbEntity
 67
     1
  8
SLD-0_0
  6
SLD-実線
 62
   179
370
    25
100
AcDbLine
 10
249.4847926621
 20
765.1256816768
 30
0.0
 11
250.4699475441
 21
765.7485949182
 31
0.0
  0
LINE
  5
138
330
1B
100
AcDbEntity
 67
     1
  8
SLD-0_0
  6
SLD-実線
 62
   179
370
    25
100
AcDbLine
 10
250.4699475441
 20
765.7485949182
 30
0.0
 11
251.2133590255
 21
766.6131304883
 31
0.0
  0
LINE
  5
139
330
1B
100
AcDbEntity
 67
     1
  8
SLD-0_0
  6
SLD-実線
 62
   179
370
    25
100
AcDbLine
 10
251.2133590255
 20
766.6131304883
 30
0.0
 11
251.648968396
 21
767.6424580001
 31
0.0
  0
LINE
  5
13A
330
1B
100
AcDbEntity
 67
     1
  8
SLD-0_0
  6
SLD-実線
 62
   179
370
    25
100
AcDbLine
 10
251.648968396
 20
767.6424580001
 30
0.0
 11
251.7380736146
 21
768.7451439285
 31
0.0
  0
LINE
  5
13B
330
1B
100
AcDbEntity
 67
     1
  8
SLD-0_0
  6
SLD-実線
 62
   179
370
    25
100
AcDbLine
 10
251.7380736146
 20
768.7451439285
 30
0.0
 11
251.472750989
 21
769.8231982374
 31
0.0
  0
LINE
  5
13C
330
1B
100
AcDbEntity
 67
     1
  8
SLD-0_0
  6
SLD-実線
 62
   179
370
    25
100
AcDbLine
 10
251.472750989
 20
769.8231982374
 30
0.0
 11
250.8765816067
 21
770.7808362626
 31
0.0
  0
LINE
  5
13D
330
1B
100
AcDbEntity
 67
     1
  8
SLD-0_0
  6
SLD-実線
 62
   179
370
    25
100
AcDbLine
 10
250.8765816067
 20
770.7808362626
 30
0.0
 11
250.0025390957
 21
771.5329574727
 31
0.0
  0
LINE
  5
13E
330
1B
100
AcDbEntity
 67
     1
  8
SLD-0_0
  6
SLD-実線
 62
   179
370
    25
100
AcDbLine
 10
250.0025390957
 20
771.5329574727
 30
0.0
 11
248.9282771323
 21
772.0127301597
 31
0.0
  0
LINE
  5
13F
330
1B
100
AcDbEntity
 67
     1
  8
SLD-0_0
  6
SLD-実線
 62
   179
370
    25
100
AcDbLine
 10
248.9282771323
 20
772.0127301597
 30
0.0
 11
247.7492562805
 21
772.1775370025
 31
0.0
  0
LINE
  5
140
330
1B
100
AcDbEntity
 67
     1
  8
SLD-0_0
  6
SLD-実線
 62
   179
370
    25
100
AcDbLine
 10
245.7647010062
 20
769.4031941079
 30
0.0
 11
246.7659379665
 21
768.652011671
 31
0.0
  0
LINE
  5
141
330
1B
100
AcDbEntity
 67
     1
  8
SLD-0_0
  6
SLD-実線
 62
   179
370
    25
100
AcDbLine
 10
246.7659379665
 20
768.652011671
 30
0.0
 11
246.7659379665
 21
768.5363786601
 31
0.0
  0
LINE
  5
142
330
1B
100
AcDbEntity
 67
     1
  8
SLD-0_0
  6
SLD-実線
 62
   179
370
    25
100
AcDbLine
 10
248.7325764571
 20
768.5363786601
 30
0.0
 11
248.7325764571
 21
768.652011671
 31
0.0
  0
LINE
  5
143
330
1B
100
AcDbEntity
 67
     1
  8
SLD-0_0
  6
SLD-実線
 62
   179
370
    25
100
AcDbLine
 10
249.7338134174
 20
769.403194108
 30
0.0
 11
248.7325764571
 21
768.652011671
 31
0.0
  0
LINE
  5
144
330
1B
100
AcDbEntity
 67
     1
  8
SLD-0_0
  6
SLD-実線
 62
   179
370
    25
100
AcDbLine
 10
246.7659379665
 20
768.652011671
 30
0.0
 11
247.0717787121
 21
768.652011671
 31
0.0
  0
LINE
  5
145
330
1B
100
AcDbEntity
 67
     1
  8
SLD-0_0
  6
SLD-実線
 62
   179
370
    25
100
AcDbLine
 10
248.4267357115
 20
768.652011671
 30
0.0
 11
248.7325764571
 21
768.652011671
 31
0.0
  0
LINE
  5
146
330
1B
100
AcDbEntity
 67
     1
  8
SLD-0_0
  6
SLD-実線
 62
   179
370
    25
100
AcDbLine
 10
248.2642571751
 20
769.0863358163
 30
0.0
 11
247.2342572484
 21
769.0863358163
 31
0.0
  0
LINE
  5
147
330
1B
100
AcDbEntity
 67
     1
  8
SLD-0_0
  6
SLD-実線
 62
   179
370
    25
100
AcDbLine
 10
248.5475710903
 20
768.4477912568
 30
0.0
 11
248.5011278961
 21
768.5440825605
 31
0.0
  0
LINE
  5
148
330
1B
100
AcDbEntity
 67
     1
  8
SLD-0_0
  6
SLD-実線
 62
   179
370
    25
100
AcDbLine
 10
248.5011278961
 20
768.5440825605
 30
0.0
 11
248.4267357115
 21
768.652011671
 31
0.0
  0
LINE
  5
149
330
1B
100
AcDbEntity
 67
     1
  8
SLD-0_0
  6
SLD-実線
 62
   179
370
    25
100
AcDbLine
 10
247.0717787121
 20
768.652011671
 30
0.0
 11
246.9973865275
 21
768.5440825605
 31
0.0
  0
LINE
  5
14A
330
1B
100
AcDbEntity
 67
     1
  8
SLD-0_0
  6
SLD-実線
 62
   179
370
    25
100
AcDbLine
 10
246.9973865275
 20
768.5440825605
 30
0.0
 11
246.9509414707
 21
768.4477912568
 31
0.0
  0
LINE
  5
14B
330
1B
100
AcDbEntity
 67
     1
  8
SLD-0_0
  6
SLD-実線
 62
   179
370
    25
100
AcDbLine
 10
189.2342570547
 20
768.2154225492
 30
0.0
 11
189.2342570547
 21
767.085109868
 31
0.0
  0
LINE
  5
14C
330
1B
100
AcDbEntity
 67
     1
  8
SLD-0_0
  6
SLD-実線
 62
   179
370
    25
100
AcDbLine
 10
190.2642569814
 20
767.085109868
 30
0.0
 11
190.2642569814
 21
768.2154225492
 31
0.0
  0
LINE
  5
14D
330
1B
100
AcDbEntity
 67
     1
  8
SLD-0_0
  6
SLD-実線
 62
   179
370
    25
100
AcDbLine
 10
190.2642569814
 20
769.8250459814
 30
0.0
 11
190.2642569814
 21
770.7660692118
 31
0.0
  0
LINE
  5
14E
330
1B
100
AcDbEntity
 67
     1
  8
SLD-0_0
  6
SLD-実線
 62
   179
370
    25
100
AcDbLine
 10
189.2342570548
 20
770.7660692118
 30
0.0
 11
189.2342570548
 21
769.8250459814
 31
0.0
  0
LINE
  5
14F
330
1B
100
AcDbEntity
 67
     1
  8
SLD-0_0
  6
SLD-実線
 62
   179
370
    25
100
AcDbLine
 10
189.2342570547
 20
767.2624783897
 30
0.0
 11
190.2642569814
 21
767.2624783897
 31
0.0
  0
LINE
  5
150
330
1B
100
AcDbEntity
 67
     1
  8
SLD-0_0
  6
SLD-実線
 62
   179
370
    25
100
AcDbLine
 10
193.7492567424
 20
768.4679376268
 30
0.0
 11
193.5715492193
 21
769.5613550329
 31
0.0
  0
LINE
  5
151
330
1B
100
AcDbEntity
 67
     1
  8
SLD-0_0
  6
SLD-実線
 62
   179
370
    25
100
AcDbLine
 10
193.5715492193
 20
769.5613550329
 30
0.0
 11
193.0542125676
 21
770.5576317691
 31
0.0
  0
LINE
  5
152
330
1B
100
AcDbEntity
 67
     1
  8
SLD-0_0
  6
SLD-実線
 62
   179
370
    25
100
AcDbLine
 10
193.0542125676
 20
770.5576317691
 30
0.0
 11
192.2432168696
 21
771.3682251357
 31
0.0
  0
LINE
  5
153
330
1B
100
AcDbEntity
 67
     1
  8
SLD-0_0
  6
SLD-実線
 62
   179
370
    25
100
AcDbLine
 10
192.2432168696
 20
771.3682251357
 30
0.0
 11
191.2106204156
 21
771.9211178207
 31
0.0
  0
LINE
  5
154
330
1B
100
AcDbEntity
 67
     1
  8
SLD-0_0
  6
SLD-実線
 62
   179
370
    25
100
AcDbLine
 10
191.2106204156
 20
771.9211178207
 30
0.0
 11
190.0481771056
 21
772.1671657943
 31
0.0
  0
LINE
  5
155
330
1B
100
AcDbEntity
 67
     1
  8
SLD-0_0
  6
SLD-実線
 62
   179
370
    25
100
AcDbLine
 10
190.0481771056
 20
772.1671657943
 30
0.0
 11
188.8591724757
 21
772.0845388555
 31
0.0
  0
LINE
  5
156
330
1B
100
AcDbEntity
 67
     1
  8
SLD-0_0
  6
SLD-実線
 62
   179
370
    25
100
AcDbLine
 10
188.8591724757
 20
772.0845388555
 30
0.0
 11
187.7492576216
 21
771.6805534744
 31
0.0
  0
LINE
  5
157
330
1B
100
AcDbEntity
 67
     1
  8
SLD-0_0
  6
SLD-実線
 62
   179
370
    25
100
AcDbLine
 10
187.7492576216
 20
771.6805534744
 30
0.0
 11
186.8170484279
 21
770.9911065483
 31
0.0
  0
LINE
  5
158
330
1B
100
AcDbEntity
 67
     1
  8
SLD-0_0
  6
SLD-実線
 62
   179
370
    25
100
AcDbLine
 10
186.8170484279
 20
770.9911065483
 30
0.0
 11
186.1453823123
 21
770.077471652
 31
0.0
  0
LINE
  5
159
330
1B
100
AcDbEntity
 67
     1
  8
SLD-0_0
  6
SLD-実線
 62
   179
370
    25
100
AcDbLine
 10
186.1453823123
 20
770.077471652
 30
0.0
 11
185.7939347003
 21
769.0208154106
 31
0.0
  0
LINE
  5
15A
330
1B
100
AcDbEntity
 67
     1
  8
SLD-0_0
  6
SLD-実線
 62
   179
370
    25
100
AcDbLine
 10
185.7939347003
 20
769.0208154106
 30
0.0
 11
185.7939347003
 21
767.9150449418
 31
0.0
  0
LINE
  5
15B
330
1B
100
AcDbEntity
 67
     1
  8
SLD-0_0
  6
SLD-実線
 62
   179
370
    25
100
AcDbLine
 10
185.7939347003
 20
767.9150449418
 30
0.0
 11
186.1453823123
 21
766.8583887004
 31
0.0
  0
LINE
  5
15C
330
1B
100
AcDbEntity
 67
     1
  8
SLD-0_0
  6
SLD-実線
 62
   179
370
    25
100
AcDbLine
 10
186.1453823123
 20
766.8583887004
 30
0.0
 11
186.8170484279
 21
765.9447538042
 31
0.0
  0
LINE
  5
15D
330
1B
100
AcDbEntity
 67
     1
  8
SLD-0_0
  6
SLD-実線
 62
   179
370
    25
100
AcDbLine
 10
186.8170484279
 20
765.9447538042
 30
0.0
 11
187.7492576216
 21
765.255306878
 31
0.0
  0
LINE
  5
15E
330
1B
100
AcDbEntity
 67
     1
  8
SLD-0_0
  6
SLD-実線
 62
   179
370
    25
100
AcDbLine
 10
187.7492576216
 20
765.255306878
 30
0.0
 11
188.8591724757
 21
764.8513214969
 31
0.0
  0
LINE
  5
15F
330
1B
100
AcDbEntity
 67
     1
  8
SLD-0_0
  6
SLD-実線
 62
   179
370
    25
100
AcDbLine
 10
188.8591724757
 20
764.8513214969
 30
0.0
 11
190.0481771056
 21
764.7686945581
 31
0.0
  0
LINE
  5
160
330
1B
100
AcDbEntity
 67
     1
  8
SLD-0_0
  6
SLD-実線
 62
   179
370
    25
100
AcDbLine
 10
190.0481771056
 20
764.7686945581
 30
0.0
 11
191.2106204156
 21
765.0147574329
 31
0.0
  0
LINE
  5
161
330
1B
100
AcDbEntity
 67
     1
  8
SLD-0_0
  6
SLD-実線
 62
   179
370
    25
100
AcDbLine
 10
191.2106204156
 20
765.0147574329
 30
0.0
 11
192.2432168696
 21
765.5676352167
 31
0.0
  0
LINE
  5
162
330
1B
100
AcDbEntity
 67
     1
  8
SLD-0_0
  6
SLD-実線
 62
   179
370
    25
100
AcDbLine
 10
192.2432168696
 20
765.5676352167
 30
0.0
 11
193.0542125676
 21
766.3782285833
 31
0.0
  0
LINE
  5
163
330
1B
100
AcDbEntity
 67
     1
  8
SLD-0_0
  6
SLD-実線
 62
   179
370
    25
100
AcDbLine
 10
193.0542125676
 20
766.3782285833
 30
0.0
 11
193.5715492193
 21
767.3745053195
 31
0.0
  0
LINE
  5
164
330
1B
100
AcDbEntity
 67
     1
  8
SLD-0_0
  6
SLD-実線
 62
   179
370
    25
100
AcDbLine
 10
193.5715492193
 20
767.3745053195
 30
0.0
 11
193.7492567424
 21
768.4679376268
 31
0.0
  0
LINE
  5
165
330
1B
100
AcDbEntity
 67
     1
  8
SLD-0_0
  6
SLD-実線
 62
   179
370
    25
100
AcDbLine
 10
187.7647008125
 20
769.4031941079
 30
0.0
 11
188.7659377728
 21
768.652011671
 31
0.0
  0
LINE
  5
166
330
1B
100
AcDbEntity
 67
     1
  8
SLD-0_0
  6
SLD-実線
 62
   179
370
    25
100
AcDbLine
 10
188.7659377728
 20
768.652011671
 30
0.0
 11
188.7659377728
 21
768.5363786601
 31
0.0
  0
LINE
  5
167
330
1B
100
AcDbEntity
 67
     1
  8
SLD-0_0
  6
SLD-実線
 62
   179
370
    25
100
AcDbLine
 10
190.7325762634
 20
768.5363786601
 30
0.0
 11
190.7325762634
 21
768.652011671
 31
0.0
  0
LINE
  5
168
330
1B
100
AcDbEntity
 67
     1
  8
SLD-0_0
  6
SLD-実線
 62
   179
370
    25
100
AcDbLine
 10
191.7338132237
 20
769.403194108
 30
0.0
 11
190.7325762634
 21
768.652011671
 31
0.0
  0
LINE
  5
169
330
1B
100
AcDbEntity
 67
     1
  8
SLD-0_0
  6
SLD-実線
 62
   179
370
    25
100
AcDbLine
 10
188.7659377728
 20
768.652011671
 30
0.0
 11
189.0717785184
 21
768.652011671
 31
0.0
  0
LINE
  5
16A
330
1B
100
AcDbEntity
 67
     1
  8
SLD-0_0
  6
SLD-実線
 62
   179
370
    25
100
AcDbLine
 10
190.4267355178
 20
768.652011671
 30
0.0
 11
190.7325762634
 21
768.652011671
 31
0.0
  0
LINE
  5
16B
330
1B
100
AcDbEntity
 67
     1
  8
SLD-0_0
  6
SLD-実線
 62
   179
370
    25
100
AcDbLine
 10
190.2642569814
 20
769.0863358163
 30
0.0
 11
189.2342570547
 21
769.0863358163
 31
0.0
  0
LINE
  5
16C
330
1B
100
AcDbEntity
 67
     1
  8
SLD-0_0
  6
SLD-実線
 62
   179
370
    25
100
AcDbLine
 10
190.5475727592
 20
768.4477912568
 30
0.0
 11
190.5011277024
 21
768.5440825605
 31
0.0
  0
LINE
  5
16D
330
1B
100
AcDbEntity
 67
     1
  8
SLD-0_0
  6
SLD-実線
 62
   179
370
    25
100
AcDbLine
 10
190.5011277024
 20
768.5440825605
 30
0.0
 11
190.4267355178
 21
768.652011671
 31
0.0
  0
LINE
  5
16E
330
1B
100
AcDbEntity
 67
     1
  8
SLD-0_0
  6
SLD-実線
 62
   179
370
    25
100
AcDbLine
 10
189.0717785184
 20
768.652011671
 30
0.0
 11
188.9973863338
 21
768.5440825605
 31
0.0
  0
LINE
  5
16F
330
1B
100
AcDbEntity
 67
     1
  8
SLD-0_0
  6
SLD-実線
 62
   179
370
    25
100
AcDbLine
 10
188.9973863338
 20
768.5440825605
 30
0.0
 11
188.9509431396
 21
768.4477912568
 31
0.0
  0
LINE
  5
170
330
1B
100
AcDbEntity
 67
     1
  8
SLD-0_0
  6
SLD-実線
 62
   179
370
    25
100
AcDbLine
 10
193.5492570822
 20
693.3125155353
 30
0.0
 11
193.5492570822
 21
761.0307084703
 31
0.0
  0
LINE
  5
171
330
1B
100
AcDbEntity
 67
     1
  8
SLD-0_0
  6
SLD-実線
 62
   179
370
    25
100
AcDbLine
 10
244.9492573116
 20
761.0307084703
 30
0.0
 11
244.9492573116
 21
693.3125155353
 31
0.0
  0
LINE
  5
172
330
1B
100
AcDbEntity
 67
     1
  8
SLD-0_0
  6
SLD-実線
 62
   179
370
    25
100
AcDbLine
 10
193.5492570822
 20
692.0316564226
 30
0.0
 11
193.6453304563
 21
691.1270218276
 31
0.0
  0
LINE
  5
173
330
1B
100
AcDbEntity
 67
     1
  8
SLD-0_0
  6
SLD-実線
 62
   179
370
    25
100
AcDbLine
 10
193.6453304563
 20
691.1270218276
 30
0.0
 11
193.7323644135
 21
690.7882662796
 31
0.0
  0
LINE
  5
174
330
1B
100
AcDbEntity
 67
     1
  8
SLD-0_0
  6
SLD-実線
 62
   179
370
    25
100
AcDbLine
 10
193.5492570822
 20
692.0316564226
 30
0.0
 11
193.5492570822
 21
693.3125155353
 31
0.0
  0
LINE
  5
175
330
1B
100
AcDbEntity
 67
     1
  8
SLD-0_0
  6
SLD-実線
 62
   179
370
    25
100
AcDbLine
 10
244.9065319572
 20
691.4267586851
 30
0.0
 11
244.9492573116
 21
692.0316564226
 31
0.0
  0
LINE
  5
176
330
1B
100
AcDbEntity
 67
     1
  8
SLD-0_0
  6
SLD-実線
 62
   179
370
    25
100
AcDbLine
 10
244.9492573116
 20
693.3125155353
 30
0.0
 11
244.9492573116
 21
692.0316564226
 31
0.0
  0
LINE
  5
177
330
1B
100
AcDbEntity
 67
     1
  8
SLD-0_0
  6
SLD-実線
 62
   179
370
    25
100
AcDbLine
 10
184.049258319
 20
681.252067008
 30
0.0
 11
184.049258319
 21
682.8605356001
 31
0.0
  0
LINE
  5
178
330
1B
100
AcDbEntity
 67
     1
  8
SLD-0_0
  6
SLD-実線
 62
   179
370
    25
100
AcDbLine
 10
248.7492564444
 20
675.9658651733
 30
0.0
 11
189.7492579494
 21
675.9658651733
 31
0.0
  0
LINE
  5
179
330
1B
100
AcDbEntity
 67
     1
  8
SLD-0_0
  6
SLD-実線
 62
   179
370
    25
100
AcDbLine
 10
254.4492579375
 20
682.8605356001
 30
0.0
 11
254.4492579375
 21
681.2520670079
 31
0.0
  0
LINE
  5
17A
330
1B
100
AcDbEntity
 67
     1
  8
SLD-0_0
  6
SLD-実線
 62
   179
370
    25
100
AcDbLine
 10
184.049258319
 20
682.8605356001
 30
0.0
 11
184.049258319
 21
768.1816118144
 31
0.0
  0
LINE
  5
17B
330
1B
100
AcDbEntity
 67
     1
  8
SLD-0_0
  6
SLD-実線
 62
   179
370
    25
100
AcDbLine
 10
254.4492579375
 20
768.1816118144
 30
0.0
 11
254.4492579375
 21
682.8605356001
 31
0.0
  0
LINE
  5
17C
330
1B
100
AcDbEntity
 67
     1
  8
SLD-0_0
  6
SLD-実線
 62
   179
370
    25
100
AcDbLine
 10
155.0492591534
 20
763.3066820287
 30
0.0
 11
184.0492583189
 21
763.3066820287
 31
0.0
  0
LINE
  5
17D
330
1B
100
AcDbEntity
 67
     1
  8
SLD-0_0
  6
SLD-実線
 62
   179
370
    25
100
AcDbLine
 10
254.4492644816
 20
763.3066820287
 30
0.0
 11
282.4492616206
 21
763.3066820287
 31
0.0
  0
LINE
  5
17E
330
1B
100
AcDbEntity
 67
     1
  8
SLD-0_0
  6
SLD-実線
 62
   179
370
    25
100
AcDbLine
 10
265.9492603869
 20
805.3066837386
 30
0.0
 11
171.5492603869
 21
805.3066837386
 31
0.0
  0
LINE
  5
17F
330
1B
100
AcDbEntity
 67
     1
  8
SLD-0_0
  6
SLD-実線
 62
   179
370
    25
100
AcDbLine
 10
225.7101203624
 20
805.3566860341
 30
0.0
 11
231.2492573012
 21
805.3566860341
 31
0.0
  0
LINE
  5
180
330
1B
100
AcDbEntity
 67
     1
  8
SLD-0_0
  6
SLD-実線
 62
   179
370
    25
100
AcDbLine
 10
206.2492569287
 20
805.3566860341
 30
0.0
 11
225.7101203624
 21
805.3566860341
 31
0.0
  0
LINE
  5
181
330
1B
100
AcDbEntity
 67
     1
  8
SLD-0_0
  6
SLD-実線
 62
   179
370
    25
100
AcDbLine
 10
219.3519206678
 20
805.40667943
 30
0.0
 11
219.3519206678
 21
805.3566860341
 31
0.0
  0
LINE
  5
182
330
1B
100
AcDbEntity
 67
     1
  8
SLD-0_0
  6
SLD-実線
 62
   179
370
    25
100
AcDbLine
 10
209.7492575024
 20
805.40667943
 30
0.0
 11
219.3519206678
 21
805.40667943
 31
0.0
  0
LINE
  5
183
330
1B
100
AcDbEntity
 67
     1
  8
SLD-0_0
  6
SLD-実線
 62
   179
370
    25
100
AcDbLine
 10
225.0321976219
 20
805.40667943
 30
0.0
 11
225.0321976219
 21
805.3566860341
 31
0.0
  0
LINE
  5
184
330
1B
100
AcDbEntity
 67
     1
  8
SLD-0_0
  6
SLD-実線
 62
   179
370
    25
100
AcDbLine
 10
219.3519206678
 20
805.40667943
 30
0.0
 11
225.0321976219
 21
805.40667943
 31
0.0
  0
LINE
  5
185
330
1B
100
AcDbEntity
 67
     1
  8
SLD-0_0
  6
SLD-実線
 62
   179
370
    25
100
AcDbLine
 10
229.7245676939
 20
805.40667943
 30
0.0
 11
229.7245676939
 21
805.3566860341
 31
0.0
  0
LINE
  5
186
330
1B
100
AcDbEntity
 67
     1
  8
SLD-0_0
  6
SLD-実線
 62
   179
370
    25
100
AcDbLine
 10
225.0321976219
 20
805.40667943
 30
0.0
 11
229.7245676939
 21
805.40667943
 31
0.0
  0
LINE
  5
187
330
1B
100
AcDbEntity
 67
     1
  8
SLD-0_0
  6
SLD-実線
 62
   179
370
    25
100
AcDbLine
 10
263.5564378772
 20
301.1066960477
 30
0.0
 11
263.2637902472
 21
301.1066960477
 31
0.0
  0
LINE
  5
188
330
1B
100
AcDbEntity
 67
     1
  8
SLD-0_0
  6
SLD-実線
 62
   179
370
    25
100
AcDbLine
 10
262.4704263483
 20
301.1066960477
 30
0.0
 11
259.9429547165
 21
301.1066960477
 31
0.0
  0
LINE
  5
189
330
1B
100
AcDbEntity
 67
     1
  8
SLD-0_0
  6
SLD-実線
 62
   179
370
    25
100
AcDbLine
 10
258.4310419236
 20
301.1066960477
 30
0.0
 11
255.9856011842
 21
301.1066960477
 31
0.0
  0
LINE
  5
18A
330
1B
100
AcDbEntity
 67
     1
  8
SLD-0_0
  6
SLD-実線
 62
   179
370
    25
100
AcDbLine
 10
255.242115197
 20
301.1066960477
 30
0.0
 11
255.0564392779
 21
301.1066960477
 31
0.0
  0
LINE
  5
18B
330
1B
100
AcDbEntity
 67
     1
  8
SLD-0_0
  6
SLD-実線
 62
   179
370
    25
100
AcDbLine
 10
288.6221579586
 20
301.1066960477
 30
0.0
 11
288.3295066033
 21
301.1066960477
 31
0.0
  0
LINE
  5
18C
330
1B
100
AcDbEntity
 67
     1
  8
SLD-0_0
  6
SLD-実線
 62
   179
370
    25
100
AcDbLine
 10
287.5361389789
 20
301.1066960477
 30
0.0
 11
285.0086710724
 21
301.1066960477
 31
0.0
  0
LINE
  5
18D
330
1B
100
AcDbEntity
 67
     1
  8
SLD-0_0
  6
SLD-実線
 62
   179
370
    25
100
AcDbLine
 10
283.4967545543
 20
301.1066960477
 30
0.0
 11
281.0513212655
 21
301.1066960477
 31
0.0
  0
LINE
  5
18E
330
1B
100
AcDbEntity
 67
     1
  8
SLD-0_0
  6
SLD-実線
 62
   179
370
    25
100
AcDbLine
 10
280.307831553
 20
301.1066960477
 30
0.0
 11
280.122155634
 21
301.1066960477
 31
0.0
  0
LINE
  5
18F
330
1B
100
AcDbEntity
 67
     1
  8
SLD-0_0
  6
SLD-実線
 62
   179
370
    25
100
AcDbLine
 10
149.0164942418
 20
301.1066960477
 30
0.0
 11
149.0164942418
 21
302.6066767358
 31
0.0
  0
LINE
  5
190
330
1B
100
AcDbEntity
 67
     1
  8
SLD-0_0
  6
SLD-実線
 62
   179
370
    25
100
AcDbLine
 10
149.0164942418
 20
301.1066960477
 30
0.0
 11
148.8763562713
 21
301.1066960477
 31
0.0
  0
LINE
  5
191
330
1B
100
AcDbEntity
 67
     1
  8
SLD-0_0
  6
SLD-実線
 62
   179
370
    25
100
AcDbLine
 10
157.3763585959
 20
301.1066960477
 30
0.0
 11
157.0837109659
 21
301.1066960477
 31
0.0
  0
LINE
  5
192
330
1B
100
AcDbEntity
 67
     1
  8
SLD-0_0
  6
SLD-実線
 62
   179
370
    25
100
AcDbLine
 10
156.2903433416
 20
301.1066960477
 30
0.0
 11
153.7628717099
 21
301.1066960477
 31
0.0
  0
LINE
  5
193
330
1B
100
AcDbEntity
 67
     1
  8
SLD-0_0
  6
SLD-実線
 62
   179
370
    25
100
AcDbLine
 10
152.2509551917
 20
301.1066960477
 30
0.0
 11
149.9666220818
 21
301.1066960477
 31
0.0
  0
LINE
  5
194
330
1B
100
AcDbEntity
 67
     1
  8
SLD-0_0
  6
SLD-実線
 62
   179
370
    25
100
AcDbLine
 10
149.9666220818
 20
301.1066960477
 30
0.0
 11
149.9666220818
 21
302.6066767358
 31
0.0
  0
LINE
  5
195
330
1B
100
AcDbEntity
 67
     1
  8
SLD-0_0
  6
SLD-実線
 62
   179
370
    25
100
AcDbLine
 10
149.0620321904
 20
301.1066960477
 30
0.0
 11
149.0164942418
 21
301.1066960477
 31
0.0
  0
LINE
  5
196
330
1B
100
AcDbEntity
 67
     1
  8
SLD-0_0
  6
SLD-実線
 62
   179
370
    25
100
AcDbLine
 10
182.4420749519
 20
301.1066960477
 30
0.0
 11
182.1244865034
 21
301.1066960477
 31
0.0
  0
LINE
  5
197
330
1B
100
AcDbEntity
 67
     1
  8
SLD-0_0
  6
SLD-実線
 62
   179
370
    25
100
AcDbLine
 10
181.3560596977
 20
301.1066960477
 30
0.0
 11
178.8285917912
 21
301.1066960477
 31
0.0
  0
LINE
  5
198
330
1B
100
AcDbEntity
 67
     1
  8
SLD-0_0
  6
SLD-実線
 62
   179
370
    25
100
AcDbLine
 10
177.316675273
 20
301.1066960477
 30
0.0
 11
174.8712382589
 21
301.1066960477
 31
0.0
  0
LINE
  5
199
330
1B
100
AcDbEntity
 67
     1
  8
SLD-0_0
  6
SLD-実線
 62
   179
370
    25
100
AcDbLine
 10
174.1277485464
 20
301.1066960477
 30
0.0
 11
173.9420763526
 21
301.1066960477
 31
0.0
  0
LINE
  5
19A
330
1B
100
AcDbEntity
 67
     1
  8
SLD-0_0
  6
SLD-実線
 62
   179
370
    25
100
AcDbLine
 10
152.9944486294
 20
297.963951745
 30
0.0
 11
152.9944486294
 21
301.1066960477
 31
0.0
  0
LINE
  5
19B
330
1B
100
AcDbEntity
 67
     1
  8
SLD-0_0
  6
SLD-実線
 62
   179
370
    25
100
AcDbLine
 10
157.0587701474
 20
297.963951745
 30
0.0
 11
157.0587701474
 21
301.1066960477
 31
0.0
  0
LINE
  5
19C
330
1B
100
AcDbEntity
 67
     1
  8
SLD-0_0
  6
SLD-実線
 62
   179
370
    25
100
AcDbLine
 10
157.0587701474
 20
297.963951745
 30
0.0
 11
155.0266093884
 21
297.6066815042
 31
0.0
  0
LINE
  5
19D
330
1B
100
AcDbEntity
 67
     1
  8
SLD-0_0
  6
SLD-実線
 62
   179
370
    25
100
AcDbLine
 10
157.0587701474
 20
301.1066960477
 30
0.0
 11
156.2903433416
 21
301.1066960477
 31
0.0
  0
LINE
  5
19E
330
1B
100
AcDbEntity
 67
     1
  8
SLD-0_0
  6
SLD-実線
 62
   179
370
    25
100
AcDbLine
 10
153.7628717099
 20
301.1066960477
 30
0.0
 11
152.9944486294
 21
301.1066960477
 31
0.0
  0
LINE
  5
19F
330
1B
100
AcDbEntity
 67
     1
  8
SLD-0_0
  6
SLD-実線
 62
   179
370
    25
100
AcDbLine
 10
155.0266093884
 20
297.6066815042
 30
0.0
 11
151.0282404099
 21
297.6066815042
 31
0.0
  0
LINE
  5
1A0
330
1B
100
AcDbEntity
 67
     1
  8
SLD-0_0
  6
SLD-実線
 62
   179
370
    25
100
AcDbLine
 10
152.9944486294
 20
297.963951745
 30
0.0
 11
151.0282404099
 21
297.6066815042
 31
0.0
  0
LINE
  5
1A1
330
1B
100
AcDbEntity
 67
     1
  8
SLD-0_0
  6
SLD-実線
 62
   179
370
    25
100
AcDbLine
 10
149.0620321904
 20
297.963951745
 30
0.0
 11
149.0620321904
 21
301.1066960477
 31
0.0
  0
LINE
  5
1A2
330
1B
100
AcDbEntity
 67
     1
  8
SLD-0_0
  6
SLD-実線
 62
   179
370
    25
100
AcDbLine
 10
152.9944486294
 20
301.1066960477
 30
0.0
 11
152.2509551917
 21
301.1066960477
 31
0.0
  0
LINE
  5
1A3
330
1B
100
AcDbEntity
 67
     1
  8
SLD-0_0
  6
SLD-実線
 62
   179
370
    25
100
AcDbLine
 10
149.9666220818
 20
301.1066960477
 30
0.0
 11
149.0620321904
 21
301.1066960477
 31
0.0
  0
LINE
  5
1A4
330
1B
100
AcDbEntity
 67
     1
  8
SLD-0_0
  6
SLD-実線
 62
   179
370
    25
100
AcDbLine
 10
157.1247264121
 20
297.6066815042
 30
0.0
 11
155.0266093884
 21
297.6066815042
 31
0.0
  0
LINE
  5
1A5
330
1B
100
AcDbEntity
 67
     1
  8
SLD-0_0
  6
SLD-実線
 62
   179
370
    25
100
AcDbLine
 10
149.0620321904
 20
297.963951745
 30
0.0
 11
149.1279921804
 21
297.6066815042
 31
0.0
  0
LINE
  5
1A6
330
1B
100
AcDbEntity
 67
     1
  8
SLD-0_0
  6
SLD-実線
 62
   179
370
    25
100
AcDbLine
 10
151.0282404099
 20
297.6066815042
 30
0.0
 11
149.1279921804
 21
297.6066815042
 31
0.0
  0
LINE
  5
1A7
330
1B
100
AcDbEntity
 67
     1
  8
SLD-0_0
  6
SLD-実線
 62
   179
370
    25
100
AcDbLine
 10
157.1906826768
 20
297.963951745
 30
0.0
 11
157.1906826768
 21
301.1066960477
 31
0.0
  0
LINE
  5
1A8
330
1B
100
AcDbEntity
 67
     1
  8
SLD-0_0
  6
SLD-実線
 62
   179
370
    25
100
AcDbLine
 10
157.1906826768
 20
297.963951745
 30
0.0
 11
157.1247264121
 21
297.6066815042
 31
0.0
  0
LINE
  5
1A9
330
1B
100
AcDbEntity
 67
     1
  8
SLD-0_0
  6
SLD-実線
 62
   179
370
    25
100
AcDbLine
 10
157.0837109659
 20
301.1066960477
 30
0.0
 11
157.0587701474
 21
301.1066960477
 31
0.0
  0
LINE
  5
1AA
330
1B
100
AcDbEntity
 67
     1
  8
SLD-0_0
  6
SLD-実線
 62
   179
370
    25
100
AcDbLine
 10
259.1745279108
 20
297.963951745
 30
0.0
 11
259.1745279108
 21
301.1066960477
 31
0.0
  0
LINE
  5
1AB
330
1B
100
AcDbEntity
 67
     1
  8
SLD-0_0
  6
SLD-実線
 62
   179
370
    25
100
AcDbLine
 10
263.238853154
 20
297.963951745
 30
0.0
 11
263.238853154
 21
301.1066960477
 31
0.0
  0
LINE
  5
1AC
330
1B
100
AcDbEntity
 67
     1
  8
SLD-0_0
  6
SLD-実線
 62
   179
370
    25
100
AcDbLine
 10
263.238853154
 20
297.963951745
 30
0.0
 11
261.2066886698
 21
297.6066815042
 31
0.0
  0
LINE
  5
1AD
330
1B
100
AcDbEntity
 67
     1
  8
SLD-0_0
  6
SLD-実線
 62
   179
370
    25
100
AcDbLine
 10
263.238853154
 20
301.1066960477
 30
0.0
 11
262.4704263483
 21
301.1066960477
 31
0.0
  0
LINE
  5
1AE
330
1B
100
AcDbEntity
 67
     1
  8
SLD-0_0
  6
SLD-実線
 62
   179
370
    25
100
AcDbLine
 10
259.9429547165
 20
301.1066960477
 30
0.0
 11
259.1745279108
 21
301.1066960477
 31
0.0
  0
LINE
  5
1AF
330
1B
100
AcDbEntity
 67
     1
  8
SLD-0_0
  6
SLD-実線
 62
   179
370
    25
100
AcDbLine
 10
259.1745279108
 20
297.963951745
 30
0.0
 11
257.2083196912
 21
297.6066815042
 31
0.0
  0
LINE
  5
1B0
330
1B
100
AcDbEntity
 67
     1
  8
SLD-0_0
  6
SLD-実線
 62
   179
370
    25
100
AcDbLine
 10
261.2066886698
 20
297.6066815042
 30
0.0
 11
257.2083196912
 21
297.6066815042
 31
0.0
  0
LINE
  5
1B1
330
1B
100
AcDbEntity
 67
     1
  8
SLD-0_0
  6
SLD-実線
 62
   179
370
    25
100
AcDbLine
 10
255.242115197
 20
297.963951745
 30
0.0
 11
255.242115197
 21
301.1066960477
 31
0.0
  0
LINE
  5
1B2
330
1B
100
AcDbEntity
 67
     1
  8
SLD-0_0
  6
SLD-実線
 62
   179
370
    25
100
AcDbLine
 10
259.1745279108
 20
301.1066960477
 30
0.0
 11
258.4310419236
 21
301.1066960477
 31
0.0
  0
LINE
  5
1B3
330
1B
100
AcDbEntity
 67
     1
  8
SLD-0_0
  6
SLD-実線
 62
   179
370
    25
100
AcDbLine
 10
255.9856011842
 20
301.1066960477
 30
0.0
 11
255.242115197
 21
301.1066960477
 31
0.0
  0
LINE
  5
1B4
330
1B
100
AcDbEntity
 67
     1
  8
SLD-0_0
  6
SLD-実線
 62
   179
370
    25
100
AcDbLine
 10
263.3048094188
 20
297.6066815042
 30
0.0
 11
261.2066886698
 21
297.6066815042
 31
0.0
  0
LINE
  5
1B5
330
1B
100
AcDbEntity
 67
     1
  8
SLD-0_0
  6
SLD-実線
 62
   179
370
    25
100
AcDbLine
 10
256.9738536451
 20
313.1066905641
 30
0.0
 11
261.806438056
 21
313.1066905641
 31
0.0
  0
LINE
  5
1B6
330
1B
100
AcDbEntity
 67
     1
  8
SLD-0_0
  6
SLD-実線
 62
   179
370
    25
100
AcDbLine
 10
255.242115197
 20
297.963951745
 30
0.0
 11
255.3080714617
 21
297.6066815042
 31
0.0
  0
LINE
  5
1B7
330
1B
100
AcDbEntity
 67
     1
  8
SLD-0_0
  6
SLD-実線
 62
   179
370
    25
100
AcDbLine
 10
257.2083196912
 20
297.6066815042
 30
0.0
 11
255.3080714617
 21
297.6066815042
 31
0.0
  0
LINE
  5
1B8
330
1B
100
AcDbEntity
 67
     1
  8
SLD-0_0
  6
SLD-実線
 62
   179
370
    25
100
AcDbLine
 10
263.3707656835
 20
297.963951745
 30
0.0
 11
263.3707656835
 21
301.1066960477
 31
0.0
  0
LINE
  5
1B9
330
1B
100
AcDbEntity
 67
     1
  8
SLD-0_0
  6
SLD-実線
 62
   179
370
    25
100
AcDbLine
 10
263.3707656835
 20
297.963951745
 30
0.0
 11
263.3048094188
 21
297.6066815042
 31
0.0
  0
LINE
  5
1BA
330
1B
100
AcDbEntity
 67
     1
  8
SLD-0_0
  6
SLD-実線
 62
   179
370
    25
100
AcDbLine
 10
263.2637902472
 20
301.1066960477
 30
0.0
 11
263.238853154
 21
301.1066960477
 31
0.0
  0
LINE
  5
1BB
330
1B
100
AcDbEntity
 67
     1
  8
SLD-0_0
  6
SLD-実線
 62
   179
370
    25
100
AcDbLine
 10
174.1277485464
 20
297.963951745
 30
0.0
 11
174.1277485464
 21
301.1066960477
 31
0.0
  0
LINE
  5
1BC
330
1B
100
AcDbEntity
 67
     1
  8
SLD-0_0
  6
SLD-実線
 62
   179
370
    25
100
AcDbLine
 10
178.0601612602
 20
301.1066960477
 30
0.0
 11
177.316675273
 21
301.1066960477
 31
0.0
  0
LINE
  5
1BD
330
1B
100
AcDbEntity
 67
     1
  8
SLD-0_0
  6
SLD-実線
 62
   179
370
    25
100
AcDbLine
 10
174.8712382589
 20
301.1066960477
 30
0.0
 11
174.1277485464
 21
301.1066960477
 31
0.0
  0
LINE
  5
1BE
330
1B
100
AcDbEntity
 67
     1
  8
SLD-0_0
  6
SLD-実線
 62
   179
370
    25
100
AcDbLine
 10
178.0601612602
 20
297.963951745
 30
0.0
 11
178.0601612602
 21
301.1066960477
 31
0.0
  0
LINE
  5
1BF
330
1B
100
AcDbEntity
 67
     1
  8
SLD-0_0
  6
SLD-実線
 62
   179
370
    25
100
AcDbLine
 10
178.0601612602
 20
297.963951745
 30
0.0
 11
176.0939567659
 21
297.6066815042
 31
0.0
  0
LINE
  5
1C0
330
1B
100
AcDbEntity
 67
     1
  8
SLD-0_0
  6
SLD-実線
 62
   179
370
    25
100
AcDbLine
 10
180.0923257445
 20
297.6066815042
 30
0.0
 11
176.0939567659
 21
297.6066815042
 31
0.0
  0
LINE
  5
1C1
330
1B
100
AcDbEntity
 67
     1
  8
SLD-0_0
  6
SLD-実線
 62
   179
370
    25
100
AcDbLine
 10
182.1244865034
 20
297.963951745
 30
0.0
 11
182.1244865034
 21
301.1066960477
 31
0.0
  0
LINE
  5
1C2
330
1B
100
AcDbEntity
 67
     1
  8
SLD-0_0
  6
SLD-実線
 62
   179
370
    25
100
AcDbLine
 10
182.1244865034
 20
297.963951745
 30
0.0
 11
180.0923257445
 21
297.6066815042
 31
0.0
  0
LINE
  5
1C3
330
1B
100
AcDbEntity
 67
     1
  8
SLD-0_0
  6
SLD-実線
 62
   179
370
    25
100
AcDbLine
 10
182.1244865034
 20
301.1066960477
 30
0.0
 11
181.3560596977
 21
301.1066960477
 31
0.0
  0
LINE
  5
1C4
330
1B
100
AcDbEntity
 67
     1
  8
SLD-0_0
  6
SLD-実線
 62
   179
370
    25
100
AcDbLine
 10
178.8285917912
 20
301.1066960477
 30
0.0
 11
178.0601612602
 21
301.1066960477
 31
0.0
  0
LINE
  5
1C5
330
1B
100
AcDbEntity
 67
     1
  8
SLD-0_0
  6
SLD-実線
 62
   179
370
    25
100
AcDbLine
 10
174.1277485464
 20
297.963951745
 30
0.0
 11
174.1937048111
 21
297.6066815042
 31
0.0
  0
LINE
  5
1C6
330
1B
100
AcDbEntity
 67
     1
  8
SLD-0_0
  6
SLD-実線
 62
   179
370
    25
100
AcDbLine
 10
176.0939567659
 20
297.6066815042
 30
0.0
 11
174.1937048111
 21
297.6066815042
 31
0.0
  0
LINE
  5
1C7
330
1B
100
AcDbEntity
 67
     1
  8
SLD-0_0
  6
SLD-実線
 62
   179
370
    25
100
AcDbLine
 10
182.1904427682
 20
297.6066815042
 30
0.0
 11
180.0923257445
 21
297.6066815042
 31
0.0
  0
LINE
  5
1C8
330
1B
100
AcDbEntity
 67
     1
  8
SLD-0_0
  6
SLD-実線
 62
   179
370
    25
100
AcDbLine
 10
175.6985321019
 20
313.1066905641
 30
0.0
 11
179.1168435786
 21
313.1066905641
 31
0.0
  0
LINE
  5
1C9
330
1B
100
AcDbEntity
 67
     1
  8
SLD-0_0
  6
SLD-実線
 62
   179
370
    25
100
AcDbLine
 10
182.2563990329
 20
297.963951745
 30
0.0
 11
182.2563990329
 21
301.1066960477
 31
0.0
  0
LINE
  5
1CA
330
1B
100
AcDbEntity
 67
     1
  8
SLD-0_0
  6
SLD-実線
 62
   179
370
    25
100
AcDbLine
 10
182.2563990329
 20
297.963951745
 30
0.0
 11
182.1904427682
 21
297.6066815042
 31
0.0
  0
LINE
  5
1CB
330
1B
100
AcDbEntity
 67
     1
  8
SLD-0_0
  6
SLD-実線
 62
   179
370
    25
100
AcDbLine
 10
182.149427322
 20
301.1066960477
 30
0.0
 11
182.1244865034
 21
301.1066960477
 31
0.0
  0
LINE
  5
1CC
330
1B
100
AcDbEntity
 67
     1
  8
SLD-0_0
  6
SLD-実線
 62
   179
370
    25
100
AcDbLine
 10
218.6173451675
 20
297.963951745
 30
0.0
 11
218.6173451675
 21
298.6066984319
 31
0.0
  0
LINE
  5
1CD
330
1B
100
AcDbEntity
 67
     1
  8
SLD-0_0
  6
SLD-実線
 62
   179
370
    25
100
AcDbLine
 10
222.681669363
 20
297.963951745
 30
0.0
 11
222.681669363
 21
298.6066984319
 31
0.0
  0
LINE
  5
1CE
330
1B
100
AcDbEntity
 67
     1
  8
SLD-0_0
  6
SLD-実線
 62
   179
370
    25
100
AcDbLine
 10
222.681669363
 20
297.963951745
 30
0.0
 11
220.6495073235
 21
297.6066815042
 31
0.0
  0
LINE
  5
1CF
330
1B
100
AcDbEntity
 67
     1
  8
SLD-0_0
  6
SLD-実線
 62
   179
370
    25
100
AcDbLine
 10
218.6173451675
 20
297.963951745
 30
0.0
 11
216.6511389271
 21
297.6066815042
 31
0.0
  0
LINE
  5
1D0
330
1B
100
AcDbEntity
 67
     1
  8
SLD-0_0
  6
SLD-実線
 62
   179
370
    25
100
AcDbLine
 10
220.6495073235
 20
297.6066815042
 30
0.0
 11
216.6511389271
 21
297.6066815042
 31
0.0
  0
LINE
  5
1D1
330
1B
100
AcDbEntity
 67
     1
  8
SLD-0_0
  6
SLD-実線
 62
   179
370
    25
100
AcDbLine
 10
214.684932803
 20
297.963951745
 30
0.0
 11
214.684932803
 21
298.6066984319
 31
0.0
  0
LINE
  5
1D2
330
1B
100
AcDbEntity
 67
     1
  8
SLD-0_0
  6
SLD-実線
 62
   179
370
    25
100
AcDbLine
 10
222.7476256277
 20
297.6066815042
 30
0.0
 11
220.6495073235
 21
297.6066815042
 31
0.0
  0
LINE
  5
1D3
330
1B
100
AcDbEntity
 67
     1
  8
SLD-0_0
  6
SLD-実線
 62
   179
370
    25
100
AcDbLine
 10
214.684932803
 20
297.963951745
 30
0.0
 11
214.7508886021
 21
297.6066815042
 31
0.0
  0
LINE
  5
1D4
330
1B
100
AcDbEntity
 67
     1
  8
SLD-0_0
  6
SLD-実線
 62
   179
370
    25
100
AcDbLine
 10
216.6511389271
 20
297.6066815042
 30
0.0
 11
214.7508886021
 21
297.6066815042
 31
0.0
  0
LINE
  5
1D5
330
1B
100
AcDbEntity
 67
     1
  8
SLD-0_0
  6
SLD-実線
 62
   179
370
    25
100
AcDbLine
 10
222.8135814267
 20
297.963951745
 30
0.0
 11
222.8135814267
 21
298.6066984319
 31
0.0
  0
LINE
  5
1D6
330
1B
100
AcDbEntity
 67
     1
  8
SLD-0_0
  6
SLD-実線
 62
   179
370
    25
100
AcDbLine
 10
222.8135814267
 20
297.963951745
 30
0.0
 11
222.7476256277
 21
297.6066815042
 31
0.0
  0
LINE
  5
1D7
330
1B
100
AcDbEntity
 67
     1
  8
SLD-0_0
  6
SLD-実線
 62
   179
370
    25
100
AcDbLine
 10
284.240247992
 20
297.963951745
 30
0.0
 11
284.240247992
 21
301.1066960477
 31
0.0
  0
LINE
  5
1D8
330
1B
100
AcDbEntity
 67
     1
  8
SLD-0_0
  6
SLD-実線
 62
   179
370
    25
100
AcDbLine
 10
288.30456951
 20
301.1066960477
 30
0.0
 11
287.5361389789
 21
301.1066960477
 31
0.0
  0
LINE
  5
1D9
330
1B
100
AcDbEntity
 67
     1
  8
SLD-0_0
  6
SLD-実線
 62
   179
370
    25
100
AcDbLine
 10
285.0086710724
 20
301.1066960477
 30
0.0
 11
284.240247992
 21
301.1066960477
 31
0.0
  0
LINE
  5
1DA
330
1B
100
AcDbEntity
 67
     1
  8
SLD-0_0
  6
SLD-実線
 62
   179
370
    25
100
AcDbLine
 10
288.30456951
 20
297.963951745
 30
0.0
 11
288.30456951
 21
301.1066960477
 31
0.0
  0
LINE
  5
1DB
330
1B
100
AcDbEntity
 67
     1
  8
SLD-0_0
  6
SLD-実線
 62
   179
370
    25
100
AcDbLine
 10
288.30456951
 20
297.963951745
 30
0.0
 11
286.272408751
 21
297.6066815042
 31
0.0
  0
LINE
  5
1DC
330
1B
100
AcDbEntity
 67
     1
  8
SLD-0_0
  6
SLD-実線
 62
   179
370
    25
100
AcDbLine
 10
284.240247992
 20
297.963951745
 30
0.0
 11
282.2740397726
 21
297.6066815042
 31
0.0
  0
LINE
  5
1DD
330
1B
100
AcDbEntity
 67
     1
  8
SLD-0_0
  6
SLD-実線
 62
   179
370
    25
100
AcDbLine
 10
286.272408751
 20
297.6066815042
 30
0.0
 11
282.2740397726
 21
297.6066815042
 31
0.0
  0
LINE
  5
1DE
330
1B
100
AcDbEntity
 67
     1
  8
SLD-0_0
  6
SLD-実線
 62
   179
370
    25
100
AcDbLine
 10
280.307831553
 20
297.963951745
 30
0.0
 11
280.307831553
 21
301.1066960477
 31
0.0
  0
LINE
  5
1DF
330
1B
100
AcDbEntity
 67
     1
  8
SLD-0_0
  6
SLD-実線
 62
   179
370
    25
100
AcDbLine
 10
284.240247992
 20
301.1066960477
 30
0.0
 11
283.4967545543
 21
301.1066960477
 31
0.0
  0
LINE
  5
1E0
330
1B
100
AcDbEntity
 67
     1
  8
SLD-0_0
  6
SLD-実線
 62
   179
370
    25
100
AcDbLine
 10
281.0513212655
 20
301.1066960477
 30
0.0
 11
280.307831553
 21
301.1066960477
 31
0.0
  0
LINE
  5
1E1
330
1B
100
AcDbEntity
 67
     1
  8
SLD-0_0
  6
SLD-実線
 62
   179
370
    25
100
AcDbLine
 10
288.3705220494
 20
297.6066815042
 30
0.0
 11
286.272408751
 21
297.6066815042
 31
0.0
  0
LINE
  5
1E2
330
1B
100
AcDbEntity
 67
     1
  8
SLD-0_0
  6
SLD-実線
 62
   179
370
    25
100
AcDbLine
 10
284.9432102714
 20
313.1066905641
 30
0.0
 11
286.8721581374
 21
313.1066905641
 31
0.0
  0
LINE
  5
1E3
330
1B
100
AcDbEntity
 67
     1
  8
SLD-0_0
  6
SLD-実線
 62
   179
370
    25
100
AcDbLine
 10
280.307831553
 20
297.963951745
 30
0.0
 11
280.3737878178
 21
297.6066815042
 31
0.0
  0
LINE
  5
1E4
330
1B
100
AcDbEntity
 67
     1
  8
SLD-0_0
  6
SLD-実線
 62
   179
370
    25
100
AcDbLine
 10
282.2740397726
 20
297.6066815042
 30
0.0
 11
280.3737878178
 21
297.6066815042
 31
0.0
  0
LINE
  5
1E5
330
1B
100
AcDbEntity
 67
     1
  8
SLD-0_0
  6
SLD-実線
 62
   179
370
    25
100
AcDbLine
 10
288.4364820394
 20
297.963951745
 30
0.0
 11
288.4364820394
 21
301.1066960477
 31
0.0
  0
LINE
  5
1E6
330
1B
100
AcDbEntity
 67
     1
  8
SLD-0_0
  6
SLD-実線
 62
   179
370
    25
100
AcDbLine
 10
288.4364820394
 20
297.963951745
 30
0.0
 11
288.3705220494
 21
297.6066815042
 31
0.0
  0
LINE
  5
1E7
330
1B
100
AcDbEntity
 67
     1
  8
SLD-0_0
  6
SLD-実線
 62
   179
370
    25
100
AcDbLine
 10
288.3295066033
 20
301.1066960477
 30
0.0
 11
288.30456951
 21
301.1066960477
 31
0.0
  0
LINE
  5
1E8
330
1B
100
AcDbEntity
 67
     1
  8
SLD-0_0
  6
SLD-実線
 62
   179
370
    25
100
AcDbLine
 10
170.7225873445
 20
766.9782536411
 30
0.0
 11
170.2219306801
 21
767.9376052999
 31
0.0
  0
LINE
  5
1E9
330
1B
100
AcDbEntity
 67
     1
  8
SLD-0_0
  6
SLD-実線
 62
   179
370
    25
100
AcDbLine
 10
170.2219306801
 20
767.9376052999
 30
0.0
 11
169.9434689556
 21
769.0630453014
 31
0.0
  0
LINE
  5
1EA
330
1B
100
AcDbEntity
 67
     1
  8
SLD-0_0
  6
SLD-実線
 62
   179
370
    25
100
AcDbLine
 10
169.9434689556
 20
769.0630453014
 30
0.0
 11
169.9119455491
 21
770.2545421504
 31
0.0
  0
LINE
  5
1EB
330
1B
100
AcDbEntity
 67
     1
  8
SLD-0_0
  6
SLD-実線
 62
   179
370
    25
100
AcDbLine
 10
169.9119455491
 20
770.2545421504
 30
0.0
 11
170.1301581536
 21
771.4062528991
 31
0.0
  0
LINE
  5
1EC
330
1B
100
AcDbEntity
 67
     1
  8
SLD-0_0
  6
SLD-実線
 62
   179
370
    25
100
AcDbLine
 10
170.1301581536
 20
771.4062528991
 30
0.0
 11
170.5787203584
 21
772.4158363723
 31
0.0
  0
LINE
  5
1ED
330
1B
100
AcDbEntity
 67
     1
  8
SLD-0_0
  6
SLD-実線
 62
   179
370
    25
100
AcDbLine
 10
170.5787203584
 20
772.4158363723
 30
0.0
 11
171.2177752827
 21
773.1935875797
 31
0.0
  0
LINE
  5
1EE
330
1B
100
AcDbEntity
 67
     1
  8
SLD-0_0
  6
SLD-実線
 62
   179
370
    25
100
AcDbLine
 10
171.2177752827
 20
773.1935875797
 30
0.0
 11
171.9905383263
 21
773.6703949356
 31
0.0
  0
LINE
  5
1EF
330
1B
100
AcDbEntity
 67
     1
  8
SLD-0_0
  6
SLD-実線
 62
   179
370
    25
100
AcDbLine
 10
171.9905383263
 20
773.6703949356
 30
0.0
 11
172.8283449386
 21
773.8038944387
 31
0.0
  0
LINE
  5
1F0
330
1B
100
AcDbEntity
 67
     1
  8
SLD-0_0
  6
SLD-実線
 62
   179
370
    25
100
AcDbLine
 10
172.8283449386
 20
773.8038944387
 30
0.0
 11
173.6567563687
 21
773.5822247648
 31
0.0
  0
LINE
  5
1F1
330
1B
100
AcDbEntity
 67
     1
  8
SLD-0_0
  6
SLD-実線
 62
   179
370
    25
100
AcDbLine
 10
173.6567563687
 20
773.5822247648
 30
0.0
 11
174.4021646057
 21
773.0250703477
 31
0.0
  0
LINE
  5
1F2
330
1B
100
AcDbEntity
 67
     1
  8
SLD-0_0
  6
SLD-実線
 62
   179
370
    25
100
AcDbLine
 10
174.4021646057
 20
773.0250703477
 30
0.0
 11
174.998333988
 21
772.1819626474
 31
0.0
  0
LINE
  5
1F3
330
1B
100
AcDbEntity
 67
     1
  8
SLD-0_0
  6
SLD-実線
 62
   179
370
    25
100
AcDbLine
 10
174.998333988
 20
772.1819626474
 30
0.0
 11
175.3922946129
 21
771.1277948999
 31
0.0
  0
LINE
  5
1F4
330
1B
100
AcDbEntity
 67
     1
  8
SLD-0_0
  6
SLD-実線
 62
   179
370
    25
100
AcDbLine
 10
175.3922946129
 20
771.1277948999
 30
0.0
 11
175.5490362022
 21
769.9562507057
 31
0.0
  0
LINE
  5
1F5
330
1B
100
AcDbEntity
 67
     1
  8
SLD-0_0
  6
SLD-実線
 62
   179
370
    25
100
AcDbLine
 10
175.5490362022
 20
769.9562507057
 30
0.0
 11
175.4546373461
 21
768.7714146757
 31
0.0
  0
LINE
  5
1F6
330
1B
100
AcDbEntity
 67
     1
  8
SLD-0_0
  6
SLD-実線
 62
   179
370
    25
100
AcDbLine
 10
175.4546373461
 20
768.7714146757
 30
0.0
 11
175.1174836729
 21
767.6785635137
 31
0.0
  0
LINE
  5
1F7
330
1B
100
AcDbEntity
 67
     1
  8
SLD-0_0
  6
SLD-実線
 62
   179
370
    25
100
AcDbLine
 10
175.1174836729
 20
767.6785635137
 30
0.0
 11
174.5675339673
 21
766.7747931861
 31
0.0
  0
LINE
  5
1F8
330
1B
100
AcDbEntity
 67
     1
  8
SLD-0_0
  6
SLD-実線
 62
   179
370
    25
100
AcDbLine
 10
174.5675339673
 20
766.7747931861
 30
0.0
 11
173.8536528621
 21
766.1404358529
 31
0.0
  0
LINE
  5
1F9
330
1B
100
AcDbEntity
 67
     1
  8
SLD-0_0
  6
SLD-実線
 62
   179
370
    25
100
AcDbLine
 10
173.8536528621
 20
766.1404358529
 30
0.0
 11
173.0392708753
 21
765.8318328046
 31
0.0
  0
LINE
  5
1FA
330
1B
100
AcDbEntity
 67
     1
  8
SLD-0_0
  6
SLD-実線
 62
   179
370
    25
100
AcDbLine
 10
173.0392708753
 20
765.8318328046
 30
0.0
 11
172.1967517708
 21
765.8764170789
 31
0.0
  0
LINE
  5
1FB
330
1B
100
AcDbEntity
 67
     1
  8
SLD-0_0
  6
SLD-実線
 62
   179
370
    25
100
AcDbLine
 10
172.1967517708
 20
765.8764170789
 30
0.0
 11
171.4009515319
 21
766.2702249669
 31
0.0
  0
LINE
  5
1FC
330
1B
100
AcDbEntity
 67
     1
  8
SLD-0_0
  6
SLD-実線
 62
   179
370
    25
100
AcDbLine
 10
171.4009515319
 20
766.2702249669
 30
0.0
 11
170.7225873445
 21
766.9782536411
 31
0.0
  0
LINE
  5
1FD
330
1B
100
AcDbEntity
 67
     1
  8
SLD-0_0
  6
SLD-実線
 62
   179
370
    25
100
AcDbLine
 10
173.8479755197
 20
773.8066809558
 30
0.0
 11
173.9537365113
 21
773.8038944387
 31
0.0
  0
LINE
  5
1FE
330
1B
100
AcDbEntity
 67
     1
  8
SLD-0_0
  6
SLD-実線
 62
   179
370
    25
100
AcDbLine
 10
173.9537365113
 20
773.8038944387
 30
0.0
 11
174.7821479414
 21
773.5822247648
 31
0.0
  0
LINE
  5
1FF
330
1B
100
AcDbEntity
 67
     1
  8
SLD-0_0
  6
SLD-実線
 62
   179
370
    25
100
AcDbLine
 10
174.7821479414
 20
773.5822247648
 30
0.0
 11
175.5275524531
 21
773.0250703477
 31
0.0
  0
LINE
  5
200
330
1B
100
AcDbEntity
 67
     1
  8
SLD-0_0
  6
SLD-実線
 62
   179
370
    25
100
AcDbLine
 10
175.5275524531
 20
773.0250703477
 30
0.0
 11
176.1237218354
 21
772.1819626474
 31
0.0
  0
LINE
  5
201
330
1B
100
AcDbEntity
 67
     1
  8
SLD-0_0
  6
SLD-実線
 62
   179
370
    25
100
AcDbLine
 10
176.1237218354
 20
772.1819626474
 30
0.0
 11
176.5176824604
 21
771.1277948999
 31
0.0
  0
LINE
  5
202
330
1B
100
AcDbEntity
 67
     1
  8
SLD-0_0
  6
SLD-実線
 62
   179
370
    25
100
AcDbLine
 10
176.5176824604
 20
771.1277948999
 30
0.0
 11
176.6744240497
 21
769.9562507057
 31
0.0
  0
LINE
  5
203
330
1B
100
AcDbEntity
 67
     1
  8
SLD-0_0
  6
SLD-実線
 62
   179
370
    25
100
AcDbLine
 10
176.6744240497
 20
769.9562507057
 30
0.0
 11
176.5800289188
 21
768.7714146757
 31
0.0
  0
LINE
  5
204
330
1B
100
AcDbEntity
 67
     1
  8
SLD-0_0
  6
SLD-実線
 62
   179
370
    25
100
AcDbLine
 10
176.5800289188
 20
768.7714146757
 30
0.0
 11
176.2428752456
 21
767.6785635137
 31
0.0
  0
LINE
  5
205
330
1B
100
AcDbEntity
 67
     1
  8
SLD-0_0
  6
SLD-実線
 62
   179
370
    25
100
AcDbLine
 10
176.2428752456
 20
767.6785635137
 30
0.0
 11
175.69292554
 21
766.7747931861
 31
0.0
  0
LINE
  5
206
330
1B
100
AcDbEntity
 67
     1
  8
SLD-0_0
  6
SLD-実線
 62
   179
370
    25
100
AcDbLine
 10
175.69292554
 20
766.7747931861
 30
0.0
 11
174.9790407095
 21
766.1404358529
 31
0.0
  0
LINE
  5
207
330
1B
100
AcDbEntity
 67
     1
  8
SLD-0_0
  6
SLD-実線
 62
   179
370
    25
100
AcDbLine
 10
174.9790407095
 20
766.1404358529
 30
0.0
 11
174.1646587227
 21
765.8318328046
 31
0.0
  0
LINE
  5
208
330
1B
100
AcDbEntity
 67
     1
  8
SLD-0_0
  6
SLD-実線
 62
   179
370
    25
100
AcDbLine
 10
174.1646587227
 20
765.8318328046
 30
0.0
 11
173.8479755197
 21
765.8066796445
 31
0.0
  0
LINE
  5
209
330
1B
100
AcDbEntity
 67
     1
  8
SLD-0_0
  6
SLD-実線
 62
   179
370
    25
100
AcDbLine
 10
170.8087644849
 20
768.5692506217
 30
0.0
 11
171.6837643955
 21
769.8066877508
 31
0.0
  0
LINE
  5
20A
330
1B
100
AcDbEntity
 67
     1
  8
SLD-0_0
  6
SLD-実線
 62
   179
370
    25
100
AcDbLine
 10
171.6837643955
 20
769.8066877508
 30
0.0
 11
170.8087644849
 21
771.0441248798
 31
0.0
  0
LINE
  5
20B
330
1B
100
AcDbEntity
 67
     1
  8
SLD-0_0
  6
SLD-実線
 62
   179
370
    25
100
AcDbLine
 10
170.8087644849
 20
771.0441248798
 30
0.0
 11
171.3069699083
 21
771.7486964845
 31
0.0
  0
LINE
  5
20C
330
1B
100
AcDbEntity
 67
     1
  8
SLD-0_0
  6
SLD-実線
 62
   179
370
    25
100
AcDbLine
 10
172.4337621901
 20
770.8673524045
 30
0.0
 11
173.1149650487
 21
771.8307124757
 31
0.0
  0
LINE
  5
20D
330
1B
100
AcDbEntity
 67
     1
  8
SLD-0_0
  6
SLD-実線
 62
   179
370
    25
100
AcDbLine
 10
173.1149650488
 20
767.7826630257
 30
0.0
 11
172.4337621902
 21
768.7460230969
 31
0.0
  0
LINE
  5
20E
330
1B
100
AcDbEntity
 67
     1
  8
SLD-0_0
  6
SLD-実線
 62
   179
370
    25
100
AcDbLine
 10
171.3069699083
 20
767.864679017
 30
0.0
 11
170.8087644849
 21
768.5692506217
 31
0.0
  0
LINE
  5
20F
330
1B
100
AcDbEntity
 67
     1
  8
SLD-0_0
  6
SLD-実線
 62
   179
370
    25
100
AcDbLine
 10
172.4337621901
 20
770.8673524045
 30
0.0
 11
171.7221162591
 21
770.8673524045
 31
0.0
  0
LINE
  5
210
330
1B
100
AcDbEntity
 67
     1
  8
SLD-0_0
  6
SLD-実線
 62
   179
370
    25
100
AcDbLine
 10
172.4337621902
 20
768.7460230969
 30
0.0
 11
171.7221162591
 21
768.7460230969
 31
0.0
  0
LINE
  5
211
330
1B
100
AcDbEntity
 67
     1
  8
SLD-0_0
  6
SLD-実線
 62
   179
370
    25
100
AcDbLine
 10
170.8087644849
 20
771.0441248798
 30
0.0
 11
170.4489498709
 21
771.0441248798
 31
0.0
  0
LINE
  5
212
330
1B
100
AcDbEntity
 67
     1
  8
SLD-0_0
  6
SLD-実線
 62
   179
370
    25
100
AcDbLine
 10
171.6837643955
 20
769.8066877508
 30
0.0
 11
170.9721184645
 21
769.8066877508
 31
0.0
  0
LINE
  5
213
330
1B
100
AcDbEntity
 67
     1
  8
SLD-0_0
  6
SLD-実線
 62
   179
370
    25
100
AcDbLine
 10
170.8087644849
 20
768.5692506217
 30
0.0
 11
170.4489498708
 21
768.5692506217
 31
0.0
  0
LINE
  5
214
330
1B
100
AcDbEntity
 67
     1
  8
SLD-0_0
  6
SLD-実線
 62
   179
370
    25
100
AcDbLine
 10
266.7759268854
 20
766.9782536411
 30
0.0
 11
266.0975626979
 21
766.2702249669
 31
0.0
  0
LINE
  5
215
330
1B
100
AcDbEntity
 67
     1
  8
SLD-0_0
  6
SLD-実線
 62
   179
370
    25
100
AcDbLine
 10
266.0975626979
 20
766.2702249669
 30
0.0
 11
265.3017624591
 21
765.8764170789
 31
0.0
  0
LINE
  5
216
330
1B
100
AcDbEntity
 67
     1
  8
SLD-0_0
  6
SLD-実線
 62
   179
370
    25
100
AcDbLine
 10
265.3017624591
 20
765.8764170789
 30
0.0
 11
264.4592433546
 21
765.8318328046
 31
0.0
  0
LINE
  5
217
330
1B
100
AcDbEntity
 67
     1
  8
SLD-0_0
  6
SLD-実線
 62
   179
370
    25
100
AcDbLine
 10
264.4592433546
 20
765.8318328046
 30
0.0
 11
263.6448613677
 21
766.1404358529
 31
0.0
  0
LINE
  5
218
330
1B
100
AcDbEntity
 67
     1
  8
SLD-0_0
  6
SLD-実線
 62
   179
370
    25
100
AcDbLine
 10
263.6448613677
 20
766.1404358529
 30
0.0
 11
262.9309802626
 21
766.7747931861
 31
0.0
  0
LINE
  5
219
330
1B
100
AcDbEntity
 67
     1
  8
SLD-0_0
  6
SLD-実線
 62
   179
370
    25
100
AcDbLine
 10
262.9309802626
 20
766.7747931861
 30
0.0
 11
262.381030557
 21
767.6785635137
 31
0.0
  0
LINE
  5
21A
330
1B
100
AcDbEntity
 67
     1
  8
SLD-0_0
  6
SLD-実線
 62
   179
370
    25
100
AcDbLine
 10
262.381030557
 20
767.6785635137
 30
0.0
 11
262.0438768838
 21
768.7714146757
 31
0.0
  0
LINE
  5
21B
330
1B
100
AcDbEntity
 67
     1
  8
SLD-0_0
  6
SLD-実線
 62
   179
370
    25
100
AcDbLine
 10
262.0438768838
 20
768.7714146757
 30
0.0
 11
261.9494780276
 21
769.9562507057
 31
0.0
  0
LINE
  5
21C
330
1B
100
AcDbEntity
 67
     1
  8
SLD-0_0
  6
SLD-実線
 62
   179
370
    25
100
AcDbLine
 10
261.9494780276
 20
769.9562507057
 30
0.0
 11
262.1062196169
 21
771.1277948999
 31
0.0
  0
LINE
  5
21D
330
1B
100
AcDbEntity
 67
     1
  8
SLD-0_0
  6
SLD-実線
 62
   179
370
    25
100
AcDbLine
 10
262.1062196169
 20
771.1277948999
 30
0.0
 11
262.5001802419
 21
772.1819626474
 31
0.0
  0
LINE
  5
21E
330
1B
100
AcDbEntity
 67
     1
  8
SLD-0_0
  6
SLD-実線
 62
   179
370
    25
100
AcDbLine
 10
262.5001802419
 20
772.1819626474
 30
0.0
 11
263.0963496242
 21
773.0250703477
 31
0.0
  0
LINE
  5
21F
330
1B
100
AcDbEntity
 67
     1
  8
SLD-0_0
  6
SLD-実線
 62
   179
370
    25
100
AcDbLine
 10
263.0963496242
 20
773.0250703477
 30
0.0
 11
263.8417578612
 21
773.5822247648
 31
0.0
  0
LINE
  5
220
330
1B
100
AcDbEntity
 67
     1
  8
SLD-0_0
  6
SLD-実線
 62
   179
370
    25
100
AcDbLine
 10
263.8417578612
 20
773.5822247648
 30
0.0
 11
264.6701692913
 21
773.8038944387
 31
0.0
  0
LINE
  5
221
330
1B
100
AcDbEntity
 67
     1
  8
SLD-0_0
  6
SLD-実線
 62
   179
370
    25
100
AcDbLine
 10
264.6701692913
 20
773.8038944387
 30
0.0
 11
265.5079759036
 21
773.6703949356
 31
0.0
  0
LINE
  5
222
330
1B
100
AcDbEntity
 67
     1
  8
SLD-0_0
  6
SLD-実線
 62
   179
370
    25
100
AcDbLine
 10
265.5079759036
 20
773.6703949356
 30
0.0
 11
266.2807389472
 21
773.1935875797
 31
0.0
  0
LINE
  5
223
330
1B
100
AcDbEntity
 67
     1
  8
SLD-0_0
  6
SLD-実線
 62
   179
370
    25
100
AcDbLine
 10
266.2807389472
 20
773.1935875797
 30
0.0
 11
266.9197938715
 21
772.4158363723
 31
0.0
  0
LINE
  5
224
330
1B
100
AcDbEntity
 67
     1
  8
SLD-0_0
  6
SLD-実線
 62
   179
370
    25
100
AcDbLine
 10
266.9197938715
 20
772.4158363723
 30
0.0
 11
267.3683560763
 21
771.4062528991
 31
0.0
  0
LINE
  5
225
330
1B
100
AcDbEntity
 67
     1
  8
SLD-0_0
  6
SLD-実線
 62
   179
370
    25
100
AcDbLine
 10
267.3683560763
 20
771.4062528991
 30
0.0
 11
267.5865686808
 21
770.2545421504
 31
0.0
  0
LINE
  5
226
330
1B
100
AcDbEntity
 67
     1
  8
SLD-0_0
  6
SLD-実線
 62
   179
370
    25
100
AcDbLine
 10
267.5865686808
 20
770.2545421504
 30
0.0
 11
267.5550452743
 21
769.0630453014
 31
0.0
  0
LINE
  5
227
330
1B
100
AcDbEntity
 67
     1
  8
SLD-0_0
  6
SLD-実線
 62
   179
370
    25
100
AcDbLine
 10
267.5550452743
 20
769.0630453014
 30
0.0
 11
267.2765835498
 21
767.9376052999
 31
0.0
  0
LINE
  5
228
330
1B
100
AcDbEntity
 67
     1
  8
SLD-0_0
  6
SLD-実線
 62
   179
370
    25
100
AcDbLine
 10
267.2765835498
 20
767.9376052999
 30
0.0
 11
266.7759268854
 21
766.9782536411
 31
0.0
  0
LINE
  5
229
330
1B
100
AcDbEntity
 67
     1
  8
SLD-0_0
  6
SLD-実線
 62
   179
370
    25
100
AcDbLine
 10
263.6505387102
 20
765.8066796445
 30
0.0
 11
263.3338555072
 21
765.8318328046
 31
0.0
  0
LINE
  5
22A
330
1B
100
AcDbEntity
 67
     1
  8
SLD-0_0
  6
SLD-実線
 62
   179
370
    25
100
AcDbLine
 10
263.3338555072
 20
765.8318328046
 30
0.0
 11
262.5194735203
 21
766.1404358529
 31
0.0
  0
LINE
  5
22B
330
1B
100
AcDbEntity
 67
     1
  8
SLD-0_0
  6
SLD-実線
 62
   179
370
    25
100
AcDbLine
 10
262.5194735203
 20
766.1404358529
 30
0.0
 11
261.8055886899
 21
766.7747931861
 31
0.0
  0
LINE
  5
22C
330
1B
100
AcDbEntity
 67
     1
  8
SLD-0_0
  6
SLD-実線
 62
   179
370
    25
100
AcDbLine
 10
261.8055886899
 20
766.7747931861
 30
0.0
 11
261.2556389843
 21
767.6785635137
 31
0.0
  0
LINE
  5
22D
330
1B
100
AcDbEntity
 67
     1
  8
SLD-0_0
  6
SLD-実線
 62
   179
370
    25
100
AcDbLine
 10
261.2556389843
 20
767.6785635137
 30
0.0
 11
260.9184853111
 21
768.7714146757
 31
0.0
  0
LINE
  5
22E
330
1B
100
AcDbEntity
 67
     1
  8
SLD-0_0
  6
SLD-実線
 62
   179
370
    25
100
AcDbLine
 10
260.9184853111
 20
768.7714146757
 30
0.0
 11
260.8240901802
 21
769.9562507057
 31
0.0
  0
LINE
  5
22F
330
1B
100
AcDbEntity
 67
     1
  8
SLD-0_0
  6
SLD-実線
 62
   179
370
    25
100
AcDbLine
 10
260.8240901802
 20
769.9562507057
 30
0.0
 11
260.9808317695
 21
771.1277948999
 31
0.0
  0
LINE
  5
230
330
1B
100
AcDbEntity
 67
     1
  8
SLD-0_0
  6
SLD-実線
 62
   179
370
    25
100
AcDbLine
 10
260.9808317695
 20
771.1277948999
 30
0.0
 11
261.3747923944
 21
772.1819626474
 31
0.0
  0
LINE
  5
231
330
1B
100
AcDbEntity
 67
     1
  8
SLD-0_0
  6
SLD-実線
 62
   179
370
    25
100
AcDbLine
 10
261.3747923944
 20
772.1819626474
 30
0.0
 11
261.9709617768
 21
773.0250703477
 31
0.0
  0
LINE
  5
232
330
1B
100
AcDbEntity
 67
     1
  8
SLD-0_0
  6
SLD-実線
 62
   179
370
    25
100
AcDbLine
 10
261.9709617768
 20
773.0250703477
 30
0.0
 11
262.7163662885
 21
773.5822247648
 31
0.0
  0
LINE
  5
233
330
1B
100
AcDbEntity
 67
     1
  8
SLD-0_0
  6
SLD-実線
 62
   179
370
    25
100
AcDbLine
 10
262.7163662885
 20
773.5822247648
 30
0.0
 11
263.5447777186
 21
773.8038944387
 31
0.0
  0
LINE
  5
234
330
1B
100
AcDbEntity
 67
     1
  8
SLD-0_0
  6
SLD-実線
 62
   179
370
    25
100
AcDbLine
 10
263.5447777186
 20
773.8038944387
 30
0.0
 11
263.6505387102
 21
773.8066809558
 31
0.0
  0
LINE
  5
235
330
1B
100
AcDbEntity
 67
     1
  8
SLD-0_0
  6
SLD-実線
 62
   179
370
    25
100
AcDbLine
 10
265.0647520397
 20
768.7460230969
 30
0.0
 11
264.383549181
 21
767.7826630257
 31
0.0
  0
LINE
  5
236
330
1B
100
AcDbEntity
 67
     1
  8
SLD-0_0
  6
SLD-実線
 62
   179
370
    25
100
AcDbLine
 10
264.383549181
 20
771.8307124758
 30
0.0
 11
265.0647520397
 21
770.8673524046
 31
0.0
  0
LINE
  5
237
330
1B
100
AcDbEntity
 67
     1
  8
SLD-0_0
  6
SLD-実線
 62
   179
370
    25
100
AcDbLine
 10
266.1915443216
 20
771.7486964845
 30
0.0
 11
266.6897497449
 21
771.0441248798
 31
0.0
  0
LINE
  5
238
330
1B
100
AcDbEntity
 67
     1
  8
SLD-0_0
  6
SLD-実線
 62
   179
370
    25
100
AcDbLine
 10
266.6897497449
 20
771.0441248798
 30
0.0
 11
265.8147498343
 21
769.8066877508
 31
0.0
  0
LINE
  5
239
330
1B
100
AcDbEntity
 67
     1
  8
SLD-0_0
  6
SLD-実線
 62
   179
370
    25
100
AcDbLine
 10
265.8147498343
 20
769.8066877508
 30
0.0
 11
266.6897497449
 21
768.5692506217
 31
0.0
  0
LINE
  5
23A
330
1B
100
AcDbEntity
 67
     1
  8
SLD-0_0
  6
SLD-実線
 62
   179
370
    25
100
AcDbLine
 10
266.6897497449
 20
768.5692506217
 30
0.0
 11
266.1915443216
 21
767.864679017
 31
0.0
  0
LINE
  5
23B
330
1B
100
AcDbEntity
 67
     1
  8
SLD-0_0
  6
SLD-実線
 62
   179
370
    25
100
AcDbLine
 10
265.0647520397
 20
768.7460230969
 30
0.0
 11
265.7763979707
 21
768.7460230969
 31
0.0
  0
LINE
  5
23C
330
1B
100
AcDbEntity
 67
     1
  8
SLD-0_0
  6
SLD-実線
 62
   179
370
    25
100
AcDbLine
 10
265.0647520397
 20
770.8673524046
 30
0.0
 11
265.7763979707
 21
770.8673524046
 31
0.0
  0
LINE
  5
23D
330
1B
100
AcDbEntity
 67
     1
  8
SLD-0_0
  6
SLD-実線
 62
   179
370
    25
100
AcDbLine
 10
265.8147498343
 20
769.8066877508
 30
0.0
 11
266.5263957653
 21
769.8066877508
 31
0.0
  0
LINE
  5
23E
330
1B
100
AcDbEntity
 67
     1
  8
SLD-0_0
  6
SLD-実線
 62
   179
370
    25
100
AcDbLine
 10
266.6897497449
 20
771.0441248798
 30
0.0
 11
267.049564359
 21
771.0441248798
 31
0.0
  0
LINE
  5
23F
330
1B
100
AcDbEntity
 67
     1
  8
SLD-0_0
  6
SLD-実線
 62
   179
370
    25
100
AcDbLine
 10
266.6897497449
 20
768.5692506217
 30
0.0
 11
267.049564359
 21
768.5692506217
 31
0.0
  0
LINE
  5
240
330
1B
100
AcDbEntity
 67
     1
  8
SLD-0_0
  6
SLD-実線
 62
   179
370
    25
100
AcDbLine
 10
152.8112686549
 20
652.8066890621
 30
0.0
 11
156.5641335521
 21
652.8066890621
 31
0.0
  0
LINE
  5
241
330
1B
100
AcDbEntity
 67
     1
  8
SLD-0_0
  6
SLD-実線
 62
   179
370
    25
100
AcDbLine
 10
284.594709364
 20
652.8066890621
 30
0.0
 11
284.687245575
 21
652.8066890621
 31
0.0
  0
LINE
  5
242
330
1B
100
AcDbEntity
 67
     1
  8
SLD-0_0
  6
SLD-実線
 62
   179
370
    25
100
AcDbLine
 10
292.7492580686
 20
302.6066767358
 30
0.0
 11
144.7492561613
 21
302.6066767358
 31
0.0
  0
LINE
  5
243
330
1B
100
AcDbEntity
 67
     1
  8
SLD-0_0
  6
SLD-実線
 62
   179
370
    25
100
AcDbLine
 10
292.7492580686
 20
304.9067007684
 30
0.0
 11
144.7492561613
 21
304.9067007684
 31
0.0
  0
LINE
  5
244
330
1B
100
AcDbEntity
 67
     1
  8
SLD-0_0
  6
SLD-実線
 62
   179
370
    25
100
AcDbLine
 10
253.7019498024
 20
301.5066730165
 30
0.0
 11
183.7965644274
 21
301.5066730165
 31
0.0
  0
LINE
  5
245
330
1B
100
AcDbEntity
 67
     1
  8
SLD-0_0
  6
SLD-実線
 62
   179
370
    25
100
AcDbLine
 10
229.3019484107
 20
298.6066984319
 30
0.0
 11
208.1965658192
 21
298.6066984319
 31
0.0
  0
LINE
  5
246
330
1B
100
AcDbEntity
 67
     1
  8
SLD-0_0
  6
SLD-実線
 62
   179
370
    25
100
AcDbLine
 10
235.74840681
 20
643.8066857242
 30
0.0
 11
201.7501069097
 21
643.8066860818
 31
0.0
  0
LINE
  5
247
330
1B
100
AcDbEntity
 67
     1
  8
SLD-0_0
  6
SLD-実線
 62
   179
370
    25
100
AcDbLine
 10
199.7501830636
 20
645.8241391528
 30
0.0
 11
200.0132262085
 21
675.9658651733
 31
0.0
  0
LINE
  5
248
330
1B
100
AcDbEntity
 67
     1
  8
SLD-0_0
  6
SLD-実線
 62
   179
370
    25
100
AcDbLine
 10
237.4852882002
 20
675.9658649961
 30
0.0
 11
237.7483313451
 21
645.8241389756
 31
0.0
  0
LINE
  5
249
330
1B
100
AcDbEntity
 67
     1
  8
SLD-0_0
  6
SLD-実線
 62
   179
370
    25
100
AcDbLine
 10
207.797664528
 20
637.8066847407
 30
0.0
 11
201.8022912864
 21
637.8066847407
 31
0.0
  0
LINE
  5
24A
330
1B
100
AcDbEntity
 67
     1
  8
SLD-0_0
  6
SLD-実線
 62
   179
370
    25
100
AcDbLine
 10
201.4332044248
 20
643.8323082709
 30
0.0
 11
201.4091427747
 21
643.8360037589
 31
0.0
  0
LINE
  5
24B
330
1B
100
AcDbEntity
 67
     1
  8
SLD-0_0
  6
SLD-実線
 62
   179
370
    25
100
AcDbLine
 10
257.4400103961
 20
650.8066850089
 30
0.0
 11
238.383021516
 21
650.8066850089
 31
0.0
  0
LINE
  5
24C
330
1B
100
AcDbEntity
 67
     1
  8
SLD-0_0
  6
SLD-実線
 62
   179
370
    25
100
AcDbLine
 10
259.3960895513
 20
637.8066847407
 30
0.0
 11
208.3818720032
 21
637.8066847407
 31
0.0
  0
LINE
  5
24D
330
1B
100
AcDbEntity
 67
     1
  8
SLD-0_0
  6
SLD-実線
 62
   179
370
    25
100
AcDbLine
 10
195.5924949918
 20
643.8066857242
 30
0.0
 11
194.4306607668
 21
643.8066857242
 31
0.0
  0
LINE
  5
24E
330
1B
100
AcDbEntity
 67
     1
  8
SLD-0_0
  6
SLD-実線
 62
   179
370
    25
100
AcDbLine
 10
207.797664528
 20
637.8066847407
 30
0.0
 11
208.3818720032
 21
637.8066847407
 31
0.0
  0
LINE
  5
24F
330
1B
100
AcDbEntity
 67
     1
  8
SLD-0_0
  6
SLD-実線
 62
   179
370
    25
100
AcDbLine
 10
201.7157993589
 20
637.8066847407
 30
0.0
 11
201.8022912864
 21
637.8066847407
 31
0.0
  0
LINE
  5
250
330
1B
100
AcDbEntity
 67
     1
  8
SLD-0_0
  6
SLD-実線
 62
   179
370
    25
100
AcDbLine
 10
180.3613699351
 20
650.8066850089
 30
0.0
 11
180.0585038338
 21
650.8066850089
 31
0.0
  0
LINE
  5
251
330
1B
100
AcDbEntity
 67
     1
  8
SLD-0_0
  6
SLD-実線
 62
   179
370
    25
100
AcDbLine
 10
199.1154927139
 20
650.8066850089
 30
0.0
 11
197.7556965623
 21
650.8066850089
 31
0.0
  0
LINE
  5
252
330
1B
100
AcDbEntity
 67
     1
  8
SLD-0_0
  6
SLD-実線
 62
   179
370
    25
100
AcDbLine
 10
201.7157993589
 20
637.8066847407
 30
0.0
 11
178.1024246786
 21
637.8066847407
 31
0.0
  0
LINE
  5
253
330
1B
100
AcDbEntity
 67
     1
  8
SLD-0_0
  6
SLD-実線
 62
   179
370
    25
100
AcDbLine
 10
256.6095873092
 20
739.306692996
 30
0.0
 11
256.6097847496
 21
739.306692996
 31
0.0
  0
LINE
  5
254
330
1B
100
AcDbEntity
 67
     1
  8
SLD-0_0
  6
SLD-実線
 62
   179
370
    25
100
AcDbLine
 10
256.6095873092
 20
739.306692996
 30
0.0
 11
254.4492579375
 21
739.306692996
 31
0.0
  0
LINE
  5
255
330
1B
100
AcDbEntity
 67
     1
  8
SLD-0_0
  6
SLD-実線
 62
   179
370
    25
100
AcDbLine
 10
182.3075249169
 20
739.306692996
 30
0.0
 11
180.8889269207
 21
739.306692996
 31
0.0
  0
LINE
  5
256
330
1B
100
AcDbEntity
 67
     1
  8
SLD-0_0
  6
SLD-実線
 62
   179
370
    25
100
AcDbLine
 10
180.8887294803
 20
739.306692996
 30
0.0
 11
180.8889269207
 21
739.306692996
 31
0.0
  0
LINE
  5
257
330
1B
100
AcDbEntity
 67
     1
  8
SLD-0_0
  6
SLD-実線
 62
   179
370
    25
100
AcDbLine
 10
175.8262872074
 20
643.8066857242
 30
0.0
 11
174.1626396153
 21
643.8066857242
 31
0.0
  0
LINE
  5
258
330
1B
100
AcDbEntity
 67
     1
  8
SLD-0_0
  6
SLD-実線
 62
   179
370
    25
100
AcDbLine
 10
171.4890546475
 20
643.8066857242
 30
0.0
 11
169.9731381702
 21
643.8066860818
 31
0.0
  0
LINE
  5
259
330
1B
100
AcDbEntity
 67
     1
  8
SLD-0_0
  6
SLD-実線
 62
   179
370
    25
100
AcDbLine
 10
267.525376347
 20
643.8066860818
 30
0.0
 11
266.0094633077
 21
643.8066857242
 31
0.0
  0
LINE
  5
25A
330
1B
100
AcDbEntity
 67
     1
  8
SLD-0_0
  6
SLD-実線
 62
   179
370
    25
100
AcDbLine
 10
263.3358187352
 20
643.8066857242
 30
0.0
 11
261.6722009454
 21
643.8066857242
 31
0.0
  0
LINE
  5
25B
330
1B
100
AcDbEntity
 67
     1
  8
SLD-0_0
  6
SLD-実線
 62
   179
370
    25
100
AcDbLine
 10
177.933013377
 20
643.8066857242
 30
0.0
 11
175.8262872074
 21
643.8066857242
 31
0.0
  0
LINE
  5
25C
330
1B
100
AcDbEntity
 67
     1
  8
SLD-0_0
  6
SLD-実線
 62
   179
370
    25
100
AcDbLine
 10
261.6722009454
 20
643.8066857242
 30
0.0
 11
259.5655008529
 21
643.8066857242
 31
0.0
  0
LINE
  5
25D
330
1B
100
AcDbEntity
 67
     1
  8
SLD-0_0
  6
SLD-実線
 62
   179
370
    25
100
AcDbLine
 10
177.3605927203
 20
637.8066847407
 30
0.0
 11
171.9086378191
 21
637.8066847407
 31
0.0
  0
LINE
  5
25E
330
1B
100
AcDbEntity
 67
     1
  8
SLD-0_0
  6
SLD-実線
 62
   179
370
    25
100
AcDbLine
 10
265.5898764108
 20
637.8066847407
 30
0.0
 11
260.1379215096
 21
637.8066847407
 31
0.0
  0
LINE
  5
25F
330
1B
100
AcDbEntity
 67
     1
  8
SLD-0_0
  6
SLD-実線
 62
   179
370
    25
100
AcDbLine
 10
177.3605927203
 20
637.8066847407
 30
0.0
 11
178.1024246786
 21
637.8066847407
 31
0.0
  0
LINE
  5
260
330
1B
100
AcDbEntity
 67
     1
  8
SLD-0_0
  6
SLD-実線
 62
   179
370
    25
100
AcDbLine
 10
259.3960895513
 20
637.8066847407
 30
0.0
 11
260.1379215096
 21
637.8066847407
 31
0.0
  0
LINE
  5
261
330
1B
100
AcDbEntity
 67
     1
  8
SLD-0_0
  6
SLD-実線
 62
   179
370
    25
100
AcDbLine
 10
169.0125338111
 20
650.8066850089
 30
0.0
 11
166.8955928956
 21
650.8066850089
 31
0.0
  0
LINE
  5
262
330
1B
100
AcDbEntity
 67
     1
  8
SLD-0_0
  6
SLD-実線
 62
   179
370
    25
100
AcDbLine
 10
171.9086378191
 20
637.8066847407
 30
0.0
 11
165.8758133028
 21
637.8066847407
 31
0.0
  0
LINE
  5
263
330
1B
100
AcDbEntity
 67
     1
  8
SLD-0_0
  6
SLD-実線
 62
   179
370
    25
100
AcDbLine
 10
279.6532682453
 20
637.8066847407
 30
0.0
 11
265.5898764108
 21
637.8066847407
 31
0.0
  0
LINE
  5
264
330
1B
100
AcDbEntity
 67
     1
  8
SLD-0_0
  6
SLD-実線
 62
   179
370
    25
100
AcDbLine
 10
271.796005157
 20
643.8066857242
 30
0.0
 11
269.3381517504
 21
643.8066857242
 31
0.0
  0
LINE
  5
265
330
1B
100
AcDbEntity
 67
     1
  8
SLD-0_0
  6
SLD-実線
 62
   179
370
    25
100
AcDbLine
 10
282.8466764961
 20
715.2647720956
 30
0.0
 11
281.9268278156
 21
749.8153345966
 31
0.0
  0
LINE
  5
266
330
1B
100
AcDbEntity
 67
     1
  8
SLD-0_0
  6
SLD-実線
 62
   179
370
    25
100
AcDbLine
 10
171.1662209902
 20
739.306692996
 30
0.0
 11
161.256110606
 21
739.306692996
 31
0.0
  0
LINE
  5
267
330
1B
100
AcDbEntity
 67
     1
  8
SLD-0_0
  6
SLD-実線
 62
   179
370
    25
100
AcDbLine
 10
272.1221915756
 20
739.306692996
 30
0.0
 11
272.1223368619
 21
739.306692996
 31
0.0
  0
LINE
  5
268
330
1B
100
AcDbEntity
 67
     1
  8
SLD-0_0
  6
SLD-実線
 62
   179
370
    25
100
AcDbLine
 10
272.1221915756
 20
739.306692996
 30
0.0
 11
271.6123520706
 21
739.306692996
 31
0.0
  0
LINE
  5
269
330
1B
100
AcDbEntity
 67
     1
  8
SLD-0_0
  6
SLD-実線
 62
   179
370
    25
100
AcDbLine
 10
155.2928633366
 20
650.8059101486
 30
0.0
 11
155.2767626319
 21
650.8066850089
 31
0.0
  0
LINE
  5
26A
330
1B
100
AcDbEntity
 67
     1
  8
SLD-0_0
  6
SLD-実線
 62
   179
370
    25
100
AcDbLine
 10
165.0090351079
 20
638.8066867673
 30
0.0
 11
156.1681277428
 21
638.8066867673
 31
0.0
  0
LINE
  5
26B
330
1B
100
AcDbEntity
 67
     1
  8
SLD-0_0
  6
SLD-実線
 62
   179
370
    25
100
AcDbLine
 10
156.1681277428
 20
638.8066867673
 30
0.0
 11
150.0451898898
 21
638.8066860818
 31
0.0
  0
LINE
  5
26C
330
1B
100
AcDbEntity
 67
     1
  8
SLD-0_0
  6
SLD-実線
 62
   179
370
    25
100
AcDbLine
 10
154.7923109804
 20
650.8066850089
 30
0.0
 11
149.0842945252
 21
650.8066850089
 31
0.0
  0
LINE
  5
26D
330
1B
100
AcDbEntity
 67
     1
  8
SLD-0_0
  6
SLD-実線
 62
   179
370
    25
100
AcDbLine
 10
155.2767626319
 20
650.8066850089
 30
0.0
 11
154.7923109804
 21
650.8066850089
 31
0.0
  0
LINE
  5
26E
330
1B
100
AcDbEntity
 67
     1
  8
SLD-0_0
  6
SLD-実線
 62
   179
370
    25
100
AcDbLine
 10
165.6628496323
 20
650.8066850089
 30
0.0
 11
166.8955928956
 21
650.8066850089
 31
0.0
  0
LINE
  5
26F
330
1B
100
AcDbEntity
 67
     1
  8
SLD-0_0
  6
SLD-実線
 62
   179
370
    25
100
AcDbLine
 10
165.8758133028
 20
637.8066847407
 30
0.0
 11
165.0593153511
 21
637.8066847407
 31
0.0
  0
LINE
  5
270
330
1B
100
AcDbEntity
 67
     1
  8
SLD-0_0
  6
SLD-実線
 62
   179
370
    25
100
AcDbLine
 10
165.0593153511
 20
637.8066847407
 30
0.0
 11
160.3104829166
 21
637.8066847407
 31
0.0
  0
LINE
  5
271
330
1B
100
AcDbEntity
 67
     1
  8
SLD-0_0
  6
SLD-実線
 62
   179
370
    25
100
AcDbLine
 10
149.0451864276
 20
650.8066850089
 30
0.0
 11
149.0842945252
 21
650.8066850089
 31
0.0
  0
LINE
  5
272
330
1B
100
AcDbEntity
 67
     1
  8
SLD-0_0
  6
SLD-実線
 62
   179
370
    25
100
AcDbLine
 10
160.3104829166
 20
637.8066847407
 30
0.0
 11
159.8516351853
 21
637.8066847407
 31
0.0
  0
LINE
  5
273
330
1B
100
AcDbEntity
 67
     1
  8
SLD-0_0
  6
SLD-実線
 62
   179
370
    25
100
AcDbLine
 10
152.9896281038
 20
652.7509736204
 30
0.0
 11
152.9910884176
 21
652.8059067511
 31
0.0
  0
LINE
  5
274
330
1B
100
AcDbEntity
 67
     1
  8
SLD-0_0
  6
SLD-実線
 62
   179
370
    25
100
AcDbLine
 10
152.9910884176
 20
652.8059067511
 30
0.0
 11
153.2035566245
 21
660.8027862691
 31
0.0
  0
LINE
  5
275
330
1B
100
AcDbEntity
 67
     1
  8
SLD-0_0
  6
SLD-実線
 62
   179
370
    25
100
AcDbLine
 10
153.2035566245
 20
660.8027862691
 30
0.0
 11
154.0539137397
 21
692.7902968907
 31
0.0
  0
LINE
  5
276
330
1B
100
AcDbEntity
 67
     1
  8
SLD-0_0
  6
SLD-実線
 62
   179
370
    25
100
AcDbLine
 10
154.0539137397
 20
692.7902968907
 30
0.0
 11
155.5719620858
 21
749.8153494977
 31
0.0
  0
LINE
  5
277
330
1B
100
AcDbEntity
 67
     1
  8
SLD-0_0
  6
SLD-実線
 62
   179
370
    25
100
AcDbLine
 10
279.6532682453
 20
637.8066847407
 30
0.0
 11
280.2377364908
 21
637.8066847407
 31
0.0
  0
LINE
  5
278
330
1B
100
AcDbEntity
 67
     1
  8
SLD-0_0
  6
SLD-実線
 62
   179
370
    25
100
AcDbLine
 10
154.8112652574
 20
637.8066847407
 30
0.0
 11
153.7492594991
 21
637.8066847407
 31
0.0
  0
LINE
  5
279
330
1B
100
AcDbEntity
 67
     1
  8
SLD-0_0
  6
SLD-実線
 62
   179
370
    25
100
AcDbLine
 10
283.7492547307
 20
637.8066847407
 30
0.0
 11
280.2377364908
 21
637.8066847407
 31
0.0
  0
LINE
  5
27A
330
1B
100
AcDbEntity
 67
     1
  8
SLD-0_0
  6
SLD-実線
 62
   179
370
    25
100
AcDbLine
 10
281.4271844301
 20
750.6547617101
 30
0.0
 11
280.1798939083
 21
751.3748901271
 31
0.0
  0
LINE
  5
27B
330
1B
100
AcDbEntity
 67
     1
  8
SLD-0_0
  6
SLD-実線
 62
   179
370
    25
100
AcDbLine
 10
280.1798939083
 20
751.3748901271
 30
0.0
 11
278.5602010165
 21
752.310027399
 31
0.0
  0
LINE
  5
27C
330
1B
100
AcDbEntity
 67
     1
  8
SLD-0_0
  6
SLD-実線
 62
   179
370
    25
100
AcDbLine
 10
278.5602010165
 20
752.310027399
 30
0.0
 11
277.5160617505
 21
752.9128687763
 31
0.0
  0
LINE
  5
27D
330
1B
100
AcDbEntity
 67
     1
  8
SLD-0_0
  6
SLD-実線
 62
   179
370
    25
100
AcDbLine
 10
277.5160617505
 20
752.9128687763
 30
0.0
 11
277.4076222752
 21
752.9754685544
 31
0.0
  0
LINE
  5
27E
330
1B
100
AcDbEntity
 67
     1
  8
SLD-0_0
  6
SLD-実線
 62
   179
370
    25
100
AcDbLine
 10
156.0716054712
 20
750.6547766113
 30
0.0
 11
157.3188922678
 21
751.3749050283
 31
0.0
  0
LINE
  5
27F
330
1B
100
AcDbEntity
 67
     1
  8
SLD-0_0
  6
SLD-実線
 62
   179
370
    25
100
AcDbLine
 10
157.3188922678
 20
751.3749050283
 30
0.0
 11
158.9384473238
 21
752.3099677944
 31
0.0
  0
LINE
  5
280
330
1B
100
AcDbEntity
 67
     1
  8
SLD-0_0
  6
SLD-実線
 62
   179
370
    25
100
AcDbLine
 10
158.9384473238
 20
752.3099677944
 30
0.0
 11
159.982601491
 21
752.9128091716
 31
0.0
  0
LINE
  5
281
330
1B
100
AcDbEntity
 67
     1
  8
SLD-0_0
  6
SLD-実線
 62
   179
370
    25
100
AcDbLine
 10
159.982601491
 20
752.9128091716
 30
0.0
 11
160.0908845042
 21
752.9753195428
 31
0.0
  0
LINE
  5
282
330
1B
100
AcDbEntity
 67
     1
  8
SLD-0_0
  6
SLD-実線
 62
   179
370
    25
100
AcDbLine
 10
287.45332434
 20
638.8066860818
 30
0.0
 11
283.7492547307
 21
638.8066867673
 31
0.0
  0
LINE
  5
283
330
1B
100
AcDbEntity
 67
     1
  8
SLD-0_0
  6
SLD-実線
 62
   179
370
    25
100
AcDbLine
 10
287.8360099469
 20
650.8066850089
 30
0.0
 11
284.735637096
 21
650.8066850089
 31
0.0
  0
LINE
  5
284
330
1B
100
AcDbEntity
 67
     1
  8
SLD-0_0
  6
SLD-実線
 62
   179
370
    25
100
AcDbLine
 10
287.8360099469
 20
650.8066850089
 30
0.0
 11
288.4533278022
 21
650.8066850089
 31
0.0
  0
LINE
  5
285
330
1B
100
AcDbEntity
 67
     1
  8
SLD-0_0
  6
SLD-実線
 62
   179
370
    25
100
AcDbLine
 10
204.7492566828
 20
572.3066861116
 30
0.0
 11
232.7492575471
 21
572.3066861116
 31
0.0
  0
LINE
  5
286
330
1B
100
AcDbEntity
 67
     1
  8
SLD-0_0
  6
SLD-実線
 62
   179
370
    25
100
AcDbLine
 10
204.7492566828
 20
573.8066858918
 30
0.0
 11
232.7492575471
 21
573.8066858918
 31
0.0
  0
LINE
  5
287
330
1B
100
AcDbEntity
 67
     1
  8
SLD-0_0
  6
SLD-実線
 62
   179
370
    25
100
AcDbLine
 10
209.7492575455
 20
569.806685756
 30
0.0
 11
227.7492567706
 21
569.806685756
 31
0.0
  0
LINE
  5
288
330
1B
100
AcDbEntity
 67
     1
  8
SLD-0_0
  6
SLD-実線
 62
   179
370
    25
100
AcDbLine
 10
210.249256653
 20
566.8066861414
 30
0.0
 11
227.2492575769
 21
566.8066861414
 31
0.0
  0
LINE
  5
289
330
1B
100
AcDbEntity
 67
     1
  8
SLD-0_0
  6
SLD-実線
 62
   179
370
    25
100
AcDbLine
 10
136.2492538367
 20
587.8066858583
 30
0.0
 11
136.2492538367
 21
577.8066860818
 31
0.0
  0
LINE
  5
28A
330
1B
100
AcDbEntity
 67
     1
  8
SLD-0_0
  6
SLD-実線
 62
   179
370
    25
100
AcDbLine
 10
162.2359848891
 20
587.8066858583
 30
0.0
 11
162.2359848891
 21
577.8066860818
 31
0.0
  0
LINE
  5
28B
330
1B
100
AcDbEntity
 67
     1
  8
SLD-0_0
  6
SLD-実線
 62
   179
370
    25
100
AcDbLine
 10
136.2492538367
 20
577.8066860818
 30
0.0
 11
162.2359848891
 21
577.8066860818
 31
0.0
  0
LINE
  5
28C
330
1B
100
AcDbEntity
 67
     1
  8
SLD-0_0
  6
SLD-実線
 62
   179
370
    25
100
AcDbLine
 10
136.2492538367
 20
587.8066858583
 30
0.0
 11
162.2359848891
 21
587.8066858583
 31
0.0
  0
LINE
  5
28D
330
1B
100
AcDbEntity
 67
     1
  8
SLD-0_0
  6
SLD-実線
 62
   179
370
    25
100
AcDbLine
 10
275.2625293408
 20
587.8066858583
 30
0.0
 11
275.2625293408
 21
577.8066860818
 31
0.0
  0
LINE
  5
28E
330
1B
100
AcDbEntity
 67
     1
  8
SLD-0_0
  6
SLD-実線
 62
   179
370
    25
100
AcDbLine
 10
162.2359848891
 20
577.8066860818
 30
0.0
 11
275.2625293408
 21
577.8066860818
 31
0.0
  0
LINE
  5
28F
330
1B
100
AcDbEntity
 67
     1
  8
SLD-0_0
  6
SLD-実線
 62
   179
370
    25
100
AcDbLine
 10
162.2359848891
 20
587.8066858583
 30
0.0
 11
275.2625293408
 21
587.8066858583
 31
0.0
  0
LINE
  5
290
330
1B
100
AcDbEntity
 67
     1
  8
SLD-0_0
  6
SLD-実線
 62
   179
370
    25
100
AcDbLine
 10
301.2492603932
 20
587.8066858583
 30
0.0
 11
301.2492603932
 21
577.8066860818
 31
0.0
  0
LINE
  5
291
330
1B
100
AcDbEntity
 67
     1
  8
SLD-0_0
  6
SLD-実線
 62
   179
370
    25
100
AcDbLine
 10
275.2625293408
 20
577.8066860818
 30
0.0
 11
301.2492603932
 21
577.8066860818
 31
0.0
  0
LINE
  5
292
330
1B
100
AcDbEntity
 67
     1
  8
SLD-0_0
  6
SLD-実線
 62
   179
370
    25
100
AcDbLine
 10
275.2625293408
 20
587.8066858583
 30
0.0
 11
301.2492603932
 21
587.8066858583
 31
0.0
  0
LINE
  5
293
330
1B
100
AcDbEntity
 67
     1
  8
SLD-0_0
  6
SLD-実線
 62
   179
370
    25
100
AcDbLine
 10
142.9010204349
 20
574.8066860558
 30
0.0
 11
142.7492595587
 21
574.8066860558
 31
0.0
  0
LINE
  5
294
330
1B
100
AcDbEntity
 67
     1
  8
SLD-0_0
  6
SLD-実線
 62
   179
370
    25
100
AcDbLine
 10
294.7492546711
 20
574.8066860558
 30
0.0
 11
145.2599860106
 21
574.8066860558
 31
0.0
  0
LINE
  5
295
330
1B
100
AcDbEntity
 67
     1
  8
SLD-0_0
  6
SLD-実線
 62
   179
370
    25
100
AcDbLine
 10
145.2599860106
 20
574.8066860558
 30
0.0
 11
142.9010204349
 21
574.8066860558
 31
0.0
  0
LINE
  5
296
330
1B
100
AcDbEntity
 67
     1
  8
SLD-0_0
  6
SLD-実線
 62
   179
370
    25
100
AcDbLine
 10
218.7492571149
 20
304.9067007684
 30
0.0
 11
144.7492561613
 21
304.9067007684
 31
0.0
  0
LINE
  5
297
330
1B
100
AcDbEntity
 67
     1
  8
SLD-0_0
  6
SLD-実線
 62
   179
370
    25
100
AcDbLine
 10
292.7492580686
 20
304.9067007684
 30
0.0
 11
218.7492571149
 21
304.9067007684
 31
0.0
  0
LINE
  5
298
330
1B
100
AcDbEntity
 67
     1
  8
SLD-0_0
  6
SLD-実線
 62
   179
370
    25
100
AcDbLine
 10
175.3358196889
 20
312.9066865587
 30
0.0
 11
290.7492575918
 21
312.9066865587
 31
0.0
  0
LINE
  5
299
330
1B
100
AcDbEntity
 67
     1
  8
SLD-0_0
  6
SLD-実線
 62
   179
370
    25
100
AcDbLine
 10
174.1540272211
 20
312.9108588838
 30
0.0
 11
175.3358196889
 21
312.9066865587
 31
0.0
  0
LINE
  5
29A
330
1B
100
AcDbEntity
 67
     1
  8
SLD-0_0
  6
SLD-実線
 62
   179
370
    25
100
AcDbLine
 10
180.6817483215
 20
314.9066860818
 30
0.0
 11
176.90305999
 21
314.9066860818
 31
0.0
  0
LINE
  5
29B
330
1B
100
AcDbEntity
 67
     1
  8
SLD-0_0
  6
SLD-実線
 62
   179
370
    25
100
AcDbLine
 10
173.9916254668
 20
327.9066860818
 30
0.0
 11
218.7415013588
 21
327.9066877746
 31
0.0
  0
LINE
  5
29C
330
1B
100
AcDbEntity
 67
     1
  8
SLD-0_0
  6
SLD-実線
 62
   179
370
    25
100
AcDbLine
 10
162.610529301
 20
327.9066877746
 30
0.0
 11
166.1469585572
 21
327.9066877746
 31
0.0
  0
LINE
  5
29D
330
1B
100
AcDbEntity
 67
     1
  8
SLD-0_0
  6
SLD-実線
 62
   179
370
    25
100
AcDbLine
 10
218.7415013588
 20
327.9066877746
 30
0.0
 11
259.1651476298
 21
327.9066877746
 31
0.0
  0
LINE
  5
29E
330
1B
100
AcDbEntity
 67
     1
  8
SLD-0_0
  6
SLD-実線
 62
   179
370
    25
100
AcDbLine
 10
271.8175671373
 20
327.9066877746
 30
0.0
 11
273.1875697601
 21
327.9066860818
 31
0.0
  0
LINE
  5
29F
330
1B
100
AcDbEntity
 67
     1
  8
SLD-0_0
  6
SLD-実線
 62
   179
370
    25
100
AcDbLine
 10
167.2434605036
 20
637.8066847407
 30
0.0
 11
171.9086378191
 21
637.8066847407
 31
0.0
  0
LINE
  5
2A0
330
1B
100
AcDbEntity
 67
     1
  8
SLD-0_0
  6
SLD-実線
 62
   179
370
    25
100
AcDbLine
 10
178.1024246786
 20
637.8066847407
 30
0.0
 11
201.8022912864
 21
637.8066847407
 31
0.0
  0
LINE
  5
2A1
330
1B
100
AcDbEntity
 67
     1
  8
SLD-0_0
  6
SLD-実線
 62
   179
370
    25
100
AcDbLine
 10
157.3817618256
 20
624.8066844724
 30
0.0
 11
154.8537574774
 21
624.8066844724
 31
0.0
  0
LINE
  5
2A2
330
1B
100
AcDbEntity
 67
     1
  8
SLD-0_0
  6
SLD-実線
 62
   179
370
    25
100
AcDbLine
 10
156.6163953517
 20
636.8066864693
 30
0.0
 11
163.3645799134
 21
636.8066864693
 31
0.0
  0
LINE
  5
2A3
330
1B
100
AcDbEntity
 67
     1
  8
SLD-0_0
  6
SLD-実線
 62
   179
370
    25
100
AcDbLine
 10
157.3817618256
 20
624.8066844724
 30
0.0
 11
163.6526813219
 21
624.8066860818
 31
0.0
  0
LINE
  5
2A4
330
1B
100
AcDbEntity
 67
     1
  8
SLD-0_0
  6
SLD-実線
 62
   179
370
    25
100
AcDbLine
 10
171.1937462448
 20
332.866539278
 30
0.0
 11
171.1937462448
 21
569.8066860818
 31
0.0
  0
LINE
  5
2A5
330
1B
100
AcDbEntity
 67
     1
  8
SLD-0_0
  6
SLD-実線
 62
   179
370
    25
100
AcDbLine
 10
266.3047679851
 20
569.8066860818
 30
0.0
 11
266.3047679851
 21
331.3046889686
 31
0.0
  0
LINE
  5
2A6
330
1B
100
AcDbEntity
 67
     1
  8
SLD-0_0
  6
SLD-実線
 62
   179
370
    25
100
AcDbLine
 10
150.6959684258
 20
627.8066868268
 30
0.0
 11
150.6959707297
 21
621.8066860818
 31
0.0
  0
LINE
  5
2A7
330
1B
100
AcDbEntity
 67
     1
  8
SLD-0_0
  6
SLD-実線
 62
   179
370
    25
100
AcDbLine
 10
148.7492568169
 20
632.8066857838
 30
0.0
 11
148.7492568169
 21
634.8066861116
 31
0.0
  0
LINE
  5
2A8
330
1B
100
AcDbEntity
 67
     1
  8
SLD-0_0
  6
SLD-実線
 62
   179
370
    25
100
AcDbLine
 10
151.8743754963
 20
624.8066860818
 30
0.0
 11
154.8537574774
 21
624.8066844724
 31
0.0
  0
LINE
  5
2A9
330
1B
100
AcDbEntity
 67
     1
  8
SLD-0_0
  6
SLD-実線
 62
   179
370
    25
100
AcDbLine
 10
150.7492568169
 20
636.8066861116
 30
0.0
 11
156.6163953517
 21
636.8066864693
 31
0.0
  0
LINE
  5
2AA
330
1B
100
AcDbEntity
 67
     1
  8
SLD-0_0
  6
SLD-実線
 62
   179
370
    25
100
AcDbLine
 10
178.2492571149
 20
359.9066930198
 30
0.0
 11
178.2492571149
 21
569.8066860818
 31
0.0
  0
LINE
  5
2AB
330
1B
100
AcDbEntity
 67
     1
  8
SLD-0_0
  6
SLD-実線
 62
   179
370
    25
100
AcDbLine
 10
259.2492571149
 20
359.9066930198
 30
0.0
 11
259.2492571149
 21
569.8066860818
 31
0.0
  0
LINE
  5
2AC
330
1B
100
AcDbEntity
 67
     1
  8
SLD-0_0
  6
SLD-実線
 62
   179
370
    25
100
AcDbLine
 10
165.3230174754
 20
637.8066847407
 30
0.0
 11
167.2434605036
 21
637.8066847407
 31
0.0
  0
LINE
  5
2AD
330
1B
100
AcDbEntity
 67
     1
  8
SLD-0_0
  6
SLD-実線
 62
   179
370
    25
100
AcDbLine
 10
159.8516351853
 20
637.8066847407
 30
0.0
 11
165.3230174754
 21
637.8066847407
 31
0.0
  0
LINE
  5
2AE
330
1B
100
AcDbEntity
 67
     1
  8
SLD-0_0
  6
SLD-実線
 62
   179
370
    25
100
AcDbLine
 10
154.8117011456
 20
623.3066860818
 30
0.0
 11
159.8108352603
 21
623.3066860818
 31
0.0
  0
LINE
  5
2AF
330
1B
100
AcDbEntity
 67
     1
  8
SLD-0_0
  6
SLD-実線
 62
   179
370
    25
100
AcDbLine
 10
136.2492538367
 20
587.8066858583
 30
0.0
 11
136.2492538367
 21
590.8066863501
 31
0.0
  0
LINE
  5
2B0
330
1B
100
AcDbEntity
 67
     1
  8
SLD-0_0
  6
SLD-実線
 62
   179
370
    25
100
AcDbLine
 10
118.7492556248
 20
587.8066858583
 30
0.0
 11
118.7492556248
 21
627.8066868269
 31
0.0
  0
LINE
  5
2B1
330
1B
100
AcDbEntity
 67
     1
  8
SLD-0_0
  6
SLD-実線
 62
   179
370
    25
100
AcDbLine
 10
118.7492556248
 20
587.8066858583
 30
0.0
 11
118.7492571149
 21
584.8066860818
 31
0.0
  0
LINE
  5
2B2
330
1B
100
AcDbEntity
 67
     1
  8
SLD-0_0
  6
SLD-実線
 62
   179
370
    25
100
AcDbLine
 10
118.7492556248
 20
630.806685456
 30
0.0
 11
118.7492556248
 21
627.8066868269
 31
0.0
  0
LINE
  5
2B3
330
1B
100
AcDbEntity
 67
     1
  8
SLD-0_0
  6
SLD-実線
 62
   179
370
    25
100
AcDbLine
 10
136.2492538367
 20
582.8066860818
 30
0.0
 11
120.7492571149
 21
582.8066860818
 31
0.0
  0
LINE
  5
2B4
330
1B
100
AcDbEntity
 67
     1
  8
SLD-0_0
  6
SLD-実線
 62
   179
370
    25
100
AcDbLine
 10
120.7492563698
 20
632.8066868268
 30
0.0
 11
149.0624570461
 21
632.8066868268
 31
0.0
  0
LINE
  5
2B5
330
1B
100
AcDbEntity
 67
     1
  8
SLD-0_0
  6
SLD-実線
 62
   179
370
    25
100
AcDbLine
 10
144.7492561613
 20
312.9066871786
 30
0.0
 11
144.7492561613
 21
570.9302709744
 31
0.0
  0
LINE
  5
2B6
330
1B
100
AcDbEntity
 67
     1
  8
SLD-0_0
  6
SLD-実線
 62
   179
370
    25
100
AcDbLine
 10
145.2755949769
 20
312.9066871786
 30
0.0
 11
144.7492561613
 21
312.9066871786
 31
0.0
  0
LINE
  5
2B7
330
1B
100
AcDbEntity
 67
     1
  8
SLD-0_0
  6
SLD-実線
 62
   179
370
    25
100
AcDbLine
 10
197.5832471822
 20
330.9066790574
 30
0.0
 11
198.7492574577
 21
330.9066790574
 31
0.0
  0
LINE
  5
2B8
330
1B
100
AcDbEntity
 67
     1
  8
SLD-0_0
  6
SLD-実線
 62
   179
370
    25
100
AcDbLine
 10
199.7492537517
 20
329.9066880621
 30
0.0
 11
199.7492531407
 21
328.9066823162
 31
0.0
  0
LINE
  5
2B9
330
1B
100
AcDbEntity
 67
     1
  8
SLD-0_0
  6
SLD-実線
 62
   179
370
    25
100
AcDbLine
 10
238.7492531035
 20
330.9066825174
 30
0.0
 11
239.915263379
 21
330.9066825174
 31
0.0
  0
LINE
  5
2BA
330
1B
100
AcDbEntity
 67
     1
  8
SLD-0_0
  6
SLD-実線
 62
   179
370
    25
100
AcDbLine
 10
237.7492571149
 20
328.9066860818
 30
0.0
 11
237.7492571149
 21
329.9066860818
 31
0.0
  0
LINE
  5
2BB
330
1B
100
AcDbEntity
 67
     1
  8
SLD-0_0
  6
SLD-実線
 62
   179
370
    25
100
AcDbLine
 10
145.3916824732
 20
312.9066871786
 30
0.0
 11
145.2755949769
 21
312.9066871786
 31
0.0
  0
LINE
  5
2BC
330
1B
100
AcDbEntity
 67
     1
  8
SLD-0_0
  6
SLD-実線
 62
   179
370
    25
100
AcDbLine
 10
195.7492570106
 20
330.9066861861
 30
0.0
 11
197.5832471822
 21
330.9066790574
 31
0.0
  0
LINE
  5
2BD
330
1B
100
AcDbEntity
 67
     1
  8
SLD-0_0
  6
SLD-実線
 62
   179
370
    25
100
AcDbLine
 10
239.915263379
 20
330.9066825174
 30
0.0
 11
241.7492535505
 21
330.9066896461
 31
0.0
  0
LINE
  5
2BE
330
1B
100
AcDbEntity
 67
     1
  8
SLD-0_0
  6
SLD-実線
 62
   179
370
    25
100
AcDbLine
 10
196.7492569955
 20
351.078258957
 30
0.0
 11
196.7492571148
 21
346.9066815757
 31
0.0
  0
LINE
  5
2BF
330
1B
100
AcDbEntity
 67
     1
  8
SLD-0_0
  6
SLD-実線
 62
   179
370
    25
100
AcDbLine
 10
193.7492582431
 20
356.9066885594
 30
0.0
 11
193.7511544159
 21
356.904796112
 31
0.0
  0
LINE
  5
2C0
330
1B
100
AcDbEntity
 67
     1
  8
SLD-0_0
  6
SLD-実線
 62
   179
370
    25
100
AcDbLine
 10
193.7511544159
 20
356.904796112
 30
0.0
 11
193.7568410715
 21
356.8991038684
 31
0.0
  0
LINE
  5
2C1
330
1B
100
AcDbEntity
 67
     1
  8
SLD-0_0
  6
SLD-実線
 62
   179
370
    25
100
AcDbLine
 10
193.7568410715
 20
356.8991038684
 30
0.0
 11
193.7663033089
 21
356.889641631
 31
0.0
  0
LINE
  5
2C2
330
1B
100
AcDbEntity
 67
     1
  8
SLD-0_0
  6
SLD-実線
 62
   179
370
    25
100
AcDbLine
 10
181.1536661765
 20
356.9066885594
 30
0.0
 11
193.7492582431
 21
356.9066885594
 31
0.0
  0
LINE
  5
2C3
330
1B
100
AcDbEntity
 67
     1
  8
SLD-0_0
  6
SLD-実線
 62
   179
370
    25
100
AcDbLine
 10
240.749257115
 20
351.078258957
 30
0.0
 11
240.7492569957
 21
346.9066815757
 31
0.0
  0
LINE
  5
2C4
330
1B
100
AcDbEntity
 67
     1
  8
SLD-0_0
  6
SLD-実線
 62
   179
370
    25
100
AcDbLine
 10
243.7322124216
 20
356.8896400116
 30
0.0
 11
243.741674659
 21
356.899102249
 31
0.0
  0
LINE
  5
2C5
330
1B
100
AcDbEntity
 67
     1
  8
SLD-0_0
  6
SLD-実線
 62
   179
370
    25
100
AcDbLine
 10
243.741674659
 20
356.899102249
 30
0.0
 11
243.7473613146
 21
356.9047944926
 31
0.0
  0
LINE
  5
2C6
330
1B
100
AcDbEntity
 67
     1
  8
SLD-0_0
  6
SLD-実線
 62
   179
370
    25
100
AcDbLine
 10
243.7473613146
 20
356.9047944926
 30
0.0
 11
243.7492574874
 21
356.90668694
 31
0.0
  0
LINE
  5
2C7
330
1B
100
AcDbEntity
 67
     1
  8
SLD-0_0
  6
SLD-実線
 62
   179
370
    25
100
AcDbLine
 10
243.7492574874
 20
356.90668694
 30
0.0
 11
256.344849554
 21
356.90668694
 31
0.0
  0
LINE
  5
2C8
330
1B
100
AcDbEntity
 67
     1
  8
SLD-0_0
  6
SLD-実線
 62
   179
370
    25
100
AcDbLine
 10
188.7492577854
 20
330.9066726111
 30
0.0
 11
188.7492571148
 21
329.9066797398
 31
0.0
  0
LINE
  5
2C9
330
1B
100
AcDbEntity
 67
     1
  8
SLD-0_0
  6
SLD-実線
 62
   179
370
    25
100
AcDbLine
 10
248.7492569958
 20
329.9066797398
 30
0.0
 11
248.7492563252
 21
330.9066726111
 31
0.0
  0
LINE
  5
2CA
330
1B
100
AcDbEntity
 67
     1
  8
SLD-0_0
  6
SLD-実線
 62
   179
370
    25
100
AcDbLine
 10
188.7492571148
 20
339.9066797398
 30
0.0
 11
188.7492577854
 21
330.9066726111
 31
0.0
  0
LINE
  5
2CB
330
1B
100
AcDbEntity
 67
     1
  8
SLD-0_0
  6
SLD-実線
 62
   179
370
    25
100
AcDbLine
 10
248.7492563252
 20
330.9066726111
 30
0.0
 11
248.7492569957
 21
339.9066797398
 31
0.0
  0
LINE
  5
2CC
330
1B
100
AcDbEntity
 67
     1
  8
SLD-0_0
  6
SLD-実線
 62
   179
370
    25
100
AcDbLine
 10
193.7663033089
 20
356.889641631
 30
0.0
 11
197.9776378205
 21
352.6783052567
 31
0.0
  0
LINE
  5
2CD
330
1B
100
AcDbEntity
 67
     1
  8
SLD-0_0
  6
SLD-実線
 62
   179
370
    25
100
AcDbLine
 10
239.5208773551
 20
352.6783063221
 30
0.0
 11
243.7322124216
 21
356.8896400116
 31
0.0
  0
LINE
  5
2CE
330
1B
100
AcDbEntity
 67
     1
  8
SLD-0_0
  6
SLD-実線
 62
   179
370
    25
100
AcDbLine
 10
285.7492571149
 20
319.9066860818
 30
0.0
 11
285.7492571149
 21
317.9066860818
 31
0.0
  0
LINE
  5
2CF
330
1B
100
AcDbEntity
 67
     1
  8
SLD-0_0
  6
SLD-実線
 62
   179
370
    25
100
AcDbLine
 10
285.7492571149
 20
569.8066860818
 30
0.0
 11
285.7492571149
 21
323.0418866099
 31
0.0
  0
LINE
  5
2D0
330
1B
100
AcDbEntity
 67
     1
  8
SLD-0_0
  6
SLD-実線
 62
   179
370
    25
100
AcDbLine
 10
196.5634229902
 20
344.9066860818
 30
0.0
 11
193.7492571148
 21
344.9066797398
 31
0.0
  0
LINE
  5
2D1
330
1B
100
AcDbEntity
 67
     1
  8
SLD-0_0
  6
SLD-実線
 62
   179
370
    25
100
AcDbLine
 10
243.7492569957
 20
344.9066797398
 30
0.0
 11
240.9350911204
 21
344.9066860818
 31
0.0
  0
LINE
  5
2D2
330
1B
100
AcDbEntity
 67
     1
  8
SLD-0_0
  6
SLD-実線
 62
   179
370
    25
100
AcDbLine
 10
282.678904352
 20
624.8066845023
 30
0.0
 11
279.6822026048
 21
624.8066845023
 31
0.0
  0
LINE
  5
2D3
330
1B
100
AcDbEntity
 67
     1
  8
SLD-0_0
  6
SLD-実線
 62
   179
370
    25
100
AcDbLine
 10
200.7492578897
 20
344.9066860818
 30
0.0
 11
196.5634229902
 21
344.9066860818
 31
0.0
  0
LINE
  5
2D4
330
1B
100
AcDbEntity
 67
     1
  8
SLD-0_0
  6
SLD-実線
 62
   179
370
    25
100
AcDbLine
 10
197.9776378205
 20
352.6783052567
 30
0.0
 11
201.7492576918
 21
348.9066872481
 31
0.0
  0
LINE
  5
2D5
330
1B
100
AcDbEntity
 67
     1
  8
SLD-0_0
  6
SLD-実線
 62
   179
370
    25
100
AcDbLine
 10
201.7492576918
 20
348.9066872481
 30
0.0
 11
201.7108294597
 21
348.890772808
 31
0.0
  0
LINE
  5
2D6
330
1B
100
AcDbEntity
 67
     1
  8
SLD-0_0
  6
SLD-実線
 62
   179
370
    25
100
AcDbLine
 10
201.7108294597
 20
348.890772808
 30
0.0
 11
201.5970181158
 21
348.843625534
 31
0.0
  0
LINE
  5
2D7
330
1B
100
AcDbEntity
 67
     1
  8
SLD-0_0
  6
SLD-実線
 62
   179
370
    25
100
AcDbLine
 10
201.5970181158
 20
348.843625534
 30
0.0
 11
201.4121971508
 21
348.7670782689
 31
0.0
  0
LINE
  5
2D8
330
1B
100
AcDbEntity
 67
     1
  8
SLD-0_0
  6
SLD-実線
 62
   179
370
    25
100
AcDbLine
 10
201.4121971508
 20
348.7670782689
 30
0.0
 11
201.1634725561
 21
348.6640516404
 31
0.0
  0
LINE
  5
2D9
330
1B
100
AcDbEntity
 67
     1
  8
SLD-0_0
  6
SLD-実線
 62
   179
370
    25
100
AcDbLine
 10
201.1634725561
 20
348.6640516404
 30
0.0
 11
200.8603997013
 21
348.5385093574
 31
0.0
  0
LINE
  5
2DA
330
1B
100
AcDbEntity
 67
     1
  8
SLD-0_0
  6
SLD-実線
 62
   179
370
    25
100
AcDbLine
 10
200.8603997013
 20
348.5385093574
 30
0.0
 11
200.5146257063
 21
348.395279396
 31
0.0
  0
LINE
  5
2DB
330
1B
100
AcDbEntity
 67
     1
  8
SLD-0_0
  6
SLD-実線
 62
   179
370
    25
100
AcDbLine
 10
200.5146257063
 20
348.395279396
 30
0.0
 11
200.1394386819
 21
348.2398751859
 31
0.0
  0
LINE
  5
2DC
330
1B
100
AcDbEntity
 67
     1
  8
SLD-0_0
  6
SLD-実線
 62
   179
370
    25
100
AcDbLine
 10
200.1394386819
 20
348.2398751859
 30
0.0
 11
199.7492592266
 21
348.0782571916
 31
0.0
  0
LINE
  5
2DD
330
1B
100
AcDbEntity
 67
     1
  8
SLD-0_0
  6
SLD-実線
 62
   179
370
    25
100
AcDbLine
 10
201.7492576918
 20
348.9066872481
 30
0.0
 11
201.7492576918
 21
345.9066811685
 31
0.0
  0
LINE
  5
2DE
330
1B
100
AcDbEntity
 67
     1
  8
SLD-0_0
  6
SLD-実線
 62
   179
370
    25
100
AcDbLine
 10
237.7492565039
 20
348.0782555722
 30
0.0
 11
237.4019607279
 21
348.2221113823
 31
0.0
  0
LINE
  5
2DF
330
1B
100
AcDbEntity
 67
     1
  8
SLD-0_0
  6
SLD-実線
 62
   179
370
    25
100
AcDbLine
 10
237.4019607279
 20
348.2221113823
 30
0.0
 11
237.0652168366
 21
348.3616011523
 31
0.0
  0
LINE
  5
2E0
330
1B
100
AcDbEntity
 67
     1
  8
SLD-0_0
  6
SLD-実線
 62
   179
370
    25
100
AcDbLine
 10
237.0652168366
 20
348.3616011523
 30
0.0
 11
236.74925634
 21
348.492478051
 31
0.0
  0
LINE
  5
2E1
330
1B
100
AcDbEntity
 67
     1
  8
SLD-0_0
  6
SLD-実線
 62
   179
370
    25
100
AcDbLine
 10
236.74925634
 20
348.492478051
 30
0.0
 11
236.4636811736
 21
348.6107634686
 31
0.0
  0
LINE
  5
2E2
330
1B
100
AcDbEntity
 67
     1
  8
SLD-0_0
  6
SLD-実線
 62
   179
370
    25
100
AcDbLine
 10
236.4636811736
 20
348.6107634686
 30
0.0
 11
236.2171675387
 21
348.7128662251
 31
0.0
  0
LINE
  5
2E3
330
1B
100
AcDbEntity
 67
     1
  8
SLD-0_0
  6
SLD-実線
 62
   179
370
    25
100
AcDbLine
 10
236.2171675387
 20
348.7128662251
 30
0.0
 11
236.017206994
 21
348.7957017802
 31
0.0
  0
LINE
  5
2E4
330
1B
100
AcDbEntity
 67
     1
  8
SLD-0_0
  6
SLD-実線
 62
   179
370
    25
100
AcDbLine
 10
236.017206994
 20
348.7957017802
 30
0.0
 11
235.8698717627
 21
348.8567220353
 31
0.0
  0
LINE
  5
2E5
330
1B
100
AcDbEntity
 67
     1
  8
SLD-0_0
  6
SLD-実線
 62
   179
370
    25
100
AcDbLine
 10
235.8698717627
 20
348.8567220353
 30
0.0
 11
235.7796415064
 21
348.8940941475
 31
0.0
  0
LINE
  5
2E6
330
1B
100
AcDbEntity
 67
     1
  8
SLD-0_0
  6
SLD-実線
 62
   179
370
    25
100
AcDbLine
 10
235.7796415064
 20
348.8940941475
 30
0.0
 11
235.7492580387
 21
348.9066856287
 31
0.0
  0
LINE
  5
2E7
330
1B
100
AcDbEntity
 67
     1
  8
SLD-0_0
  6
SLD-実線
 62
   179
370
    25
100
AcDbLine
 10
235.7492580387
 20
348.9066856287
 30
0.0
 11
239.5208773551
 21
352.6783063221
 31
0.0
  0
LINE
  5
2E8
330
1B
100
AcDbEntity
 67
     1
  8
SLD-0_0
  6
SLD-実線
 62
   179
370
    25
100
AcDbLine
 10
235.7492580387
 20
345.9066795491
 30
0.0
 11
235.7492580387
 21
348.9066856287
 31
0.0
  0
LINE
  5
2E9
330
1B
100
AcDbEntity
 67
     1
  8
SLD-0_0
  6
SLD-実線
 62
   179
370
    25
100
AcDbLine
 10
240.9350911204
 20
344.9066860818
 30
0.0
 11
236.7492569957
 21
344.9066797398
 31
0.0
  0
LINE
  5
2EA
330
1B
100
AcDbEntity
 67
     1
  8
SLD-0_0
  6
SLD-実線
 62
   179
370
    25
100
AcDbLine
 10
281.9536871587
 20
636.8066864395
 30
0.0
 11
286.7492608104
 21
636.8066864395
 31
0.0
  0
LINE
  5
2EB
330
1B
100
AcDbEntity
 67
     1
  8
SLD-0_0
  6
SLD-実線
 62
   179
370
    25
100
AcDbLine
 10
282.678904352
 20
624.8066845023
 30
0.0
 11
286.7492608402
 21
624.8066845023
 31
0.0
  0
LINE
  5
2EC
330
1B
100
AcDbEntity
 67
     1
  8
SLD-0_0
  6
SLD-実線
 62
   179
370
    25
100
AcDbLine
 10
288.7492574428
 20
634.8066861414
 30
0.0
 11
288.7492574428
 21
624.8066845023
 31
0.0
  0
LINE
  5
2ED
330
1B
100
AcDbEntity
 67
     1
  8
SLD-0_0
  6
SLD-実線
 62
   179
370
    25
100
AcDbLine
 10
288.7492574428
 20
624.8066845023
 30
0.0
 11
286.7492608402
 21
624.8066845023
 31
0.0
  0
LINE
  5
2EE
330
1B
100
AcDbEntity
 67
     1
  8
SLD-0_0
  6
SLD-実線
 62
   179
370
    25
100
AcDbLine
 10
187.7492576216
 20
239.4504716458
 30
0.0
 11
187.7492576216
 21
237.9425709905
 31
0.0
  0
LINE
  5
2EF
330
1B
100
AcDbEntity
 67
     1
  8
SLD-0_0
  6
SLD-実線
 62
   179
370
    25
100
AcDbLine
 10
191.7492564146
 20
237.9425709905
 30
0.0
 11
191.7492564146
 21
239.625858313
 31
0.0
  0
LINE
  5
2F0
330
1B
100
AcDbEntity
 67
     1
  8
SLD-0_0
  6
SLD-実線
 62
   179
370
    25
100
AcDbLine
 10
185.7492572937
 20
244.9395453395
 30
0.0
 11
185.7492572937
 21
244.30908466
 31
0.0
  0
LINE
  5
2F1
330
1B
100
AcDbEntity
 67
     1
  8
SLD-0_0
  6
SLD-実線
 62
   179
370
    25
100
AcDbLine
 10
185.7999696706
 20
245.0992336335
 30
0.0
 11
185.7773944114
 21
244.9669709267
 31
0.0
  0
LINE
  5
2F2
330
1B
100
AcDbEntity
 67
     1
  8
SLD-0_0
  6
SLD-実線
 62
   179
370
    25
100
AcDbLine
 10
245.7492578153
 20
239.625858313
 30
0.0
 11
245.7492578153
 21
237.9425709905
 31
0.0
  0
LINE
  5
2F3
330
1B
100
AcDbEntity
 67
     1
  8
SLD-0_0
  6
SLD-実線
 62
   179
370
    25
100
AcDbLine
 10
249.7492566083
 20
237.9425709905
 30
0.0
 11
249.7492566083
 21
239.5837699832
 31
0.0
  0
LINE
  5
2F4
330
1B
100
AcDbEntity
 67
     1
  8
SLD-0_0
  6
SLD-実線
 62
   179
370
    25
100
AcDbLine
 10
251.7492569361
 20
244.7095757188
 30
0.0
 11
251.7492569361
 21
244.9395453395
 31
0.0
  0
LINE
  5
2F5
330
1B
100
AcDbEntity
 67
     1
  8
SLD-0_0
  6
SLD-実線
 62
   179
370
    25
100
AcDbLine
 10
251.7492569361
 20
244.9395453395
 30
0.0
 11
251.6993715737
 21
245.1860328974
 31
0.0
  0
LINE
  5
2F6
330
1B
100
AcDbEntity
 67
     1
  8
SLD-0_0
  6
SLD-実線
 62
   179
370
    25
100
AcDbLine
 10
208.2492572565
 20
221.1718952121
 30
0.0
 11
208.2492572565
 21
221.4485576214
 31
0.0
  0
LINE
  5
2F7
330
1B
100
AcDbEntity
 67
     1
  8
SLD-0_0
  6
SLD-実線
 62
   179
370
    25
100
AcDbLine
 10
222.249257223
 20
221.1718952121
 30
0.0
 11
222.249257223
 21
221.4485576214
 31
0.0
  0
LINE
  5
2F8
330
1B
100
AcDbEntity
 67
     1
  8
SLD-0_0
  6
SLD-実線
 62
   179
370
    25
100
AcDbLine
 10
215.2492570069
 20
221.4485576214
 30
0.0
 11
215.2492570069
 21
221.1718952121
 31
0.0
  0
LINE
  5
2F9
330
1B
100
AcDbEntity
 67
     1
  8
SLD-0_0
  6
SLD-実線
 62
   179
370
    25
100
AcDbLine
 10
229.2492569734
 20
221.4485576214
 30
0.0
 11
229.2492569734
 21
221.1718952121
 31
0.0
  0
LINE
  5
2FA
330
1B
100
AcDbEntity
 67
     1
  8
SLD-0_0
  6
SLD-実線
 62
   179
370
    25
100
AcDbLine
 10
221.749257141
 20
221.5104197921
 30
0.0
 11
221.749257141
 21
222.4479710521
 31
0.0
  0
LINE
  5
2FB
330
1B
100
AcDbEntity
 67
     1
  8
SLD-0_0
  6
SLD-実線
 62
   179
370
    25
100
AcDbLine
 10
215.7492570889
 20
222.4479710521
 30
0.0
 11
215.7492570889
 21
221.5104197921
 31
0.0
  0
LINE
  5
2FC
330
1B
100
AcDbEntity
 67
     1
  8
SLD-0_0
  6
SLD-実線
 62
   179
370
    25
100
AcDbLine
 10
248.7492564443
 20
245.1266592206
 30
0.0
 11
189.7492579494
 21
245.1266592206
 31
0.0
  0
LINE
  5
2FD
330
1B
100
AcDbEntity
 67
     1
  8
SLD-0_0
  6
SLD-実線
 62
   179
370
    25
100
AcDbLine
 10
239.9492564921
 20
246.4277690114
 30
0.0
 11
198.5492579017
 21
246.4277690114
 31
0.0
  0
LINE
  5
2FE
330
1B
100
AcDbEntity
 67
     1
  8
SLD-0_0
  6
SLD-実線
 62
   179
370
    25
100
AcDbLine
 10
191.7492564146
 20
237.9425709905
 30
0.0
 11
191.5970168386
 21
237.6562749805
 31
0.0
  0
LINE
  5
2FF
330
1B
100
AcDbEntity
 67
     1
  8
SLD-0_0
  6
SLD-実線
 62
   179
370
    25
100
AcDbLine
 10
191.5970168386
 20
237.6562749805
 30
0.0
 11
191.163471279
 21
237.413564867
 31
0.0
  0
LINE
  5
300
330
1B
100
AcDbEntity
 67
     1
  8
SLD-0_0
  6
SLD-実線
 62
   179
370
    25
100
AcDbLine
 10
191.163471279
 20
237.413564867
 30
0.0
 11
190.5146244292
 21
237.2513955297
 31
0.0
  0
LINE
  5
301
330
1B
100
AcDbEntity
 67
     1
  8
SLD-0_0
  6
SLD-実線
 62
   179
370
    25
100
AcDbLine
 10
190.5146244292
 20
237.2513955297
 30
0.0
 11
189.7492579494
 21
237.1944432916
 31
0.0
  0
LINE
  5
302
330
1B
100
AcDbEntity
 67
     1
  8
SLD-0_0
  6
SLD-実線
 62
   179
370
    25
100
AcDbLine
 10
189.7492579494
 20
237.1944432916
 30
0.0
 11
188.983889607
 21
237.2513955297
 31
0.0
  0
LINE
  5
303
330
1B
100
AcDbEntity
 67
     1
  8
SLD-0_0
  6
SLD-実線
 62
   179
370
    25
100
AcDbLine
 10
188.983889607
 20
237.2513955297
 30
0.0
 11
188.3350427572
 21
237.413564867
 31
0.0
  0
LINE
  5
304
330
1B
100
AcDbEntity
 67
     1
  8
SLD-0_0
  6
SLD-実線
 62
   179
370
    25
100
AcDbLine
 10
188.3350427572
 20
237.413564867
 30
0.0
 11
187.9014971976
 21
237.6562749805
 31
0.0
  0
LINE
  5
305
330
1B
100
AcDbEntity
 67
     1
  8
SLD-0_0
  6
SLD-実線
 62
   179
370
    25
100
AcDbLine
 10
187.9014971976
 20
237.6562749805
 30
0.0
 11
187.7492576216
 21
237.9425709905
 31
0.0
  0
LINE
  5
306
330
1B
100
AcDbEntity
 67
     1
  8
SLD-0_0
  6
SLD-実線
 62
   179
370
    25
100
AcDbLine
 10
187.7492576216
 20
237.9425709905
 30
0.0
 11
187.9014971976
 21
238.2288670005
 31
0.0
  0
LINE
  5
307
330
1B
100
AcDbEntity
 67
     1
  8
SLD-0_0
  6
SLD-実線
 62
   179
370
    25
100
AcDbLine
 10
187.9014971976
 20
238.2288670005
 30
0.0
 11
188.3350427572
 21
238.471577114
 31
0.0
  0
LINE
  5
308
330
1B
100
AcDbEntity
 67
     1
  8
SLD-0_0
  6
SLD-実線
 62
   179
370
    25
100
AcDbLine
 10
188.3350427572
 20
238.471577114
 30
0.0
 11
188.983889607
 21
238.6337539019
 31
0.0
  0
LINE
  5
309
330
1B
100
AcDbEntity
 67
     1
  8
SLD-0_0
  6
SLD-実線
 62
   179
370
    25
100
AcDbLine
 10
188.983889607
 20
238.6337539019
 30
0.0
 11
189.7492579494
 21
238.6906986894
 31
0.0
  0
LINE
  5
30A
330
1B
100
AcDbEntity
 67
     1
  8
SLD-0_0
  6
SLD-実線
 62
   179
370
    25
100
AcDbLine
 10
189.7492579494
 20
238.6906986894
 30
0.0
 11
190.5146244292
 21
238.6337539019
 31
0.0
  0
LINE
  5
30B
330
1B
100
AcDbEntity
 67
     1
  8
SLD-0_0
  6
SLD-実線
 62
   179
370
    25
100
AcDbLine
 10
190.5146244292
 20
238.6337539019
 30
0.0
 11
191.163471279
 21
238.471577114
 31
0.0
  0
LINE
  5
30C
330
1B
100
AcDbEntity
 67
     1
  8
SLD-0_0
  6
SLD-実線
 62
   179
370
    25
100
AcDbLine
 10
191.163471279
 20
238.471577114
 30
0.0
 11
191.5970168386
 21
238.2288670005
 31
0.0
  0
LINE
  5
30D
330
1B
100
AcDbEntity
 67
     1
  8
SLD-0_0
  6
SLD-実線
 62
   179
370
    25
100
AcDbLine
 10
191.5970168386
 20
238.2288670005
 30
0.0
 11
191.7492564146
 21
237.9425709905
 31
0.0
  0
LINE
  5
30E
330
1B
100
AcDbEntity
 67
     1
  8
SLD-0_0
  6
SLD-実線
 62
   179
370
    25
100
AcDbLine
 10
185.9036668513
 20
245.3002651991
 30
0.0
 11
186.0844365631
 21
245.6538399519
 31
0.0
  0
LINE
  5
30F
330
1B
100
AcDbEntity
 67
     1
  8
SLD-0_0
  6
SLD-実線
 62
   179
370
    25
100
AcDbLine
 10
186.0844365631
 20
245.6538399519
 30
0.0
 11
186.6317748402
 21
246.0556646647
 31
0.0
  0
LINE
  5
310
330
1B
100
AcDbEntity
 67
     1
  8
SLD-0_0
  6
SLD-実線
 62
   179
370
    25
100
AcDbLine
 10
186.6317748402
 20
246.0556646647
 30
0.0
 11
187.4842739974
 21
246.3745569648
 31
0.0
  0
LINE
  5
311
330
1B
100
AcDbEntity
 67
     1
  8
SLD-0_0
  6
SLD-実線
 62
   179
370
    25
100
AcDbLine
 10
187.4842739974
 20
246.3745569648
 30
0.0
 11
188.5584856693
 21
246.579291469
 31
0.0
  0
LINE
  5
312
330
1B
100
AcDbEntity
 67
     1
  8
SLD-0_0
  6
SLD-実線
 62
   179
370
    25
100
AcDbLine
 10
188.5584856693
 20
246.579291469
 30
0.0
 11
189.7492579494
 21
246.6498410167
 31
0.0
  0
LINE
  5
313
330
1B
100
AcDbEntity
 67
     1
  8
SLD-0_0
  6
SLD-実線
 62
   179
370
    25
100
AcDbLine
 10
189.7492579494
 20
246.6498410167
 30
0.0
 11
190.9400302295
 21
246.579291469
 31
0.0
  0
LINE
  5
314
330
1B
100
AcDbEntity
 67
     1
  8
SLD-0_0
  6
SLD-実線
 62
   179
370
    25
100
AcDbLine
 10
190.9400302295
 20
246.579291469
 30
0.0
 11
192.0142400388
 21
246.3745569648
 31
0.0
  0
LINE
  5
315
330
1B
100
AcDbEntity
 67
     1
  8
SLD-0_0
  6
SLD-実線
 62
   179
370
    25
100
AcDbLine
 10
192.0142400388
 20
246.3745569648
 30
0.0
 11
192.866739196
 21
246.0556646647
 31
0.0
  0
LINE
  5
316
330
1B
100
AcDbEntity
 67
     1
  8
SLD-0_0
  6
SLD-実線
 62
   179
370
    25
100
AcDbLine
 10
192.866739196
 20
246.0556646647
 30
0.0
 11
193.4140774731
 21
245.6538399519
 31
0.0
  0
LINE
  5
317
330
1B
100
AcDbEntity
 67
     1
  8
SLD-0_0
  6
SLD-実線
 62
   179
370
    25
100
AcDbLine
 10
193.4140774731
 20
245.6538399519
 30
0.0
 11
193.5800838594
 21
245.364273137
 31
0.0
  0
LINE
  5
318
330
1B
100
AcDbEntity
 67
     1
  8
SLD-0_0
  6
SLD-実線
 62
   179
370
    25
100
AcDbLine
 10
249.7492566083
 20
237.9425709905
 30
0.0
 11
249.5970170323
 21
237.6562749805
 31
0.0
  0
LINE
  5
319
330
1B
100
AcDbEntity
 67
     1
  8
SLD-0_0
  6
SLD-実線
 62
   179
370
    25
100
AcDbLine
 10
249.5970170323
 20
237.6562749805
 30
0.0
 11
249.1634714727
 21
237.413564867
 31
0.0
  0
LINE
  5
31A
330
1B
100
AcDbEntity
 67
     1
  8
SLD-0_0
  6
SLD-実線
 62
   179
370
    25
100
AcDbLine
 10
249.1634714727
 20
237.413564867
 30
0.0
 11
248.5146246229
 21
237.2513955297
 31
0.0
  0
LINE
  5
31B
330
1B
100
AcDbEntity
 67
     1
  8
SLD-0_0
  6
SLD-実線
 62
   179
370
    25
100
AcDbLine
 10
248.5146246229
 20
237.2513955297
 30
0.0
 11
247.7492562805
 21
237.1944432916
 31
0.0
  0
LINE
  5
31C
330
1B
100
AcDbEntity
 67
     1
  8
SLD-0_0
  6
SLD-実線
 62
   179
370
    25
100
AcDbLine
 10
247.7492562805
 20
237.1944432916
 30
0.0
 11
246.9838898007
 21
237.2513955297
 31
0.0
  0
LINE
  5
31D
330
1B
100
AcDbEntity
 67
     1
  8
SLD-0_0
  6
SLD-実線
 62
   179
370
    25
100
AcDbLine
 10
246.9838898007
 20
237.2513955297
 30
0.0
 11
246.3350429509
 21
237.413564867
 31
0.0
  0
LINE
  5
31E
330
1B
100
AcDbEntity
 67
     1
  8
SLD-0_0
  6
SLD-実線
 62
   179
370
    25
100
AcDbLine
 10
246.3350429509
 20
237.413564867
 30
0.0
 11
245.9014973913
 21
237.6562749805
 31
0.0
  0
LINE
  5
31F
330
1B
100
AcDbEntity
 67
     1
  8
SLD-0_0
  6
SLD-実線
 62
   179
370
    25
100
AcDbLine
 10
245.9014973913
 20
237.6562749805
 30
0.0
 11
245.7492578153
 21
237.9425709905
 31
0.0
  0
LINE
  5
320
330
1B
100
AcDbEntity
 67
     1
  8
SLD-0_0
  6
SLD-実線
 62
   179
370
    25
100
AcDbLine
 10
245.7492578153
 20
237.9425709905
 30
0.0
 11
245.9014973913
 21
238.2288670005
 31
0.0
  0
LINE
  5
321
330
1B
100
AcDbEntity
 67
     1
  8
SLD-0_0
  6
SLD-実線
 62
   179
370
    25
100
AcDbLine
 10
245.9014973913
 20
238.2288670005
 30
0.0
 11
246.3350429509
 21
238.471577114
 31
0.0
  0
LINE
  5
322
330
1B
100
AcDbEntity
 67
     1
  8
SLD-0_0
  6
SLD-実線
 62
   179
370
    25
100
AcDbLine
 10
246.3350429509
 20
238.471577114
 30
0.0
 11
246.9838898007
 21
238.6337539019
 31
0.0
  0
LINE
  5
323
330
1B
100
AcDbEntity
 67
     1
  8
SLD-0_0
  6
SLD-実線
 62
   179
370
    25
100
AcDbLine
 10
246.9838898007
 20
238.6337539019
 30
0.0
 11
247.7492562805
 21
238.6906986894
 31
0.0
  0
LINE
  5
324
330
1B
100
AcDbEntity
 67
     1
  8
SLD-0_0
  6
SLD-実線
 62
   179
370
    25
100
AcDbLine
 10
247.7492562805
 20
238.6906986894
 30
0.0
 11
248.5146246229
 21
238.6337539019
 31
0.0
  0
LINE
  5
325
330
1B
100
AcDbEntity
 67
     1
  8
SLD-0_0
  6
SLD-実線
 62
   179
370
    25
100
AcDbLine
 10
248.5146246229
 20
238.6337539019
 30
0.0
 11
249.1634714727
 21
238.471577114
 31
0.0
  0
LINE
  5
326
330
1B
100
AcDbEntity
 67
     1
  8
SLD-0_0
  6
SLD-実線
 62
   179
370
    25
100
AcDbLine
 10
249.1634714727
 20
238.471577114
 30
0.0
 11
249.5970170323
 21
238.2288670005
 31
0.0
  0
LINE
  5
327
330
1B
100
AcDbEntity
 67
     1
  8
SLD-0_0
  6
SLD-実線
 62
   179
370
    25
100
AcDbLine
 10
249.5970170323
 20
238.2288670005
 30
0.0
 11
249.7492566083
 21
237.9425709905
 31
0.0
  0
LINE
  5
328
330
1B
100
AcDbEntity
 67
     1
  8
SLD-0_0
  6
SLD-実線
 62
   179
370
    25
100
AcDbLine
 10
243.9036689077
 20
245.3002651991
 30
0.0
 11
244.0844367568
 21
245.6538399519
 31
0.0
  0
LINE
  5
329
330
1B
100
AcDbEntity
 67
     1
  8
SLD-0_0
  6
SLD-実線
 62
   179
370
    25
100
AcDbLine
 10
244.0844367568
 20
245.6538399519
 30
0.0
 11
244.6317750339
 21
246.0556646647
 31
0.0
  0
LINE
  5
32A
330
1B
100
AcDbEntity
 67
     1
  8
SLD-0_0
  6
SLD-実線
 62
   179
370
    25
100
AcDbLine
 10
244.6317750339
 20
246.0556646647
 30
0.0
 11
245.4842741911
 21
246.3745569648
 31
0.0
  0
LINE
  5
32B
330
1B
100
AcDbEntity
 67
     1
  8
SLD-0_0
  6
SLD-実線
 62
   179
370
    25
100
AcDbLine
 10
245.4842741911
 20
246.3745569648
 30
0.0
 11
246.5584840004
 21
246.579291469
 31
0.0
  0
LINE
  5
32C
330
1B
100
AcDbEntity
 67
     1
  8
SLD-0_0
  6
SLD-実線
 62
   179
370
    25
100
AcDbLine
 10
246.5584840004
 20
246.579291469
 30
0.0
 11
247.7492562805
 21
246.6498410167
 31
0.0
  0
LINE
  5
32D
330
1B
100
AcDbEntity
 67
     1
  8
SLD-0_0
  6
SLD-実線
 62
   179
370
    25
100
AcDbLine
 10
247.7492562805
 20
246.6498410167
 30
0.0
 11
248.9400285606
 21
246.579291469
 31
0.0
  0
LINE
  5
32E
330
1B
100
AcDbEntity
 67
     1
  8
SLD-0_0
  6
SLD-実線
 62
   179
370
    25
100
AcDbLine
 10
248.9400285606
 20
246.579291469
 30
0.0
 11
250.0142402325
 21
246.3745569648
 31
0.0
  0
LINE
  5
32F
330
1B
100
AcDbEntity
 67
     1
  8
SLD-0_0
  6
SLD-実線
 62
   179
370
    25
100
AcDbLine
 10
250.0142402325
 20
246.3745569648
 30
0.0
 11
250.8667393897
 21
246.0556646647
 31
0.0
  0
LINE
  5
330
330
1B
100
AcDbEntity
 67
     1
  8
SLD-0_0
  6
SLD-実線
 62
   179
370
    25
100
AcDbLine
 10
250.8667393897
 20
246.0556646647
 30
0.0
 11
251.4140776668
 21
245.6538399519
 31
0.0
  0
LINE
  5
331
330
1B
100
AcDbEntity
 67
     1
  8
SLD-0_0
  6
SLD-実線
 62
   179
370
    25
100
AcDbLine
 10
251.4140776668
 20
245.6538399519
 30
0.0
 11
251.5800840531
 21
245.364273137
 31
0.0
  0
LINE
  5
332
330
1B
100
AcDbEntity
 67
     1
  8
SLD-0_0
  6
SLD-実線
 62
   179
370
    25
100
AcDbLine
 10
207.811514226
 20
221.1718952121
 30
0.0
 11
210.249256653
 21
221.1718952121
 31
0.0
  0
LINE
  5
333
330
1B
100
AcDbEntity
 67
     1
  8
SLD-0_0
  6
SLD-実線
 62
   179
370
    25
100
AcDbLine
 10
210.249256653
 20
221.1718952121
 30
0.0
 11
210.249256653
 21
225.6692444744
 31
0.0
  0
LINE
  5
334
330
1B
100
AcDbEntity
 67
     1
  8
SLD-0_0
  6
SLD-実線
 62
   179
370
    25
100
AcDbLine
 10
213.2492571447
 20
225.6692444744
 30
0.0
 11
210.249256653
 21
225.6692444744
 31
0.0
  0
LINE
  5
335
330
1B
100
AcDbEntity
 67
     1
  8
SLD-0_0
  6
SLD-実線
 62
   179
370
    25
100
AcDbLine
 10
213.2492571447
 20
221.1718952121
 30
0.0
 11
213.2492571447
 21
225.6692444744
 31
0.0
  0
LINE
  5
336
330
1B
100
AcDbEntity
 67
     1
  8
SLD-0_0
  6
SLD-実線
 62
   179
370
    25
100
AcDbLine
 10
213.2492571447
 20
221.1718952121
 30
0.0
 11
224.2492570851
 21
221.1718952121
 31
0.0
  0
LINE
  5
337
330
1B
100
AcDbEntity
 67
     1
  8
SLD-0_0
  6
SLD-実線
 62
   179
370
    25
100
AcDbLine
 10
224.2492570851
 20
221.1718952121
 30
0.0
 11
224.2492570851
 21
225.6692444744
 31
0.0
  0
LINE
  5
338
330
1B
100
AcDbEntity
 67
     1
  8
SLD-0_0
  6
SLD-実線
 62
   179
370
    25
100
AcDbLine
 10
227.2492575769
 20
225.6692444744
 30
0.0
 11
224.2492570851
 21
225.6692444744
 31
0.0
  0
LINE
  5
339
330
1B
100
AcDbEntity
 67
     1
  8
SLD-0_0
  6
SLD-実線
 62
   179
370
    25
100
AcDbLine
 10
227.2492575769
 20
221.1718952121
 30
0.0
 11
227.2492575769
 21
225.6692444744
 31
0.0
  0
LINE
  5
33A
330
1B
100
AcDbEntity
 67
     1
  8
SLD-0_0
  6
SLD-実線
 62
   179
370
    25
100
AcDbLine
 10
227.2492575769
 20
221.1718952121
 30
0.0
 11
229.6870000039
 21
221.1718952121
 31
0.0
  0
LINE
  5
33B
330
1B
100
AcDbEntity
 67
     1
  8
SLD-0_0
  6
SLD-実線
 62
   179
370
    25
100
AcDbLine
 10
221.749257141
 20
218.7376936736
 30
0.0
 11
221.749257141
 21
219.1730758013
 31
0.0
  0
LINE
  5
33C
330
1B
100
AcDbEntity
 67
     1
  8
SLD-0_0
  6
SLD-実線
 62
   179
370
    25
100
AcDbLine
 10
221.749257141
 20
219.1730758013
 30
0.0
 11
215.7492570889
 21
219.1730758013
 31
0.0
  0
LINE
  5
33D
330
1B
100
AcDbEntity
 67
     1
  8
SLD-0_0
  6
SLD-実線
 62
   179
370
    25
100
AcDbLine
 10
215.7492570889
 20
219.1730758013
 30
0.0
 11
215.7492570889
 21
218.7376936736
 31
0.0
  0
LINE
  5
33E
330
1B
100
AcDbEntity
 67
     1
  8
SLD-0_0
  6
SLD-実線
 62
   179
370
    25
100
AcDbLine
 10
207.7492571745
 20
221.5104197921
 30
0.0
 11
208.0596176286
 21
221.4875539603
 31
0.0
  0
LINE
  5
33F
330
1B
100
AcDbEntity
 67
     1
  8
SLD-0_0
  6
SLD-実線
 62
   179
370
    25
100
AcDbLine
 10
208.0596176286
 20
221.4875539603
 30
0.0
 11
208.2492572565
 21
221.4485576214
 31
0.0
  0
LINE
  5
340
330
1B
100
AcDbEntity
 67
     1
  8
SLD-0_0
  6
SLD-実線
 62
   179
370
    25
100
AcDbLine
 10
216.7492570199
 20
224.1740619602
 30
0.0
 11
216.7492570199
 21
224.1591533484
 31
0.0
  0
LINE
  5
341
330
1B
100
AcDbEntity
 67
     1
  8
SLD-0_0
  6
SLD-実線
 62
   179
370
    25
100
AcDbLine
 10
220.7492572099
 20
224.1591533484
 30
0.0
 11
220.7492572099
 21
224.1742258729
 31
0.0
  0
LINE
  5
342
330
1B
100
AcDbEntity
 67
     1
  8
SLD-0_0
  6
SLD-実線
 62
   179
370
    25
100
AcDbLine
 10
184.0492583189
 20
237.9425709905
 30
0.0
 11
184.0492583189
 21
218.7376936736
 31
0.0
  0
LINE
  5
343
330
1B
100
AcDbEntity
 67
     1
  8
SLD-0_0
  6
SLD-実線
 62
   179
370
    25
100
AcDbLine
 10
189.7492579494
 20
240.0747408928
 30
0.0
 11
188.6372420315
 21
240.0337701501
 31
0.0
  0
LINE
  5
344
330
1B
100
AcDbEntity
 67
     1
  8
SLD-0_0
  6
SLD-実線
 62
   179
370
    25
100
AcDbLine
 10
188.6372420315
 20
240.0337701501
 30
0.0
 11
187.5679607813
 21
239.9124374451
 31
0.0
  0
LINE
  5
345
330
1B
100
AcDbEntity
 67
     1
  8
SLD-0_0
  6
SLD-実線
 62
   179
370
    25
100
AcDbLine
 10
187.5679607813
 20
239.9124374451
 30
0.0
 11
186.582507876
 21
239.7154068412
 31
0.0
  0
LINE
  5
346
330
1B
100
AcDbEntity
 67
     1
  8
SLD-0_0
  6
SLD-実線
 62
   179
370
    25
100
AcDbLine
 10
186.582507876
 20
239.7154068412
 30
0.0
 11
185.7187471662
 21
239.4502406778
 31
0.0
  0
LINE
  5
347
330
1B
100
AcDbEntity
 67
     1
  8
SLD-0_0
  6
SLD-実線
 62
   179
370
    25
100
AcDbLine
 10
185.7187471662
 20
239.4502406778
 30
0.0
 11
185.0098803018
 21
239.1271387996
 31
0.0
  0
LINE
  5
348
330
1B
100
AcDbEntity
 67
     1
  8
SLD-0_0
  6
SLD-実線
 62
   179
370
    25
100
AcDbLine
 10
185.0098803018
 20
239.1271387996
 30
0.0
 11
184.48314288
 21
238.7585213246
 31
0.0
  0
LINE
  5
349
330
1B
100
AcDbEntity
 67
     1
  8
SLD-0_0
  6
SLD-実線
 62
   179
370
    25
100
AcDbLine
 10
184.48314288
 20
238.7585213246
 30
0.0
 11
184.1587818537
 21
238.3585369052
 31
0.0
  0
LINE
  5
34A
330
1B
100
AcDbEntity
 67
     1
  8
SLD-0_0
  6
SLD-実線
 62
   179
370
    25
100
AcDbLine
 10
184.1587818537
 20
238.3585369052
 30
0.0
 11
184.0492583189
 21
237.9425709905
 31
0.0
  0
LINE
  5
34B
330
1B
100
AcDbEntity
 67
     1
  8
SLD-0_0
  6
SLD-実線
 62
   179
370
    25
100
AcDbLine
 10
248.7492564444
 20
240.0747408928
 30
0.0
 11
189.7492579494
 21
240.0747408928
 31
0.0
  0
LINE
  5
34C
330
1B
100
AcDbEntity
 67
     1
  8
SLD-0_0
  6
SLD-実線
 62
   179
370
    25
100
AcDbLine
 10
254.4492579375
 20
237.9425709905
 30
0.0
 11
254.3397344027
 21
238.3585369052
 31
0.0
  0
LINE
  5
34D
330
1B
100
AcDbEntity
 67
     1
  8
SLD-0_0
  6
SLD-実線
 62
   179
370
    25
100
AcDbLine
 10
254.3397344027
 20
238.3585369052
 30
0.0
 11
254.0153696511
 21
238.7585213246
 31
0.0
  0
LINE
  5
34E
330
1B
100
AcDbEntity
 67
     1
  8
SLD-0_0
  6
SLD-実線
 62
   179
370
    25
100
AcDbLine
 10
254.0153696511
 20
238.7585213246
 30
0.0
 11
253.4886322294
 21
239.1271387996
 31
0.0
  0
LINE
  5
34F
330
1B
100
AcDbEntity
 67
     1
  8
SLD-0_0
  6
SLD-実線
 62
   179
370
    25
100
AcDbLine
 10
253.4886322294
 20
239.1271387996
 30
0.0
 11
252.7797653649
 21
239.4502406778
 31
0.0
  0
LINE
  5
350
330
1B
100
AcDbEntity
 67
     1
  8
SLD-0_0
  6
SLD-実線
 62
   179
370
    25
100
AcDbLine
 10
252.7797653649
 20
239.4502406778
 30
0.0
 11
251.9160083805
 21
239.7154068412
 31
0.0
  0
LINE
  5
351
330
1B
100
AcDbEntity
 67
     1
  8
SLD-0_0
  6
SLD-実線
 62
   179
370
    25
100
AcDbLine
 10
251.9160083805
 20
239.7154068412
 30
0.0
 11
250.9305536125
 21
239.9124374451
 31
0.0
  0
LINE
  5
352
330
1B
100
AcDbEntity
 67
     1
  8
SLD-0_0
  6
SLD-実線
 62
   179
370
    25
100
AcDbLine
 10
250.9305536125
 20
239.9124374451
 30
0.0
 11
249.8612723623
 21
240.0337701501
 31
0.0
  0
LINE
  5
353
330
1B
100
AcDbEntity
 67
     1
  8
SLD-0_0
  6
SLD-実線
 62
   179
370
    25
100
AcDbLine
 10
249.8612723623
 20
240.0337701501
 30
0.0
 11
248.7492564444
 21
240.0747408928
 31
0.0
  0
LINE
  5
354
330
1B
100
AcDbEntity
 67
     1
  8
SLD-0_0
  6
SLD-実線
 62
   179
370
    25
100
AcDbLine
 10
254.4492579375
 20
218.7376936736
 30
0.0
 11
254.4492579375
 21
237.9425709905
 31
0.0
  0
LINE
  5
355
330
1B
100
AcDbEntity
 67
     1
  8
SLD-0_0
  6
SLD-実線
 62
   179
370
    25
100
AcDbLine
 10
253.2492562507
 20
218.7376936736
 30
0.0
 11
253.2492562507
 21
237.9425709905
 31
0.0
  0
LINE
  5
356
330
1B
100
AcDbEntity
 67
     1
  8
SLD-0_0
  6
SLD-実線
 62
   179
370
    25
100
AcDbLine
 10
248.7492564444
 20
239.625858313
 30
0.0
 11
249.6271639441
 21
239.5935153427
 31
0.0
  0
LINE
  5
357
330
1B
100
AcDbEntity
 67
     1
  8
SLD-0_0
  6
SLD-実線
 62
   179
370
    25
100
AcDbLine
 10
249.6271639441
 20
239.5935153427
 30
0.0
 11
250.4713333521
 21
239.4977306785
 31
0.0
  0
LINE
  5
358
330
1B
100
AcDbEntity
 67
     1
  8
SLD-0_0
  6
SLD-実線
 62
   179
370
    25
100
AcDbLine
 10
250.4713333521
 20
239.4977306785
 30
0.0
 11
251.2493229781
 21
239.3421774568
 31
0.0
  0
LINE
  5
359
330
1B
100
AcDbEntity
 67
     1
  8
SLD-0_0
  6
SLD-実線
 62
   179
370
    25
100
AcDbLine
 10
251.2493229781
 20
239.3421774568
 30
0.0
 11
251.9312373672
 21
239.1328384938
 31
0.0
  0
LINE
  5
35A
330
1B
100
AcDbEntity
 67
     1
  8
SLD-0_0
  6
SLD-実線
 62
   179
370
    25
100
AcDbLine
 10
251.9312373672
 20
239.1328384938
 30
0.0
 11
252.4908691023
 21
238.8777604164
 31
0.0
  0
LINE
  5
35B
330
1B
100
AcDbEntity
 67
     1
  8
SLD-0_0
  6
SLD-実線
 62
   179
370
    25
100
AcDbLine
 10
252.4908691023
 20
238.8777604164
 30
0.0
 11
252.9067158077
 21
238.5867407383
 31
0.0
  0
LINE
  5
35C
330
1B
100
AcDbEntity
 67
     1
  8
SLD-0_0
  6
SLD-実線
 62
   179
370
    25
100
AcDbLine
 10
252.9067158077
 20
238.5867407383
 30
0.0
 11
253.1627922628
 21
238.2709702315
 31
0.0
  0
LINE
  5
35D
330
1B
100
AcDbEntity
 67
     1
  8
SLD-0_0
  6
SLD-実線
 62
   179
370
    25
100
AcDbLine
 10
253.1627922628
 20
238.2709702315
 30
0.0
 11
253.2492562507
 21
237.9425709905
 31
0.0
  0
LINE
  5
35E
330
1B
100
AcDbEntity
 67
     1
  8
SLD-0_0
  6
SLD-実線
 62
   179
370
    25
100
AcDbLine
 10
248.7492564444
 20
239.625858313
 30
0.0
 11
189.7492579494
 21
239.625858313
 31
0.0
  0
LINE
  5
35F
330
1B
100
AcDbEntity
 67
     1
  8
SLD-0_0
  6
SLD-実線
 62
   179
370
    25
100
AcDbLine
 10
185.2492562805
 20
237.9425709905
 30
0.0
 11
185.3357239936
 21
238.2709702315
 31
0.0
  0
LINE
  5
360
330
1B
100
AcDbEntity
 67
     1
  8
SLD-0_0
  6
SLD-実線
 62
   179
370
    25
100
AcDbLine
 10
185.3357239936
 20
238.2709702315
 30
0.0
 11
185.5918004487
 21
238.5867407383
 31
0.0
  0
LINE
  5
361
330
1B
100
AcDbEntity
 67
     1
  8
SLD-0_0
  6
SLD-実線
 62
   179
370
    25
100
AcDbLine
 10
185.5918004487
 20
238.5867407383
 30
0.0
 11
186.0076434288
 21
238.8777604164
 31
0.0
  0
LINE
  5
362
330
1B
100
AcDbEntity
 67
     1
  8
SLD-0_0
  6
SLD-実線
 62
   179
370
    25
100
AcDbLine
 10
186.0076434288
 20
238.8777604164
 30
0.0
 11
186.5672751639
 21
239.1328384938
 31
0.0
  0
LINE
  5
363
330
1B
100
AcDbEntity
 67
     1
  8
SLD-0_0
  6
SLD-実線
 62
   179
370
    25
100
AcDbLine
 10
186.5672751639
 20
239.1328384938
 30
0.0
 11
187.2491895531
 21
239.3421774568
 31
0.0
  0
LINE
  5
364
330
1B
100
AcDbEntity
 67
     1
  8
SLD-0_0
  6
SLD-実線
 62
   179
370
    25
100
AcDbLine
 10
187.2491895531
 20
239.3421774568
 30
0.0
 11
188.0271810416
 21
239.4977306785
 31
0.0
  0
LINE
  5
365
330
1B
100
AcDbEntity
 67
     1
  8
SLD-0_0
  6
SLD-実線
 62
   179
370
    25
100
AcDbLine
 10
188.0271810416
 20
239.4977306785
 30
0.0
 11
188.8713504497
 21
239.5935153427
 31
0.0
  0
LINE
  5
366
330
1B
100
AcDbEntity
 67
     1
  8
SLD-0_0
  6
SLD-実線
 62
   179
370
    25
100
AcDbLine
 10
188.8713504497
 20
239.5935153427
 30
0.0
 11
189.7492579494
 21
239.625858313
 31
0.0
  0
LINE
  5
367
330
1B
100
AcDbEntity
 67
     1
  8
SLD-0_0
  6
SLD-実線
 62
   179
370
    25
100
AcDbLine
 10
185.2492562805
 20
237.9425709905
 30
0.0
 11
185.2492562805
 21
218.7376936736
 31
0.0
  0
LINE
  5
368
330
1B
100
AcDbEntity
 67
     1
  8
SLD-0_0
  6
SLD-実線
 62
   179
370
    25
100
AcDbLine
 10
184.0492583189
 20
237.9425709905
 30
0.0
 11
184.0492583189
 21
241.930404848
 31
0.0
  0
LINE
  5
369
330
1B
100
AcDbEntity
 67
     1
  8
SLD-0_0
  6
SLD-実線
 62
   179
370
    25
100
AcDbLine
 10
254.4492579374
 20
241.930404848
 30
0.0
 11
254.4492579375
 21
237.9425709905
 31
0.0
  0
LINE
  5
36A
330
1B
100
AcDbEntity
 67
     1
  8
SLD-0_0
  6
SLD-実線
 62
   179
370
    25
100
AcDbLine
 10
247.2492571298
 20
237.2182031931
 30
0.0
 11
247.2492571298
 21
218.7376936736
 31
0.0
  0
LINE
  5
36B
330
1B
100
AcDbEntity
 67
     1
  8
SLD-0_0
  6
SLD-実線
 62
   179
370
    25
100
AcDbLine
 10
190.2492571
 20
218.7376936736
 30
0.0
 11
190.2492571
 21
237.2182031931
 31
0.0
  0
LINE
  5
36C
330
1B
100
AcDbEntity
 67
     1
  8
SLD-0_0
  6
SLD-実線
 62
   179
370
    25
100
AcDbLine
 10
186.249258307
 20
218.7376936736
 30
0.0
 11
186.249258307
 21
239.0005832376
 31
0.0
  0
LINE
  5
36D
330
1B
100
AcDbEntity
 67
     1
  8
SLD-0_0
  6
SLD-実線
 62
   179
370
    25
100
AcDbLine
 10
251.2492559228
 20
239.342192358
 30
0.0
 11
251.2492559228
 21
218.7376936736
 31
0.0
  0
LINE
  5
36E
330
1B
100
AcDbEntity
 67
     1
  8
SLD-0_0
  6
SLD-実線
 62
   179
370
    25
100
AcDbLine
 10
191.7492564146
 20
238.3541336121
 30
0.0
 11
191.8924025569
 21
238.4017949762
 31
0.0
  0
LINE
  5
36F
330
1B
100
AcDbEntity
 67
     1
  8
SLD-0_0
  6
SLD-実線
 62
   179
370
    25
100
AcDbLine
 10
191.8924025569
 20
238.4017949762
 30
0.0
 11
192.0718386147
 21
238.4483685555
 31
0.0
  0
LINE
  5
370
330
1B
100
AcDbEntity
 67
     1
  8
SLD-0_0
  6
SLD-実線
 62
   179
370
    25
100
AcDbLine
 10
195.330474836
 20
239.5160591068
 30
0.0
 11
242.1680393938
 21
239.5160591068
 31
0.0
  0
LINE
  5
371
330
1B
100
AcDbEntity
 67
     1
  8
SLD-0_0
  6
SLD-実線
 62
   179
370
    25
100
AcDbLine
 10
245.4266756151
 20
238.4483685555
 30
0.0
 11
245.6061116729
 21
238.4017949762
 31
0.0
  0
LINE
  5
372
330
1B
100
AcDbEntity
 67
     1
  8
SLD-0_0
  6
SLD-実線
 62
   179
370
    25
100
AcDbLine
 10
245.6061116729
 20
238.4017949762
 30
0.0
 11
245.7492578153
 21
238.3541336121
 31
0.0
  0
LINE
  5
373
330
1B
100
AcDbEntity
 67
     1
  8
SLD-0_0
  6
SLD-実線
 62
   179
370
    25
100
AcDbLine
 10
246.2492569659
 20
237.4477332296
 30
0.0
 11
246.2492569659
 21
218.7376936736
 31
0.0
  0
LINE
  5
374
330
1B
100
AcDbEntity
 67
     1
  8
SLD-0_0
  6
SLD-実線
 62
   179
370
    25
100
AcDbLine
 10
191.2492572639
 20
218.7376936736
 30
0.0
 11
191.2492572639
 21
237.4477332296
 31
0.0
  0
LINE
  5
375
330
1B
100
AcDbEntity
 67
     1
  8
SLD-0_0
  6
SLD-実線
 62
   179
370
    25
100
AcDbLine
 10
193.0492579315
 20
218.7376936736
 30
0.0
 11
193.0492579315
 21
235.4663258256
 31
0.0
  0
LINE
  5
376
330
1B
100
AcDbEntity
 67
     1
  8
SLD-0_0
  6
SLD-実線
 62
   179
370
    25
100
AcDbLine
 10
244.4492562984
 20
235.4663258256
 30
0.0
 11
244.4492562984
 21
218.7376936736
 31
0.0
  0
LINE
  5
377
330
1B
100
AcDbEntity
 67
     1
  8
SLD-0_0
  6
SLD-実線
 62
   179
370
    25
100
AcDbLine
 10
219.8668204557
 20
63.1372576417
 30
0.0
 11
220.9941526719
 21
63.6289587082
 31
0.0
  0
LINE
  5
378
330
1B
100
AcDbEntity
 67
     1
  8
SLD-0_0
  6
SLD-実線
 62
   179
370
    25
100
AcDbLine
 10
220.9941526719
 20
63.6289587082
 30
0.0
 11
221.9043931302
 21
64.3903037371
 31
0.0
  0
LINE
  5
379
330
1B
100
AcDbEntity
 67
     1
  8
SLD-0_0
  6
SLD-実線
 62
   179
370
    25
100
AcDbLine
 10
285.4897178088
 20
110.8150837781
 30
0.0
 11
286.6170502577
 21
111.3067867072
 31
0.0
  0
LINE
  5
37A
330
1B
100
AcDbEntity
 67
     1
  8
SLD-0_0
  6
SLD-実線
 62
   179
370
    25
100
AcDbLine
 10
286.6170502577
 20
111.3067867072
 30
0.0
 11
287.5272951398
 21
112.0681298735
 31
0.0
  0
LINE
  5
37B
330
1B
100
AcDbEntity
 67
     1
  8
SLD-0_0
  6
SLD-実線
 62
   179
370
    25
100
AcDbLine
 10
149.0164942418
 20
115.9978957685
 30
0.0
 11
148.8786585007
 21
114.7757472308
 31
0.0
  0
LINE
  5
37C
330
1B
100
AcDbEntity
 67
     1
  8
SLD-0_0
  6
SLD-実線
 62
   179
370
    25
100
AcDbLine
 10
148.8786585007
 20
114.7757472308
 30
0.0
 11
149.0828789149
 21
113.6067846628
 31
0.0
  0
LINE
  5
37D
330
1B
100
AcDbEntity
 67
     1
  8
SLD-0_0
  6
SLD-実線
 62
   179
370
    25
100
AcDbLine
 10
175.1997753356
 20
189.041806555
 30
0.0
 11
176.1892683182
 21
188.3113590838
 31
0.0
  0
LINE
  5
37E
330
1B
100
AcDbEntity
 67
     1
  8
SLD-0_0
  6
SLD-実線
 62
   179
370
    25
100
AcDbLine
 10
176.1892683182
 20
188.3113590838
 30
0.0
 11
177.3037336145
 21
187.9037415447
 31
0.0
  0
LINE
  5
37F
330
1B
100
AcDbEntity
 67
     1
  8
SLD-0_0
  6
SLD-実線
 62
   179
370
    25
100
AcDbLine
 10
260.4240014527
 20
187.9594309093
 30
0.0
 11
261.5513339017
 21
188.4511319758
 31
0.0
  0
LINE
  5
380
330
1B
100
AcDbEntity
 67
     1
  8
SLD-0_0
  6
SLD-実線
 62
   179
370
    25
100
AcDbLine
 10
261.5513339017
 20
188.4511319758
 30
0.0
 11
262.4615750585
 21
189.2124770047
 31
0.0
  0
LINE
  5
381
330
1B
100
AcDbEntity
 67
     1
  8
SLD-0_0
  6
SLD-実線
 62
   179
370
    25
100
AcDbLine
 10
157.1906838419
 20
112.7212976911
 30
0.0
 11
157.1247258933
 21
115.0297548887
 31
0.0
  0
LINE
  5
382
330
1B
100
AcDbEntity
 67
     1
  8
SLD-0_0
  6
SLD-実線
 62
   179
370
    25
100
AcDbLine
 10
149.0620321774
 20
117.1097389163
 30
0.0
 11
149.1279891317
 21
114.8012791437
 31
0.0
  0
LINE
  5
383
330
1B
100
AcDbEntity
 67
     1
  8
SLD-0_0
  6
SLD-実線
 62
   179
370
    25
100
AcDbLine
 10
153.2582662378
 20
110.2986002179
 30
0.0
 11
155.2244756224
 21
111.50994877
 31
0.0
  0
LINE
  5
384
330
1B
100
AcDbEntity
 67
     1
  8
SLD-0_0
  6
SLD-実線
 62
   179
370
    25
100
AcDbLine
 10
149.1939434481
 20
112.4928211047
 30
0.0
 11
151.2261060048
 21
111.395710361
 31
0.0
  0
LINE
  5
385
330
1B
100
AcDbEntity
 67
     1
  8
SLD-0_0
  6
SLD-実線
 62
   179
370
    25
100
AcDbLine
 10
152.9944498466
 20
119.5324370524
 30
0.0
 11
151.028240576
 21
118.3210875467
 31
0.0
  0
LINE
  5
386
330
1B
100
AcDbEntity
 67
     1
  8
SLD-0_0
  6
SLD-実線
 62
   179
370
    25
100
AcDbLine
 10
157.0587723399
 20
117.3382149186
 30
0.0
 11
155.0266098971
 21
118.4353247087
 31
0.0
  0
LINE
  5
387
330
1B
100
AcDbEntity
 67
     1
  8
SLD-0_0
  6
SLD-実線
 62
   179
370
    25
100
AcDbLine
 10
255.3740271903
 20
189.6371641135
 30
0.0
 11
257.4061887729
 21
188.5400551877
 31
0.0
  0
LINE
  5
388
330
1B
100
AcDbEntity
 67
     1
  8
SLD-0_0
  6
SLD-実線
 62
   179
370
    25
100
AcDbLine
 10
263.2388517434
 20
194.4825602698
 30
0.0
 11
261.2066883266
 21
195.5796718777
 31
0.0
  0
LINE
  5
389
330
1B
100
AcDbEntity
 67
     1
  8
SLD-0_0
  6
SLD-実線
 62
   179
370
    25
100
AcDbLine
 10
259.4383529697
 20
187.4429454865
 30
0.0
 11
261.4045576549
 21
188.6542939938
 31
0.0
  0
LINE
  5
38A
330
1B
100
AcDbEntity
 67
     1
  8
SLD-0_0
  6
SLD-実線
 62
   179
370
    25
100
AcDbLine
 10
259.1745278209
 20
196.6767815157
 30
0.0
 11
257.2083213014
 21
195.4654319652
 31
0.0
  0
LINE
  5
38B
330
1B
100
AcDbEntity
 67
     1
  8
SLD-0_0
  6
SLD-実線
 62
   179
370
    25
100
AcDbLine
 10
255.2421151392
 20
194.2540857515
 30
0.0
 11
255.3080711195
 21
191.9456259341
 31
0.0
  0
LINE
  5
38C
330
1B
100
AcDbEntity
 67
     1
  8
SLD-0_0
  6
SLD-実線
 62
   179
370
    25
100
AcDbLine
 10
263.3707658744
 20
189.8656429149
 30
0.0
 11
263.3048078669
 21
192.1741021759
 31
0.0
  0
LINE
  5
38D
330
1B
100
AcDbEntity
 67
     1
  8
SLD-0_0
  6
SLD-実線
 62
   179
370
    25
100
AcDbLine
 10
174.2596620039
 20
189.637163323
 30
0.0
 11
176.2918254208
 21
188.5400543972
 31
0.0
  0
LINE
  5
38E
330
1B
100
AcDbEntity
 67
     1
  8
SLD-0_0
  6
SLD-実線
 62
   179
370
    25
100
AcDbLine
 10
178.0601622092
 20
196.6767821557
 30
0.0
 11
176.093957524
 21
195.4654326052
 31
0.0
  0
LINE
  5
38F
330
1B
100
AcDbEntity
 67
     1
  8
SLD-0_0
  6
SLD-実線
 62
   179
370
    25
100
AcDbLine
 10
182.1244870939
 20
194.4825591895
 30
0.0
 11
180.0923255113
 21
195.5796707974
 31
0.0
  0
LINE
  5
390
330
1B
100
AcDbEntity
 67
     1
  8
SLD-0_0
  6
SLD-実線
 62
   179
370
    25
100
AcDbLine
 10
174.1277485109
 20
194.2540849722
 30
0.0
 11
174.1937063254
 21
191.9456251548
 31
0.0
  0
LINE
  5
391
330
1B
100
AcDbEntity
 67
     1
  8
SLD-0_0
  6
SLD-実線
 62
   179
370
    25
100
AcDbLine
 10
178.3239863191
 20
187.4429454865
 30
0.0
 11
180.2901928386
 21
188.6542939938
 31
0.0
  0
LINE
  5
392
330
1B
100
AcDbEntity
 67
     1
  8
SLD-0_0
  6
SLD-実線
 62
   179
370
    25
100
AcDbLine
 10
182.2563973328
 20
189.8656429149
 30
0.0
 11
182.1904430815
 21
192.1741010918
 31
0.0
  0
LINE
  5
393
330
1B
100
AcDbEntity
 67
     1
  8
SLD-0_0
  6
SLD-実線
 62
   179
370
    25
100
AcDbLine
 10
214.6849327785
 20
69.4319113213
 30
0.0
 11
214.7508887445
 21
67.1234521596
 31
0.0
  0
LINE
  5
394
330
1B
100
AcDbEntity
 67
     1
  8
SLD-0_0
  6
SLD-実線
 62
   179
370
    25
100
AcDbLine
 10
218.8811690623
 20
62.6207759442
 30
0.0
 11
220.8473752467
 21
63.8321213819
 31
0.0
  0
LINE
  5
395
330
1B
100
AcDbEntity
 67
     1
  8
SLD-0_0
  6
SLD-実線
 62
   179
370
    25
100
AcDbLine
 10
214.8168452467
 20
64.8149940766
 30
0.0
 11
216.8490072808
 21
63.7178820812
 31
0.0
  0
LINE
  5
396
330
1B
100
AcDbEntity
 67
     1
  8
SLD-0_0
  6
SLD-実線
 62
   179
370
    25
100
AcDbLine
 10
222.6816716745
 20
69.6603887181
 30
0.0
 11
220.6495096404
 21
70.7574972564
 31
0.0
  0
LINE
  5
397
330
1B
100
AcDbEntity
 67
     1
  8
SLD-0_0
  6
SLD-実線
 62
   179
370
    25
100
AcDbLine
 10
222.8135813708
 20
65.0434740283
 30
0.0
 11
222.7476254303
 21
67.3519305566
 31
0.0
  0
LINE
  5
398
330
1B
100
AcDbEntity
 67
     1
  8
SLD-0_0
  6
SLD-実線
 62
   179
370
    25
100
AcDbLine
 10
218.617347145
 20
71.8546095218
 30
0.0
 11
216.6511409606
 21
70.643260627
 31
0.0
  0
LINE
  5
399
330
1B
100
AcDbEntity
 67
     1
  8
SLD-0_0
  6
SLD-実線
 62
   179
370
    25
100
AcDbLine
 10
280.439742899
 20
112.4928210571
 30
0.0
 11
282.4719053417
 21
111.3957103134
 31
0.0
  0
LINE
  5
39A
330
1B
100
AcDbEntity
 67
     1
  8
SLD-0_0
  6
SLD-実線
 62
   179
370
    25
100
AcDbLine
 10
284.5040656004
 20
110.2986002179
 30
0.0
 11
286.4702748711
 21
111.50994877
 31
0.0
  0
LINE
  5
39B
330
1B
100
AcDbEntity
 67
     1
  8
SLD-0_0
  6
SLD-実線
 62
   179
370
    25
100
AcDbLine
 10
284.2402493144
 20
119.5324371172
 30
0.0
 11
282.2740399298
 21
118.3210876115
 31
0.0
  0
LINE
  5
39C
330
1B
100
AcDbEntity
 67
     1
  8
SLD-0_0
  6
SLD-実線
 62
   179
370
    25
100
AcDbLine
 10
288.4364830906
 20
112.7212976911
 30
0.0
 11
288.3705251414
 21
115.0297549108
 31
0.0
  0
LINE
  5
39D
330
1B
100
AcDbEntity
 67
     1
  8
SLD-0_0
  6
SLD-実線
 62
   179
370
    25
100
AcDbLine
 10
288.3045718451
 20
117.3382148416
 30
0.0
 11
286.2724092884
 21
118.4353246317
 31
0.0
  0
LINE
  5
39E
330
1B
100
AcDbEntity
 67
     1
  8
SLD-0_0
  6
SLD-実線
 62
   179
370
    25
100
AcDbLine
 10
280.3078315385
 20
117.1097389693
 30
0.0
 11
280.3737883789
 21
114.8012791967
 31
0.0
  0
LINE
  5
39F
330
1B
100
AcDbEntity
 67
     1
  8
SLD-0_0
  6
SLD-実線
 62
   179
370
    25
100
AcDbLine
 10
144.7492561613
 20
141.2376902835
 30
0.0
 11
144.7492561613
 21
136.2376903953
 31
0.0
  0
LINE
  5
3A0
330
1B
100
AcDbEntity
 67
     1
  8
SLD-0_0
  6
SLD-実線
 62
   179
370
    25
100
AcDbLine
 10
144.7492561613
 20
136.2376903953
 30
0.0
 11
144.7492561613
 21
131.2376905071
 31
0.0
  0
LINE
  5
3A1
330
1B
100
AcDbEntity
 67
     1
  8
SLD-0_0
  6
SLD-実線
 62
   179
370
    25
100
AcDbLine
 10
301.249257828
 20
192.7509636612
 30
0.0
 11
301.249258419
 21
79.7244195218
 31
0.0
  0
LINE
  5
3A2
330
1B
100
AcDbEntity
 67
     1
  8
SLD-0_0
  6
SLD-実線
 62
   179
370
    25
100
AcDbLine
 10
275.2625298922
 20
53.7376903953
 30
0.0
 11
162.2359848891
 21
53.737687117
 31
0.0
  0
LINE
  5
3A3
330
1B
100
AcDbEntity
 67
     1
  8
SLD-0_0
  6
SLD-実線
 62
   179
370
    25
100
AcDbLine
 10
136.2492538367
 20
79.7244181694
 30
0.0
 11
136.2492538367
 21
192.7509626212
 31
0.0
  0
LINE
  5
3A4
330
1B
100
AcDbEntity
 67
     1
  8
SLD-0_0
  6
SLD-実線
 62
   179
370
    25
100
AcDbLine
 10
162.2359829853
 20
218.7376923694
 30
0.0
 11
275.2625285399
 21
218.7376923694
 31
0.0
  0
LINE
  5
3A5
330
1B
100
AcDbEntity
 67
     1
  8
SLD-0_0
  6
SLD-実線
 62
   179
370
    25
100
AcDbLine
 10
118.7492556248
 20
116.2376908423
 30
0.0
 11
118.7492556248
 21
113.2376903506
 31
0.0
  0
LINE
  5
3A6
330
1B
100
AcDbEntity
 67
     1
  8
SLD-0_0
  6
SLD-実線
 62
   179
370
    25
100
AcDbLine
 10
136.2492530916
 20
111.2376892777
 30
0.0
 11
120.7492563698
 21
111.2376896502
 31
0.0
  0
LINE
  5
3A7
330
1B
100
AcDbEntity
 67
     1
  8
SLD-0_0
  6
SLD-実線
 62
   179
370
    25
100
AcDbLine
 10
118.7492556248
 20
116.2376908423
 30
0.0
 11
118.7492556248
 21
156.2376899483
 31
0.0
  0
LINE
  5
3A8
330
1B
100
AcDbEntity
 67
     1
  8
SLD-0_0
  6
SLD-実線
 62
   179
370
    25
100
AcDbLine
 10
118.7492556248
 20
159.23769044
 30
0.0
 11
118.7492556248
 21
156.2376899483
 31
0.0
  0
LINE
  5
3A9
330
1B
100
AcDbEntity
 67
     1
  8
SLD-0_0
  6
SLD-実線
 62
   179
370
    25
100
AcDbLine
 10
120.7492563698
 20
161.2376911404
 30
0.0
 11
136.2492530917
 21
161.2376915129
 31
0.0
  0
ARC
  5
3AA
330
1B
100
AcDbEntity
 67
     1
  8
SLD-0_0
  6
SLD-実線
 62
   179
370
    25
100
AcDbCircle
 10
279.649263659
 20
793.3015292951
 30
0.0
 40
2.800000000000068
100
AcDbArc
 50
0.0
 51
71.2149794874
  0
ARC
  5
3AB
330
1B
100
AcDbEntity
 67
     1
  8
SLD-0_0
  6
SLD-実線
 62
   179
370
    25
100
AcDbCircle
 10
157.8492571149
 20
793.3015292951
 30
0.0
 40
2.800000000000011
100
AcDbArc
 50
108.7850205126
 51
180.0
  0
ARC
  5
3AC
330
1B
100
AcDbEntity
 67
     1
  8
SLD-0_0
  6
SLD-実線
 62
   179
370
    25
100
AcDbCircle
 10
168.5492579119
 20
801.1660366472
 30
0.0
 40
1.200002475036655
100
AcDbArc
 50
288.7848595803
 51
0.0
  0
ARC
  5
3AD
330
1B
100
AcDbEntity
 67
     1
  8
SLD-0_0
  6
SLD-実線
 62
   179
370
    25
100
AcDbCircle
 10
268.949262862
 20
801.1660366472
 30
0.0
 40
1.200002475020597
100
AcDbArc
 50
180.0
 51
251.2151404243
  0
ARC
  5
3AE
330
1B
100
AcDbEntity
 67
     1
  8
SLD-0_0
  6
SLD-実線
 62
   179
370
    25
100
AcDbCircle
 10
265.9492603869
 20
803.5066837386
 30
0.0
 40
1.800000000000182
100
AcDbArc
 50
0.0
 51
90.0
  0
ARC
  5
3AF
330
1B
100
AcDbEntity
 67
     1
  8
SLD-0_0
  6
SLD-実線
 62
   179
370
    25
100
AcDbCircle
 10
171.5492603869
 20
803.5066837386
 30
0.0
 40
1.800000000000182
100
AcDbArc
 50
90.0
 51
180.0
  0
ARC
  5
3B0
330
1B
100
AcDbEntity
 67
     1
  8
SLD-0_0
  6
SLD-実線
 62
   179
370
    25
100
AcDbCircle
 10
157.587659771
 20
644.711483451
 30
0.0
 40
9.3992694385745
100
AcDbArc
 50
108.1675135863
 51
120.5417588505
  0
ARC
  5
3B1
330
1B
100
AcDbEntity
 67
     1
  8
SLD-0_0
  6
SLD-実線
 62
   179
370
    25
100
AcDbCircle
 10
181.2321453665
 20
644.8066857242
 30
0.0
 40
1.0
100
AcDbArc
 50
178.7335055438
 51
180.0
  0
ARC
  5
3B2
330
1B
100
AcDbEntity
 67
     1
  8
SLD-0_0
  6
SLD-実線
 62
   179
370
    25
100
AcDbCircle
 10
181.2321453665
 20
644.8066857242
 30
0.0
 40
1.0
100
AcDbArc
 50
180.0
 51
270.0
  0
ARC
  5
3B3
330
1B
100
AcDbEntity
 67
     1
  8
SLD-0_0
  6
SLD-実線
 62
   179
370
    25
100
AcDbCircle
 10
183.5564959854
 20
749.7887287265
 30
0.0
 40
1.000000000000006
100
AcDbArc
 50
135.5200788272
 51
178.7297152373
  0
ARC
  5
3B4
330
1B
100
AcDbEntity
 67
     1
  8
SLD-0_0
  6
SLD-実線
 62
   179
370
    25
100
AcDbCircle
 10
171.4086372503
 20
643.3066860818
 30
0.0
 40
0.5000005688509681
100
AcDbArc
 50
359.9998429068
 51
90.0
  0
ARC
  5
3B5
330
1B
100
AcDbEntity
 67
     1
  8
SLD-0_0
  6
SLD-実線
 62
   179
370
    25
100
AcDbCircle
 10
266.0898769796
 20
643.3066860818
 30
0.0
 40
0.5000005688509681
100
AcDbArc
 50
90.0
 51
180.0001570932
  0
ARC
  5
3B6
330
1B
100
AcDbEntity
 67
     1
  8
SLD-0_0
  6
SLD-実線
 62
   179
370
    25
100
AcDbCircle
 10
267.525376347
 20
644.8066860818
 30
0.0
 40
1.000000000000016
100
AcDbArc
 50
270.0
 51
1.4128817438
  0
ARC
  5
3B7
330
1B
100
AcDbEntity
 67
     1
  8
SLD-0_0
  6
SLD-実線
 62
   179
370
    25
100
AcDbCircle
 10
169.9731381702
 20
644.8066860818
 30
0.0
 40
1.000000000000028
100
AcDbArc
 50
178.5871028954
 51
180.0
  0
ARC
  5
3B8
330
1B
100
AcDbEntity
 67
     1
  8
SLD-0_0
  6
SLD-実線
 62
   179
370
    25
100
AcDbCircle
 10
169.9731381702
 20
644.8066860818
 30
0.0
 40
1.000000000000028
100
AcDbArc
 50
180.0
 51
270.0
  0
ARC
  5
3B9
330
1B
100
AcDbEntity
 67
     1
  8
SLD-0_0
  6
SLD-実線
 62
   179
370
    25
100
AcDbCircle
 10
283.7220204059
 20
644.80668998
 30
0.0
 40
1.00001243760696
100
AcDbArc
 50
289.2483946009
 51
1.085069945
  0
ARC
  5
3BA
330
1B
100
AcDbEntity
 67
     1
  8
SLD-0_0
  6
SLD-実線
 62
   179
370
    25
100
AcDbCircle
 10
270.2797531729
 20
749.7887852293
 30
0.0
 40
1.000000000005626
100
AcDbArc
 50
1.5389270558
 51
55.1585810277
  0
ARC
  5
3BB
330
1B
100
AcDbEntity
 67
     1
  8
SLD-0_0
  6
SLD-実線
 62
   179
370
    25
100
AcDbCircle
 10
166.2940120113
 20
661.8066860818
 30
0.0
 40
1.000000000000074
100
AcDbArc
 50
116.2081552837
 51
137.0706112962
  0
ARC
  5
3BC
330
1B
100
AcDbEntity
 67
     1
  8
SLD-0_0
  6
SLD-実線
 62
   179
370
    25
100
AcDbCircle
 10
276.078051773
 20
749.7887690909
 30
0.0
 40
0.999999999999955
100
AcDbArc
 50
1.5960981852
 51
57.9584590986
  0
ARC
  5
3BD
330
1B
100
AcDbEntity
 67
     1
  8
SLD-0_0
  6
SLD-実線
 62
   179
370
    25
100
AcDbCircle
 10
150.0451898898
 20
639.8066860818
 30
0.0
 40
1.0
100
AcDbArc
 50
180.0
 51
270.0
  0
ARC
  5
3BE
330
1B
100
AcDbEntity
 67
     1
  8
SLD-0_0
  6
SLD-実線
 62
   179
370
    25
100
AcDbCircle
 10
279.6732680532
 20
749.7887532367
 30
0.0
 40
1.00000000000006
100
AcDbArc
 50
1.592012369
 51
59.4978265303
  0
ARC
  5
3BF
330
1B
100
AcDbEntity
 67
     1
  8
SLD-0_0
  6
SLD-実線
 62
   179
370
    25
100
AcDbCircle
 10
157.6181546848
 20
749.7887920366
 30
0.0
 40
1.00000000000745
100
AcDbArc
 50
120.4174953744
 51
178.4121939606
  0
ARC
  5
3C0
330
1B
100
AcDbEntity
 67
     1
  8
SLD-0_0
  6
SLD-実線
 62
   179
370
    25
100
AcDbCircle
 10
287.45332434
 20
639.8066860818
 30
0.0
 40
1.0
100
AcDbArc
 50
270.0
 51
0.0
  0
ARC
  5
3C1
330
1B
100
AcDbEntity
 67
     1
  8
SLD-0_0
  6
SLD-実線
 62
   179
370
    25
100
AcDbCircle
 10
207.9396998419
 20
570.521828797
 30
0.0
 40
1.500000041526256
100
AcDbArc
 50
18.0
 51
85.0000146494
  0
ARC
  5
3C2
330
1B
100
AcDbEntity
 67
     1
  8
SLD-0_0
  6
SLD-実線
 62
   179
370
    25
100
AcDbCircle
 10
229.5588144767
 20
570.5218288047
 30
0.0
 40
1.500000041530556
100
AcDbArc
 50
94.9999887576
 51
162.0000003121
  0
ARC
  5
3C3
330
1B
100
AcDbEntity
 67
     1
  8
SLD-0_0
  6
SLD-実線
 62
   179
370
    25
100
AcDbCircle
 10
290.7492575918
 20
310.9066860818
 30
0.0
 40
2.000000476851142
100
AcDbArc
 50
359.9999153054
 51
90.0
  0
ARC
  5
3C4
330
1B
100
AcDbEntity
 67
     1
  8
SLD-0_0
  6
SLD-実線
 62
   179
370
    25
100
AcDbCircle
 10
286.2989437686
 20
317.9066860818
 30
0.0
 40
5.000000000000072
100
AcDbArc
 50
263.6623219756
 51
270.0
  0
ARC
  5
3C5
330
1B
100
AcDbEntity
 67
     1
  8
SLD-0_0
  6
SLD-実線
 62
   179
370
    25
100
AcDbCircle
 10
282.7492571149
 20
590.8066860818
 30
0.0
 40
3.0
100
AcDbArc
 50
180.0
 51
270.0
  0
ARC
  5
3C6
330
1B
100
AcDbEntity
 67
     1
  8
SLD-0_0
  6
SLD-実線
 62
   179
370
    25
100
AcDbCircle
 10
193.7492571149
 20
328.9066860818
 30
0.0
 40
1.0
100
AcDbArc
 50
270.0
 51
0.0
  0
ARC
  5
3C7
330
1B
100
AcDbEntity
 67
     1
  8
SLD-0_0
  6
SLD-実線
 62
   179
370
    25
100
AcDbCircle
 10
243.7492535505
 20
328.9066896461
 30
0.0
 40
1.0
100
AcDbArc
 50
180.0
 51
270.0
  0
ARC
  5
3C8
330
1B
100
AcDbEntity
 67
     1
  8
SLD-0_0
  6
SLD-実線
 62
   179
370
    25
100
AcDbCircle
 10
195.7492570106
 20
329.9066860818
 30
0.0
 40
1.000000104308242
100
AcDbArc
 50
90.0
 51
179.9996707842
  0
ARC
  5
3C9
330
1B
100
AcDbEntity
 67
     1
  8
SLD-0_0
  6
SLD-実線
 62
   179
370
    25
100
AcDbCircle
 10
241.7492535505
 20
329.9066896461
 30
0.0
 40
1.000000000000057
100
AcDbArc
 50
0.0
 51
90.0
  0
ARC
  5
3CA
330
1B
100
AcDbEntity
 67
     1
  8
SLD-0_0
  6
SLD-実線
 62
   179
370
    25
100
AcDbCircle
 10
139.7492571149
 20
570.8066860818
 30
0.0
 40
5.0
100
AcDbArc
 50
0.0
 51
51.6306150698
  0
ARC
  5
3CB
330
1B
100
AcDbEntity
 67
     1
  8
SLD-0_0
  6
SLD-実線
 62
   179
370
    25
100
AcDbCircle
 10
189.7492570181
 20
764.0179545029
 30
0.0
 40
81.32814788165301
100
AcDbArc
 50
269.637179472
 51
270.362820528
  0
ARC
  5
3CC
330
1B
100
AcDbEntity
 67
     1
  8
SLD-0_0
  6
SLD-実線
 62
   179
370
    25
100
AcDbCircle
 10
189.7975730071
 20
684.6787915782
 30
0.0
 40
0.9758594120767627
100
AcDbArc
 50
298.5697791413
 51
327.1153774806
  0
ARC
  5
3CD
330
1B
100
AcDbEntity
 67
     1
  8
SLD-0_0
  6
SLD-実線
 62
   179
370
    25
100
AcDbCircle
 10
189.80796716
 20
667.9663285477
 30
0.0
 40
16.20283510405275
100
AcDbArc
 50
83.173767099
 51
87.1377078803
  0
ARC
  5
3CE
330
1B
100
AcDbEntity
 67
     1
  8
SLD-0_0
  6
SLD-実線
 62
   179
370
    25
100
AcDbCircle
 10
179.3757848999
 20
684.5319168949
 30
0.0
 40
12.36725423412248
100
AcDbArc
 50
357.7867391434
 51
2.2132608564
  0
ARC
  5
3CF
330
1B
100
AcDbEntity
 67
     1
  8
SLD-0_0
  6
SLD-実線
 62
   179
370
    25
100
AcDbCircle
 10
189.8072196863
 20
668.9140073808
 30
0.0
 40
16.21041566607583
100
AcDbArc
 50
83.1743136651
 51
87.136402254
  0
ARC
  5
3D0
330
1B
100
AcDbEntity
 67
     1
  8
SLD-0_0
  6
SLD-実線
 62
   179
370
    25
100
AcDbCircle
 10
189.7976327302
 20
684.5744035117
 30
0.0
 40
0.9757742935968826
100
AcDbArc
 50
32.8833510677
 51
61.4314923175
  0
ARC
  5
3D1
330
1B
100
AcDbEntity
 67
     1
  8
SLD-0_0
  6
SLD-実線
 62
   179
370
    25
100
AcDbCircle
 10
189.7492570181
 20
677.8082430917
 30
0.0
 40
8.579631537746476
100
AcDbArc
 50
86.5587015384
 51
93.4412984619
  0
ARC
  5
3D2
330
1B
100
AcDbEntity
 67
     1
  8
SLD-0_0
  6
SLD-実線
 62
   179
370
    25
100
AcDbCircle
 10
189.700881306
 20
684.5744035117
 30
0.0
 40
0.975774293636219
100
AcDbArc
 50
118.5685076883
 51
147.1166489343
  0
ARC
  5
3D3
330
1B
100
AcDbEntity
 67
     1
  8
SLD-0_0
  6
SLD-実線
 62
   179
370
    25
100
AcDbCircle
 10
189.6912943503
 20
668.9140073809
 30
0.0
 40
16.21041566604788
100
AcDbArc
 50
92.8635977478
 51
96.8256863367
  0
ARC
  5
3D4
330
1B
100
AcDbEntity
 67
     1
  8
SLD-0_0
  6
SLD-実線
 62
   179
370
    25
100
AcDbCircle
 10
200.1227291363
 20
684.5319168949
 30
0.0
 40
12.36725423416493
100
AcDbArc
 50
177.7867391437
 51
182.213260857
  0
ARC
  5
3D5
330
1B
100
AcDbEntity
 67
     1
  8
SLD-0_0
  6
SLD-実線
 62
   179
370
    25
100
AcDbCircle
 10
189.6905468761
 20
667.9663285476
 30
0.0
 40
16.20283510407504
100
AcDbArc
 50
92.8622921198
 51
96.8262329011
  0
ARC
  5
3D6
330
1B
100
AcDbEntity
 67
     1
  8
SLD-0_0
  6
SLD-実線
 62
   179
370
    25
100
AcDbCircle
 10
189.700941029
 20
684.6787915781
 30
0.0
 40
0.9758594120539625
100
AcDbArc
 50
212.884622522
 51
241.4302208587
  0
ARC
  5
3D7
330
1B
100
AcDbEntity
 67
     1
  8
SLD-0_0
  6
SLD-実線
 62
   179
370
    25
100
AcDbCircle
 10
189.7492570181
 20
683.7218263879
 30
0.0
 40
4.006344002183508
100
AcDbArc
 50
183.2248679501
 51
356.7751320499
  0
ARC
  5
3D8
330
1B
100
AcDbEntity
 67
     1
  8
SLD-0_0
  6
SLD-実線
 62
   179
370
    25
100
AcDbCircle
 10
189.7076622358
 20
683.7356480091
 30
0.0
 40
0.8231414155081099
100
AcDbArc
 50
125.1080439789
 51
140.5796849856
  0
ARC
  5
3D9
330
1B
100
AcDbEntity
 67
     1
  8
SLD-0_0
  6
SLD-実線
 62
   179
370
    25
100
AcDbCircle
 10
189.7908518003
 20
683.7356480091
 30
0.0
 40
0.8231414155446682
100
AcDbArc
 50
39.4203150159
 51
54.8919560228
  0
ARC
  5
3DA
330
1B
100
AcDbEntity
 67
     1
  8
SLD-0_0
  6
SLD-実線
 62
   179
370
    25
100
AcDbCircle
 10
189.7492570181
 20
683.8938069059
 30
0.0
 40
0.9026887825582411
100
AcDbArc
 50
235.2136628291
 51
304.7863371709
  0
ARC
  5
3DB
330
1B
100
AcDbEntity
 67
     1
  8
SLD-0_0
  6
SLD-実線
 62
   179
370
    25
100
AcDbCircle
 10
189.7492570181
 20
683.6676694605
 30
0.0
 40
0.90268878256956
100
AcDbArc
 50
55.2136628308
 51
124.7863371716
  0
ARC
  5
3DC
330
1B
100
AcDbEntity
 67
     1
  8
SLD-0_0
  6
SLD-実線
 62
   179
370
    25
100
AcDbCircle
 10
247.7492572118
 20
764.0179545029
 30
0.0
 40
81.3281478816529
100
AcDbArc
 50
269.637179472
 51
270.362820528
  0
ARC
  5
3DD
330
1B
100
AcDbEntity
 67
     1
  8
SLD-0_0
  6
SLD-実線
 62
   179
370
    25
100
AcDbCircle
 10
247.7975732008
 20
684.6787915782
 30
0.0
 40
0.9758594120767388
100
AcDbArc
 50
298.5697791413
 51
327.1153774806
  0
ARC
  5
3DE
330
1B
100
AcDbEntity
 67
     1
  8
SLD-0_0
  6
SLD-実線
 62
   179
370
    25
100
AcDbCircle
 10
247.8079673537
 20
667.9663285477
 30
0.0
 40
16.20283510405263
100
AcDbArc
 50
83.173767099
 51
87.1377078803
  0
ARC
  5
3DF
330
1B
100
AcDbEntity
 67
     1
  8
SLD-0_0
  6
SLD-実線
 62
   179
370
    25
100
AcDbCircle
 10
237.3757850936
 20
684.5319168949
 30
0.0
 40
12.3672542341225
100
AcDbArc
 50
357.7867391434
 51
2.2132608564
  0
ARC
  5
3E0
330
1B
100
AcDbEntity
 67
     1
  8
SLD-0_0
  6
SLD-実線
 62
   179
370
    25
100
AcDbCircle
 10
247.80721988
 20
668.9140073808
 30
0.0
 40
16.21041566607587
100
AcDbArc
 50
83.174313665
 51
87.1364022539
  0
ARC
  5
3E1
330
1B
100
AcDbEntity
 67
     1
  8
SLD-0_0
  6
SLD-実線
 62
   179
370
    25
100
AcDbCircle
 10
247.7976329239
 20
684.5744035117
 30
0.0
 40
0.9757742935967711
100
AcDbArc
 50
32.8833510697
 51
61.4314923195
  0
ARC
  5
3E2
330
1B
100
AcDbEntity
 67
     1
  8
SLD-0_0
  6
SLD-実線
 62
   179
370
    25
100
AcDbCircle
 10
247.7492572118
 20
677.8082430917
 30
0.0
 40
8.579631537746476
100
AcDbArc
 50
86.5587015384
 51
93.4412984619
  0
ARC
  5
3E3
330
1B
100
AcDbEntity
 67
     1
  8
SLD-0_0
  6
SLD-実線
 62
   179
370
    25
100
AcDbCircle
 10
247.7008814997
 20
684.5744035117
 30
0.0
 40
0.9757742936361966
100
AcDbArc
 50
118.5685076883
 51
147.1166489343
  0
ARC
  5
3E4
330
1B
100
AcDbEntity
 67
     1
  8
SLD-0_0
  6
SLD-実線
 62
   179
370
    25
100
AcDbCircle
 10
247.6912945442
 20
668.9140073809
 30
0.0
 40
16.21041566605446
100
AcDbArc
 50
92.8635977483
 51
96.825686337
  0
ARC
  5
3E5
330
1B
100
AcDbEntity
 67
     1
  8
SLD-0_0
  6
SLD-実線
 62
   179
370
    25
100
AcDbCircle
 10
258.12272933
 20
684.5319168938
 30
0.0
 40
12.36725423411497
100
AcDbArc
 50
177.7867391386
 51
182.2132608518
  0
ARC
  5
3E6
330
1B
100
AcDbEntity
 67
     1
  8
SLD-0_0
  6
SLD-実線
 62
   179
370
    25
100
AcDbCircle
 10
247.6905470699
 20
667.9663285476
 30
0.0
 40
16.20283510407492
100
AcDbArc
 50
92.8622921198
 51
96.8262329011
  0
ARC
  5
3E7
330
1B
100
AcDbEntity
 67
     1
  8
SLD-0_0
  6
SLD-実線
 62
   179
370
    25
100
AcDbCircle
 10
247.7009412227
 20
684.6787915781
 30
0.0
 40
0.9758594120540359
100
AcDbArc
 50
212.884622522
 51
241.4302208587
  0
ARC
  5
3E8
330
1B
100
AcDbEntity
 67
     1
  8
SLD-0_0
  6
SLD-実線
 62
   179
370
    25
100
AcDbCircle
 10
247.7492572118
 20
683.7218280914
 30
0.0
 40
4.006344097963773
100
AcDbArc
 50
183.2248922737
 51
356.7751077263
  0
ARC
  5
3E9
330
1B
100
AcDbEntity
 67
     1
  8
SLD-0_0
  6
SLD-実線
 62
   179
370
    25
100
AcDbCircle
 10
247.7076624296
 20
683.7356480092
 30
0.0
 40
0.8231414154978695
100
AcDbArc
 50
125.108043979
 51
140.5796849862
  0
ARC
  5
3EA
330
1B
100
AcDbEntity
 67
     1
  8
SLD-0_0
  6
SLD-実線
 62
   179
370
    25
100
AcDbCircle
 10
247.7908519941
 20
683.7356480091
 30
0.0
 40
0.8231414154874074
100
AcDbArc
 50
39.4203150196
 51
54.8919560276
  0
ARC
  5
3EB
330
1B
100
AcDbEntity
 67
     1
  8
SLD-0_0
  6
SLD-実線
 62
   179
370
    25
100
AcDbCircle
 10
247.7492572118
 20
683.8938069059
 30
0.0
 40
0.9026887825582249
100
AcDbArc
 50
235.2136628291
 51
304.7863371709
  0
ARC
  5
3EC
330
1B
100
AcDbEntity
 67
     1
  8
SLD-0_0
  6
SLD-実線
 62
   179
370
    25
100
AcDbCircle
 10
247.7492572118
 20
683.6676694605
 30
0.0
 40
0.9026887825694827
100
AcDbArc
 50
55.21366283
 51
124.7863371708
  0
ARC
  5
3ED
330
1B
100
AcDbEntity
 67
     1
  8
SLD-0_0
  6
SLD-実線
 62
   179
370
    25
100
AcDbCircle
 10
247.8080405839
 20
752.3621315646
 30
0.0
 40
16.20070373322296
100
AcDbArc
 50
83.1731255999
 51
87.1375903135
  0
ARC
  5
3EE
330
1B
100
AcDbEntity
 67
     1
  8
SLD-0_0
  6
SLD-実線
 62
   179
370
    25
100
AcDbCircle
 10
237.3757906909
 20
768.9255820894
 30
0.0
 40
12.36724864098431
100
AcDbArc
 50
357.7867381418
 51
2.2132618578
  0
ARC
  5
3EF
330
1B
100
AcDbEntity
 67
     1
  8
SLD-0_0
  6
SLD-実線
 62
   179
370
    25
100
AcDbCircle
 10
247.8080405845
 20
753.3173556018
 30
0.0
 40
16.20070373324373
100
AcDbArc
 50
83.1731256019
 51
87.1375903154
  0
ARC
  5
3F0
330
1B
100
AcDbEntity
 67
     1
  8
SLD-0_0
  6
SLD-実線
 62
   179
370
    25
100
AcDbCircle
 10
247.797581831
 20
768.9680331282
 30
0.0
 40
0.9758365166655454
100
AcDbArc
 50
32.8834765797
 51
61.4300658188
  0
ARC
  5
3F1
330
1B
100
AcDbEntity
 67
     1
  8
SLD-0_0
  6
SLD-実線
 62
   179
370
    25
100
AcDbCircle
 10
247.7492572118
 20
762.205577467
 30
0.0
 40
8.575968975850182
100
AcDbArc
 50
86.557230083
 51
93.4427699173
  0
ARC
  5
3F2
330
1B
100
AcDbEntity
 67
     1
  8
SLD-0_0
  6
SLD-実線
 62
   179
370
    25
100
AcDbCircle
 10
247.7009325927
 20
768.9680331282
 30
0.0
 40
0.9758365167216476
100
AcDbArc
 50
118.5699341848
 51
147.1165234209
  0
ARC
  5
3F3
330
1B
100
AcDbEntity
 67
     1
  8
SLD-0_0
  6
SLD-実線
 62
   179
370
    25
100
AcDbCircle
 10
247.6904738398
 20
753.3173556018
 30
0.0
 40
16.20070373322194
100
AcDbArc
 50
92.8624096869
 51
96.8268744004
  0
ARC
  5
3F4
330
1B
100
AcDbEntity
 67
     1
  8
SLD-0_0
  6
SLD-実線
 62
   179
370
    25
100
AcDbCircle
 10
258.1227237327
 20
768.9255820894
 30
0.0
 40
12.36724864098192
100
AcDbArc
 50
177.7867381426
 51
182.2132618585
  0
ARC
  5
3F5
330
1B
100
AcDbEntity
 67
     1
  8
SLD-0_0
  6
SLD-実線
 62
   179
370
    25
100
AcDbCircle
 10
247.6904738397
 20
752.3621315645
 30
0.0
 40
16.20070373326109
100
AcDbArc
 50
92.8624096865
 51
96.8268744
  0
ARC
  5
3F6
330
1B
100
AcDbEntity
 67
     1
  8
SLD-0_0
  6
SLD-実線
 62
   179
370
    25
100
AcDbCircle
 10
247.7009325926
 20
769.0724354023
 30
0.0
 40
0.9758365166720467
100
AcDbArc
 50
212.8834765819
 51
241.4300658143
  0
ARC
  5
3F7
330
1B
100
AcDbEntity
 67
     1
  8
SLD-0_0
  6
SLD-実線
 62
   179
370
    25
100
AcDbCircle
 10
247.7492572118
 20
848.2884838977
 30
0.0
 40
81.20500710405413
100
AcDbArc
 50
269.6366292768
 51
270.3633707231
  0
ARC
  5
3F8
330
1B
100
AcDbEntity
 67
     1
  8
SLD-0_0
  6
SLD-実線
 62
   179
370
    25
100
AcDbCircle
 10
247.797581831
 20
769.0724354023
 30
0.0
 40
0.9758365166364057
100
AcDbArc
 50
298.5699341824
 51
327.1165234181
  0
ARC
  5
3F9
330
1B
100
AcDbEntity
 67
     1
  8
SLD-0_0
  6
SLD-実線
 62
   179
370
    25
100
AcDbCircle
 10
247.7492572118
 20
768.1136016818
 30
0.0
 40
4.006238130417085
100
AcDbArc
 50
183.1978820706
 51
356.8021179294
  0
ARC
  5
3FA
330
1B
100
AcDbEntity
 67
     1
  8
SLD-0_0
  6
SLD-実線
 62
   179
370
    25
100
AcDbCircle
 10
247.7077884411
 20
768.1292106324
 30
0.0
 40
0.8233038936984154
100
AcDbArc
 50
125.1108144762
 51
140.5797393156
  0
ARC
  5
3FB
330
1B
100
AcDbEntity
 67
     1
  8
SLD-0_0
  6
SLD-実線
 62
   179
370
    25
100
AcDbCircle
 10
247.7907259825
 20
768.1292106324
 30
0.0
 40
0.8233038936890259
100
AcDbArc
 50
39.4202606819
 51
54.8891855214
  0
ARC
  5
3FC
330
1B
100
AcDbEntity
 67
     1
  8
SLD-0_0
  6
SLD-実線
 62
   179
370
    25
100
AcDbCircle
 10
247.7492572118
 20
768.2874860604
 30
0.0
 40
0.9027002477104837
100
AcDbArc
 50
235.2141683426
 51
304.7858316575
  0
ARC
  5
3FD
330
1B
100
AcDbEntity
 67
     1
  8
SLD-0_0
  6
SLD-実線
 62
   179
370
    25
100
AcDbCircle
 10
247.7492572118
 20
768.0613281456
 30
0.0
 40
0.9027002477479248
100
AcDbArc
 50
55.2141683459
 51
124.7858316565
  0
ARC
  5
3FE
330
1B
100
AcDbEntity
 67
     1
  8
SLD-0_0
  6
SLD-実線
 62
   179
370
    25
100
AcDbCircle
 10
189.7492570181
 20
848.2884838977
 30
0.0
 40
81.20500710405516
100
AcDbArc
 50
269.6366292768
 51
270.3633707231
  0
ARC
  5
3FF
330
1B
100
AcDbEntity
 67
     1
  8
SLD-0_0
  6
SLD-実線
 62
   179
370
    25
100
AcDbCircle
 10
189.7975816372
 20
769.0724354023
 30
0.0
 40
0.9758365166778898
100
AcDbArc
 50
298.5699341876
 51
327.1165234208
  0
ARC
  5
400
330
1B
100
AcDbEntity
 67
     1
  8
SLD-0_0
  6
SLD-実線
 62
   179
370
    25
100
AcDbCircle
 10
189.8080403902
 20
752.3621315646
 30
0.0
 40
16.20070373323132
100
AcDbArc
 50
83.1731255999
 51
87.1375903137
  0
ARC
  5
401
330
1B
100
AcDbEntity
 67
     1
  8
SLD-0_0
  6
SLD-実線
 62
   179
370
    25
100
AcDbCircle
 10
179.3757904972
 20
768.9255820894
 30
0.0
 40
12.36724864098431
100
AcDbArc
 50
357.7867381418
 51
2.2132618578
  0
ARC
  5
402
330
1B
100
AcDbEntity
 67
     1
  8
SLD-0_0
  6
SLD-実線
 62
   179
370
    25
100
AcDbCircle
 10
189.8080403908
 20
753.3173556018
 30
0.0
 40
16.20070373324387
100
AcDbArc
 50
83.1731256019
 51
87.1375903155
  0
ARC
  5
403
330
1B
100
AcDbEntity
 67
     1
  8
SLD-0_0
  6
SLD-実線
 62
   179
370
    25
100
AcDbCircle
 10
189.7975816373
 20
768.9680331282
 30
0.0
 40
0.9758365167076891
100
AcDbArc
 50
32.8834765818
 51
61.4300658185
  0
ARC
  5
404
330
1B
100
AcDbEntity
 67
     1
  8
SLD-0_0
  6
SLD-実線
 62
   179
370
    25
100
AcDbCircle
 10
189.7492570181
 20
762.205577467
 30
0.0
 40
8.575968975850182
100
AcDbArc
 50
86.557230083
 51
93.4427699173
  0
ARC
  5
405
330
1B
100
AcDbEntity
 67
     1
  8
SLD-0_0
  6
SLD-実線
 62
   179
370
    25
100
AcDbCircle
 10
189.7009323989
 20
768.9680331282
 30
0.0
 40
0.9758365167216337
100
AcDbArc
 50
118.5699341848
 51
147.1165234209
  0
ARC
  5
406
330
1B
100
AcDbEntity
 67
     1
  8
SLD-0_0
  6
SLD-実線
 62
   179
370
    25
100
AcDbCircle
 10
189.6904736461
 20
753.3173556018
 30
0.0
 40
16.20070373322199
100
AcDbArc
 50
92.862409687
 51
96.8268744004
  0
ARC
  5
407
330
1B
100
AcDbEntity
 67
     1
  8
SLD-0_0
  6
SLD-実線
 62
   179
370
    25
100
AcDbCircle
 10
200.1227235389
 20
768.9255820883
 30
0.0
 40
12.36724864093197
100
AcDbArc
 50
177.7867381373
 51
182.2132618531
  0
ARC
  5
408
330
1B
100
AcDbEntity
 67
     1
  8
SLD-0_0
  6
SLD-実線
 62
   179
370
    25
100
AcDbCircle
 10
189.690473646
 20
752.3621315645
 30
0.0
 40
16.20070373326704
100
AcDbArc
 50
92.8624096865
 51
96.8268744003
  0
ARC
  5
409
330
1B
100
AcDbEntity
 67
     1
  8
SLD-0_0
  6
SLD-実線
 62
   179
370
    25
100
AcDbCircle
 10
189.7009323989
 20
769.0724354023
 30
0.0
 40
0.9758365166681724
100
AcDbArc
 50
212.8834765819
 51
241.4300658124
  0
ARC
  5
40A
330
1B
100
AcDbEntity
 67
     1
  8
SLD-0_0
  6
SLD-実線
 62
   179
370
    25
100
AcDbCircle
 10
189.7492570181
 20
768.1154969535
 30
0.0
 40
4.006344304337524
100
AcDbArc
 50
183.2249446419
 51
356.7750553581
  0
ARC
  5
40B
330
1B
100
AcDbEntity
 67
     1
  8
SLD-0_0
  6
SLD-実線
 62
   179
370
    25
100
AcDbCircle
 10
189.7077882474
 20
768.1292106324
 30
0.0
 40
0.8233038937085373
100
AcDbArc
 50
125.1108144763
 51
140.5797393155
  0
ARC
  5
40C
330
1B
100
AcDbEntity
 67
     1
  8
SLD-0_0
  6
SLD-実線
 62
   179
370
    25
100
AcDbCircle
 10
189.7907257888
 20
768.1292106324
 30
0.0
 40
0.8233038936715562
100
AcDbArc
 50
39.4202606826
 51
54.8891855205
  0
ARC
  5
40D
330
1B
100
AcDbEntity
 67
     1
  8
SLD-0_0
  6
SLD-実線
 62
   179
370
    25
100
AcDbCircle
 10
189.7492570181
 20
768.2874860604
 30
0.0
 40
0.902700247710499
100
AcDbArc
 50
235.2141683426
 51
304.7858316575
  0
ARC
  5
40E
330
1B
100
AcDbEntity
 67
     1
  8
SLD-0_0
  6
SLD-実線
 62
   179
370
    25
100
AcDbCircle
 10
189.7492570181
 20
768.0613281456
 30
0.0
 40
0.9027002477405153
100
AcDbArc
 50
55.2141683451
 51
124.7858316573
  0
ARC
  5
40F
330
1B
100
AcDbEntity
 67
     1
  8
SLD-0_0
  6
SLD-実線
 62
   179
370
    25
100
AcDbCircle
 10
189.5498655412
 20
681.4670599949
 30
0.0
 40
5.504807153551744
100
AcDbArc
 50
182.2382844919
 51
272.0757935261
  0
ARC
  5
410
330
1B
100
AcDbEntity
 67
     1
  8
SLD-0_0
  6
SLD-実線
 62
   179
370
    25
100
AcDbCircle
 10
248.948644325
 20
681.4670668151
 30
0.0
 40
5.504813805292185
100
AcDbArc
 50
267.9242561389
 51
357.7616471727
  0
ARC
  5
411
330
1B
100
AcDbEntity
 67
     1
  8
SLD-0_0
  6
SLD-実線
 62
   179
370
    25
100
AcDbCircle
 10
198.5477898506
 20
761.0292354033
 30
0.0
 40
4.998532985471874
100
AcDbArc
 50
89.9831724355
 51
179.9831149412
  0
ARC
  5
412
330
1B
100
AcDbEntity
 67
     1
  8
SLD-0_0
  6
SLD-実線
 62
   179
370
    25
100
AcDbCircle
 10
239.9507245432
 20
761.0292354033
 30
0.0
 40
4.998532985471874
100
AcDbArc
 50
0.0168850588
 51
90.0168275645
  0
ARC
  5
413
330
1B
100
AcDbEntity
 67
     1
  8
SLD-0_0
  6
SLD-実線
 62
   179
370
    25
100
AcDbCircle
 10
175.861680484
 20
766.2665834837
 30
0.0
 40
4.825309603310051
100
AcDbArc
 50
149.0800145786
 51
165.084552674
  0
ARC
  5
414
330
1B
100
AcDbEntity
 67
     1
  8
SLD-0_0
  6
SLD-実線
 62
   179
370
    25
100
AcDbCircle
 10
179.7727448662
 20
775.5007947507
 30
0.0
 40
10.50902284058178
100
AcDbArc
 50
219.9978789929
 51
229.5091103482
  0
ARC
  5
415
330
1B
100
AcDbEntity
 67
     1
  8
SLD-0_0
  6
SLD-実線
 62
   179
370
    25
100
AcDbCircle
 10
179.1295885466
 20
763.9337223315
 30
0.0
 40
7.14002296080596
100
AcDbArc
 50
139.516309709
 51
149.9550297189
  0
ARC
  5
416
330
1B
100
AcDbEntity
 67
     1
  8
SLD-0_0
  6
SLD-実線
 62
   179
370
    25
100
AcDbCircle
 10
180.5227463862
 20
776.5614594044
 30
0.0
 40
10.50902284055973
100
AcDbArc
 50
219.997878992
 51
229.5091103474
  0
ARC
  5
417
330
1B
100
AcDbEntity
 67
     1
  8
SLD-0_0
  6
SLD-実線
 62
   179
370
    25
100
AcDbCircle
 10
180.5227463861
 20
763.0519160969
 30
0.0
 40
10.50902284054951
100
AcDbArc
 50
130.4908896518
 51
140.0021210071
  0
ARC
  5
418
330
1B
100
AcDbEntity
 67
     1
  8
SLD-0_0
  6
SLD-実線
 62
   179
370
    25
100
AcDbCircle
 10
179.1287646446
 20
775.6790705845
 30
0.0
 40
7.139018076298118
100
AcDbArc
 50
210.0442335674
 51
220.484427005
  0
ARC
  5
419
330
1B
100
AcDbEntity
 67
     1
  8
SLD-0_0
  6
SLD-実線
 62
   179
370
    25
100
AcDbCircle
 10
179.7737652613
 20
764.1115690982
 30
0.0
 40
10.51045478256216
100
AcDbArc
 50
130.4915390475
 51
140.0014716114
  0
ARC
  5
41A
330
1B
100
AcDbEntity
 67
     1
  8
SLD-0_0
  6
SLD-実線
 62
   179
370
    25
100
AcDbCircle
 10
175.8614924344
 20
773.346712514
 30
0.0
 40
4.825107426037284
100
AcDbArc
 50
194.9151098247
 51
210.9203229229
  0
ARC
  5
41B
330
1B
100
AcDbEntity
 67
     1
  8
SLD-0_0
  6
SLD-実線
 62
   179
370
    25
100
AcDbCircle
 10
176.630265276
 20
767.4687817762
 30
0.0
 40
7.140849980651967
100
AcDbArc
 50
139.5169158685
 51
149.9544235596
  0
ARC
  5
41C
330
1B
100
AcDbEntity
 67
     1
  8
SLD-0_0
  6
SLD-実線
 62
   179
370
    25
100
AcDbCircle
 10
175.1116410666
 20
772.2861238037
 30
0.0
 40
4.825272066315526
100
AcDbArc
 50
194.9155223005
 51
210.9202031095
  0
ARC
  5
41D
330
1B
100
AcDbEntity
 67
     1
  8
SLD-0_0
  6
SLD-実線
 62
   179
370
    25
100
AcDbCircle
 10
175.1116410666
 20
767.3272516979
 30
0.0
 40
4.825272066338355
100
AcDbArc
 50
149.0797968904
 51
165.0844777006
  0
ARC
  5
41E
330
1B
100
AcDbEntity
 67
     1
  8
SLD-0_0
  6
SLD-実線
 62
   179
370
    25
100
AcDbCircle
 10
176.6295872055
 20
772.1441142581
 30
0.0
 40
7.14002296083003
100
AcDbArc
 50
210.0449702808
 51
220.4836902907
  0
ARC
  5
41F
330
1B
100
AcDbEntity
 67
     1
  8
SLD-0_0
  6
SLD-実線
 62
   179
370
    25
100
AcDbCircle
 10
262.3868731632
 20
767.3272516979
 30
0.0
 40
4.82527206633379
100
AcDbArc
 50
14.9155222994
 51
30.9202031096
  0
ARC
  5
420
330
1B
100
AcDbEntity
 67
     1
  8
SLD-0_0
  6
SLD-実線
 62
   179
370
    25
100
AcDbCircle
 10
262.3868731632
 20
772.2861238038
 30
0.0
 40
4.825272066338374
100
AcDbArc
 50
329.0797968893
 51
345.0844776984
  0
ARC
  5
421
330
1B
100
AcDbEntity
 67
     1
  8
SLD-0_0
  6
SLD-実線
 62
   179
370
    25
100
AcDbCircle
 10
260.8682489539
 20
767.4687817762
 30
0.0
 40
7.140849980626736
100
AcDbArc
 50
30.0455764404
 51
40.4830841319
  0
ARC
  5
422
330
1B
100
AcDbEntity
 67
     1
  8
SLD-0_0
  6
SLD-実線
 62
   179
370
    25
100
AcDbCircle
 10
261.6370217954
 20
773.3467125141
 30
0.0
 40
4.825107426089411
100
AcDbArc
 50
329.0796770773
 51
345.0848901748
  0
ARC
  5
423
330
1B
100
AcDbEntity
 67
     1
  8
SLD-0_0
  6
SLD-実線
 62
   179
370
    25
100
AcDbCircle
 10
257.7247489686
 20
764.1115690982
 30
0.0
 40
10.51045478250693
100
AcDbArc
 50
39.9985283888
 51
49.5084609526
  0
ARC
  5
424
330
1B
100
AcDbEntity
 67
     1
  8
SLD-0_0
  6
SLD-実線
 62
   179
370
    25
100
AcDbCircle
 10
258.3697495852
 20
775.6790705846
 30
0.0
 40
7.139018076347863
100
AcDbArc
 50
319.5155729951
 51
329.9557664326
  0
ARC
  5
425
330
1B
100
AcDbEntity
 67
     1
  8
SLD-0_0
  6
SLD-実線
 62
   179
370
    25
100
AcDbCircle
 10
256.9757678438
 20
763.051916097
 30
0.0
 40
10.50902284052671
100
AcDbArc
 50
39.997878993
 51
49.5091103484
  0
ARC
  5
426
330
1B
100
AcDbEntity
 67
     1
  8
SLD-0_0
  6
SLD-実線
 62
   179
370
    25
100
AcDbCircle
 10
256.9757678438
 20
776.5614594046
 30
0.0
 40
10.50902284054949
100
AcDbArc
 50
310.4908896518
 51
320.0021210071
  0
ARC
  5
427
330
1B
100
AcDbEntity
 67
     1
  8
SLD-0_0
  6
SLD-実線
 62
   179
370
    25
100
AcDbCircle
 10
258.3689256833
 20
763.9337223316
 30
0.0
 40
7.140022960819874
100
AcDbArc
 50
30.0449702812
 51
40.4836902911
  0
ARC
  5
428
330
1B
100
AcDbEntity
 67
     1
  8
SLD-0_0
  6
SLD-実線
 62
   179
370
    25
100
AcDbCircle
 10
257.7257693637
 20
775.5007947507
 30
0.0
 40
10.50902284055349
100
AcDbArc
 50
310.4908896521
 51
320.002121007
  0
ARC
  5
429
330
1B
100
AcDbEntity
 67
     1
  8
SLD-0_0
  6
SLD-実線
 62
   179
370
    25
100
AcDbCircle
 10
261.6368337458
 20
766.2665834837
 30
0.0
 40
4.825309603332478
100
AcDbArc
 50
14.915447326
 51
30.9199854213
  0
ARC
  5
42A
330
1B
100
AcDbEntity
 67
     1
  8
SLD-0_0
  6
SLD-実線
 62
   179
370
    25
100
AcDbCircle
 10
260.8689270244
 20
772.1441142581
 30
0.0
 40
7.140022960748706
100
AcDbArc
 50
319.5163097088
 51
329.9550297188
  0
ARC
  5
42B
330
1B
100
AcDbEntity
 67
     1
  8
SLD-0_0
  6
SLD-実線
 62
   179
370
    25
100
AcDbCircle
 10
201.7501069097
 20
645.8066860818
 30
0.0
 40
2.000000000000011
100
AcDbArc
 50
179.5
 51
270.0
  0
ARC
  5
42C
330
1B
100
AcDbEntity
 67
     1
  8
SLD-0_0
  6
SLD-実線
 62
   179
370
    25
100
AcDbCircle
 10
235.7484073202
 20
645.806685903
 30
0.0
 40
2.000000178800092
100
AcDbArc
 50
269.9999853839
 51
0.5
  0
ARC
  5
42D
330
1B
100
AcDbEntity
 67
     1
  8
SLD-0_0
  6
SLD-実線
 62
   179
370
    25
100
AcDbCircle
 10
277.9038560275
 20
753.8415519428
 30
0.0
 40
1.00010238245634
100
AcDbArc
 50
216.7903663442
 51
239.9964847309
  0
ARC
  5
42E
330
1B
100
AcDbEntity
 67
     1
  8
SLD-0_0
  6
SLD-実線
 62
   179
370
    25
100
AcDbCircle
 10
159.5908242077
 20
753.8413791737
 30
0.0
 40
1.000059790362655
100
AcDbArc
 50
300.0020112315
 51
334.1509969195
  0
ARC
  5
42F
330
1B
100
AcDbEntity
 67
     1
  8
SLD-0_0
  6
SLD-実線
 62
   179
370
    25
100
AcDbCircle
 10
280.9271956676
 20
749.7887463503
 30
0.0
 40
0.9999856829458095
100
AcDbArc
 50
1.5235956634
 51
60.0002698631
  0
ARC
  5
430
330
1B
100
AcDbEntity
 67
     1
  8
SLD-0_0
  6
SLD-実線
 62
   179
370
    25
100
AcDbCircle
 10
277.9076443267
 20
753.8415029282
 30
0.0
 40
1.00001879410124
100
AcDbArc
 50
183.317491871
 51
239.9991628011
  0
ARC
  5
431
330
1B
100
AcDbEntity
 67
     1
  8
SLD-0_0
  6
SLD-実線
 62
   179
370
    25
100
AcDbCircle
 10
156.5715942337
 20
749.7887612515
 30
0.0
 40
0.9999856828943067
100
AcDbArc
 50
119.9997301348
 51
178.4764043422
  0
ARC
  5
432
330
1B
100
AcDbEntity
 67
     1
  8
SLD-0_0
  6
SLD-実線
 62
   179
370
    25
100
AcDbCircle
 10
166.1956372959
 20
332.874237068
 30
0.0
 40
4.99811487675472
100
AcDbArc
 50
324.5301089403
 51
359.9117565192
  0
ARC
  5
433
330
1B
100
AcDbEntity
 67
     1
  8
SLD-0_0
  6
SLD-実線
 62
   179
370
    25
100
AcDbCircle
 10
120.7492571149
 20
584.8066860818
 30
0.0
 40
2.0
100
AcDbArc
 50
180.0
 51
269.9999999996
  0
ARC
  5
434
330
1B
100
AcDbEntity
 67
     1
  8
SLD-0_0
  6
SLD-実線
 62
   179
370
    25
100
AcDbCircle
 10
120.7492563698
 20
630.8066860818
 30
0.0
 40
2.000000745050102
100
AcDbArc
 50
90.0000000004
 51
180.0000179278
  0
ARC
  5
435
330
1B
100
AcDbEntity
 67
     1
  8
SLD-0_0
  6
SLD-実線
 62
   179
370
    25
100
AcDbCircle
 10
200.7492531407
 20
328.9066823162
 30
0.0
 40
1.0
100
AcDbArc
 50
180.0
 51
270.0
  0
ARC
  5
436
330
1B
100
AcDbEntity
 67
     1
  8
SLD-0_0
  6
SLD-実線
 62
   179
370
    25
100
AcDbCircle
 10
236.7492571149
 20
328.9066860818
 30
0.0
 40
1.0
100
AcDbArc
 50
270.0
 51
0.0
  0
ARC
  5
437
330
1B
100
AcDbEntity
 67
     1
  8
SLD-0_0
  6
SLD-実線
 62
   179
370
    25
100
AcDbCircle
 10
198.7492570106
 20
329.9066823163
 30
0.0
 40
0.9999967411583702
100
AcDbArc
 50
0.0003292156
 51
89.9999743829
  0
ARC
  5
438
330
1B
100
AcDbEntity
 67
     1
  8
SLD-0_0
  6
SLD-実線
 62
   179
370
    25
100
AcDbCircle
 10
238.7492535506
 20
329.9066860818
 30
0.0
 40
0.9999964356500755
100
AcDbArc
 50
90.0000256114
 51
180.0
  0
ARC
  5
439
330
1B
100
AcDbEntity
 67
     1
  8
SLD-0_0
  6
SLD-実線
 62
   179
370
    25
100
AcDbCircle
 10
290.7492571149
 20
569.8066860818
 30
0.0
 40
5.0
100
AcDbArc
 50
90.0
 51
180.0
  0
ARC
  5
43A
330
1B
100
AcDbEntity
 67
     1
  8
SLD-0_0
  6
SLD-実線
 62
   179
370
    25
100
AcDbCircle
 10
193.7492571148
 20
339.9066797398
 30
0.0
 40
5.0
100
AcDbArc
 50
90.0
 51
180.0
  0
ARC
  5
43B
330
1B
100
AcDbEntity
 67
     1
  8
SLD-0_0
  6
SLD-実線
 62
   179
370
    25
100
AcDbCircle
 10
243.7492569957
 20
339.9066797398
 30
0.0
 40
5.0
100
AcDbArc
 50
0.0
 51
90.0
  0
ARC
  5
43C
330
1B
100
AcDbEntity
 67
     1
  8
SLD-0_0
  6
SLD-実線
 62
   179
370
    25
100
AcDbCircle
 10
200.7492613247
 20
345.9066824489
 30
0.0
 40
0.9999963671108271
100
AcDbArc
 50
269.9998031855
 51
359.9999266392
  0
ARC
  5
43D
330
1B
100
AcDbEntity
 67
     1
  8
SLD-0_0
  6
SLD-実線
 62
   179
370
    25
100
AcDbCircle
 10
236.7492575768
 20
345.9066792779
 30
0.0
 40
0.9999995380607043
100
AcDbArc
 50
179.9999844579
 51
269.9999667076
  0
ARC
  5
43E
330
1B
100
AcDbEntity
 67
     1
  8
SLD-0_0
  6
SLD-実線
 62
   179
370
    25
100
AcDbCircle
 10
281.9536847018
 20
639.8036794785
 30
0.0
 40
2.996993039047204
100
AcDbArc
 50
254.1946632937
 51
270.00004697
  0
ARC
  5
43F
330
1B
100
AcDbEntity
 67
     1
  8
SLD-0_0
  6
SLD-実線
 62
   179
370
    25
100
AcDbCircle
 10
286.7492571149
 20
634.8066861116
 30
0.0
 40
2.00000032790172
100
AcDbArc
 50
0.0000008537
 51
89.9998941317
  0
ARC
  5
440
330
1B
100
AcDbEntity
 67
     1
  8
SLD-0_0
  6
SLD-実線
 62
   179
370
    25
100
AcDbCircle
 10
189.7492571149
 20
240.3538222215
 30
0.0
 40
6.500000000000059
100
AcDbArc
 50
60.2692577874
 51
119.7307422126
  0
ARC
  5
441
330
1B
100
AcDbEntity
 67
     1
  8
SLD-0_0
  6
SLD-実線
 62
   179
370
    25
100
AcDbCircle
 10
247.7492571149
 20
240.3538222215
 30
0.0
 40
6.50000000000002
100
AcDbArc
 50
60.2692577874
 51
119.7307422126
  0
ARC
  5
442
330
1B
100
AcDbEntity
 67
     1
  8
SLD-0_0
  6
SLD-実線
 62
   179
370
    25
100
AcDbCircle
 10
218.7492571149
 20
186.9829082225
 30
0.0
 40
34.64290676666587
100
AcDbArc
 50
84.201469189
 51
95.7985308109
  0
ARC
  5
443
330
1B
100
AcDbEntity
 67
     1
  8
SLD-0_0
  6
SLD-実線
 62
   179
370
    25
100
AcDbCircle
 10
229.7562098713
 20
219.4026710314
 30
0.0
 40
2.107760228297684
100
AcDbArc
 50
90.1890004987
 51
103.917076594
  0
ARC
  5
444
330
1B
100
AcDbEntity
 67
     1
  8
SLD-0_0
  6
SLD-実線
 62
   179
370
    25
100
AcDbCircle
 10
218.4083318185
 20
214.5024005641
 30
0.0
 40
9.97537870678526
100
AcDbArc
 50
90.9137193791
 51
93.0174224049
  0
ARC
  5
445
330
1B
100
AcDbEntity
 67
     1
  8
SLD-0_0
  6
SLD-実線
 62
   179
370
    25
100
AcDbCircle
 10
219.0901824114
 20
214.5024005641
 30
0.0
 40
9.975378706784841
100
AcDbArc
 50
86.9825775951
 51
89.086280621
  0
ARC
  5
446
330
1B
100
AcDbEntity
 67
     1
  8
SLD-0_0
  6
SLD-実線
 62
   179
370
    25
100
AcDbCircle
 10
246.5002949242
 20
242.0944930682
 30
0.0
 40
3.363704953359467
100
AcDbArc
 50
235.5722715684
 51
257.0984344851
  0
ARC
  5
447
330
1B
100
AcDbEntity
 67
     1
  8
SLD-0_0
  6
SLD-実線
 62
   179
370
    25
100
AcDbCircle
 10
243.3297094519
 20
237.5516164293
 30
0.0
 40
2.176487374671408
100
AcDbArc
 50
54.3392101552
 51
72.368200576
  0
ARC
  5
448
330
1B
100
AcDbEntity
 67
     1
  8
SLD-0_0
  6
SLD-実線
 62
   179
370
    25
100
AcDbCircle
 10
194.1688047779
 20
237.5516164293
 30
0.0
 40
2.176487374677882
100
AcDbArc
 50
107.631799424
 51
125.6607898447
  0
ARC
  5
449
330
1B
100
AcDbEntity
 67
     1
  8
SLD-0_0
  6
SLD-実線
 62
   179
370
    25
100
AcDbCircle
 10
190.9982193056
 20
242.0944930682
 30
0.0
 40
3.363704953352894
100
AcDbArc
 50
282.9015655149
 51
304.4277284317
  0
ARC
  5
44A
330
1B
100
AcDbEntity
 67
     1
  8
SLD-0_0
  6
SLD-実線
 62
   179
370
    25
100
AcDbCircle
 10
191.2497890744
 20
242.9148154786
 30
0.0
 40
4.541466014821436
100
AcDbArc
 50
280.4285792788
 51
304.1644769445
  0
ARC
  5
44B
330
1B
100
AcDbEntity
 67
     1
  8
SLD-0_0
  6
SLD-実線
 62
   179
370
    25
100
AcDbCircle
 10
195.1661910325
 20
236.7750317086
 30
0.0
 40
2.745946169421339
100
AcDbArc
 50
86.5700737203
 51
119.8333067582
  0
ARC
  5
44C
330
1B
100
AcDbEntity
 67
     1
  8
SLD-0_0
  6
SLD-実線
 62
   179
370
    25
100
AcDbCircle
 10
242.3323231973
 20
236.7750317086
 30
0.0
 40
2.745946169466754
100
AcDbArc
 50
60.16669324
 51
93.4299262796
  0
ARC
  5
44D
330
1B
100
AcDbEntity
 67
     1
  8
SLD-0_0
  6
SLD-実線
 62
   179
370
    25
100
AcDbCircle
 10
246.2487251555
 20
242.9148154786
 30
0.0
 40
4.541466014855011
100
AcDbArc
 50
235.8355230555
 51
259.57142072
  0
ARC
  5
44E
330
1B
100
AcDbEntity
 67
     1
  8
SLD-0_0
  6
SLD-実線
 62
   179
370
    25
100
AcDbCircle
 10
218.7492571149
 20
222.3378152177
 30
0.0
 40
10.99862770344896
100
AcDbArc
 50
340.8935294724
 51
199.1064705276
  0
ARC
  5
44F
330
1B
100
AcDbEntity
 67
     1
  8
SLD-0_0
  6
SLD-実線
 62
   179
370
    25
100
AcDbCircle
 10
218.7457873466
 20
222.2956940206
 30
0.0
 40
10.99653058253551
100
AcDbArc
 50
89.9819212901
 51
179.9843447238
  0
ARC
  5
450
330
1B
100
AcDbEntity
 67
     1
  8
SLD-0_0
  6
SLD-実線
 62
   179
370
    25
100
AcDbCircle
 10
218.7524524273
 20
222.295419403
 30
0.0
 40
10.99680511695319
100
AcDbArc
 50
0.0170857037
 51
90.0166482821
  0
ARC
  5
451
330
1B
100
AcDbEntity
 67
     1
  8
SLD-0_0
  6
SLD-実線
 62
   179
370
    25
100
AcDbCircle
 10
218.7492571149
 20
67.2376903953
 30
0.0
 40
4.250000000000033
100
AcDbArc
 50
345.2177293729
 51
19.9716856454
  0
ARC
  5
452
330
1B
100
AcDbEntity
 67
     1
  8
SLD-0_0
  6
SLD-実線
 62
   179
370
    25
100
AcDbCircle
 10
218.7492571149
 20
67.2376903953
 30
0.0
 40
4.25
100
AcDbArc
 50
43.7839299617
 51
78.1963443712
  0
ARC
  5
453
330
1B
100
AcDbEntity
 67
     1
  8
SLD-0_0
  6
SLD-実線
 62
   179
370
    25
100
AcDbCircle
 10
218.7492571149
 20
67.2376903953
 30
0.0
 40
4.250000000000024
100
AcDbArc
 50
104.0877183393
 51
138.5582360782
  0
ARC
  5
454
330
1B
100
AcDbEntity
 67
     1
  8
SLD-0_0
  6
SLD-実線
 62
   179
370
    25
100
AcDbCircle
 10
218.7492571149
 20
67.2376903953
 30
0.0
 40
4.250000000000023
100
AcDbArc
 50
165.4445023897
 51
201.1606269896
  0
ARC
  5
455
330
1B
100
AcDbEntity
 67
     1
  8
SLD-0_0
  6
SLD-実線
 62
   179
370
    25
100
AcDbCircle
 10
218.7492571149
 20
67.2376903953
 30
0.0
 40
4.249999999999996
100
AcDbArc
 50
222.4936967431
 51
258.0276164108
  0
ARC
  5
456
330
1B
100
AcDbEntity
 67
     1
  8
SLD-0_0
  6
SLD-実線
 62
   179
370
    25
100
AcDbCircle
 10
284.3721567393
 20
114.9155177834
 30
0.0
 40
4.249999999999992
100
AcDbArc
 50
345.2177293729
 51
19.9716856454
  0
ARC
  5
457
330
1B
100
AcDbEntity
 67
     1
  8
SLD-0_0
  6
SLD-実線
 62
   179
370
    25
100
AcDbCircle
 10
284.3721567393
 20
114.9155177834
 30
0.0
 40
4.249999999999984
100
AcDbArc
 50
43.7839299617
 51
78.1963443712
  0
ARC
  5
458
330
1B
100
AcDbEntity
 67
     1
  8
SLD-0_0
  6
SLD-実線
 62
   179
370
    25
100
AcDbCircle
 10
284.3721567393
 20
114.9155177834
 30
0.0
 40
4.250000000000058
100
AcDbArc
 50
104.0877183393
 51
138.5582360782
  0
ARC
  5
459
330
1B
100
AcDbEntity
 67
     1
  8
SLD-0_0
  6
SLD-実線
 62
   179
370
    25
100
AcDbCircle
 10
284.3721567393
 20
114.9155177834
 30
0.0
 40
4.250000000000082
100
AcDbArc
 50
165.4445023897
 51
201.1606269896
  0
ARC
  5
45A
330
1B
100
AcDbEntity
 67
     1
  8
SLD-0_0
  6
SLD-実線
 62
   179
370
    25
100
AcDbCircle
 10
284.3721567393
 20
114.9155177834
 30
0.0
 40
4.250000000000042
100
AcDbArc
 50
222.4936967431
 51
258.0276164108
  0
ARC
  5
45B
330
1B
100
AcDbEntity
 67
     1
  8
SLD-0_0
  6
SLD-実線
 62
   179
370
    25
100
AcDbCircle
 10
153.1263574906
 20
114.9155177834
 30
0.0
 40
4.250000000000021
100
AcDbArc
 50
225.2177293729
 51
259.9716856454
  0
ARC
  5
45C
330
1B
100
AcDbEntity
 67
     1
  8
SLD-0_0
  6
SLD-実線
 62
   179
370
    25
100
AcDbCircle
 10
153.1263574906
 20
114.9155177834
 30
0.0
 40
4.249999999999993
100
AcDbArc
 50
283.7839299617
 51
318.1963443712
  0
ARC
  5
45D
330
1B
100
AcDbEntity
 67
     1
  8
SLD-0_0
  6
SLD-実線
 62
   179
370
    25
100
AcDbCircle
 10
153.1263574906
 20
114.9155177834
 30
0.0
 40
4.249999999999986
100
AcDbArc
 50
344.0877183393
 51
18.5582360782
  0
ARC
  5
45E
330
1B
100
AcDbEntity
 67
     1
  8
SLD-0_0
  6
SLD-実線
 62
   179
370
    25
100
AcDbCircle
 10
153.1263574906
 20
114.9155177834
 30
0.0
 40
4.250000000000006
100
AcDbArc
 50
45.4445023897
 51
81.1606269896
  0
ARC
  5
45F
330
1B
100
AcDbEntity
 67
     1
  8
SLD-0_0
  6
SLD-実線
 62
   179
370
    25
100
AcDbCircle
 10
153.1263574906
 20
114.9155177834
 30
0.0
 40
4.250000000000004
100
AcDbArc
 50
102.4936967431
 51
138.0276164108
  0
ARC
  5
460
330
1B
100
AcDbEntity
 67
     1
  8
SLD-0_0
  6
SLD-実線
 62
   179
370
    25
100
AcDbCircle
 10
178.1920747068
 20
192.0598630072
 30
0.0
 40
4.250000000000019
100
AcDbArc
 50
285.2177293729
 51
319.9716856454
  0
ARC
  5
461
330
1B
100
AcDbEntity
 67
     1
  8
SLD-0_0
  6
SLD-実線
 62
   179
370
    25
100
AcDbCircle
 10
178.1920747068
 20
192.0598630072
 30
0.0
 40
4.250000000000019
100
AcDbArc
 50
343.7839299617
 51
18.1963443712
  0
ARC
  5
462
330
1B
100
AcDbEntity
 67
     1
  8
SLD-0_0
  6
SLD-実線
 62
   179
370
    25
100
AcDbCircle
 10
178.1920747068
 20
192.0598630072
 30
0.0
 40
4.250000000000005
100
AcDbArc
 50
44.0877183393
 51
78.5582360782
  0
ARC
  5
463
330
1B
100
AcDbEntity
 67
     1
  8
SLD-0_0
  6
SLD-実線
 62
   179
370
    25
100
AcDbCircle
 10
178.1920747068
 20
192.0598630072
 30
0.0
 40
4.250000000000029
100
AcDbArc
 50
105.4445023897
 51
141.1606269896
  0
ARC
  5
464
330
1B
100
AcDbEntity
 67
     1
  8
SLD-0_0
  6
SLD-実線
 62
   179
370
    25
100
AcDbCircle
 10
178.1920747068
 20
192.0598630072
 30
0.0
 40
4.249999999999992
100
AcDbArc
 50
162.4936967431
 51
198.0276164108
  0
ARC
  5
465
330
1B
100
AcDbEntity
 67
     1
  8
SLD-0_0
  6
SLD-実線
 62
   179
370
    25
100
AcDbCircle
 10
259.3064395231
 20
192.0598630072
 30
0.0
 40
4.24999999999995
100
AcDbArc
 50
345.2177293729
 51
19.9716856454
  0
ARC
  5
466
330
1B
100
AcDbEntity
 67
     1
  8
SLD-0_0
  6
SLD-実線
 62
   179
370
    25
100
AcDbCircle
 10
259.3064395231
 20
192.0598630072
 30
0.0
 40
4.24999999999996
100
AcDbArc
 50
43.7839299617
 51
78.1963443712
  0
ARC
  5
467
330
1B
100
AcDbEntity
 67
     1
  8
SLD-0_0
  6
SLD-実線
 62
   179
370
    25
100
AcDbCircle
 10
259.3064395231
 20
192.0598630072
 30
0.0
 40
4.250000000000041
100
AcDbArc
 50
104.0877183393
 51
138.5582360782
  0
ARC
  5
468
330
1B
100
AcDbEntity
 67
     1
  8
SLD-0_0
  6
SLD-実線
 62
   179
370
    25
100
AcDbCircle
 10
259.3064395231
 20
192.0598630072
 30
0.0
 40
4.250000000000021
100
AcDbArc
 50
165.4445023897
 51
201.1606269896
  0
ARC
  5
469
330
1B
100
AcDbEntity
 67
     1
  8
SLD-0_0
  6
SLD-実線
 62
   179
370
    25
100
AcDbCircle
 10
259.3064395231
 20
192.0598630072
 30
0.0
 40
4.25
100
AcDbArc
 50
222.4936967431
 51
258.0276164108
  0
ARC
  5
46A
330
1B
100
AcDbEntity
 67
     1
  8
SLD-0_0
  6
SLD-実線
 62
   179
370
    25
100
AcDbCircle
 10
153.1263574906
 20
114.9155177834
 30
0.0
 40
4.000000000000012
100
AcDbArc
 50
241.6365563402
 51
301.6365770416
  0
ARC
  5
46B
330
1B
100
AcDbEntity
 67
     1
  8
SLD-0_0
  6
SLD-実線
 62
   179
370
    25
100
AcDbCircle
 10
153.1263574906
 20
114.9155177834
 30
0.0
 40
3.999999999999999
100
AcDbArc
 50
181.6365705082
 51
241.6365563402
  0
ARC
  5
46C
330
1B
100
AcDbEntity
 67
     1
  8
SLD-0_0
  6
SLD-実線
 62
   179
370
    25
100
AcDbCircle
 10
153.1263574906
 20
114.9155177834
 30
0.0
 40
3.999999999999999
100
AcDbArc
 50
121.6365565631
 51
181.6365705082
  0
ARC
  5
46D
330
1B
100
AcDbEntity
 67
     1
  8
SLD-0_0
  6
SLD-実線
 62
   179
370
    25
100
AcDbCircle
 10
153.1263574906
 20
114.9155177834
 30
0.0
 40
4.000000000000011
100
AcDbArc
 50
61.6365413516
 51
121.6365565631
  0
ARC
  5
46E
330
1B
100
AcDbEntity
 67
     1
  8
SLD-0_0
  6
SLD-実線
 62
   179
370
    25
100
AcDbCircle
 10
153.1263574906
 20
114.9155177834
 30
0.0
 40
4.000000000000011
100
AcDbArc
 50
1.6365485208
 51
61.6365413516
  0
ARC
  5
46F
330
1B
100
AcDbEntity
 67
     1
  8
SLD-0_0
  6
SLD-実線
 62
   179
370
    25
100
AcDbCircle
 10
153.1263574906
 20
114.9155177834
 30
0.0
 40
4.000000000000012
100
AcDbArc
 50
301.6365770416
 51
1.6365485208
  0
ARC
  5
470
330
1B
100
AcDbEntity
 67
     1
  8
SLD-0_0
  6
SLD-実線
 62
   179
370
    25
100
AcDbCircle
 10
259.3064395231
 20
192.0598630072
 30
0.0
 40
4.00000000000007
100
AcDbArc
 50
1.6365780895
 51
61.6366000029
  0
ARC
  5
471
330
1B
100
AcDbEntity
 67
     1
  8
SLD-0_0
  6
SLD-実線
 62
   179
370
    25
100
AcDbCircle
 10
259.3064395231
 20
192.0598630072
 30
0.0
 40
4.00000000000007
100
AcDbArc
 50
301.6365770416
 51
1.6365780895
  0
ARC
  5
472
330
1B
100
AcDbEntity
 67
     1
  8
SLD-0_0
  6
SLD-実線
 62
   179
370
    25
100
AcDbCircle
 10
259.3064395231
 20
192.0598630072
 30
0.0
 40
4.000000000000012
100
AcDbArc
 50
241.6365683134
 51
301.6365770416
  0
ARC
  5
473
330
1B
100
AcDbEntity
 67
     1
  8
SLD-0_0
  6
SLD-実線
 62
   179
370
    25
100
AcDbCircle
 10
259.3064395231
 20
192.0598630072
 30
0.0
 40
3.999999999999988
100
AcDbArc
 50
181.6365480592
 51
241.6365683134
  0
ARC
  5
474
330
1B
100
AcDbEntity
 67
     1
  8
SLD-0_0
  6
SLD-実線
 62
   179
370
    25
100
AcDbCircle
 10
259.3064395231
 20
192.0598630072
 30
0.0
 40
4.00000000000002
100
AcDbArc
 50
121.6365785536
 51
181.6365480592
  0
ARC
  5
475
330
1B
100
AcDbEntity
 67
     1
  8
SLD-0_0
  6
SLD-実線
 62
   179
370
    25
100
AcDbCircle
 10
259.3064395231
 20
192.0598630072
 30
0.0
 40
4.00000000000002
100
AcDbArc
 50
61.6366000029
 51
121.6365785536
  0
ARC
  5
476
330
1B
100
AcDbEntity
 67
     1
  8
SLD-0_0
  6
SLD-実線
 62
   179
370
    25
100
AcDbCircle
 10
178.1920747068
 20
192.0598630072
 30
0.0
 40
4.000000000000012
100
AcDbArc
 50
301.6365770416
 51
1.6365625537
  0
ARC
  5
477
330
1B
100
AcDbEntity
 67
     1
  8
SLD-0_0
  6
SLD-実線
 62
   179
370
    25
100
AcDbCircle
 10
178.1920747068
 20
192.0598630072
 30
0.0
 40
4.000000000000022
100
AcDbArc
 50
241.6365921485
 51
301.6365770416
  0
ARC
  5
478
330
1B
100
AcDbEntity
 67
     1
  8
SLD-0_0
  6
SLD-実線
 62
   179
370
    25
100
AcDbCircle
 10
178.1920747068
 20
192.0598630072
 30
0.0
 40
4.000000000000022
100
AcDbArc
 50
181.6365592263
 51
241.6365921485
  0
ARC
  5
479
330
1B
100
AcDbEntity
 67
     1
  8
SLD-0_0
  6
SLD-実線
 62
   179
370
    25
100
AcDbCircle
 10
178.1920747068
 20
192.0598630072
 30
0.0
 40
3.999999999999993
100
AcDbArc
 50
121.636561076
 51
181.6365592263
  0
ARC
  5
47A
330
1B
100
AcDbEntity
 67
     1
  8
SLD-0_0
  6
SLD-実線
 62
   179
370
    25
100
AcDbCircle
 10
178.1920747068
 20
192.0598630072
 30
0.0
 40
4.000000000000014
100
AcDbArc
 50
61.6365674294
 51
121.636561076
  0
ARC
  5
47B
330
1B
100
AcDbEntity
 67
     1
  8
SLD-0_0
  6
SLD-実線
 62
   179
370
    25
100
AcDbCircle
 10
178.1920747068
 20
192.0598630072
 30
0.0
 40
4.000000000000014
100
AcDbArc
 50
1.6365625537
 51
61.6365674294
  0
ARC
  5
47C
330
1B
100
AcDbEntity
 67
     1
  8
SLD-0_0
  6
SLD-実線
 62
   179
370
    25
100
AcDbCircle
 10
218.7492571149
 20
67.2376903953
 30
0.0
 40
4.00000000000006
100
AcDbArc
 50
121.6365437713
 51
181.6365647188
  0
ARC
  5
47D
330
1B
100
AcDbEntity
 67
     1
  8
SLD-0_0
  6
SLD-実線
 62
   179
370
    25
100
AcDbCircle
 10
218.7492571149
 20
67.2376903953
 30
0.0
 40
4.000000000000017
100
AcDbArc
 50
241.6365832256
 51
301.6365770416
  0
ARC
  5
47E
330
1B
100
AcDbEntity
 67
     1
  8
SLD-0_0
  6
SLD-実線
 62
   179
370
    25
100
AcDbCircle
 10
218.7492571149
 20
67.2376903953
 30
0.0
 40
4.00000000000006
100
AcDbArc
 50
181.6365647188
 51
241.6365832256
  0
ARC
  5
47F
330
1B
100
AcDbEntity
 67
     1
  8
SLD-0_0
  6
SLD-実線
 62
   179
370
    25
100
AcDbCircle
 10
218.7492571149
 20
67.2376903953
 30
0.0
 40
4.000000000000012
100
AcDbArc
 50
1.6365923123
 51
61.6365394157
  0
ARC
  5
480
330
1B
100
AcDbEntity
 67
     1
  8
SLD-0_0
  6
SLD-実線
 62
   179
370
    25
100
AcDbCircle
 10
218.7492571149
 20
67.2376903953
 30
0.0
 40
4.000000000000012
100
AcDbArc
 50
301.6365770416
 51
1.6365923123
  0
ARC
  5
481
330
1B
100
AcDbEntity
 67
     1
  8
SLD-0_0
  6
SLD-実線
 62
   179
370
    25
100
AcDbCircle
 10
218.7492571149
 20
67.2376903953
 30
0.0
 40
4.000000000000021
100
AcDbArc
 50
61.6365394157
 51
121.6365437713
  0
ARC
  5
482
330
1B
100
AcDbEntity
 67
     1
  8
SLD-0_0
  6
SLD-実線
 62
   179
370
    25
100
AcDbCircle
 10
284.3721567393
 20
114.9155177834
 30
0.0
 40
4.000000000000017
100
AcDbArc
 50
181.6365697487
 51
241.6365577759
  0
ARC
  5
483
330
1B
100
AcDbEntity
 67
     1
  8
SLD-0_0
  6
SLD-実線
 62
   179
370
    25
100
AcDbCircle
 10
284.3721567393
 20
114.9155177834
 30
0.0
 40
4.000000000000039
100
AcDbArc
 50
1.6365488377
 51
61.6365390308
  0
ARC
  5
484
330
1B
100
AcDbEntity
 67
     1
  8
SLD-0_0
  6
SLD-実線
 62
   179
370
    25
100
AcDbCircle
 10
284.3721567393
 20
114.9155177834
 30
0.0
 40
4.000000000000039
100
AcDbArc
 50
301.6365770416
 51
1.6365488377
  0
ARC
  5
485
330
1B
100
AcDbEntity
 67
     1
  8
SLD-0_0
  6
SLD-実線
 62
   179
370
    25
100
AcDbCircle
 10
284.3721567393
 20
114.9155177834
 30
0.0
 40
4.000000000000004
100
AcDbArc
 50
241.6365577759
 51
301.6365770416
  0
ARC
  5
486
330
1B
100
AcDbEntity
 67
     1
  8
SLD-0_0
  6
SLD-実線
 62
   179
370
    25
100
AcDbCircle
 10
284.3721567393
 20
114.9155177834
 30
0.0
 40
4.000000000000053
100
AcDbArc
 50
121.6365547943
 51
181.6365697487
  0
ARC
  5
487
330
1B
100
AcDbEntity
 67
     1
  8
SLD-0_0
  6
SLD-実線
 62
   179
370
    25
100
AcDbCircle
 10
284.3721567393
 20
114.9155177834
 30
0.0
 40
4.000000000000053
100
AcDbArc
 50
61.6365390308
 51
121.6365547943
  0
CIRCLE
  5
488
330
1B
100
AcDbEntity
 67
     1
  8
SLD-0_0
  6
SLD-実線
 62
   179
370
    25
100
AcDbCircle
 10
218.7492571149
 20
136.2376903953
 30
0.0
 40
10.55269119344737
  0
CIRCLE
  5
489
330
1B
100
AcDbEntity
 67
     1
  8
SLD-0_0
  6
SLD-実線
 62
   179
370
    25
100
AcDbCircle
 10
218.7492571149
 20
136.2376903953
 30
0.0
 40
13.45269119344735
  0
CIRCLE
  5
48A
330
1B
100
AcDbEntity
 67
     1
  8
SLD-0_0
  6
SLD-実線
 62
   179
370
    25
100
AcDbCircle
 10
218.7492571149
 20
136.2376903953
 30
0.0
 40
34.95269119344735
  0
CIRCLE
  5
48B
330
1B
100
AcDbEntity
 67
     1
  8
SLD-0_0
  6
SLD-実線
 62
   179
370
    25
100
AcDbCircle
 10
218.7492571149
 20
136.2376903953
 30
0.0
 40
38.45269119344732
  0
CIRCLE
  5
48C
330
1B
100
AcDbEntity
 67
     1
  8
SLD-0_0
  6
SLD-実線
 62
   179
370
    25
100
AcDbCircle
 10
218.7492571149
 20
136.2376903953
 30
0.0
 40
50.94730880653111
  0
CIRCLE
  5
48D
330
1B
100
AcDbEntity
 67
     1
  8
SLD-0_0
  6
SLD-実線
 62
   179
370
    25
100
AcDbCircle
 10
218.7492571149
 20
136.2376903953
 30
0.0
 40
73.99999999998926
  0
CIRCLE
  5
48E
330
1B
100
AcDbEntity
 67
     1
  8
SLD-0_0
  6
SLD-実線
 62
   179
370
    25
100
AcDbCircle
 10
218.7492571149
 20
136.2376903953
 30
0.0
 40
48.54730880653113
  0
ARC
  5
48F
330
1B
100
AcDbEntity
 67
     1
  8
SLD-0_0
  6
SLD-実線
 62
   179
370
    25
100
AcDbCircle
 10
161.2492566381
 20
141.2376903953
 30
0.0
 40
16.50000047680001
100
AcDbArc
 50
165.489305437
 51
180.0000003882
  0
ARC
  5
490
330
1B
100
AcDbEntity
 67
     1
  8
SLD-0_0
  6
SLD-実線
 62
   179
370
    25
100
AcDbCircle
 10
140.4350870684
 20
146.6247457715
 30
0.0
 40
4.999999999992106
100
AcDbArc
 50
345.4893054373
 51
352.4447768189
  0
ARC
  5
491
330
1B
100
AcDbEntity
 67
     1
  8
SLD-0_0
  6
SLD-実線
 62
   179
370
    25
100
AcDbCircle
 10
161.2492566381
 20
131.2376903953
 30
0.0
 40
16.50000047680001
100
AcDbArc
 50
179.9999996118
 51
195.5136724898
  0
ARC
  5
492
330
1B
100
AcDbEntity
 67
     1
  8
SLD-0_0
  6
SLD-実線
 62
   179
370
    25
100
AcDbCircle
 10
218.7492571149
 20
136.2376903953
 30
0.0
 40
76.0
100
AcDbArc
 50
183.6214847041
 51
194.7683983121
  0
ARC
  5
493
330
1B
100
AcDbEntity
 67
     1
  8
SLD-0_0
  6
SLD-実線
 62
   179
370
    25
100
AcDbCircle
 10
218.7492571149
 20
136.2376903953
 30
0.0
 40
76.0
100
AcDbArc
 50
165.2316016879
 51
176.3785152959
  0
ARC
  5
494
330
1B
100
AcDbEntity
 67
     1
  8
SLD-0_0
  6
SLD-実線
 62
   179
370
    25
100
AcDbCircle
 10
218.7492571149
 20
136.2376903953
 30
0.0
 40
76.0
100
AcDbArc
 50
176.3785152959
 51
183.6214847041
  0
ARC
  5
495
330
1B
100
AcDbEntity
 67
     1
  8
SLD-0_0
  6
SLD-実線
 62
   179
370
    25
100
AcDbCircle
 10
218.7492571149
 20
136.2376903953
 30
0.0
 40
76.0
100
AcDbArc
 50
194.7683983121
 51
165.2316016879
  0
CIRCLE
  5
496
330
1B
100
AcDbEntity
 67
     1
  8
SLD-0_0
  6
SLD-実線
 62
   179
370
    25
100
AcDbCircle
 10
282.3888674217
 20
72.5980800885
 30
0.0
 40
5.0
  0
CIRCLE
  5
497
330
1B
100
AcDbEntity
 67
     1
  8
SLD-0_0
  6
SLD-実線
 62
   179
370
    25
100
AcDbCircle
 10
155.1096468081
 20
199.8773007021
 30
0.0
 40
5.0
  0
ARC
  5
498
330
1B
100
AcDbEntity
 67
     1
  8
SLD-0_0
  6
SLD-実線
 62
   179
370
    25
100
AcDbCircle
 10
218.7492571149
 20
136.2376903953
 30
0.0
 40
100.00000086444
100
AcDbArc
 50
34.4115086698
 51
55.5884926087
  0
ARC
  5
499
330
1B
100
AcDbEntity
 67
     1
  8
SLD-0_0
  6
SLD-実線
 62
   179
370
    25
100
AcDbCircle
 10
218.7492571149
 20
136.2376903953
 30
0.0
 40
99.99999999999531
100
AcDbArc
 50
304.4115086698
 51
325.5884926524
  0
ARC
  5
49A
330
1B
100
AcDbEntity
 67
     1
  8
SLD-0_0
  6
SLD-実線
 62
   179
370
    25
100
AcDbCircle
 10
218.7492571149
 20
136.2376903953
 30
0.0
 40
100.0000023929131
100
AcDbArc
 50
124.4115086698
 51
145.5884926523
  0
ARC
  5
49B
330
1B
100
AcDbEntity
 67
     1
  8
SLD-0_0
  6
SLD-実線
 62
   179
370
    25
100
AcDbCircle
 10
218.7492571149
 20
136.2376903953
 30
0.0
 40
100.0000023929215
100
AcDbArc
 50
214.4115073477
 51
235.5884926524
  0
ARC
  5
49C
330
1B
100
AcDbEntity
 67
     1
  8
SLD-0_0
  6
SLD-実線
 62
   179
370
    25
100
AcDbCircle
 10
120.7492563699
 20
113.2376903953
 30
0.0
 40
2.000000745050003
100
AcDbArc
 50
180.0000012806
 51
269.9999999996
  0
ARC
  5
49D
330
1B
100
AcDbEntity
 67
     1
  8
SLD-0_0
  6
SLD-実線
 62
   179
370
    25
100
AcDbCircle
 10
120.7492563699
 20
159.2376903953
 30
0.0
 40
2.000000745050003
100
AcDbArc
 50
90.0000000004
 51
179.9999987194
  0
SPLINE
  5
49E
330
1B
100
AcDbEntity
 67
     1
  8
SLD-0_0
  6
SLD-実線
 62
   179
370
    25
100
AcDbSpline
210
0.0
220
0.0
230
1.0
 70
     8
 71
     3
 72
    14
 73
    10
 74
     0
 42
0.000000001
 43
0.00000001
 40
0.0
 40
0.0
 40
0.0
 40
0.0
 40
0.0919635620921103
 40
0.244361808226784
 40
0.3971932211795139
 40
0.5498285585530819
 40
0.7018162125668631
 40
0.8527856108997727
 40
1.0
 40
1.0
 40
1.0
 40
1.0
 10
189.7492579494108
 20
773.5912250661282
 30
0.0
 10
189.4773838532206
 20
773.5802005755843
 30
0.0
 10
188.7549711471042
 20
773.55090675113
 30
0.0
 10
187.6090603996232
 20
773.2485749352724
 30
0.0
 10
186.407487150197
 20
772.6292485515613
 30
0.0
 10
185.3909884242351
 20
771.7504313366468
 30
0.0
 10
184.6292905082259
 20
770.6689047784847
 30
0.0
 10
184.1402040347502
 20
769.4550706069459
 30
0.0
 10
184.0793179794989
 20
768.6025193710062
 30
0.0
 10
184.0492583189596
 20
768.1816118144421
 30
0.0
  0
SPLINE
  5
49F
330
1B
100
AcDbEntity
 67
     1
  8
SLD-0_0
  6
SLD-実線
 62
   179
370
    25
100
AcDbSpline
210
0.0
220
0.0
230
1.0
 70
     8
 71
     3
 72
    14
 73
    10
 74
     0
 42
0.000000001
 43
0.00000001
 40
0.0
 40
0.0
 40
0.0
 40
0.0
 40
0.0946216041117432
 40
0.2430145746771249
 40
0.3914273273477485
 40
0.5402497247423886
 40
0.6898916275077658
 40
0.8405074726473325
 40
1.0
 40
1.0
 40
1.0
 40
1.0
 10
254.4492579374899
 20
768.1816118144421
 30
0.0
 10
254.4365706990289
 20
768.4517207791839
 30
0.0
 10
254.403986344881
 20
769.1454356638492
 30
0.0
 10
254.0783732129199
 20
770.2317645579617
 30
0.0
 10
253.4348265189845
 20
771.3504858621843
 30
0.0
 10
252.5318155138467
 20
772.2964396721922
 30
0.0
 10
251.4224897535
 20
773.0127743979369
 30
0.0
 10
250.1403823355408
 20
773.4964907222891
 30
0.0
 10
249.2217303777231
 20
773.5590500427606
 30
0.0
 10
248.7492564443935
 20
773.5912250661282
 30
0.0
  0
SPLINE
  5
4A0
330
1B
100
AcDbEntity
 67
     1
  8
SLD-0_0
  6
SLD-実線
 62
   179
370
    25
100
AcDbSpline
210
0.0
220
0.0
230
1.0
 70
     8
 71
     3
 72
    14
 73
    10
 74
     0
 42
0.000000001
 43
0.00000001
 40
0.0
 40
0.0
 40
0.0
 40
0.0
 40
0.0288423966915643
 40
0.0962437272475442
 40
0.2640165640348838
 40
0.4494700033901781
 40
0.7093778136987586
 40
0.9733805921578319
 40
1.0
 40
1.0
 40
1.0
 40
1.0
 10
201.4324072126624
 20
643.8293578409581
 30
0.0
 10
201.4365859506699
 20
643.82824096217
 30
0.0
 10
201.450529913973
 20
643.8245140673973
 30
0.0
 10
201.5059445761302
 20
643.8058051137831
 30
0.0
 10
201.5876689684189
 20
643.7627852654005
 30
0.0
 10
201.6920160334424
 20
643.6728762005667
 30
0.0
 10
201.7717852072711
 20
643.5377327566864
 30
0.0
 10
201.8111469257155
 20
643.4150520717993
 30
0.0
 10
201.8006966507554
 20
643.3516179310936
 30
0.0
 10
201.7997394625422
 20
643.3458077096371
 30
0.0
  0
SPLINE
  5
4A1
330
1B
100
AcDbEntity
 67
     1
  8
SLD-0_0
  6
SLD-実線
 62
   179
370
    25
100
AcDbSpline
210
0.0
220
0.0
230
1.0
 70
     8
 71
     3
 72
     9
 73
     5
 74
     0
 42
0.000000001
 43
0.00000001
 40
0.0
 40
0.0
 40
0.0
 40
0.0
 40
0.3551391315295244
 40
1.0
 40
1.0
 40
1.0
 40
1.0
 10
165.9335366759774
 20
662.7551513099103
 30
0.0
 10
165.935563040035
 20
662.756575982925
 30
0.0
 10
165.9412688715746
 20
662.7605875741247
 30
0.0
 10
165.883859227681
 20
662.726517453847
 30
0.0
 10
165.8468379948613
 20
662.704546966496
 30
0.0
  0
SPLINE
  5
4A2
330
1B
100
AcDbEntity
 67
     1
  8
SLD-0_0
  6
SLD-実線
 62
   179
370
    25
100
AcDbSpline
210
0.0
220
0.0
230
1.0
 70
     8
 71
     3
 72
    10
 73
     6
 74
     0
 42
0.000000001
 43
0.00000001
 40
0.0
 40
0.0
 40
0.0
 40
0.0
 40
0.0507568881058646
 40
0.954624921481857
 40
0.9999999999999999
 40
0.9999999999999999
 40
0.9999999999999999
 40
0.9999999999999999
 10
164.1808881733891
 20
638.8044962965874
 30
0.0
 10
164.1853308607452
 20
638.8052165361973
 30
0.0
 10
164.2688879941077
 20
638.8187626519409
 30
0.0
 10
164.3636991296638
 20
638.7459691508066
 30
0.0
 10
164.3335998232668
 20
638.7746741190607
 30
0.0
 10
164.3321610365387
 20
638.7760462545781
 30
0.0
  0
SPLINE
  5
4A3
330
1B
100
AcDbEntity
 67
     1
  8
SLD-0_0
  6
SLD-実線
 62
   179
370
    25
100
AcDbSpline
210
0.0
220
0.0
230
1.0
 70
     8
 71
     3
 72
    10
 73
     6
 74
     0
 42
0.000000001
 43
0.00000001
 40
0.0
 40
0.0
 40
0.0
 40
0.0
 40
0.2712810944121989
 40
0.8132367817549865
 40
1.0
 40
1.0
 40
1.0
 40
1.0
 10
272.9373111699101
 20
752.9450403832822
 30
0.0
 10
272.9154480036677
 20
752.9549804167269
 30
0.0
 10
272.8499073842876
 20
752.9847782941893
 30
0.0
 10
272.8198893850961
 20
753.0304440964827
 30
0.0
 10
272.8238663726673
 20
753.0239874730777
 30
0.0
 10
272.8248856339928
 20
753.0223327063946
 30
0.0
  0
SPLINE
  5
4A4
330
1B
100
AcDbEntity
 67
     1
  8
SLD-0_0
  6
SLD-実線
 62
   179
370
    25
100
AcDbSpline
210
0.0
220
0.0
230
1.0
 70
     8
 71
     3
 72
    11
 73
     7
 74
     0
 42
0.000000001
 43
0.00000001
 40
0.0
 40
0.0
 40
0.0
 40
0.0
 40
0.2365647742742952
 40
0.5714028783518524
 40
0.8368879087417469
 40
1.0
 40
1.0
 40
1.0
 40
1.0
 10
276.2356682990071
 20
752.9843198441891
 30
0.0
 10
276.1935659959688
 20
753.0092693069495
 30
0.0
 10
276.091871323906
 20
753.0695326951835
 30
0.0
 10
276.0029712980833
 20
753.1795702510117
 30
0.0
 10
275.9593768422216
 20
753.2531491150951
 30
0.0
 10
275.9593563972094
 20
753.2540684274054
 30
0.0
 10
275.959348616409
 20
753.2544182919888
 30
0.0
  0
SPLINE
  5
4A5
330
1B
100
AcDbEntity
 67
     1
  8
SLD-0_0
  6
SLD-実線
 62
   179
370
    25
100
AcDbSpline
210
0.0
220
0.0
230
1.0
 70
     8
 71
     3
 72
    12
 73
     8
 74
     0
 42
0.000000001
 43
0.00000001
 40
0.0
 40
0.0
 40
0.0
 40
0.0
 40
0.081412707813836
 40
0.2890721965271814
 40
0.5127176743672534
 40
0.8582883802240042
 40
1.0
 40
1.0
 40
1.0
 40
1.0
 10
161.3653212163922
 20
753.2783197545438
 30
0.0
 10
161.3661041276339
 20
753.2803745255094
 30
0.0
 10
161.3688840114922
 20
753.2876704031712
 30
0.0
 10
161.347700508597
 20
753.2407393555511
 30
0.0
 10
161.2680363995501
 20
753.1325522241801
 30
0.0
 10
161.1427371180816
 20
753.0012193084776
 30
0.0
 10
161.0217174933974
 20
752.9578128706331
 30
0.0
 10
160.9865225229737
 20
752.9451893948941
 30
0.0
  0
SPLINE
  5
4A6
330
1B
100
AcDbEntity
 67
     1
  8
SLD-0_0
  6
SLD-実線
 62
   179
370
    25
100
AcDbSpline
210
0.0
220
0.0
230
1.0
 70
     8
 71
     3
 72
    17
 73
    13
 74
     0
 42
0.000000001
 43
0.00000001
 40
0.0
 40
0.0
 40
0.0
 40
0.0
 40
0.2088384931191942
 40
0.4021817473914659
 40
0.5655741213871484
 40
0.6999358912156123
 40
0.8036571361191406
 40
0.8719391089880483
 40
0.900764758676639
 40
0.9218684275028888
 40
0.9509044130601098
 40
1.0
 40
1.0
 40
1.0
 40
1.0
 10
283.7513855967995
 20
643.3994295381932
 30
0.0
 10
283.7537378410361
 20
643.4444756652463
 30
0.0
 10
283.7582677994899
 20
643.5312256212571
 30
0.0
 10
283.8072600055534
 20
643.6445550087304
 30
0.0
 10
283.8682178091241
 20
643.7309247690251
 30
0.0
 10
283.9312422824333
 20
643.7905966441876
 30
0.0
 10
283.9847683091642
 20
643.8278897649436
 30
0.0
 10
284.0233692469123
 20
643.8486528729803
 30
0.0
 10
284.0420930842818
 20
643.857384545957
 30
0.0
 10
284.0501722990364
 20
643.8609463823936
 30
0.0
 10
284.0564512137728
 20
643.863614638833
 30
0.0
 10
284.0586510414573
 20
643.8645028790787
 30
0.0
 10
284.0600333486077
 20
643.8650610231786
 30
0.0
  0
SPLINE
  5
4A7
330
1B
100
AcDbEntity
 67
     1
  8
SLD-0_0
  6
SLD-実線
 62
   179
370
    25
100
AcDbSpline
210
0.0
220
0.0
230
1.0
 70
     8
 71
     3
 72
    13
 73
     9
 74
     0
 42
0.000000001
 43
0.00000001
 40
0.0
 40
0.0
 40
0.0
 40
0.0
 40
0.0339442229988932
 40
0.1516315330712355
 40
0.2486984002144146
 40
0.398315148886061
 40
0.9163857591971254
 40
1.0
 40
1.0
 40
1.0
 40
1.0
 10
160.586664763498
 20
753.7536965989499
 30
0.0
 10
160.5866365771706
 20
753.753299939306
 30
0.0
 10
160.5865106666135
 20
753.7515280292546
 30
0.0
 10
160.5852920141482
 20
753.7373355923415
 30
0.0
 10
160.581393832562
 20
753.70247764543
 30
0.0
 10
160.5641861103033
 20
753.5997411548752
 30
0.0
 10
160.5382303719897
 20
753.4908088643774
 30
0.0
 10
160.4937594724059
 20
753.4166030712552
 30
0.0
 10
160.4875794921395
 20
753.4062909268765
 30
0.0
  0
SPLINE
  5
4A8
330
1B
100
AcDbEntity
 67
     1
  8
SLD-0_0
  6
SLD-実線
 62
   179
370
    25
100
AcDbSpline
210
0.0
220
0.0
230
1.0
 70
     8
 71
     3
 72
    15
 73
    11
 74
     0
 42
0.000000001
 43
0.00000001
 40
0.0
 40
0.0
 40
0.0
 40
0.0
 40
0.1121818619160779
 40
0.2595363008376435
 40
0.3775266048441331
 40
0.4561921262411196
 40
0.5297807123698112
 40
0.6284420209943296
 40
0.7909527633959242
 40
1.0
 40
1.0
 40
1.0
 40
1.0
 10
281.1420916889188
 20
636.9317779623894
 30
0.0
 10
281.0228038638932
 20
636.9649399167517
 30
0.0
 10
280.7468276916911
 20
637.0416611515105
 30
0.0
 10
280.3843760465194
 20
637.2414766060278
 30
0.0
 10
280.0956564415872
 20
637.4503321058311
 30
0.0
 10
279.9371341597495
 20
637.5925284231674
 30
0.0
 10
279.8480827752175
 20
637.6825155366236
 30
0.0
 10
279.7977483275637
 20
637.7394292489047
 30
0.0
 10
279.757048228429
 20
637.7911114691651
 30
0.0
 10
279.7494737272197
 20
637.809972269847
 30
0.0
 10
279.7452121351239
 20
637.8205837988286
 30
0.0
  0
SPLINE
  5
4A9
330
1B
100
AcDbEntity
 67
     1
  8
SLD-0_0
  6
SLD-実線
 62
   179
370
    25
100
AcDbSpline
210
0.0
220
0.0
230
1.0
 70
     8
 71
     3
 72
    10
 73
     6
 74
     0
 42
0.000000001
 43
0.00000001
 40
0.0
 40
0.0
 40
0.0
 40
0.0
 40
0.0699811051899362
 40
0.88662247350191
 40
1.0
 40
1.0
 40
1.0
 40
1.0
 10
189.0717785183665
 20
684.2583464765
 30
0.0
 10
189.0671587289749
 20
684.2780730301834
 30
0.0
 10
189.0086285144786
 20
684.527997717323
 30
0.0
 10
188.9455446552529
 20
684.8099361415472
 30
0.0
 10
188.8884127352862
 20
685.0722078491812
 30
0.0
 10
188.8814478490822
 20
685.1041810893463
 30
0.0
  0
SPLINE
  5
4AA
330
1B
100
AcDbEntity
 67
     1
  8
SLD-0_0
  6
SLD-実線
 62
   179
370
    25
100
AcDbSpline
210
0.0
220
0.0
230
1.0
 70
    24
 71
     3
 72
    10
 73
     6
 74
     0
 42
0.000000001
 43
0.00000001
 40
0.0
 40
0.0
 40
0.0
 40
0.0
 40
0.1133773305356339
 40
0.9300201677755594
 40
0.9999999999999999
 40
0.9999999999999999
 40
0.9999999999999999
 40
0.9999999999999999
 10
189.234257054718
 20
685.4313733362555
 30
0.0
 10
189.234257054718
 20
685.3929428109363
 30
0.0
 10
189.234257054718
 20
685.0777019824891
 30
0.0
 10
189.234257054718
 20
684.7372170088595
 30
0.0
 10
189.234257054718
 20
684.4330425173777
 30
0.0
 10
189.234257054718
 20
684.409034469068
 30
0.0
  0
SPLINE
  5
4AB
330
1B
100
AcDbEntity
 67
     1
  8
SLD-0_0
  6
SLD-実線
 62
   179
370
    25
100
AcDbSpline
210
0.0
220
0.0
230
1.0
 70
    24
 71
     3
 72
    10
 73
     6
 74
     0
 42
0.000000001
 43
0.00000001
 40
0.0
 40
0.0
 40
0.0
 40
0.0
 40
0.0699798322244406
 40
0.886622669464366
 40
0.9999999999999999
 40
0.9999999999999999
 40
0.9999999999999999
 40
0.9999999999999999
 10
190.2642569814043
 20
684.4090344690896
 30
0.0
 10
190.2642569814033
 20
684.4330425173993
 30
0.0
 10
190.2642569813914
 20
684.737217008881
 30
0.0
 10
190.264256981378
 20
685.0777019825106
 30
0.0
 10
190.2642569813657
 20
685.3929428109578
 30
0.0
 10
190.2642569813642
 20
685.4313733362771
 30
0.0
  0
SPLINE
  5
4AC
330
1B
100
AcDbEntity
 67
     1
  8
SLD-0_0
  6
SLD-実線
 62
   179
370
    25
100
AcDbSpline
210
0.0
220
0.0
230
1.0
 70
     8
 71
     3
 72
    10
 73
     6
 74
     0
 42
0.000000001
 43
0.00000001
 40
0.0
 40
0.0
 40
0.0
 40
0.0
 40
0.11337752649809
 40
0.9300188948100638
 40
1.0
 40
1.0
 40
1.0
 40
1.0
 10
190.6170661870545
 20
685.104181089362
 30
0.0
 10
190.6101013008505
 20
685.0722078491967
 30
0.0
 10
190.5529693808839
 20
684.8099361415628
 30
0.0
 10
190.4898855216584
 20
684.5279977173387
 30
0.0
 10
190.4313553071622
 20
684.2780730301989
 30
0.0
 10
190.4267355177707
 20
684.2583464765156
 30
0.0
  0
SPLINE
  5
4AD
330
1B
100
AcDbEntity
 67
     1
  8
SLD-0_0
  6
SLD-実線
 62
   179
370
    25
100
AcDbSpline
210
0.0
220
0.0
230
1.0
 70
     8
 71
     3
 72
    10
 73
     6
 74
     0
 42
0.000000001
 43
0.00000001
 40
0.0
 40
0.0
 40
0.0
 40
0.0
 40
0.0699811051899362
 40
0.88662247350191
 40
1.0
 40
1.0
 40
1.0
 40
1.0
 10
247.0717787120816
 20
684.2583464764999
 30
0.0
 10
247.06715892269
 20
684.2780730301832
 30
0.0
 10
247.0086287081937
 20
684.527997717323
 30
0.0
 10
246.945544848968
 20
684.8099361415472
 30
0.0
 10
246.8884129290013
 20
685.0722078491812
 30
0.0
 10
246.8814480427973
 20
685.1041810893463
 30
0.0
  0
SPLINE
  5
4AE
330
1B
100
AcDbEntity
 67
     1
  8
SLD-0_0
  6
SLD-実線
 62
   179
370
    25
100
AcDbSpline
210
0.0
220
0.0
230
1.0
 70
    24
 71
     3
 72
    10
 73
     6
 74
     0
 42
0.000000001
 43
0.00000001
 40
0.0
 40
0.0
 40
0.0
 40
0.0
 40
0.1133773305356339
 40
0.9300201677755594
 40
0.9999999999999999
 40
0.9999999999999999
 40
0.9999999999999999
 40
0.9999999999999999
 10
247.2342572484363
 20
685.4313733362604
 30
0.0
 10
247.2342572484363
 20
685.3929428109412
 30
0.0
 10
247.2342572484363
 20
685.077701982494
 30
0.0
 10
247.2342572484363
 20
684.7372170088644
 30
0.0
 10
247.2342572484363
 20
684.4330425173825
 30
0.0
 10
247.2342572484363
 20
684.4090344690729
 30
0.0
  0
SPLINE
  5
4AF
330
1B
100
AcDbEntity
 67
     1
  8
SLD-0_0
  6
SLD-実線
 62
   179
370
    25
100
AcDbSpline
210
0.0
220
0.0
230
1.0
 70
    24
 71
     3
 72
    10
 73
     6
 74
     0
 42
0.000000001
 43
0.00000001
 40
0.0
 40
0.0
 40
0.0
 40
0.0
 40
0.0699798322244406
 40
0.886622669464366
 40
0.9999999999999999
 40
0.9999999999999999
 40
0.9999999999999999
 40
0.9999999999999999
 10
248.2642571751225
 20
684.4090344690803
 30
0.0
 10
248.2642571751216
 20
684.4330425173899
 30
0.0
 10
248.2642571751097
 20
684.7372170088717
 30
0.0
 10
248.2642571750963
 20
685.0777019825013
 30
0.0
 10
248.2642571750839
 20
685.3929428109485
 30
0.0
 10
248.2642571750824
 20
685.4313733362678
 30
0.0
  0
SPLINE
  5
4B0
330
1B
100
AcDbEntity
 67
     1
  8
SLD-0_0
  6
SLD-実線
 62
   179
370
    25
100
AcDbSpline
210
0.0
220
0.0
230
1.0
 70
     8
 71
     3
 72
    10
 73
     6
 74
     0
 42
0.000000001
 43
0.00000001
 40
0.0
 40
0.0
 40
0.0
 40
0.0
 40
0.11337752649809
 40
0.9300188948100638
 40
1.0
 40
1.0
 40
1.0
 40
1.0
 10
248.6170663807841
 20
685.1041810893648
 30
0.0
 10
248.6101014945801
 20
685.0722078491997
 30
0.0
 10
248.5529695746134
 20
684.8099361415657
 30
0.0
 10
248.489885715388
 20
684.5279977173416
 30
0.0
 10
248.4313555008918
 20
684.2780730302019
 30
0.0
 10
248.4267357115002
 20
684.2583464765185
 30
0.0
  0
SPLINE
  5
4B1
330
1B
100
AcDbEntity
 67
     1
  8
SLD-0_0
  6
SLD-実線
 62
   179
370
    25
100
AcDbSpline
210
0.0
220
0.0
230
1.0
 70
     8
 71
     3
 72
    10
 73
     6
 74
     0
 42
0.000000001
 43
0.00000001
 40
0.0
 40
0.0
 40
0.0
 40
0.0
 40
0.069982328877716
 40
0.8866224734823588
 40
1.0
 40
1.0
 40
1.0
 40
1.0
 10
247.0717787120816
 20
768.652011671
 30
0.0
 10
247.0671589269685
 20
768.6717408270435
 30
0.0
 10
247.0086297901192
 20
768.9216941139895
 30
0.0
 10
246.9455447201826
 20
769.203600254372
 30
0.0
 10
246.8884129231789
 20
769.4658728886415
 30
0.0
 10
246.8814480427998
 20
769.4978462838469
 30
0.0
  0
SPLINE
  5
4B2
330
1B
100
AcDbEntity
 67
     1
  8
SLD-0_0
  6
SLD-実線
 62
   179
370
    25
100
AcDbSpline
210
0.0
220
0.0
230
1.0
 70
    24
 71
     3
 72
    10
 73
     6
 74
     0
 42
0.000000001
 43
0.00000001
 40
0.0
 40
0.0
 40
0.0
 40
0.0
 40
0.1133788041611627
 40
0.9300216554278375
 40
1.0
 40
1.0
 40
1.0
 40
1.0
 10
247.2342572484774
 20
769.8250459813609
 30
0.0
 10
247.2342572484774
 20
769.786612933512
 30
0.0
 10
247.2342572484774
 20
769.471355006354
 30
0.0
 10
247.2342572484774
 20
769.1308606921476
 30
0.0
 10
247.2342572484774
 20
768.8267126077805
 30
0.0
 10
247.2342572484774
 20
768.8027071141732
 30
0.0
  0
SPLINE
  5
4B3
330
1B
100
AcDbEntity
 67
     1
  8
SLD-0_0
  6
SLD-実線
 62
   179
370
    25
100
AcDbSpline
210
0.0
220
0.0
230
1.0
 70
     8
 71
     3
 72
    10
 73
     6
 74
     0
 42
0.000000001
 43
0.00000001
 40
0.0
 40
0.0
 40
0.0
 40
0.0
 40
0.1133775265176412
 40
0.930017671122284
 40
1.0
 40
1.0
 40
1.0
 40
1.0
 10
248.6170663808201
 20
769.4978462838668
 30
0.0
 10
248.6101015004409
 20
769.4658728886616
 30
0.0
 10
248.5529697034364
 20
769.2036002543922
 30
0.0
 10
248.4898846334991
 20
768.9216941140096
 30
0.0
 10
248.4313554966492
 20
768.6717408270641
 30
0.0
 10
248.4267357115361
 20
768.6520116710204
 30
0.0
  0
SPLINE
  5
4B4
330
1B
100
AcDbEntity
 67
     1
  8
SLD-0_0
  6
SLD-実線
 62
   179
370
    25
100
AcDbSpline
210
0.0
220
0.0
230
1.0
 70
    24
 71
     3
 72
    10
 73
     6
 74
     0
 42
0.000000001
 43
0.00000001
 40
0.0
 40
0.0
 40
0.0
 40
0.0
 40
0.0699783445721625
 40
0.8866211958388373
 40
1.0
 40
1.0
 40
1.0
 40
1.0
 10
248.2642571751516
 20
768.8027071141947
 30
0.0
 10
248.2642571751507
 20
768.8267126078022
 30
0.0
 10
248.2642571751399
 20
769.1308606921691
 30
0.0
 10
248.2642571751276
 20
769.4713550063758
 30
0.0
 10
248.2642571751164
 20
769.7866129335334
 30
0.0
 10
248.2642571751151
 20
769.8250459813822
 30
0.0
  0
SPLINE
  5
4B5
330
1B
100
AcDbEntity
 67
     1
  8
SLD-0_0
  6
SLD-実線
 62
   179
370
    25
100
AcDbSpline
210
0.0
220
0.0
230
1.0
 70
     8
 71
     3
 72
    10
 73
     6
 74
     0
 42
0.000000001
 43
0.00000001
 40
0.0
 40
0.0
 40
0.0
 40
0.0
 40
0.069982328877716
 40
0.8866224734823588
 40
1.0
 40
1.0
 40
1.0
 40
1.0
 10
189.0717785183665
 20
768.652011671
 30
0.0
 10
189.0671587332534
 20
768.6717408270437
 30
0.0
 10
189.008629596404
 20
768.9216941139895
 30
0.0
 10
188.9455445264675
 20
769.203600254372
 30
0.0
 10
188.8884127294637
 20
769.4658728886415
 30
0.0
 10
188.8814478490847
 20
769.497846283847
 30
0.0
  0
SPLINE
  5
4B6
330
1B
100
AcDbEntity
 67
     1
  8
SLD-0_0
  6
SLD-実線
 62
   179
370
    25
100
AcDbSpline
210
0.0
220
0.0
230
1.0
 70
    24
 71
     3
 72
    10
 73
     6
 74
     0
 42
0.000000001
 43
0.00000001
 40
0.0
 40
0.0
 40
0.0
 40
0.0
 40
0.1133788041611627
 40
0.9300216554278375
 40
1.0
 40
1.0
 40
1.0
 40
1.0
 10
189.2342570547623
 20
769.8250459813609
 30
0.0
 10
189.2342570547623
 20
769.786612933512
 30
0.0
 10
189.2342570547623
 20
769.471355006354
 30
0.0
 10
189.2342570547623
 20
769.1308606921476
 30
0.0
 10
189.2342570547623
 20
768.8267126077805
 30
0.0
 10
189.2342570547623
 20
768.8027071141732
 30
0.0
  0
SPLINE
  5
4B7
330
1B
100
AcDbEntity
 67
     1
  8
SLD-0_0
  6
SLD-実線
 62
   179
370
    25
100
AcDbSpline
210
0.0
220
0.0
230
1.0
 70
    24
 71
     3
 72
    10
 73
     6
 74
     0
 42
0.000000001
 43
0.00000001
 40
0.0
 40
0.0
 40
0.0
 40
0.0
 40
0.0699783445721625
 40
0.8866211958388373
 40
1.0
 40
1.0
 40
1.0
 40
1.0
 10
190.2642569814486
 20
768.8027071141947
 30
0.0
 10
190.2642569814475
 20
768.8267126078022
 30
0.0
 10
190.2642569814329
 20
769.1308606921691
 30
0.0
 10
190.2642569814168
 20
769.4713550063758
 30
0.0
 10
190.2642569814018
 20
769.7866129335334
 30
0.0
 10
190.2642569814
 20
769.8250459813822
 30
0.0
  0
SPLINE
  5
4B8
330
1B
100
AcDbEntity
 67
     1
  8
SLD-0_0
  6
SLD-実線
 62
   179
370
    25
100
AcDbSpline
210
0.0
220
0.0
230
1.0
 70
     8
 71
     3
 72
    10
 73
     6
 74
     0
 42
0.000000001
 43
0.00000001
 40
0.0
 40
0.0
 40
0.0
 40
0.0
 40
0.1133775265176412
 40
0.930017671122284
 40
1.0
 40
1.0
 40
1.0
 40
1.0
 10
190.6170661870971
 20
769.4978462838848
 30
0.0
 10
190.6101013067179
 20
769.4658728886794
 30
0.0
 10
190.5529695097135
 20
769.20360025441
 30
0.0
 10
190.4898844397762
 20
768.9216941140274
 30
0.0
 10
190.4313553029263
 20
768.671740827082
 30
0.0
 10
190.4267355178132
 20
768.6520116710384
 30
0.0
  0
SPLINE
  5
4B9
330
1B
100
AcDbEntity
 67
     1
  8
SLD-0_0
  6
SLD-実線
 62
   179
370
    25
100
AcDbSpline
210
0.0
220
0.0
230
1.0
 70
     8
 71
     3
 72
     9
 73
     5
 74
     0
 42
0.000000001
 43
0.00000001
 40
0.0
 40
0.0
 40
0.0
 40
0.0
 40
0.0701846621073244
 40
1.0
 40
1.0
 40
1.0
 40
1.0
 10
155.0266093883972
 20
297.6066815041859
 30
0.0
 10
154.9784461150564
 20
297.6070361392735
 30
0.0
 10
154.2922096654585
 20
297.6120890251481
 30
0.0
 10
153.6197302781558
 20
297.7944187604925
 30
0.0
 10
152.994448629425
 20
297.9639517449694
 30
0.0
  0
SPLINE
  5
4BA
330
1B
100
AcDbEntity
 67
     1
  8
SLD-0_0
  6
SLD-実線
 62
   179
370
    25
100
AcDbSpline
210
0.0
220
0.0
230
1.0
 70
     8
 71
     3
 72
     9
 73
     5
 74
     0
 42
0.000000001
 43
0.00000001
 40
0.0
 40
0.0
 40
0.0
 40
0.0
 40
0.0701850677270783
 40
1.0
 40
1.0
 40
1.0
 40
1.0
 10
151.0282404098984
 20
297.606681504193
 30
0.0
 10
150.9816400089622
 20
297.6070361356483
 30
0.0
 10
150.3176754015986
 20
297.6120889405672
 30
0.0
 10
149.6670206728835
 20
297.7944187580667
 30
0.0
 10
149.0620321903702
 20
297.9639517449766
 30
0.0
  0
SPLINE
  5
4BB
330
1B
100
AcDbEntity
 67
     1
  8
SLD-0_0
  6
SLD-実線
 62
   179
370
    25
100
AcDbSpline
210
0.0
220
0.0
230
1.0
 70
     8
 71
     3
 72
     9
 73
     5
 74
     0
 42
0.000000001
 43
0.00000001
 40
0.0
 40
0.0
 40
0.0
 40
0.0
 40
0.0171956222618972
 40
1.0
 40
1.0
 40
1.0
 40
1.0
 10
157.1247264121326
 20
297.6066815042092
 30
0.0
 10
157.1243439104144
 20
297.6067036733663
 30
0.0
 10
157.1020997768557
 20
297.6079929059966
 30
0.0
 10
157.0802470767387
 20
297.7875158296862
 30
0.0
 10
157.0587701473984
 20
297.9639517449929
 30
0.0
  0
SPLINE
  5
4BC
330
1B
100
AcDbEntity
 67
     1
  8
SLD-0_0
  6
SLD-実線
 62
   179
370
    25
100
AcDbSpline
210
0.0
220
0.0
230
1.0
 70
     8
 71
     3
 72
     9
 73
     5
 74
     0
 42
0.000000001
 43
0.00000001
 40
0.0
 40
0.0
 40
0.0
 40
0.0
 40
0.0701850677270783
 40
1.0
 40
1.0
 40
1.0
 40
1.0
 10
155.2244744572992
 20
297.6066815042326
 30
0.0
 10
155.2710748582354
 20
297.607036135688
 30
0.0
 10
155.9350394655991
 20
297.6120889406069
 30
0.0
 10
156.5856941943141
 20
297.7944187581063
 30
0.0
 10
157.1906826768274
 20
297.9639517450162
 30
0.0
  0
SPLINE
  5
4BD
330
1B
100
AcDbEntity
 67
     1
  8
SLD-0_0
  6
SLD-実線
 62
   179
370
    25
100
AcDbSpline
210
0.0
220
0.0
230
1.0
 70
     8
 71
     3
 72
     9
 73
     5
 74
     0
 42
0.000000001
 43
0.00000001
 40
0.0
 40
0.0
 40
0.0
 40
0.0
 40
0.0701846883062029
 40
1.0
 40
1.0
 40
1.0
 40
1.0
 10
261.2066886697575
 20
297.6066815041859
 30
0.0
 10
261.1585253970775
 20
297.6070361390389
 30
0.0
 10
260.4722892130553
 20
297.6120890196839
 30
0.0
 10
259.7998096786635
 20
297.794418760335
 30
0.0
 10
259.1745279107854
 20
297.9639517449694
 30
0.0
  0
SPLINE
  5
4BE
330
1B
100
AcDbEntity
 67
     1
  8
SLD-0_0
  6
SLD-実線
 62
   179
370
    25
100
AcDbSpline
210
0.0
220
0.0
230
1.0
 70
     8
 71
     3
 72
     9
 73
     5
 74
     0
 42
0.000000001
 43
0.00000001
 40
0.0
 40
0.0
 40
0.0
 40
0.0
 40
0.0171947686768552
 40
1.0
 40
1.0
 40
1.0
 40
1.0
 10
257.2083196912286
 20
297.606681504193
 30
0.0
 10
257.1969129033476
 20
297.6067036751267
 30
0.0
 10
256.5335257944371
 20
297.6079930750749
 30
0.0
 10
255.8822209778845
 20
297.7875158362006
 30
0.0
 10
255.2421151969906
 20
297.9639517449767
 30
0.0
  0
SPLINE
  5
4BF
330
1B
100
AcDbEntity
 67
     1
  8
SLD-0_0
  6
SLD-実線
 62
   179
370
    25
100
AcDbSpline
210
0.0
220
0.0
230
1.0
 70
     8
 71
     3
 72
     9
 73
     5
 74
     0
 42
0.000000001
 43
0.00000001
 40
0.0
 40
0.0
 40
0.0
 40
0.0
 40
0.0701861846472106
 40
1.0
 40
1.0
 40
1.0
 40
1.0
 10
263.3048094187629
 20
297.6066815042092
 30
0.0
 10
263.3032452721614
 20
297.6070361256624
 30
0.0
 10
263.2809595957235
 20
297.6120887076626
 30
0.0
 10
263.2591406817123
 20
297.7944187513855
 30
0.0
 10
263.2388531540286
 20
297.9639517449929
 30
0.0
  0
SPLINE
  5
4C0
330
1B
100
AcDbEntity
 67
     1
  8
SLD-0_0
  6
SLD-実線
 62
   179
370
    25
100
AcDbSpline
210
0.0
220
0.0
230
1.0
 70
     8
 71
     3
 72
     9
 73
     5
 74
     0
 42
0.000000001
 43
0.00000001
 40
0.0
 40
0.0
 40
0.0
 40
0.0
 40
0.0701854850799447
 40
1.0
 40
1.0
 40
1.0
 40
1.0
 10
176.0939567659375
 20
297.606681504193
 30
0.0
 10
176.0473563751851
 20
297.6070361319108
 30
0.0
 10
175.3833958611379
 20
297.6120888535323
 30
0.0
 10
174.7327388653381
 20
297.7944187555638
 30
0.0
 10
174.1277485464093
 20
297.9639517449767
 30
0.0
  0
SPLINE
  5
4C1
330
1B
100
AcDbEntity
 67
     1
  8
SLD-0_0
  6
SLD-実線
 62
   179
370
    25
100
AcDbSpline
210
0.0
220
0.0
230
1.0
 70
     8
 71
     3
 72
     9
 73
     5
 74
     0
 42
0.000000001
 43
0.00000001
 40
0.0
 40
0.0
 40
0.0
 40
0.0
 40
0.0171957170447379
 40
1.0
 40
1.0
 40
1.0
 40
1.0
 10
180.0923257444624
 20
297.6066815042163
 30
0.0
 10
180.0805352078122
 20
297.6067036731762
 30
0.0
 10
179.3948681536488
 20
297.6079928872261
 30
0.0
 10
178.7217271356864
 20
297.7875158289676
 30
0.0
 10
178.0601612602
 20
297.963951745
 30
0.0
  0
SPLINE
  5
4C2
330
1B
100
AcDbEntity
 67
     1
  8
SLD-0_0
  6
SLD-実線
 62
   179
370
    25
100
AcDbSpline
210
0.0
220
0.0
230
1.0
 70
     8
 71
     3
 72
     9
 73
     5
 74
     0
 42
0.000000001
 43
0.00000001
 40
0.0
 40
0.0
 40
0.0
 40
0.0
 40
0.0701861391921832
 40
1.0
 40
1.0
 40
1.0
 40
1.0
 10
182.1904427681589
 20
297.6066815042395
 30
0.0
 10
182.1888799101503
 20
297.6070361260997
 30
0.0
 10
182.1666125789291
 20
297.6120887171722
 30
0.0
 10
182.1447834914922
 20
297.7944187516885
 30
0.0
 10
182.1244865034246
 20
297.9639517450233
 30
0.0
  0
SPLINE
  5
4C3
330
1B
100
AcDbEntity
 67
     1
  8
SLD-0_0
  6
SLD-実線
 62
   179
370
    25
100
AcDbSpline
210
0.0
220
0.0
230
1.0
 70
     8
 71
     3
 72
     9
 73
     5
 74
     0
 42
0.000000001
 43
0.00000001
 40
0.0
 40
0.0
 40
0.0
 40
0.0
 40
0.070185080860952
 40
1.0
 40
1.0
 40
1.0
 40
1.0
 10
220.6495073234736
 20
297.6066815041859
 30
0.0
 10
220.6013436189607
 20
297.6070361355235
 30
0.0
 10
219.9151051203784
 20
297.6120889378209
 30
0.0
 10
219.2426261484365
 20
297.7944187579809
 30
0.0
 10
218.6173451675176
 20
297.9639517449696
 30
0.0
  0
SPLINE
  5
4C4
330
1B
100
AcDbEntity
 67
     1
  8
SLD-0_0
  6
SLD-実線
 62
   179
370
    25
100
AcDbSpline
210
0.0
220
0.0
230
1.0
 70
     8
 71
     3
 72
     9
 73
     5
 74
     0
 42
0.000000001
 43
0.00000001
 40
0.0
 40
0.0
 40
0.0
 40
0.0
 40
0.0171961738127053
 40
1.0
 40
1.0
 40
1.0
 40
1.0
 10
216.6511389270749
 20
297.606681504193
 30
0.0
 10
216.6397315992092
 20
297.6067036722022
 30
0.0
 10
215.976367295614
 20
297.6079927967241
 30
0.0
 10
215.3250499663174
 20
297.787515825453
 30
0.0
 10
214.6849328030225
 20
297.9639517449767
 30
0.0
  0
SPLINE
  5
4C5
330
1B
100
AcDbEntity
 67
     1
  8
SLD-0_0
  6
SLD-実線
 62
   179
370
    25
100
AcDbSpline
210
0.0
220
0.0
230
1.0
 70
     8
 71
     3
 72
     9
 73
     5
 74
     0
 42
0.000000001
 43
0.00000001
 40
0.0
 40
0.0
 40
0.0
 40
0.0
 40
0.0701829748841716
 40
1.0
 40
1.0
 40
1.0
 40
1.0
 10
222.7476256277092
 20
297.6066815042092
 30
0.0
 10
222.7460622838746
 20
297.6070361544057
 30
0.0
 10
222.7237870264179
 20
297.6120893770324
 30
0.0
 10
222.7019623337684
 20
297.7944187706387
 30
0.0
 10
222.6816693629749
 20
297.9639517449929
 30
0.0
  0
SPLINE
  5
4C6
330
1B
100
AcDbEntity
 67
     1
  8
SLD-0_0
  6
SLD-実線
 62
   179
370
    25
100
AcDbSpline
210
0.0
220
0.0
230
1.0
 70
     8
 71
     3
 72
     9
 73
     5
 74
     0
 42
0.000000001
 43
0.00000001
 40
0.0
 40
0.0
 40
0.0
 40
0.0
 40
0.0701846621073244
 40
1.0
 40
1.0
 40
1.0
 40
1.0
 10
286.2724087510161
 20
297.6066815041859
 30
0.0
 10
286.2242454776754
 20
297.6070361392735
 30
0.0
 10
285.5380090280775
 20
297.6120890251481
 30
0.0
 10
284.8655296407748
 20
297.7944187604925
 30
0.0
 10
284.240247992044
 20
297.9639517449694
 30
0.0
  0
SPLINE
  5
4C7
330
1B
100
AcDbEntity
 67
     1
  8
SLD-0_0
  6
SLD-実線
 62
   179
370
    25
100
AcDbSpline
210
0.0
220
0.0
230
1.0
 70
     8
 71
     3
 72
     9
 73
     5
 74
     0
 42
0.000000001
 43
0.00000001
 40
0.0
 40
0.0
 40
0.0
 40
0.0
 40
0.0171961023056334
 40
1.0
 40
1.0
 40
1.0
 40
1.0
 10
282.2740397725579
 20
297.606681504193
 30
0.0
 10
282.2626317397895
 20
297.606703672351
 30
0.0
 10
281.5992236857092
 20
297.6079928108878
 30
0.0
 10
280.9479277435431
 20
297.7875158259992
 30
0.0
 10
280.3078315530297
 20
297.9639517449767
 30
0.0
  0
SPLINE
  5
4C8
330
1B
100
AcDbEntity
 67
     1
  8
SLD-0_0
  6
SLD-実線
 62
   179
370
    25
100
AcDbSpline
210
0.0
220
0.0
230
1.0
 70
     8
 71
     3
 72
     9
 73
     5
 74
     0
 42
0.000000001
 43
0.00000001
 40
0.0
 40
0.0
 40
0.0
 40
0.0
 40
0.0701852918783811
 40
1.0
 40
1.0
 40
1.0
 40
1.0
 10
288.3705220494019
 20
297.6066815042092
 30
0.0
 10
288.3689591874104
 20
297.6070361336572
 30
0.0
 10
288.346691530616
 20
297.6120888938382
 30
0.0
 10
288.324864553922
 20
297.7944187567385
 30
0.0
 10
288.3045695099579
 20
297.9639517449929
 30
0.0
  0
SPLINE
  5
4C9
330
1B
100
AcDbEntity
 67
     1
  8
SLD-0_0
  6
SLD-実線
 62
   179
370
    25
100
AcDbSpline
210
0.0
220
0.0
230
1.0
 70
     8
 71
     3
 72
     9
 73
     5
 74
     0
 42
0.000000001
 43
0.00000001
 40
0.0
 40
0.0
 40
0.0
 40
0.0
 40
0.5509785435033289
 40
1.0
 40
1.0
 40
1.0
 40
1.0
 10
156.0047067080017
 20
653.957461037579
 30
0.0
 10
155.7554413745429
 20
653.9159308945262
 30
0.0
 10
155.3030365823818
 20
653.8405556488974
 30
0.0
 10
154.8627676243151
 20
653.7054742300206
 30
0.0
 10
154.6650774155137
 20
653.6448197745709
 30
0.0
  0
SPLINE
  5
4CA
330
1B
100
AcDbEntity
 67
     1
  8
SLD-0_0
  6
SLD-実線
 62
   179
370
    25
100
AcDbSpline
210
0.0
220
0.0
230
1.0
 70
     8
 71
     3
 72
     9
 73
     5
 74
     0
 42
0.000000001
 43
0.00000001
 40
0.0
 40
0.0
 40
0.0
 40
0.0
 40
0.5
 40
1.0
 40
1.0
 40
1.0
 40
1.0
 10
154.6650774155137
 20
653.6448197745709
 30
0.0
 10
154.7926388059136
 20
653.6757359587579
 30
0.0
 10
155.0477615867134
 20
653.7375683271317
 30
0.0
 10
155.3028843675133
 20
653.6757359587579
 30
0.0
 10
155.4304457579132
 20
653.6448197745709
 30
0.0
  0
SPLINE
  5
4CB
330
1B
100
AcDbEntity
 67
     1
  8
SLD-0_0
  6
SLD-実線
 62
   179
370
    25
100
AcDbSpline
210
0.0
220
0.0
230
1.0
 70
     8
 71
     3
 72
     9
 73
     5
 74
     0
 42
0.000000001
 43
0.00000001
 40
0.0
 40
0.0
 40
0.0
 40
0.0
 40
0.449022481508791
 40
1.0
 40
1.0
 40
1.0
 40
1.0
 10
155.4304457579132
 20
653.6448197745709
 30
0.0
 10
155.6281360040294
 20
653.7054742031187
 30
0.0
 10
156.0684040401682
 20
653.8405552537241
 30
0.0
 10
156.5208072997754
 20
653.9159308039569
 30
0.0
 10
156.770071325111
 20
653.957461037579
 30
0.0
  0
SPLINE
  5
4CC
330
1B
100
AcDbEntity
 67
     1
  8
SLD-0_0
  6
SLD-実線
 62
   179
370
    25
100
AcDbSpline
210
0.0
220
0.0
230
1.0
 70
     8
 71
     3
 72
     9
 73
     5
 74
     0
 42
0.000000001
 43
0.00000001
 40
0.0
 40
0.0
 40
0.0
 40
0.0
 40
0.5509779246677788
 40
1.0
 40
1.0
 40
1.0
 40
1.0
 10
156.770071325111
 20
653.957461037579
 30
0.0
 10
156.8733194081985
 20
653.9159308398463
 30
0.0
 10
157.0607100067414
 20
653.8405554103175
 30
0.0
 10
157.2430774728381
 20
653.705474213779
 30
0.0
 10
157.3249644909378
 20
653.6448197745709
 30
0.0
  0
SPLINE
  5
4CD
330
1B
100
AcDbEntity
 67
     1
  8
SLD-0_0
  6
SLD-実線
 62
   179
370
    25
100
AcDbSpline
210
0.0
220
0.0
230
1.0
 70
    24
 71
     3
 72
    10
 73
     6
 74
     0
 42
0.000000001
 43
0.00000001
 40
0.0
 40
0.0
 40
0.0
 40
0.0
 40
0.053556434918848
 40
0.5253810667448686
 40
1.0
 40
1.0
 40
1.0
 40
1.0
 10
182.6411209378716
 20
650.8066850089459
 30
0.0
 10
182.8007945724002
 20
650.8066850089459
 30
0.0
 10
184.3671703882427
 20
650.8066850089459
 30
0.0
 10
187.4289645404888
 20
650.806685008946
 30
0.0
 10
190.4770446577534
 20
650.806685008946
 30
0.0
 10
192.0055843267914
 20
650.8066850089459
 30
0.0
  0
SPLINE
  5
4CE
330
1B
100
AcDbEntity
 67
     1
  8
SLD-0_0
  6
SLD-実線
 62
   179
370
    25
100
AcDbSpline
210
0.0
220
0.0
230
1.0
 70
    24
 71
     3
 72
     9
 73
     5
 74
     0
 42
0.000000001
 43
0.00000001
 40
0.0
 40
0.0
 40
0.0
 40
0.0
 40
0.4966300949787494
 40
1.0
 40
1.0
 40
1.0
 40
1.0
 10
194.4306607667681
 20
643.8066857242
 30
0.0
 10
192.1417354782938
 20
643.8066857242003
 30
0.0
 10
187.5328216979633
 20
643.806685724201
 30
0.0
 10
183.3417864042266
 20
643.8066857242014
 30
0.0
 10
181.2321453664776
 20
643.8066857242017
 30
0.0
  0
SPLINE
  5
4CF
330
1B
100
AcDbEntity
 67
     1
  8
SLD-0_0
  6
SLD-実線
 62
   179
370
    25
100
AcDbSpline
210
0.0
220
0.0
230
1.0
 70
    24
 71
     3
 72
    11
 73
     7
 74
     0
 42
0.000000001
 43
0.00000001
 40
0.0
 40
0.0
 40
0.0
 40
0.0
 40
0.2712762755897286
 40
0.5425514748323411
 40
0.8138250080729241
 40
1.0
 40
1.0
 40
1.0
 40
1.0
 10
199.1154927139
 20
650.8066850089
 30
0.0
 10
199.2184983351635
 20
650.8066850089
 30
0.0
 10
199.4245091689936
 20
650.8066850089
 30
0.0
 10
199.6510341809788
 20
650.8066850089
 30
0.0
 10
199.7755165356143
 20
650.8066850089
 30
0.0
 10
199.7884153971834
 20
650.8066850089
 30
0.0
 10
199.7936650489286
 20
650.8066850089
 30
0.0
  0
SPLINE
  5
4D0
330
1B
100
AcDbEntity
 67
     1
  8
SLD-0_0
  6
SLD-実線
 62
   179
370
    25
100
AcDbSpline
210
0.0
220
0.0
230
1.0
 70
    24
 71
     3
 72
    11
 73
     7
 74
     0
 42
0.000000001
 43
0.00000001
 40
0.0
 40
0.0
 40
0.0
 40
0.0
 40
0.2712572988721742
 40
0.5425132664317852
 40
0.8137753656186607
 40
1.0
 40
1.0
 40
1.0
 40
1.0
 10
237.7048491809714
 20
650.8066850089
 30
0.0
 10
237.7158805800101
 20
650.8066850089
 30
0.0
 10
237.7379433239462
 20
650.8066850089
 30
0.0
 10
237.9106992888515
 20
650.8066850089
 30
0.0
 10
238.1367604653245
 20
650.8066850089
 30
0.0
 10
238.3117786012283
 20
650.8066850089
 30
0.0
 10
238.383021516
 20
650.8066850089
 30
0.0
  0
SPLINE
  5
4D1
330
1B
100
AcDbEntity
 67
     1
  8
SLD-0_0
  6
SLD-実線
 62
   179
370
    25
100
AcDbSpline
210
0.0
220
0.0
230
1.0
 70
    24
 71
     3
 72
    12
 73
     8
 74
     0
 42
0.000000001
 43
0.00000001
 40
0.0
 40
0.0
 40
0.0
 40
0.0
 40
0.2217501913239373
 40
0.44350168487672
 40
0.6652576152333478
 40
0.887020562512775
 40
1.0
 40
1.0
 40
1.0
 40
1.0
 10
196.4909996215203
 20
650.8066850089
 30
0.0
 10
196.5451036724505
 20
650.8066850089
 30
0.0
 10
196.6533120920372
 20
650.8066850089
 30
0.0
 10
196.9290774111284
 20
650.8066850089
 30
0.0
 10
197.2511038883047
 20
650.8066850089
 30
0.0
 10
197.5394190808894
 20
650.8066850089
 30
0.0
 10
197.7011204684481
 20
650.8066850089
 30
0.0
 10
197.7556965623
 20
650.8066850089
 30
0.0
  0
SPLINE
  5
4D2
330
1B
100
AcDbEntity
 67
     1
  8
SLD-0_0
  6
SLD-実線
 62
   179
370
    25
100
AcDbSpline
210
0.0
220
0.0
230
1.0
 70
     8
 71
     3
 72
    11
 73
     7
 74
     0
 42
0.000000001
 43
0.00000001
 40
0.0
 40
0.0
 40
0.0
 40
0.0
 40
0.1455496842001057
 40
0.4317410095545637
 40
0.7251647007275436
 40
0.9999999999999999
 40
0.9999999999999999
 40
0.9999999999999999
 40
0.9999999999999999
 10
171.489054647493
 20
643.8066857242017
 30
0.0
 10
171.5651983680845
 20
643.8110005236504
 30
0.0
 10
171.7910619072605
 20
643.8237994237668
 30
0.0
 10
172.3542565513145
 20
643.8875386511875
 30
0.0
 10
173.1772936064119
 20
643.848681954624
 30
0.0
 10
173.8414325231432
 20
643.8203758258868
 30
0.0
 10
174.1626396153447
 20
643.8066857242017
 30
0.0
  0
SPLINE
  5
4D3
330
1B
100
AcDbEntity
 67
     1
  8
SLD-0_0
  6
SLD-実線
 62
   179
370
    25
100
AcDbSpline
210
0.0
220
0.0
230
1.0
 70
     8
 71
     3
 72
    11
 73
     7
 74
     0
 42
0.000000001
 43
0.00000001
 40
0.0
 40
0.0
 40
0.0
 40
0.0
 40
0.2748276192197214
 40
0.5682431207228745
 40
0.8544295022691177
 40
0.9999999999999999
 40
0.9999999999999999
 40
0.9999999999999999
 40
0.9999999999999999
 10
263.3358187351701
 20
643.8066857242
 30
0.0
 10
263.6570256431723
 20
643.8203751607347
 30
0.0
 10
264.321164190525
 20
643.8486799146724
 30
0.0
 10
265.1442071729875
 20
643.887547509732
 30
0.0
 10
265.707431483347
 20
643.823807810436
 30
0.0
 10
265.9333073435675
 20
643.8110029811248
 30
0.0
 10
266.0094633076665
 20
643.8066857242017
 30
0.0
  0
SPLINE
  5
4D4
330
1B
100
AcDbEntity
 67
     1
  8
SLD-0_0
  6
SLD-実線
 62
   179
370
    25
100
AcDbSpline
210
0.0
220
0.0
230
1.0
 70
    24
 71
     3
 72
    12
 73
     8
 74
     0
 42
0.000000001
 43
0.00000001
 40
0.0
 40
0.0
 40
0.0
 40
0.0
 40
0.2290492973495617
 40
0.4581000779807656
 40
0.687143420752829
 40
0.9161804981026055
 40
1.0
 40
1.0
 40
1.0
 40
1.0
 10
257.4400103961
 20
650.8066850089
 30
0.0
 10
257.5339489052768
 20
650.8066850089
 30
0.0
 10
257.7218265319589
 20
650.8066850089
 30
0.0
 10
258.0627988423755
 20
650.8066850089
 30
0.0
 10
258.3989263586628
 20
650.8066850089
 30
0.0
 10
258.639193468908
 20
650.8066850089
 30
0.0
 10
258.751370107856
 20
650.8066850089
 30
0.0
 10
258.7814241026411
 20
650.8066850089
 30
0.0
  0
SPLINE
  5
4D5
330
1B
100
AcDbEntity
 67
     1
  8
SLD-0_0
  6
SLD-実線
 62
   179
370
    25
100
AcDbSpline
210
0.0
220
0.0
230
1.0
 70
    24
 71
     3
 72
    12
 73
     8
 74
     0
 42
0.000000001
 43
0.00000001
 40
0.0
 40
0.0
 40
0.0
 40
0.0
 40
0.2290302800758911
 40
0.4580584005959679
 40
0.6870914473483287
 40
0.9161323081330058
 40
1.0
 40
1.0
 40
1.0
 40
1.0
 10
178.7170901272589
 20
650.8066850089
 30
0.0
 10
178.8044066555292
 20
650.8066850089
 30
0.0
 10
178.9790388887509
 20
650.8066850089
 30
0.0
 10
179.3127697915593
 20
650.8066850089
 30
0.0
 10
179.6524091434484
 20
650.8066850089
 30
0.0
 10
179.9039737255828
 20
650.8066850089
 30
0.0
 10
180.0258403775594
 20
650.8066850089
 30
0.0
 10
180.0585038338
 20
650.8066850089
 30
0.0
  0
SPLINE
  5
4D6
330
1B
100
AcDbEntity
 67
     1
  8
SLD-0_0
  6
SLD-実線
 62
   179
370
    25
100
AcDbSpline
210
0.0
220
0.0
230
1.0
 70
     8
 71
     3
 72
    13
 73
     9
 74
     0
 42
0.000000001
 43
0.00000001
 40
0.0
 40
0.0
 40
0.0
 40
0.0
 40
0.2275210204732039
 40
0.4550405944517903
 40
0.6825939916331127
 40
0.9102080328769582
 40
0.9801812379068104
 40
1.0
 40
1.0
 40
1.0
 40
1.0
 10
256.6097847496
 20
739.306692996
 30
0.0
 10
256.7031230570217
 20
739.306432647311
 30
0.0
 10
256.8897990784548
 20
739.3059119515879
 30
0.0
 10
257.2299345456601
 20
739.3101749869295
 30
0.0
 10
257.5671725599512
 20
739.3176886584654
 30
0.0
 10
257.8005872884249
 20
739.3255414697893
 30
0.0
 10
257.9198291604888
 20
739.3307470977146
 30
0.0
 10
257.9513400852669
 20
739.3322333649331
 30
0.0
 10
257.9582951341596
 20
739.3325614118326
 30
0.0
  0
SPLINE
  5
4D7
330
1B
100
AcDbEntity
 67
     1
  8
SLD-0_0
  6
SLD-実線
 62
   179
370
    25
100
AcDbSpline
210
0.0
220
0.0
230
1.0
 70
     8
 71
     3
 72
    13
 73
     9
 74
     0
 42
0.000000001
 43
0.00000001
 40
0.0
 40
0.0
 40
0.0
 40
0.0
 40
0.0198187620931896
 40
0.0897919671230419
 40
0.3174060083668874
 40
0.5449594055482097
 40
0.7724789795267961
 40
1.0
 40
1.0
 40
1.0
 40
1.0
 10
179.5402190957404
 20
739.3325614118326
 30
0.0
 10
179.5471741446331
 20
739.3322333649331
 30
0.0
 10
179.5786850694113
 20
739.3307470977146
 30
0.0
 10
179.697926941475
 20
739.3255414697893
 30
0.0
 10
179.9313416699488
 20
739.3176886584655
 30
0.0
 10
180.2685796842399
 20
739.3101749869295
 30
0.0
 10
180.6087151514453
 20
739.3059119515879
 30
0.0
 10
180.7953911728783
 20
739.306432647311
 30
0.0
 10
180.8887294803
 20
739.306692996
 30
0.0
  0
SPLINE
  5
4D8
330
1B
100
AcDbEntity
 67
     1
  8
SLD-0_0
  6
SLD-実線
 62
   179
370
    25
100
AcDbSpline
210
0.0
220
0.0
230
1.0
 70
    24
 71
     3
 72
    10
 73
     6
 74
     0
 42
0.000000001
 43
0.00000001
 40
0.0
 40
0.0
 40
0.0
 40
0.0
 40
0.0535435210216418
 40
0.5253752005457041
 40
1.0
 40
1.0
 40
1.0
 40
1.0
 10
273.7730912242409
 20
650.8066850089459
 30
0.0
 10
273.8771655381075
 20
650.8066850089459
 30
0.0
 10
274.8983547030343
 20
650.8066850089459
 30
0.0
 10
276.7255494251984
 20
650.806685008946
 30
0.0
 10
278.1631317939188
 20
650.8066850089459
 30
0.0
 10
278.884044227409
 20
650.8066850089459
 30
0.0
  0
SPLINE
  5
4D9
330
1B
100
AcDbEntity
 67
     1
  8
SLD-0_0
  6
SLD-実線
 62
   179
370
    25
100
AcDbSpline
210
0.0
220
0.0
230
1.0
 70
    24
 71
     3
 72
    10
 73
     6
 74
     0
 42
0.000000001
 43
0.00000001
 40
0.0
 40
0.0
 40
0.0
 40
0.0
 40
0.0663135422534927
 40
0.5318158666647104
 40
1.0
 40
1.0
 40
1.0
 40
1.0
 10
279.7602101538655
 20
650.8066850089459
 30
0.0
 10
279.8479091002803
 20
650.8066850089459
 30
0.0
 10
280.5512298641581
 20
650.8066850089459
 30
0.0
 10
281.7396795024222
 20
650.8066850089459
 30
0.0
 10
282.5431736752773
 20
650.806685008946
 30
0.0
 10
282.9460746918198
 20
650.8066850089459
 30
0.0
  0
SPLINE
  5
4DA
330
1B
100
AcDbEntity
 67
     1
  8
SLD-0_0
  6
SLD-実線
 62
   179
370
    25
100
AcDbSpline
210
0.0
220
0.0
230
1.0
 70
    24
 71
     3
 72
     9
 73
     5
 74
     0
 42
0.000000001
 43
0.00000001
 40
0.0
 40
0.0
 40
0.0
 40
0.0
 40
0.9015185128646913
 40
1.0
 40
1.0
 40
1.0
 40
1.0
 10
283.6502588663575
 20
650.8066850089459
 30
0.0
 10
284.0279985211648
 20
650.8066850089459
 30
0.0
 10
284.4470022902689
 20
650.8066850089459
 30
0.0
 10
284.5326186555497
 20
650.8066850089459
 30
0.0
 10
284.5410502825257
 20
650.8066850089459
 30
0.0
  0
SPLINE
  5
4DB
330
1B
100
AcDbEntity
 67
     1
  8
SLD-0_0
  6
SLD-実線
 62
   179
370
    25
100
AcDbSpline
210
0.0
220
0.0
230
1.0
 70
     8
 71
     3
 72
     9
 73
     5
 74
     0
 42
0.000000001
 43
0.00000001
 40
0.0
 40
0.0
 40
0.0
 40
0.0
 40
0.5029892806001369
 40
1.0
 40
1.0
 40
1.0
 40
1.0
 10
283.6947686348024
 20
643.8066857242
 30
0.0
 10
283.7993853840622
 20
643.8177128857469
 30
0.0
 10
284.0073754015332
 20
643.8396361393276
 30
0.0
 10
284.0364540081445
 20
643.8557837767464
 30
0.0
 10
284.0509063873353
 20
643.8638093256366
 30
0.0
  0
SPLINE
  5
4DC
330
1B
100
AcDbEntity
 67
     1
  8
SLD-0_0
  6
SLD-実線
 62
   179
370
    25
100
AcDbSpline
210
0.0
220
0.0
230
1.0
 70
    24
 71
     3
 72
    13
 73
     9
 74
     0
 42
0.000000001
 43
0.00000001
 40
0.0
 40
0.0
 40
0.0
 40
0.0
 40
0.2106805299795169
 40
0.424663329658184
 40
0.5664380979541077
 40
0.7082128007460256
 40
0.8541063433570514
 40
1.0
 40
1.0
 40
1.0
 40
1.0
 10
283.6947686348024
 20
643.8066857242
 30
0.0
 10
283.5214744597113
 20
643.8066857242
 30
0.0
 10
283.1721698447489
 20
643.8066857242
 30
0.0
 10
281.5765072386437
 20
643.8066857242001
 30
0.0
 10
279.5989205781727
 20
643.8066857242
 30
0.0
 10
277.4518025908885
 20
643.8066857242
 30
0.0
 10
274.8929625232948
 20
643.8066857242
 30
0.0
 10
272.8283245480553
 20
643.8066857242
 30
0.0
 10
271.796005157
 20
643.8066857242
 30
0.0
  0
SPLINE
  5
4DD
330
1B
100
AcDbEntity
 67
     1
  8
SLD-0_0
  6
SLD-実線
 62
   179
370
    25
100
AcDbSpline
210
0.0
220
0.0
230
1.0
 70
    24
 71
     3
 72
     9
 73
     5
 74
     0
 42
0.000000001
 43
0.00000001
 40
0.0
 40
0.0
 40
0.0
 40
0.0
 40
0.5739344291267489
 40
0.9999999999999999
 40
0.9999999999999999
 40
0.9999999999999999
 40
0.9999999999999999
 10
268.3776750538823
 20
650.8066850089459
 30
0.0
 10
268.4540136117528
 20
650.8066850089459
 30
0.0
 10
268.5870228093135
 20
650.8066850089459
 30
0.0
 10
268.7009201249782
 20
650.8066850089459
 30
0.0
 10
268.7494478497979
 20
650.8066850089459
 30
0.0
  0
SPLINE
  5
4DE
330
1B
100
AcDbEntity
 67
     1
  8
SLD-0_0
  6
SLD-実線
 62
   179
370
    25
100
AcDbSpline
210
0.0
220
0.0
230
1.0
 70
     8
 71
     3
 72
    13
 73
     9
 74
     0
 42
0.000000001
 43
0.00000001
 40
0.0
 40
0.0
 40
0.0
 40
0.0
 40
0.2201123529429687
 40
0.4402250220317904
 40
0.6603644304590303
 40
0.880564426832091
 40
0.9807946820849941
 40
1.0
 40
1.0
 40
1.0
 40
1.0
 10
266.1910712097165
 20
739.3066929959683
 30
0.0
 10
266.2668278349229
 20
739.3062467031548
 30
0.0
 10
266.4183411941447
 20
739.3053541168867
 30
0.0
 10
266.7348682163546
 20
739.3090982380146
 30
0.0
 10
267.0740858109737
 20
739.3162050847507
 30
0.0
 10
267.3461661468767
 20
739.3244151804976
 30
0.0
 10
267.4989892467686
 20
739.3301556751219
 30
0.0
 10
267.5494816173854
 20
739.332228155592
 30
0.0
 10
267.5576008234498
 20
739.3325614118008
 30
0.0
  0
SPLINE
  5
4DF
330
1B
100
AcDbEntity
 67
     1
  8
SLD-0_0
  6
SLD-実線
 62
   179
370
    25
100
AcDbSpline
210
0.0
220
0.0
230
1.0
 70
     8
 71
     3
 72
    13
 73
     9
 74
     0
 42
0.000000001
 43
0.00000001
 40
0.0
 40
0.0
 40
0.0
 40
0.0
 40
0.2119119659188791
 40
0.4234856311240173
 40
0.6439562140777905
 40
0.8812865934209236
 40
0.9950533196050486
 40
1.0
 40
1.0
 40
1.0
 40
1.0
 10
155.2928633366105
 20
650.8059101485638
 30
0.0
 10
155.3537470060206
 20
650.7966998905789
 30
0.0
 10
155.475417148872
 20
650.7782940780584
 30
0.0
 10
155.7501965758444
 20
650.7005152905625
 30
0.0
 10
156.0641407215725
 20
650.5937516984236
 30
0.0
 10
156.3381170261296
 20
650.4856824971716
 30
0.0
 10
156.4973794591789
 20
650.4165599897196
 30
0.0
 10
156.5486709198977
 20
650.3934336349678
 30
0.0
 10
156.5508081887242
 20
650.3924699806599
 30
0.0
  0
SPLINE
  5
4E0
330
1B
100
AcDbEntity
 67
     1
  8
SLD-0_0
  6
SLD-実線
 62
   179
370
    25
100
AcDbSpline
210
0.0
220
0.0
230
1.0
 70
     8
 71
     3
 72
    13
 73
     9
 74
     0
 42
0.000000001
 43
0.00000001
 40
0.0
 40
0.0
 40
0.0
 40
0.0
 40
0.2201114768398326
 40
0.4402226111364413
 40
0.6603649251785345
 40
0.8805639755552457
 40
0.9807916766640481
 40
1.0
 40
1.0
 40
1.0
 40
1.0
 10
272.1223368619
 20
739.306692996
 30
0.0
 10
272.1802869400034
 20
739.3062467000502
 30
0.0
 10
272.2961870060269
 20
739.3053541088449
 30
0.0
 10
272.5796952205175
 20
739.3090982871225
 30
0.0
 10
272.9061088878094
 20
739.3162051067192
 30
0.0
 10
273.1864348137196
 20
739.324414803627
 30
0.0
 10
273.3522090617898
 20
739.3301560289112
 30
0.0
 10
273.4083012393869
 20
739.3322281607939
 30
0.0
 10
273.4173222754513
 20
739.3325614118326
 30
0.0
  0
SPLINE
  5
4E1
330
1B
100
AcDbEntity
 67
     1
  8
SLD-0_0
  6
SLD-実線
 62
   179
370
    25
100
AcDbSpline
210
0.0
220
0.0
230
1.0
 70
     8
 71
     3
 72
     9
 73
     5
 74
     0
 42
0.000000001
 43
0.00000001
 40
0.0
 40
0.0
 40
0.0
 40
0.0
 40
0.6236349466020625
 40
1.0
 40
1.0
 40
1.0
 40
1.0
 10
272.9250624154088
 20
752.9349373959927
 30
0.0
 10
272.9038249772231
 20
752.9497265918101
 30
0.0
 10
272.8697706986723
 20
752.9734410996289
 30
0.0
 10
272.8419582190646
 20
752.9747625793844
 30
0.0
 10
272.831490573692
 20
752.9752599381834
 30
0.0
  0
SPLINE
  5
4E2
330
1B
100
AcDbEntity
 67
     1
  8
SLD-0_0
  6
SLD-実線
 62
   179
370
    25
100
AcDbSpline
210
0.0
220
0.0
230
1.0
 70
     8
 71
     3
 72
    13
 73
     9
 74
     0
 42
0.000000001
 43
0.00000001
 40
0.0
 40
0.0
 40
0.0
 40
0.0
 40
0.0192067620642246
 40
0.1194358636213732
 40
0.3396352553114383
 40
0.5597765077118244
 40
0.779887979582031
 40
0.9999999999999999
 40
0.9999999999999999
 40
0.9999999999999999
 40
0.9999999999999999
 10
160.0954070065495
 20
739.3325614118008
 30
0.0
 10
160.1050123371959
 20
739.332228158047
 30
0.0
 10
160.1647423925423
 20
739.3301558436314
 30
0.0
 10
160.3373661264424
 20
739.3244150084043
 30
0.0
 10
160.6144173292491
 20
739.3162050775214
 30
0.0
 10
160.9126517815275
 20
739.3090982778288
 30
0.0
 10
161.1478675901413
 20
739.3053541084887
 30
0.0
 10
161.2199774167
 20
739.3062466997712
 30
0.0
 10
161.2560323749062
 20
739.3066929959683
 30
0.0
  0
SPLINE
  5
4E3
330
1B
100
AcDbEntity
 67
     1
  8
SLD-0_0
  6
SLD-実線
 62
   179
370
    25
100
AcDbSpline
210
0.0
220
0.0
230
1.0
 70
     8
 71
     3
 72
    42
 73
    38
 74
     0
 42
0.000000001
 43
0.00000001
 40
0.0
 40
0.0
 40
0.0
 40
0.0
 40
0.0624999999999997
 40
0.0624999999999997
 40
0.1249999999999994
 40
0.1249999999999994
 40
0.1874999999999991
 40
0.1874999999999991
 40
0.2499999999999988
 40
0.2499999999999988
 40
0.3124999999999986
 40
0.3124999999999986
 40
0.3749999999999982
 40
0.3749999999999982
 40
0.4374999999999979
 40
0.4374999999999979
 40
0.4687499999999979
 40
0.4687499999999979
 40
0.4999999999999978
 40
0.4999999999999978
 40
0.562499999999997
 40
0.562499999999997
 40
0.6249999999999963
 40
0.6249999999999963
 40
0.6562499999999952
 40
0.6562499999999952
 40
0.6874999999999942
 40
0.6874999999999942
 40
0.7187499999999932
 40
0.7187499999999932
 40
0.7499999999999922
 40
0.7499999999999922
 40
0.8124999999999967
 40
0.8124999999999967
 40
0.8750000000000011
 40
0.8750000000000011
 40
1.0
 40
1.0
 40
1.0
 40
1.0
 10
180.6817483215492
 20
314.9066860818296
 30
0.0
 10
180.6679043707558
 20
314.7227307810392
 30
0.0
 10
180.6396425042865
 20
314.5483499024006
 30
0.0
 10
180.5451797132087
 20
314.2182764162109
 30
0.0
 10
180.4781146800348
 20
314.061046293878
 30
0.0
 10
180.2961739293181
 20
313.773916668019
 30
0.0
 10
180.1828075728144
 20
313.6453304166353
 30
0.0
 10
179.899461900504
 20
313.4175651822804
 30
0.0
 10
179.7337636575574
 20
313.3224902798444
 30
0.0
 10
179.3578510489998
 20
313.1676659066567
 30
0.0
 10
179.1443139667646
 20
313.1074034534956
 30
0.0
 10
178.6991586352773
 20
313.0191845060639
 30
0.0
 10
178.4606094954054
 20
312.9894609628386
 30
0.0
 10
177.9876893767806
 20
312.9495340468942
 30
0.0
 10
177.7473688882777
 20
312.9385174236378
 30
0.0
 10
177.4042450854894
 20
312.928642014752
 30
0.0
 10
177.2926539777814
 20
312.9264615883602
 30
0.0
 10
177.075070543023
 20
312.9236040160647
 30
0.0
 10
176.9682980009003
 20
312.9229314731931
 30
0.0
 10
176.6649489164504
 20
312.9228908452052
 30
0.0
 10
176.4833417133928
 20
312.9251591845345
 30
0.0
 10
176.1643266617018
 20
312.9382589919078
 30
0.0
 10
176.0339914279931
 20
312.9488420981453
 30
0.0
 10
175.8813545630101
 20
312.9785835851886
 30
0.0
 10
175.8379502230833
 20
312.9909306569328
 30
0.0
 10
175.7685165632414
 20
313.0213068351032
 30
0.0
 10
175.7420121904231
 20
313.0394058177443
 30
0.0
 10
175.705082686776
 20
313.083197563246
 30
0.0
 10
175.6946961725913
 20
313.1091834599331
 30
0.0
 10
175.6903420483619
 20
313.1692020330879
 30
0.0
 10
175.6961718682704
 20
313.2031864204953
 30
0.0
 10
175.7356308659575
 20
313.3188285744954
 30
0.0
 10
175.7924063567227
 20
313.4155793446755
 30
0.0
 10
175.947239091228
 20
313.6409546237789
 30
0.0
 10
176.0469179570202
 20
313.7722910282776
 30
0.0
 10
176.3767127212815
 20
314.2005182796346
 30
0.0
 10
176.6413136405123
 20
314.5381240915328
 30
0.0
 10
176.9030599900242
 20
314.9066860818296
 30
0.0
  0
SPLINE
  5
4E4
330
1B
100
AcDbEntity
 67
     1
  8
SLD-0_0
  6
SLD-実線
 62
   179
370
    25
100
AcDbSpline
210
0.0
220
0.0
230
1.0
 70
     8
 71
     3
 72
    14
 73
    10
 74
     0
 42
0.000000001
 43
0.00000001
 40
0.0
 40
0.0
 40
0.0
 40
0.0
 40
0.25
 40
0.25
 40
0.5
 40
0.5
 40
0.75
 40
0.75
 40
1.0
 40
1.0
 40
1.0
 40
1.0
 10
285.7492571149346
 20
312.9369928287904
 30
0.0
 10
285.7492571149346
 20
312.9370075267994
 30
0.0
 10
285.7079986615858
 20
312.941042637307
 30
0.0
 10
285.5669328774696
 20
312.9585980890334
 30
0.0
 10
285.4658037862404
 20
312.9725173010235
 30
0.0
 10
285.2268131696072
 20
313.014703030864
 30
0.0
 10
285.0885034170242
 20
313.04303385407
 30
0.0
 10
284.786656284808
 20
313.1189746182174
 30
0.0
 10
284.6218663025691
 20
313.1670131269599
 30
0.0
 10
284.4514695122064
 20
313.2258998324692
 30
0.0
  0
SPLINE
  5
4E5
330
1B
100
AcDbEntity
 67
     1
  8
SLD-0_0
  6
SLD-実線
 62
   179
370
    25
100
AcDbSpline
210
0.0
220
0.0
230
1.0
 70
     8
 71
     3
 72
    18
 73
    14
 74
     0
 42
0.000000001
 43
0.00000001
 40
0.0
 40
0.0
 40
0.0
 40
0.0
 40
0.0666318577239935
 40
0.1593887789587933
 40
0.2537386429077056
 40
0.3589596235744252
 40
0.4768755414445361
 40
0.5590746664973122
 40
0.6415654006958701
 40
0.7193626650260214
 40
0.831614476287212
 40
0.9451450156971953
 40
1.0
 40
1.0
 40
1.0
 40
1.0
 10
257.823756274986
 20
312.906687178555
 30
0.0
 10
257.6834828741391
 20
312.912094059642
 30
0.0
 10
257.3479375832669
 20
312.9250277553825
 30
0.0
 10
256.9824232220963
 20
313.05956271846
 30
0.0
 10
256.7809910845836
 20
313.31415479295
 30
0.0
 10
256.8167806842677
 20
313.6556407718481
 30
0.0
 10
257.1109863322488
 20
313.9663520295174
 30
0.0
 10
257.6086274676126
 20
314.1144104910065
 30
0.0
 10
258.1700233799875
 20
314.0782794824266
 30
0.0
 10
258.8621189147893
 20
313.881234331724
 30
0.0
 10
259.6384845794074
 20
313.5648055917205
 30
0.0
 10
260.353806961244
 20
313.2513821844275
 30
0.0
 10
260.6950495680068
 20
313.1422444007766
 30
0.0
 10
260.806216237354
 20
313.1066905640989
 30
0.0
  0
SPLINE
  5
4E6
330
1B
100
AcDbEntity
 67
     1
  8
SLD-0_0
  6
SLD-実線
 62
   179
370
    25
100
AcDbSpline
210
0.0
220
0.0
230
1.0
 70
     8
 71
     3
 72
     8
 73
     4
 74
     0
 42
0.000000001
 43
0.00000001
 40
0.0
 40
0.0
 40
0.0
 40
0.0
 40
0.0006746539766538
 40
0.0006746539766538
 40
0.0006746539766538
 40
0.0006746539766538
 10
173.9916254667926
 20
327.9066860818296
 30
0.0
 10
173.7725606031511
 20
327.9066860818296
 30
0.0
 10
173.5534818588077
 20
327.9044145307982
 30
0.0
 10
173.3344582716651
 20
327.8997596555437
 30
0.0
  0
SPLINE
  5
4E7
330
1B
100
AcDbEntity
 67
     1
  8
SLD-0_0
  6
SLD-実線
 62
   179
370
    25
100
AcDbSpline
210
0.0
220
0.0
230
1.0
 70
     8
 71
     3
 72
    27
 73
    23
 74
     0
 42
0.000000001
 43
0.00000001
 40
0.0
 40
0.0
 40
0.0
 40
0.0
 40
0.1250000000000044
 40
0.1250000000000044
 40
0.1875000000000004
 40
0.1875000000000004
 40
0.2499999999999963
 40
0.3124999999999923
 40
0.3124999999999923
 40
0.3749999999999882
 40
0.3749999999999882
 40
0.499999999999991
 40
0.499999999999991
 40
0.6249999999999938
 40
0.6249999999999938
 40
0.7499999999999966
 40
0.7499999999999966
 40
0.8124999999999972
 40
0.8124999999999972
 40
0.8749999999999979
 40
0.8749999999999979
 40
1.0
 40
1.0
 40
1.0
 40
1.0
 10
281.2103782540576
 20
319.9066860818296
 30
0.0
 10
281.2103782540577
 20
320.4353374234001
 30
0.0
 10
281.1583679875872
 20
320.9582358480229
 30
0.0
 10
281.0028748654831
 20
321.7340135368206
 30
0.0
 10
280.9380944070534
 20
321.990237651183
 30
0.0
 10
280.7850952684904
 20
322.4907246957245
 30
0.0
 10
280.608252790998
 20
322.9814271802982
 30
0.0
 10
280.3843515297937
 20
323.4528180229518
 30
0.0
 10
280.1365528633144
 20
323.9144018999849
 30
0.0
 10
279.9998331758683
 20
324.1415049706789
 30
0.0
 10
279.5599634117711
 20
324.7963837413205
 30
0.0
 10
279.2279830563637
 20
325.19847694015
 30
0.0
 10
278.4883821688713
 20
325.9353022952484
 30
0.0
 10
278.0759223474664
 20
326.2724826706936
 30
0.0
 10
277.2053833104509
 20
326.8515523216051
 30
0.0
 10
276.7455223700964
 20
327.0966383831124
 30
0.0
 10
276.0185638607228
 20
327.3970819840255
 30
0.0
 10
275.7688030344155
 20
327.4862384855863
 30
0.0
 10
275.2655651532208
 20
327.638397244763
 30
0.0
 10
275.0114531532183
 20
327.7017953740539
 30
0.0
 10
274.2417549376728
 20
327.8545367167681
 30
0.0
 10
273.7160265243651
 20
327.9066860818297
 30
0.0
 10
273.1875697600547
 20
327.9066860818296
 30
0.0
  0
SPLINE
  5
4E8
330
1B
100
AcDbEntity
 67
     1
  8
SLD-0_0
  6
SLD-実線
 62
   179
370
    25
100
AcDbSpline
210
0.0
220
0.0
230
1.0
 70
     8
 71
     3
 72
    24
 73
    20
 74
     0
 42
0.000000001
 43
0.00000001
 40
0.0
 40
0.0
 40
0.0
 40
0.0
 40
0.1250000000000007
 40
0.1250000000000007
 40
0.2500000000000014
 40
0.2500000000000014
 40
0.3750000000000021
 40
0.3750000000000021
 40
0.4375000000000024
 40
0.4375000000000024
 40
0.5000000000000028
 40
0.5000000000000028
 40
0.625000000000002
 40
0.625000000000002
 40
0.7500000000000013
 40
0.7500000000000013
 40
0.8750000000000008
 40
0.8750000000000008
 40
1.0
 40
1.0
 40
1.0
 40
1.0
 10
170.9132526939683
 20
569.8066860818295
 30
0.0
 10
170.9132526939683
 20
570.1575161787671
 30
0.0
 10
170.8773282603913
 20
570.5026037396822
 30
0.0
 10
170.7359061876412
 20
571.1816846522914
 30
0.0
 10
170.6309111558507
 20
571.5107173787276
 30
0.0
 10
170.3603937849724
 20
572.1346893367114
 30
0.0
 10
170.1951113764918
 20
572.4287550355622
 30
0.0
 10
169.9129459343081
 20
572.8331719886521
 30
0.0
 10
169.8128385847328
 20
572.9625157290728
 30
0.0
 10
169.6006981006979
 20
573.2105059597626
 30
0.0
 10
169.4881715710607
 20
573.3295199235357
 30
0.0
 10
169.1404209605372
 20
573.6633230416687
 30
0.0
 10
168.8932044694269
 20
573.8577161213326
 30
0.0
 10
168.3703069799744
 20
574.1952094660768
 30
0.0
 10
168.0937811326798
 20
574.3385992197617
 30
0.0
 10
167.5147997993379
 20
574.5714981811471
 30
0.0
 10
167.2166506635444
 20
574.6592640025846
 30
0.0
 10
166.6086431170118
 20
574.7769698558321
 30
0.0
 10
166.2973544461
 20
574.8066860818295
 30
0.0
 10
165.98924506377
 20
574.8066860818295
 30
0.0
  0
SPLINE
  5
4E9
330
1B
100
AcDbEntity
 67
     1
  8
SLD-0_0
  6
SLD-実線
 62
   179
370
    25
100
AcDbSpline
210
0.0
220
0.0
230
1.0
 70
     8
 71
     3
 72
     8
 73
     4
 74
     0
 42
0.000000001
 43
0.00000001
 40
0.0
 40
0.0
 40
0.0
 40
0.0
 40
1.0
 40
1.0
 40
1.0
 40
1.0
 10
163.652681321928
 20
624.8066860817794
 30
0.0
 10
163.8085270117591
 20
624.8066860817794
 30
0.0
 10
163.9621975540085
 20
624.7928385775747
 30
0.0
 10
164.1137831920466
 20
624.7657180798158
 30
0.0
  0
SPLINE
  5
4EA
330
1B
100
AcDbEntity
 67
     1
  8
SLD-0_0
  6
SLD-実線
 62
   179
370
    25
100
AcDbSpline
210
0.0
220
0.0
230
1.0
 70
     8
 71
     3
 72
    22
 73
    18
 74
     0
 42
0.000000001
 43
0.00000001
 40
0.0
 40
0.0
 40
0.0
 40
0.0
 40
0.125
 40
0.125
 40
0.25
 40
0.25
 40
0.375
 40
0.375
 40
0.5
 40
0.5
 40
0.625
 40
0.625
 40
0.75
 40
0.75
 40
0.875
 40
0.875
 40
1.0
 40
1.0
 40
1.0
 40
1.0
 10
150.6959707296571
 20
621.8066860817794
 30
0.0
 10
150.6959707296571
 20
622.012441698682
 30
0.0
 10
150.7036540055825
 20
622.2143497862496
 30
0.0
 10
150.7337743540503
 20
622.6108326743187
 30
0.0
 10
150.7566414752802
 20
622.8074380284756
 30
0.0
 10
150.8157536355184
 20
623.1773134712728
 30
0.0
 10
150.8519257684723
 20
623.3519267969066
 30
0.0
 10
150.9377590461014
 20
623.6808018112873
 30
0.0
 10
150.9868787027385
 20
623.8323628002133
 30
0.0
 10
151.0948172471018
 20
624.1037729018775
 30
0.0
 10
151.1545846160206
 20
624.2258638377774
 30
0.0
 10
151.2821330909193
 20
624.4356285991744
 30
0.0
 10
151.3493859783605
 20
624.5229396566064
 30
0.0
 10
151.4908905428306
 20
624.6641406967265
 30
0.0
 10
151.5656373094814
 20
624.7179876142486
 30
0.0
 10
151.7174742269994
 20
624.7889012228618
 30
0.0
 10
151.7950603691825
 20
624.8066860817794
 30
0.0
 10
151.87437549627
 20
624.8066860817794
 30
0.0
  0
SPLINE
  5
4EB
330
1B
100
AcDbEntity
 67
     1
  8
SLD-0_0
  6
SLD-実線
 62
   179
370
    25
100
AcDbSpline
210
0.0
220
0.0
230
1.0
 70
     8
 71
     3
 72
    22
 73
    18
 74
     0
 42
0.000000001
 43
0.00000001
 40
0.0
 40
0.0
 40
0.0
 40
0.0
 40
0.125
 40
0.125
 40
0.25
 40
0.25
 40
0.375
 40
0.375
 40
0.5
 40
0.5
 40
0.625
 40
0.625
 40
0.75
 40
0.75
 40
0.875
 40
0.875
 40
1.0
 40
1.0
 40
1.0
 40
1.0
 10
149.0624570460527
 20
632.8066868268498
 30
0.0
 10
149.1558433341123
 20
632.8066868268498
 30
0.0
 10
149.250024578631
 20
632.7752308482349
 30
0.0
 10
149.4397099985549
 20
632.6524729170856
 30
0.0
 10
149.5360178187973
 20
632.5600896148939
 30
0.0
 10
149.7255609653706
 20
632.316638079328
 30
0.0
 10
149.8176939830479
 20
632.167550123794
 30
0.0
 10
149.9956943873717
 20
631.8150965332322
 30
0.0
 10
150.0824440880692
 20
631.6089442105674
 30
0.0
 10
150.2419576926818
 20
631.1535322946942
 30
0.0
 10
150.3150247229472
 20
630.9046146486936
 30
0.0
 10
150.4460192861692
 20
630.3630782939676
 30
0.0
 10
150.5040852635136
 20
630.0679056092962
 30
0.0
 10
150.5975052661305
 20
629.4589306745218
 30
0.0
 10
150.6337239592231
 20
629.1423574603534
 30
0.0
 10
150.6832078976994
 20
628.4837480518751
 30
0.0
 10
150.6959684258036
 20
628.14569787141
 30
0.0
 10
150.6959684258036
 20
627.8066868268498
 30
0.0
  0
SPLINE
  5
4EC
330
1B
100
AcDbEntity
 67
     1
  8
SLD-0_0
  6
SLD-実線
 62
   179
370
    25
100
AcDbSpline
210
0.0
220
0.0
230
1.0
 70
     8
 71
     3
 72
    18
 73
    14
 74
     0
 42
0.000000001
 43
0.00000001
 40
0.0
 40
0.0
 40
0.0
 40
0.0
 40
0.1249999999999976
 40
0.1249999999999976
 40
0.2499999999999952
 40
0.2499999999999952
 40
0.3749999999999928
 40
0.3749999999999928
 40
0.4999999999999905
 40
0.4999999999999905
 40
0.7499999999999952
 40
0.7499999999999952
 40
1.0
 40
1.0
 40
1.0
 40
1.0
 10
148.7492568169
 20
634.8066861116
 30
0.0
 10
148.7492568169
 20
634.9393348202118
 30
0.0
 10
148.7623227844602
 20
635.069734921623
 30
0.0
 10
148.8134934420411
 20
635.3262259871407
 30
0.0
 10
148.8522403403952
 20
635.4536704357379
 30
0.0
 10
148.9531758930176
 20
635.696266654708
 30
0.0
 10
149.0149098511213
 20
635.8112671365269
 30
0.0
 10
149.1606795083794
 20
636.028800904982
 30
0.0
 10
149.2453461786477
 20
636.1315436281151
 30
0.0
 10
149.5224074922981
 20
636.4075669074068
 30
0.0
 10
149.7453200051645
 20
636.5558253584994
 30
0.0
 10
150.2250861539605
 20
636.7541517321221
 30
0.0
 10
150.4900642159132
 20
636.8066861116001
 30
0.0
 10
150.7492568169
 20
636.8066861116001
 30
0.0
  0
SPLINE
  5
4ED
330
1B
100
AcDbEntity
 67
     1
  8
SLD-0_0
  6
SLD-実線
 62
   179
370
    25
100
AcDbSpline
210
0.0
220
0.0
230
1.0
 70
     8
 71
     3
 72
    20
 73
    16
 74
     0
 42
0.000000001
 43
0.00000001
 40
0.0
 40
0.0
 40
0.0
 40
0.0
 40
0.1250000000000005
 40
0.1250000000000005
 40
0.2500000000000011
 40
0.2500000000000011
 40
0.3750000000000016
 40
0.3750000000000016
 40
0.5000000000000021
 40
0.5000000000000021
 40
0.7500000000000006
 40
0.7500000000000006
 40
0.8750000000000003
 40
0.8750000000000003
 40
1.0
 40
1.0
 40
1.0
 40
1.0
 10
164.1137831920466
 20
624.7657180798158
 30
0.0
 10
164.313415029261
 20
624.7300015379066
 30
0.0
 10
164.5127115783631
 20
624.672984575892
 30
0.0
 10
164.9106124658867
 20
624.523486110505
 30
0.0
 10
165.1096251570007
 20
624.4301970807547
 30
0.0
 10
165.4882699256679
 20
624.221993007356
 30
0.0
 10
165.6721177441852
 20
624.1050153328229
 30
0.0
 10
166.0201158473698
 20
623.8565294072073
 30
0.0
 10
166.1837617870928
 20
623.7256803930045
 30
0.0
 10
166.6491838866082
 20
623.3168674924956
 30
0.0
 10
166.9269739341054
 20
623.0203294866922
 30
0.0
 10
167.2828753586842
 20
622.5718466163756
 30
0.0
 10
167.3923021970402
 20
622.4207870798936
 30
0.0
 10
167.5937888731689
 20
622.1158186137152
 30
0.0
 10
167.686590253842
 20
621.9605126057791
 30
0.0
 10
167.7690565446698
 20
621.8066860817794
 30
0.0
  0
SPLINE
  5
4EE
330
1B
100
AcDbEntity
 67
     1
  8
SLD-0_0
  6
SLD-実線
 62
   179
370
    25
100
AcDbSpline
210
0.0
220
0.0
230
1.0
 70
     8
 71
     3
 72
    24
 73
    20
 74
     0
 42
0.000000001
 43
0.00000001
 40
0.0
 40
0.0
 40
0.0
 40
0.0
 40
0.1250000000000027
 40
0.1250000000000027
 40
0.2500000000000055
 40
0.2500000000000055
 40
0.3750000000000082
 40
0.3750000000000082
 40
0.4375000000000057
 40
0.4375000000000057
 40
0.5000000000000032
 40
0.5000000000000032
 40
0.6250000000000024
 40
0.6250000000000024
 40
0.7500000000000016
 40
0.7500000000000016
 40
0.8750000000000008
 40
0.8750000000000008
 40
1.0
 40
1.0
 40
1.0
 40
1.0
 10
170.9132526939683
 20
332.9066860818296
 30
0.0
 10
170.9132526939683
 20
332.555855984892
 30
0.0
 10
170.8773282603913
 20
332.2107684239769
 30
0.0
 10
170.7359061876412
 20
331.5316875113677
 30
0.0
 10
170.6309111558506
 20
331.2026547849315
 30
0.0
 10
170.3603937849724
 20
330.5786828269476
 30
0.0
 10
170.1951113764918
 20
330.284617128097
 30
0.0
 10
169.9129459343081
 20
329.880200175007
 30
0.0
 10
169.8128385847328
 20
329.7508564345862
 30
0.0
 10
169.600698100698
 20
329.5028662038965
 30
0.0
 10
169.4881715710607
 20
329.3838522401234
 30
0.0
 10
169.1404209605372
 20
329.0500491219905
 30
0.0
 10
168.8932044694269
 20
328.8556560423264
 30
0.0
 10
168.3703069799744
 20
328.5181626975824
 30
0.0
 10
168.0937811326798
 20
328.3747729438974
 30
0.0
 10
167.5147997993379
 20
328.1418739825119
 30
0.0
 10
167.2166506635443
 20
328.0541081610745
 30
0.0
 10
166.6086431170118
 20
327.9364023078269
 30
0.0
 10
166.2973544461016
 20
327.9066860818296
 30
0.0
 10
165.98924506377
 20
327.9066860818296
 30
0.0
  0
SPLINE
  5
4EF
330
1B
100
AcDbEntity
 67
     1
  8
SLD-0_0
  6
SLD-実線
 62
   179
370
    25
100
AcDbSpline
210
0.0
220
0.0
230
1.0
 70
     8
 71
     3
 72
    34
 73
    30
 74
     0
 42
0.000000001
 43
0.00000001
 40
0.0
 40
0.0
 40
0.0
 40
0.0
 40
0.0625000000000012
 40
0.0625000000000012
 40
0.1250000000000024
 40
0.1250000000000024
 40
0.1875000000000036
 40
0.1875000000000036
 40
0.2500000000000048
 40
0.2500000000000048
 40
0.312500000000006
 40
0.312500000000006
 40
0.3750000000000072
 40
0.3750000000000072
 40
0.5000000000000095
 40
0.5000000000000095
 40
0.5625000000000084
 40
0.5625000000000084
 40
0.6250000000000072
 40
0.6250000000000072
 40
0.6875000000000061
 40
0.6875000000000061
 40
0.750000000000005
 40
0.750000000000005
 40
0.8125000000000039
 40
0.8125000000000039
 40
0.8750000000000027
 40
0.8750000000000027
 40
1.0
 40
1.0
 40
1.0
 40
1.0
 10
154.8117011455651
 20
623.3066860818295
 30
0.0
 10
154.8099449874544
 20
623.4701070046276
 30
0.0
 10
154.813155691307
 20
623.6222693240627
 30
0.0
 10
154.8402763140082
 20
623.9044852200967
 30
0.0
 10
154.8648377414443
 20
624.0356892476856
 30
0.0
 10
154.9447583960313
 20
624.2628254980884
 30
0.0
 10
154.9998820122599
 20
624.3603226955082
 30
0.0
 10
155.1519319905234
 20
624.5252688660445
 30
0.0
 10
155.2461978853314
 20
624.58932730859
 30
0.0
 10
155.471359185551
 20
624.6877827189597
 30
0.0
 10
155.6038433390495
 20
624.7223820050455
 30
0.0
 10
155.8933758171982
 20
624.769717818231
 30
0.0
 10
156.0540228724524
 20
624.7833166595041
 30
0.0
 10
156.5594360084254
 20
624.80798210424
 30
0.0
 10
156.9345907736838
 20
624.8062352078742
 30
0.0
 10
157.4950059229724
 20
624.8062470255692
 30
0.0
 10
157.6846350353107
 20
624.8060954978469
 30
0.0
 10
158.0485603750535
 20
624.8029423304499
 30
0.0
 10
158.2251724825713
 20
624.7999627699861
 30
0.0
 10
158.5653971108187
 20
624.78357551959
 30
0.0
 10
158.7227509506294
 20
624.7703950863167
 30
0.0
 10
159.012453895032
 20
624.7237568206974
 30
0.0
 10
159.145682186659
 20
624.6894659935598
 30
0.0
 10
159.3712987262479
 20
624.5922176305882
 30
0.0
 10
159.4666036784851
 20
624.52841987497
 30
0.0
 10
159.6196389589108
 20
624.3647294486707
 30
0.0
 10
159.6757509710501
 20
624.2673354566178
 30
0.0
 10
159.7980344502617
 20
623.9235001163551
 30
0.0
 10
159.814354008206
 20
623.6341264335206
 30
0.0
 10
159.8108352603029
 20
623.3066860818295
 30
0.0
  0
SPLINE
  5
4F0
330
1B
100
AcDbEntity
 67
     1
  8
SLD-0_0
  6
SLD-実線
 62
   179
370
    25
100
AcDbSpline
210
0.0
220
0.0
230
1.0
 70
     8
 71
     3
 72
    20
 73
    16
 74
     0
 42
0.000000001
 43
0.00000001
 40
0.0
 40
0.0
 40
0.0
 40
0.0
 40
0.1250000000000001
 40
0.1250000000000001
 40
0.2500000000000001
 40
0.2500000000000001
 40
0.3750000000000002
 40
0.3750000000000002
 40
0.5000000000000002
 40
0.5000000000000002
 40
0.7500000000000003
 40
0.7500000000000003
 40
0.8750000000000001
 40
0.8750000000000001
 40
1.0
 40
1.0
 40
1.0
 40
1.0
 10
188.7492571148163
 20
329.9066797398326
 30
0.0
 10
188.7492571148163
 20
329.6972223669067
 30
0.0
 10
188.7805921673285
 20
329.5132580686089
 30
0.0
 10
188.8784143704433
 20
329.178414875458
 30
0.0
 10
188.9438928017584
 20
329.0334881511396
 30
0.0
 10
189.0917056160824
 20
328.7778188615698
 30
0.0
 10
189.1747924983828
 20
328.666519411702
 30
0.0
 10
189.3487834302135
 20
328.4729399005992
 30
0.0
 10
189.4403684735993
 20
328.3897565563806
 30
0.0
 10
189.7249160272075
 20
328.1724055358396
 30
0.0
 10
189.9252380048016
 20
328.0717831283072
 30
0.0
 10
190.2305909344769
 20
327.972138796731
 30
0.0
 10
190.3335917107574
 20
327.947534590194
 30
0.0
 10
190.5410447093954
 20
327.9147773728194
 30
0.0
 10
190.6460594238026
 20
327.9066797398324
 30
0.0
 10
190.7492571148163
 20
327.9066797398326
 30
0.0
  0
SPLINE
  5
4F1
330
1B
100
AcDbEntity
 67
     1
  8
SLD-0_0
  6
SLD-実線
 62
   179
370
    25
100
AcDbSpline
210
0.0
220
0.0
230
1.0
 70
     8
 71
     3
 72
    20
 73
    16
 74
     0
 42
0.000000001
 43
0.00000001
 40
0.0
 40
0.0
 40
0.0
 40
0.0
 40
0.1249999999999999
 40
0.1249999999999999
 40
0.2499999999999999
 40
0.2499999999999999
 40
0.3749999999999998
 40
0.3749999999999998
 40
0.4999999999999998
 40
0.4999999999999998
 40
0.7499999999999997
 40
0.7499999999999997
 40
0.8749999999999998
 40
0.8749999999999998
 40
1.0
 40
1.0
 40
1.0
 40
1.0
 10
248.7492569957525
 20
329.9066797398297
 30
0.0
 10
248.7492569957525
 20
329.6972223669038
 30
0.0
 10
248.7179219432402
 20
329.513258068606
 30
0.0
 10
248.6200997401254
 20
329.1784148754551
 30
0.0
 10
248.5546213088103
 20
329.0334881511367
 30
0.0
 10
248.4068084944863
 20
328.777818861567
 30
0.0
 10
248.3237216121859
 20
328.6665194116993
 30
0.0
 10
248.1497306803552
 20
328.4729399005964
 30
0.0
 10
248.0581456369695
 20
328.3897565563777
 30
0.0
 10
247.7735980833613
 20
328.1724055358367
 30
0.0
 10
247.5732761057671
 20
328.0717831283044
 30
0.0
 10
247.2679231760919
 20
327.9721387967281
 30
0.0
 10
247.1649223998114
 20
327.9475345901911
 30
0.0
 10
246.9574694011735
 20
327.9147773728166
 30
0.0
 10
246.8524546867661
 20
327.9066797398295
 30
0.0
 10
246.7492569957525
 20
327.9066797398297
 30
0.0
  0
SPLINE
  5
4F2
330
1B
100
AcDbEntity
 67
     1
  8
SLD-0_0
  6
SLD-実線
 62
   179
370
    25
100
AcDbSpline
210
0.0
220
0.0
230
1.0
 70
    24
 71
     3
 72
    12
 73
     8
 74
     0
 42
0.000000001
 43
0.00000001
 40
0.0
 40
0.0
 40
0.0
 40
0.0
 40
0.5000000000000153
 40
0.5000000000000153
 40
0.7500000000000077
 40
0.7500000000000077
 40
1.0
 40
1.0
 40
1.0
 40
1.0
 10
285.7492571149346
 20
317.9066860818296
 30
0.0
 10
285.7492571149346
 20
317.018530570424
 30
0.0
 10
285.7492571149346
 20
316.1254664957553
 30
0.0
 10
285.7492571149346
 20
314.842188701566
 30
0.0
 10
285.7492571149346
 20
314.4180207001745
 30
0.0
 10
285.7492571149346
 20
313.6336244225753
 30
0.0
 10
285.7492571149346
 20
313.2694842621571
 30
0.0
 10
285.7492571149346
 20
312.9369928287904
 30
0.0
  0
SPLINE
  5
4F3
330
1B
100
AcDbEntity
 67
     1
  8
SLD-0_0
  6
SLD-実線
 62
   179
370
    25
100
AcDbSpline
210
0.0
220
0.0
230
1.0
 70
    24
 71
     3
 72
     9
 73
     5
 74
     0
 42
0.000000001
 43
0.00000001
 40
0.0
 40
0.0
 40
0.0
 40
0.0
 40
0.5
 40
1.0
 40
1.0
 40
1.0
 40
1.0
 10
285.7492571149346
 20
323.0418866098713
 30
0.0
 10
285.7492571149346
 20
322.5193299236286
 30
0.0
 10
285.7492571149346
 20
321.4743019641987
 30
0.0
 10
285.7492571149346
 20
320.4292427680722
 30
0.0
 10
285.7492571149346
 20
319.9066860818296
 30
0.0
  0
SPLINE
  5
4F4
330
1B
100
AcDbEntity
 67
     1
  8
SLD-0_0
  6
SLD-実線
 62
   179
370
    25
100
AcDbSpline
210
0.0
220
0.0
230
1.0
 70
     8
 71
     3
 72
    11
 73
     7
 74
     0
 42
0.000000001
 43
0.00000001
 40
0.0
 40
0.0
 40
0.0
 40
0.0
 40
0.1903064505524873
 40
0.5156683566315798
 40
0.8551151513393189
 40
1.0
 40
1.0
 40
1.0
 40
1.0
 10
216.7595425464537
 20
224.1577973427171
 30
0.0
 10
216.6433673199509
 20
224.0931200281331
 30
0.0
 10
216.3285703808135
 20
223.9178656191205
 30
0.0
 10
215.9727383903301
 20
223.4245474234512
 30
0.0
 10
215.7471296236229
 20
222.8867210274441
 30
0.0
 10
215.773423380844
 20
222.5489871689431
 30
0.0
 10
215.7812889974889
 20
222.4479561509484
 30
0.0
  0
SPLINE
  5
4F5
330
1B
100
AcDbEntity
 67
     1
  8
SLD-0_0
  6
SLD-実線
 62
   179
370
    25
100
AcDbSpline
210
0.0
220
0.0
230
1.0
 70
     8
 71
     3
 72
    11
 73
     7
 74
     0
 42
0.000000001
 43
0.00000001
 40
0.0
 40
0.0
 40
0.0
 40
0.0
 40
0.3489729118718781
 40
0.6325167413555153
 40
0.8688079360669598
 40
1.0
 40
1.0
 40
1.0
 40
1.0
 10
221.749257141
 20
222.4479710521
 30
0.0
 10
221.7237725961191
 20
222.6922163736602
 30
0.0
 10
221.6775816147146
 20
223.1349133556576
 30
0.0
 10
221.3625598581303
 20
223.6643466865654
 30
0.0
 10
221.0474873501237
 20
223.9972788998074
 30
0.0
 10
220.8262009026223
 20
224.1252641466444
 30
0.0
 10
220.7472013153344
 20
224.1709550680417
 30
0.0
  0
SPLINE
  5
4F6
330
1B
100
AcDbEntity
 67
     1
  8
SLD-0_0
  6
SLD-実線
 62
   179
370
    25
100
AcDbSpline
210
0.0
220
0.0
230
1.0
 70
     8
 71
     3
 72
    15
 73
    11
 74
     0
 42
0.000000001
 43
0.00000001
 40
0.0
 40
0.0
 40
0.0
 40
0.0
 40
0.0822125414311037
 40
0.239045515036167
 40
0.3996935581156079
 40
0.5701797493999717
 40
0.7103675279915992
 40
0.8297359787453474
 40
0.9440840403503554
 40
0.9999999999999999
 40
0.9999999999999999
 40
0.9999999999999999
 40
0.9999999999999999
 10
189.7492579493512
 20
245.1266592206353
 30
0.0
 10
189.5231748846715
 20
245.1229283173807
 30
0.0
 10
188.8658038595632
 20
245.1120801465967
 30
0.0
 10
187.790489679992
 20
244.9899102036787
 30
0.0
 10
186.5967468449903
 20
244.7098146215088
 30
0.0
 10
185.607058625858
 20
244.2968030903535
 30
0.0
 10
184.8457879092502
 20
243.7558122923622
 30
0.0
 10
184.3225173402613
 20
243.1016339930808
 30
0.0
 10
184.0771813330372
 20
242.4606133471274
 30
0.0
 10
184.0561614149457
 20
242.0614823948772
 30
0.0
 10
184.0492583189
 20
241.9304048480386
 30
0.0
  0
SPLINE
  5
4F7
330
1B
100
AcDbEntity
 67
     1
  8
SLD-0_0
  6
SLD-実線
 62
   179
370
    25
100
AcDbSpline
210
0.0
220
0.0
230
1.0
 70
     8
 71
     3
 72
    15
 73
    11
 74
     0
 42
0.000000001
 43
0.00000001
 40
0.0
 40
0.0
 40
0.0
 40
0.0
 40
0.1228202061950125
 40
0.2338065302790117
 40
0.3486923761758816
 40
0.48128642012062
 40
0.6406603829857257
 40
0.8054906474230927
 40
0.9542087831533708
 40
1.0
 40
1.0
 40
1.0
 40
1.0
 10
254.4492579374303
 20
241.9304048480386
 30
0.0
 10
254.4163534536227
 20
242.2190574756502
 30
0.0
 10
254.3537148746136
 20
242.7685506853475
 30
0.0
 10
253.9237897792341
 20
243.4535210594599
 30
0.0
 10
253.3557718617996
 20
243.9917165587168
 30
0.0
 10
252.5876323170347
 20
244.4409625899261
 30
0.0
 10
251.5834486773569
 20
244.8019939334408
 30
0.0
 10
250.3894683671413
 20
245.0384912757765
 30
0.0
 10
249.4097303563878
 20
245.1204057161441
 30
0.0
 10
248.875115089617
 20
245.1254675647816
 30
0.0
 10
248.7492564443339
 20
245.1266592206353
 30
0.0
  0
SPLINE
  5
4F8
330
1B
100
AcDbEntity
 67
     1
  8
SLD-0_0
  6
SLD-実線
 62
   179
370
    25
100
AcDbSpline
210
0.0
220
0.0
230
1.0
 70
     8
 71
     3
 72
    17
 73
    13
 74
     0
 42
0.000000001
 43
0.00000001
 40
0.0
 40
0.0
 40
0.0
 40
0.0
 40
0.0764690100033687
 40
0.2248640105268607
 40
0.3771072057473078
 40
0.5368632371902305
 40
0.6274433922588721
 40
0.7124130458218557
 40
0.7679787010244316
 40
0.8452886948828892
 40
0.9497677144088394
 40
1.0
 40
1.0
 40
1.0
 40
1.0
 10
198.5492579017159
 20
246.4277690114373
 30
0.0
 10
198.3822985393189
 20
246.4274706277052
 30
0.0
 10
197.8913394982388
 20
246.4265932034693
 30
0.0
 10
197.0990112967788
 20
246.4166018656876
 30
0.0
 10
196.2870204380021
 20
246.3945762999577
 30
0.0
 10
195.7630558034883
 20
246.3680817208566
 30
0.0
 10
195.4322579497319
 20
246.3369757680098
 30
0.0
 10
195.1501572431458
 20
246.2972952955177
 30
0.0
 10
194.7334820841385
 20
246.1656650302632
 30
0.0
 10
194.2924337317974
 20
245.9073677870876
 30
0.0
 10
193.9121942794146
 20
245.5462329915152
 30
0.0
 10
193.7917073351124
 20
245.2294980037979
 30
0.0
 10
193.7525871519324
 20
245.1266592206353
 30
0.0
  0
SPLINE
  5
4F9
330
1B
100
AcDbEntity
 67
     1
  8
SLD-0_0
  6
SLD-実線
 62
   179
370
    25
100
AcDbSpline
210
0.0
220
0.0
230
1.0
 70
     8
 71
     3
 72
    17
 73
    13
 74
     0
 42
0.000000001
 43
0.00000001
 40
0.0
 40
0.0
 40
0.0
 40
0.0
 40
0.0268201727055602
 40
0.1006003561763227
 40
0.1612905328749974
 40
0.2084365645521364
 40
0.2574649955558936
 40
0.3459900971715243
 40
0.5563575178705095
 40
0.7249898474285952
 40
0.8995394013472898
 40
1.0
 40
1.0
 40
1.0
 40
1.0
 10
244.2692204688069
 20
245.8059286536569
 30
0.0
 10
244.2338894566865
 20
245.8424288640486
 30
0.0
 10
244.1013656119522
 20
245.9793382794438
 30
0.0
 10
243.8319012788835
 20
246.1259149573579
 30
0.0
 10
243.5289877024579
 20
246.2452199437994
 30
0.0
 10
243.3024493978423
 20
246.2992717575479
 30
0.0
 10
243.1023672925847
 20
246.3324093533012
 30
0.0
 10
242.8005987914978
 20
246.3638370351836
 30
0.0
 10
242.3040173551447
 20
246.3913224957032
 30
0.0
 10
241.468134539529
 20
246.415227791933
 30
0.0
 10
240.6639999627789
 20
246.426311012735
 30
0.0
 10
240.1404925782774
 20
246.4273789106852
 30
0.0
 10
239.949256492066
 20
246.4277690114373
 30
0.0
  0
SPLINE
  5
4FA
330
1B
100
AcDbEntity
 67
     1
  8
SLD-0_0
  6
SLD-実線
 62
   179
370
    25
100
AcDbSpline
210
0.0
220
0.0
230
1.0
 70
     8
 71
     3
 72
    10
 73
     6
 74
     0
 42
0.000000001
 43
0.00000001
 40
0.0
 40
0.0
 40
0.0
 40
0.0
 40
0.1224218209676841
 40
0.6420006863667683
 40
1.0
 40
1.0
 40
1.0
 40
1.0
 10
216.7492570199
 20
224.1591533484
 30
0.0
 10
216.7911902160765
 20
224.1833042941385
 30
0.0
 10
217.0110949725496
 20
224.309955928773
 30
0.0
 10
217.3943569434238
 20
224.4400636062636
 30
0.0
 10
217.7415839190356
 20
224.4570284928341
 30
0.0
 10
217.8832317196691
 20
224.4639491500396
 30
0.0
  0
SPLINE
  5
4FB
330
1B
100
AcDbEntity
 67
     1
  8
SLD-0_0
  6
SLD-実線
 62
   179
370
    25
100
AcDbSpline
210
0.0
220
0.0
230
1.0
 70
    24
 71
     3
 72
    10
 73
     6
 74
     0
 42
0.000000001
 43
0.00000001
 40
0.0
 40
0.0
 40
0.0
 40
0.0
 40
0.3583552189609013
 40
0.9554809106863468
 40
0.9999999999999999
 40
0.9999999999999999
 40
0.9999999999999999
 40
0.9999999999999999
 10
218.2492570911583
 20
224.4765108289266
 30
0.0
 10
218.2492570911583
 20
224.4745218346695
 30
0.0
 10
218.2492570911583
 20
224.4692185882157
 30
0.0
 10
218.2492570911583
 20
224.3412606563791
 30
0.0
 10
218.2492570911583
 20
224.2190979458496
 30
0.0
 10
218.2492570911583
 20
224.2106219591642
 30
0.0
  0
SPLINE
  5
4FC
330
1B
100
AcDbEntity
 67
     1
  8
SLD-0_0
  6
SLD-実線
 62
   179
370
    25
100
AcDbSpline
210
0.0
220
0.0
230
1.0
 70
     8
 71
     3
 72
     9
 73
     5
 74
     0
 42
0.000000001
 43
0.00000001
 40
0.0
 40
0.0
 40
0.0
 40
0.0
 40
0.5000000000024455
 40
1.0
 40
1.0
 40
1.0
 40
1.0
 10
218.2492570911583
 20
224.2106219591642
 30
0.0
 10
218.4159237657419
 20
224.2291254760767
 30
0.0
 10
218.7492571149077
 20
224.2661325099016
 30
0.0
 10
219.0825904640735
 20
224.2291254760766
 30
0.0
 10
219.2492571386557
 20
224.2106219591642
 30
0.0
  0
SPLINE
  5
4FD
330
1B
100
AcDbEntity
 67
     1
  8
SLD-0_0
  6
SLD-実線
 62
   179
370
    25
100
AcDbSpline
210
0.0
220
0.0
230
1.0
 70
    24
 71
     3
 72
    10
 73
     6
 74
     0
 42
0.000000001
 43
0.00000001
 40
0.0
 40
0.0
 40
0.0
 40
0.0
 40
0.1224292186716106
 40
0.6419960119047446
 40
1.0
 40
1.0
 40
1.0
 40
1.0
 10
219.2492571386557
 20
224.2106219591642
 30
0.0
 10
219.2492571386557
 20
224.2333359557211
 30
0.0
 10
219.2492571386557
 20
224.3524439216314
 30
0.0
 10
219.2492571386557
 20
224.4694046824599
 30
0.0
 10
219.2492571386557
 20
224.4744518448505
 30
0.0
 10
219.2492571386557
 20
224.4765108289266
 30
0.0
  0
SPLINE
  5
4FE
330
1B
100
AcDbEntity
 67
     1
  8
SLD-0_0
  6
SLD-実線
 62
   179
370
    25
100
AcDbSpline
210
0.0
220
0.0
230
1.0
 70
     8
 71
     3
 72
    10
 73
     6
 74
     0
 42
0.000000001
 43
0.00000001
 40
0.0
 40
0.0
 40
0.0
 40
0.0
 40
0.358350452232957
 40
0.9554860724136254
 40
1.0
 40
1.0
 40
1.0
 40
1.0
 10
219.6152825101563
 20
224.4639491500397
 30
0.0
 10
219.7569287108826
 20
224.4570980661936
 30
0.0
 10
220.1346064036577
 20
224.4388307104386
 30
0.0
 10
220.5164372802462
 20
224.2977851012884
 30
0.0
 10
220.7341533318226
 20
224.1681468959014
 30
0.0
 10
220.7492572099255
 20
224.1591533484002
 30
0.0
  0
SPLINE
  5
4FF
330
1B
100
AcDbEntity
 67
     1
  8
SLD-0_0
  6
SLD-実線
 62
   179
370
    25
100
AcDbSpline
210
0.0
220
0.0
230
1.0
 70
     8
 71
     3
 72
     9
 73
     5
 74
     0
 42
0.000000001
 43
0.00000001
 40
0.0
 40
0.0
 40
0.0
 40
0.0
 40
0.0701850677270783
 40
1.0
 40
1.0
 40
1.0
 40
1.0
 10
155.2244756224115
 20
111.5099487700097
 30
0.0
 10
155.2710760233476
 20
111.5386587756219
 30
0.0
 10
155.9350406307114
 20
111.9477202261838
 30
0.0
 10
156.5856953594264
 20
112.3485760035693
 30
0.0
 10
157.1906838419397
 20
112.7212976910703
 30
0.0
  0
SPLINE
  5
500
330
1B
100
AcDbEntity
 67
     1
  8
SLD-0_0
  6
SLD-実線
 62
   179
370
    25
100
AcDbSpline
210
0.0
220
0.0
230
1.0
 70
     8
 71
     3
 72
     9
 73
     5
 74
     0
 42
0.000000001
 43
0.00000001
 40
0.0
 40
0.0
 40
0.0
 40
0.0
 40
0.0701850677270783
 40
1.0
 40
1.0
 40
1.0
 40
1.0
 10
151.028240575996
 20
118.3210875466926
 30
0.0
 10
150.9816401708151
 20
118.29237754797
 30
0.0
 10
150.317675502973
 20
117.8833161955734
 30
0.0
 10
149.6670207149926
 20
117.4824605143852
 30
0.0
 10
149.0620321773735
 20
117.10973891633
 30
0.0
  0
SPLINE
  5
501
330
1B
100
AcDbEntity
 67
     1
  8
SLD-0_0
  6
SLD-実線
 62
   179
370
    25
100
AcDbSpline
210
0.0
220
0.0
230
1.0
 70
     8
 71
     3
 72
     9
 73
     5
 74
     0
 42
0.000000001
 43
0.00000001
 40
0.0
 40
0.0
 40
0.0
 40
0.0
 40
0.0701846883062029
 40
1.0
 40
1.0
 40
1.0
 40
1.0
 10
151.226106004838
 20
111.3957103609891
 30
0.0
 10
151.2742692650513
 20
111.3697080254945
 30
0.0
 10
151.9605052714443
 20
110.999223577647
 30
0.0
 10
152.6329846317706
 20
110.6361715511129
 30
0.0
 10
153.2582662378
 20
110.2986002179
 30
0.0
  0
SPLINE
  5
502
330
1B
100
AcDbEntity
 67
     1
  8
SLD-0_0
  6
SLD-実線
 62
   179
370
    25
100
AcDbSpline
210
0.0
220
0.0
230
1.0
 70
     8
 71
     3
 72
     9
 73
     5
 74
     0
 42
0.000000001
 43
0.00000001
 40
0.0
 40
0.0
 40
0.0
 40
0.0
 40
0.0171956365663004
 40
1.0
 40
1.0
 40
1.0
 40
1.0
 10
149.1279891317307
 20
114.8012791437357
 30
0.0
 10
149.1283716439421
 20
114.7878859466071
 30
0.0
 10
149.1506163692246
 20
114.0090141045013
 30
0.0
 10
149.172467783133
 20
113.2443431022639
 30
0.0
 10
149.1939434480694
 20
112.4928211046736
 30
0.0
  0
SPLINE
  5
503
330
1B
100
AcDbEntity
 67
     1
  8
SLD-0_0
  6
SLD-実線
 62
   179
370
    25
100
AcDbSpline
210
0.0
220
0.0
230
1.0
 70
     8
 71
     3
 72
     9
 73
     5
 74
     0
 42
0.000000001
 43
0.00000001
 40
0.0
 40
0.0
 40
0.0
 40
0.0
 40
0.0701846621073244
 40
1.0
 40
1.0
 40
1.0
 40
1.0
 10
155.0266098971461
 20
118.4353247087037
 30
0.0
 10
154.9784466405963
 20
118.4613270509197
 30
0.0
 10
154.2922104302388
 20
118.8318117328336
 30
0.0
 10
153.6197312773776
 20
119.1948647699788
 30
0.0
 10
152.9944498466341
 20
119.5324370523848
 30
0.0
  0
SPLINE
  5
504
330
1B
100
AcDbEntity
 67
     1
  8
SLD-0_0
  6
SLD-実線
 62
   179
370
    25
100
AcDbSpline
210
0.0
220
0.0
230
1.0
 70
     8
 71
     3
 72
     9
 73
     5
 74
     0
 42
0.000000001
 43
0.00000001
 40
0.0
 40
0.0
 40
0.0
 40
0.0
 40
0.0171956222618972
 40
1.0
 40
1.0
 40
1.0
 40
1.0
 10
157.1247258933084
 20
115.0297548886822
 30
0.0
 10
157.1243434073207
 20
115.0431480865561
 30
0.0
 10
157.1021001885563
 20
115.8220206199236
 30
0.0
 10
157.0802483865545
 20
116.5866922717114
 30
0.0
 10
157.0587723398858
 20
117.3382149186205
 30
0.0
  0
SPLINE
  5
505
330
1B
100
AcDbEntity
 67
     1
  8
SLD-0_0
  6
SLD-実線
 62
   179
370
    25
100
AcDbSpline
210
0.0
220
0.0
230
1.0
 70
     8
 71
     3
 72
     9
 73
     5
 74
     0
 42
0.000000001
 43
0.00000001
 40
0.0
 40
0.0
 40
0.0
 40
0.0
 40
0.0701860289385357
 40
1.0
 40
1.0
 40
1.0
 40
1.0
 10
255.3080711194712
 20
191.9456259341337
 30
0.0
 10
255.3096339729745
 20
191.8909130076653
 30
0.0
 10
255.3319012749846
 20
191.1113714479567
 30
0.0
 10
255.3537302781717
 20
190.3474598188629
 30
0.0
 10
255.3740271903093
 20
189.6371641134751
 30
0.0
  0
SPLINE
  5
506
330
1B
100
AcDbEntity
 67
     1
  8
SLD-0_0
  6
SLD-実線
 62
   179
370
    25
100
AcDbSpline
210
0.0
220
0.0
230
1.0
 70
     8
 71
     3
 72
     9
 73
     5
 74
     0
 42
0.000000001
 43
0.00000001
 40
0.0
 40
0.0
 40
0.0
 40
0.0
 40
0.0701861846472106
 40
1.0
 40
1.0
 40
1.0
 40
1.0
 10
263.3048078668534
 20
192.1741021759248
 30
0.0
 10
263.3032437236009
 20
192.2288151011863
 30
0.0
 10
263.2809580948802
 20
193.0083549142782
 30
0.0
 10
263.2591392276294
 20
193.7722655795373
 30
0.0
 10
263.2388517434242
 20
194.4825602697906
 30
0.0
  0
SPLINE
  5
507
330
1B
100
AcDbEntity
 67
     1
  8
SLD-0_0
  6
SLD-実線
 62
   179
370
    25
100
AcDbSpline
210
0.0
220
0.0
230
1.0
 70
     8
 71
     3
 72
     9
 73
     5
 74
     0
 42
0.000000001
 43
0.00000001
 40
0.0
 40
0.0
 40
0.0
 40
0.0
 40
0.0701859915390143
 40
1.0
 40
1.0
 40
1.0
 40
1.0
 10
257.4061887728778
 20
188.5400551876905
 30
0.0
 10
257.4543532912187
 20
188.514052880413
 30
0.0
 10
258.1405944810168
 20
188.1435757138527
 30
0.0
 10
258.8130730115868
 20
187.7805198834562
 30
0.0
 10
259.4383529697
 20
187.4429454865
 30
0.0
  0
SPLINE
  5
508
330
1B
100
AcDbEntity
 67
     1
  8
SLD-0_0
  6
SLD-実線
 62
   179
370
    25
100
AcDbSpline
210
0.0
220
0.0
230
1.0
 70
     8
 71
     3
 72
     9
 73
     5
 74
     0
 42
0.000000001
 43
0.00000001
 40
0.0
 40
0.0
 40
0.0
 40
0.0
 40
0.0701846883062029
 40
1.0
 40
1.0
 40
1.0
 40
1.0
 10
261.2066883265643
 20
195.5796718777116
 30
0.0
 10
261.1585250598885
 20
195.6056742012358
 30
0.0
 10
260.4722889614159
 20
195.9761584785276
 30
0.0
 10
259.7998095108575
 20
196.339210337925
 30
0.0
 10
259.1745278209289
 20
196.6767815157317
 30
0.0
  0
SPLINE
  5
509
330
1B
100
AcDbEntity
 67
     1
  8
SLD-0_0
  6
SLD-実線
 62
   179
370
    25
100
AcDbSpline
210
0.0
220
0.0
230
1.0
 70
     8
 71
     3
 72
     9
 73
     5
 74
     0
 42
0.000000001
 43
0.00000001
 40
0.0
 40
0.0
 40
0.0
 40
0.0
 40
0.0171947686768552
 40
1.0
 40
1.0
 40
1.0
 40
1.0
 10
257.2083213014173
 20
195.465431965222
 30
0.0
 10
257.1969145038593
 20
195.4584041052335
 30
0.0
 10
256.53352683216
 20
195.049683283191
 30
0.0
 10
255.8822214631076
 20
194.648434830194
 30
0.0
 10
255.2421151392141
 20
194.2540857515281
 30
0.0
  0
SPLINE
  5
50A
330
1B
100
AcDbEntity
 67
     1
  8
SLD-0_0
  6
SLD-実線
 62
   179
370
    25
100
AcDbSpline
210
0.0
220
0.0
230
1.0
 70
     8
 71
     3
 72
     9
 73
     5
 74
     0
 42
0.000000001
 43
0.00000001
 40
0.0
 40
0.0
 40
0.0
 40
0.0
 40
0.0171947456278909
 40
1.0
 40
1.0
 40
1.0
 40
1.0
 10
261.4045576549115
 20
188.6542939938097
 30
0.0
 10
261.4159644427361
 20
188.6613218695852
 30
0.0
 10
262.0793524376226
 20
189.0700441576332
 30
0.0
 10
262.7306586786007
 20
189.4712932240671
 30
0.0
 10
263.3707658744397
 20
189.8656429148703
 30
0.0
  0
SPLINE
  5
50B
330
1B
100
AcDbEntity
 67
     1
  8
SLD-0_0
  6
SLD-実線
 62
   179
370
    25
100
AcDbSpline
210
0.0
220
0.0
230
1.0
 70
     8
 71
     3
 72
     9
 73
     5
 74
     0
 42
0.000000001
 43
0.00000001
 40
0.0
 40
0.0
 40
0.0
 40
0.0
 40
0.0701860743934865
 40
0.9999999999999999
 40
0.9999999999999999
 40
0.9999999999999999
 40
0.9999999999999999
 10
174.1937063254365
 20
191.9456251548395
 30
0.0
 10
174.195270458234
 20
191.8909122294073
 30
0.0
 10
174.2175559730047
 20
191.1113711893219
 30
0.0
 10
174.2393746729245
 20
190.3474592666286
 30
0.0
 10
174.2596620039486
 20
189.6371633229716
 30
0.0
  0
SPLINE
  5
50C
330
1B
100
AcDbEntity
 67
     1
  8
SLD-0_0
  6
SLD-実線
 62
   179
370
    25
100
AcDbSpline
210
0.0
220
0.0
230
1.0
 70
     8
 71
     3
 72
     9
 73
     5
 74
     0
 42
0.000000001
 43
0.00000001
 40
0.0
 40
0.0
 40
0.0
 40
0.0
 40
0.0171957170447379
 40
1.0
 40
1.0
 40
1.0
 40
1.0
 10
180.0923255113328
 20
195.5796707973886
 30
0.0
 10
180.0805349815403
 20
195.5860355082807
 30
0.0
 10
179.3948683261831
 20
195.9561690058005
 30
0.0
 10
178.7217276998054
 20
196.3196003117239
 30
0.0
 10
178.0601622091702
 20
196.6767821557456
 30
0.0
  0
SPLINE
  5
50D
330
1B
100
AcDbEntity
 67
     1
  8
SLD-0_0
  6
SLD-実線
 62
   179
370
    25
100
AcDbSpline
210
0.0
220
0.0
230
1.0
 70
     8
 71
     3
 72
     9
 73
     5
 74
     0
 42
0.000000001
 43
0.00000001
 40
0.0
 40
0.0
 40
0.0
 40
0.0
 40
0.0701861391921832
 40
1.0
 40
1.0
 40
1.0
 40
1.0
 10
182.1904430815294
 20
192.1741010917582
 30
0.0
 10
182.1888802300886
 20
192.2288140184138
 30
0.0
 10
182.166612992443
 20
193.008354356226
 30
0.0
 10
182.1447839967056
 20
193.772264732878
 30
0.0
 10
182.1244870939014
 20
194.482559189504
 30
0.0
  0
SPLINE
  5
50E
330
1B
100
AcDbEntity
 67
     1
  8
SLD-0_0
  6
SLD-実線
 62
   179
370
    25
100
AcDbSpline
210
0.0
220
0.0
230
1.0
 70
     8
 71
     3
 72
     9
 73
     5
 74
     0
 42
0.000000001
 43
0.00000001
 40
0.0
 40
0.0
 40
0.0
 40
0.0
 40
0.0701854850799447
 40
1.0
 40
1.0
 40
1.0
 40
1.0
 10
176.0939575239587
 20
195.4654326052359
 30
0.0
 10
176.0473571143981
 20
195.4367219921107
 30
0.0
 10
175.3833963323715
 20
195.0276543181825
 30
0.0
 10
174.7327390739746
 20
194.6268026612134
 30
0.0
 10
174.1277485108792
 20
194.2540849722338
 30
0.0
  0
SPLINE
  5
50F
330
1B
100
AcDbEntity
 67
     1
  8
SLD-0_0
  6
SLD-実線
 62
   179
370
    25
100
AcDbSpline
210
0.0
220
0.0
230
1.0
 70
     8
 71
     3
 72
     9
 73
     5
 74
     0
 42
0.000000001
 43
0.00000001
 40
0.0
 40
0.0
 40
0.0
 40
0.0
 40
0.0171943386645968
 40
0.9999999999999999
 40
0.9999999999999999
 40
0.9999999999999999
 40
0.9999999999999999
 10
176.2918254208172
 20
188.540054397187
 30
0.0
 10
176.3036147139036
 20
188.5336896961403
 30
0.0
 10
176.989264410373
 20
188.1635270995542
 30
0.0
 10
177.6624125331399
 20
187.8001119514536
 30
0.0
 10
178.3239863191124
 20
187.4429454864854
 30
0.0
  0
SPLINE
  5
510
330
1B
100
AcDbEntity
 67
     1
  8
SLD-0_0
  6
SLD-実線
 62
   179
370
    25
100
AcDbSpline
210
0.0
220
0.0
230
1.0
 70
     8
 71
     3
 72
     9
 73
     5
 74
     0
 42
0.000000001
 43
0.00000001
 40
0.0
 40
0.0
 40
0.0
 40
0.0
 40
0.0701847442858341
 40
1.0
 40
1.0
 40
1.0
 40
1.0
 10
180.2901928386115
 20
188.6542939938097
 30
0.0
 10
180.3367932507292
 20
188.6830033599697
 30
0.0
 10
181.0007610772401
 20
189.0920575846736
 30
0.0
 10
181.6514120926113
 20
189.4929173705552
 30
0.0
 10
182.2563973328494
 20
189.8656429148703
 30
0.0
  0
SPLINE
  5
511
330
1B
100
AcDbEntity
 67
     1
  8
SLD-0_0
  6
SLD-実線
 62
   179
370
    25
100
AcDbSpline
210
0.0
220
0.0
230
1.0
 70
     8
 71
     3
 72
     9
 73
     5
 74
     0
 42
0.000000001
 43
0.00000001
 40
0.0
 40
0.0
 40
0.0
 40
0.0
 40
0.0171961738127053
 40
1.0
 40
1.0
 40
1.0
 40
1.0
 10
216.6511409606235
 20
70.64326062701804
 30
0.0
 10
216.6397336208151
 20
70.63623152316657
 30
0.0
 10
215.976368622725
 20
70.22747176486158
 30
0.0
 10
215.3250506117267
 20
69.8262417323955
 30
0.0
 10
214.6849327784528
 20
69.43191132130657
 30
0.0
  0
SPLINE
  5
512
330
1B
100
AcDbEntity
 67
     1
  8
SLD-0_0
  6
SLD-実線
 62
   179
370
    25
100
AcDbSpline
210
0.0
220
0.0
230
1.0
 70
     8
 71
     3
 72
     9
 73
     5
 74
     0
 42
0.000000001
 43
0.00000001
 40
0.0
 40
0.0
 40
0.0
 40
0.0
 40
0.070185185657035
 40
1.0
 40
1.0
 40
1.0
 40
1.0
 10
216.8490072807668
 20
63.71788208121855
 30
0.0
 10
216.8971709737626
 20
63.69187975586078
 30
0.0
 10
217.5834082836021
 20
63.32139807779259
 30
0.0
 10
218.255887719998
 20
62.95834659306704
 30
0.0
 10
218.8811690623
 20
62.6207759442
 30
0.0
  0
SPLINE
  5
513
330
1B
100
AcDbEntity
 67
     1
  8
SLD-0_0
  6
SLD-実線
 62
   179
370
    25
100
AcDbSpline
210
0.0
220
0.0
230
1.0
 70
     8
 71
     3
 72
     9
 73
     5
 74
     0
 42
0.000000001
 43
0.00000001
 40
0.0
 40
0.0
 40
0.0
 40
0.0
 40
0.0701861562339048
 40
1.0
 40
1.0
 40
1.0
 40
1.0
 10
214.7508887444875
 20
67.12345215964659
 30
0.0
 10
214.7524520913468
 20
67.06873923382761
 30
0.0
 10
214.7747263822214
 20
66.28919909721417
 30
0.0
 10
214.7965517332068
 20
65.52528861674311
 30
0.0
 10
214.8168452466982
 20
64.81499407660317
 30
0.0
  0
SPLINE
  5
514
330
1B
100
AcDbEntity
 67
     1
  8
SLD-0_0
  6
SLD-実線
 62
   179
370
    25
100
AcDbSpline
210
0.0
220
0.0
230
1.0
 70
     8
 71
     3
 72
     9
 73
     5
 74
     0
 42
0.000000001
 43
0.00000001
 40
0.0
 40
0.0
 40
0.0
 40
0.0
 40
0.0701829748841716
 40
1.0
 40
1.0
 40
1.0
 40
1.0
 10
222.7476254302952
 20
67.3519305565542
 30
0.0
 10
222.746062145922
 20
67.40664099811443
 30
0.0
 10
222.7237877356987
 20
68.18618107390249
 30
0.0
 10
222.7019638732959
 20
68.95009165453078
 30
0.0
 10
222.6816716744799
 20
69.66038871806506
 30
0.0
  0
SPLINE
  5
515
330
1B
100
AcDbEntity
 67
     1
  8
SLD-0_0
  6
SLD-実線
 62
   179
370
    25
100
AcDbSpline
210
0.0
220
0.0
230
1.0
 70
     8
 71
     3
 72
     9
 73
     5
 74
     0
 42
0.000000001
 43
0.00000001
 40
0.0
 40
0.0
 40
0.0
 40
0.0
 40
0.0171961738127053
 40
1.0
 40
1.0
 40
1.0
 40
1.0
 10
220.8473752467115
 20
63.83212138190973
 30
0.0
 10
220.8587825745772
 20
63.83915050514255
 30
0.0
 10
221.5221468781724
 20
64.24791139052236
 30
0.0
 10
222.1734642074691
 20
64.64914252959476
 30
0.0
 10
222.8135813707639
 20
65.0434740282606
 30
0.0
  0
SPLINE
  5
516
330
1B
100
AcDbEntity
 67
     1
  8
SLD-0_0
  6
SLD-実線
 62
   179
370
    25
100
AcDbSpline
210
0.0
220
0.0
230
1.0
 70
     8
 71
     3
 72
     9
 73
     5
 74
     0
 42
0.000000001
 43
0.00000001
 40
0.0
 40
0.0
 40
0.0
 40
0.0
 40
0.070185080860952
 40
1.0
 40
1.0
 40
1.0
 40
1.0
 10
220.6495096403718
 20
70.75749725639875
 30
0.0
 10
220.6013459278153
 20
70.78349954526836
 30
0.0
 10
219.9151073146282
 20
71.15398125663269
 30
0.0
 10
219.2426282303789
 20
71.517035898944
 30
0.0
 10
218.617347145035
 20
71.85460952182774
 30
0.0
  0
SPLINE
  5
517
330
1B
100
AcDbEntity
 67
     1
  8
SLD-0_0
  6
SLD-実線
 62
   179
370
    25
100
AcDbSpline
210
0.0
220
0.0
230
1.0
 70
     8
 71
     3
 72
     9
 73
     5
 74
     0
 42
0.000000001
 43
0.00000001
 40
0.0
 40
0.0
 40
0.0
 40
0.0
 40
0.070185343854586
 40
1.0
 40
1.0
 40
1.0
 40
1.0
 10
280.3737883789163
 20
114.8012791967361
 30
0.0
 10
280.3753511962255
 20
114.7465668906165
 30
0.0
 10
280.3976181998962
 20
113.967026560475
 30
0.0
 10
280.4194465650884
 20
113.2031161513999
 30
0.0
 10
280.4397428989639
 20
112.4928210570598
 30
0.0
  0
SPLINE
  5
518
330
1B
100
AcDbEntity
 67
     1
  8
SLD-0_0
  6
SLD-実線
 62
   179
370
    25
100
AcDbSpline
210
0.0
220
0.0
230
1.0
 70
     8
 71
     3
 72
     9
 73
     5
 74
     0
 42
0.000000001
 43
0.00000001
 40
0.0
 40
0.0
 40
0.0
 40
0.0
 40
0.0701846883062029
 40
1.0
 40
1.0
 40
1.0
 40
1.0
 10
282.4719053417325
 20
111.3957103133751
 30
0.0
 10
282.5200686025549
 20
111.3697079790091
 30
0.0
 10
283.2063046176289
 20
110.9992235472402
 30
0.0
 10
283.8787839864614
 20
110.6361715364624
 30
0.0
 10
284.5040656004
 20
110.2986002179
 30
0.0
  0
SPLINE
  5
519
330
1B
100
AcDbEntity
 67
     1
  8
SLD-0_0
  6
SLD-実線
 62
   179
370
    25
100
AcDbSpline
210
0.0
220
0.0
230
1.0
 70
     8
 71
     3
 72
     9
 73
     5
 74
     0
 42
0.000000001
 43
0.00000001
 40
0.0
 40
0.0
 40
0.0
 40
0.0
 40
0.0701846621073244
 40
1.0
 40
1.0
 40
1.0
 40
1.0
 10
286.2724092884225
 20
118.4353246317304
 30
0.0
 10
286.2242460336866
 20
118.4613269773064
 30
0.0
 10
285.5380098491744
 20
118.8318117070925
 30
0.0
 10
284.8655307216399
 20
119.1948647911502
 30
0.0
 10
284.2402493144456
 20
119.5324371171762
 30
0.0
  0
SPLINE
  5
51A
330
1B
100
AcDbEntity
 67
     1
  8
SLD-0_0
  6
SLD-実線
 62
   179
370
    25
100
AcDbSpline
210
0.0
220
0.0
230
1.0
 70
     8
 71
     3
 72
     9
 73
     5
 74
     0
 42
0.000000001
 43
0.00000001
 40
0.0
 40
0.0
 40
0.0
 40
0.0
 40
0.0171961023056334
 40
1.0
 40
1.0
 40
1.0
 40
1.0
 10
286.4702748711115
 20
111.5099487700097
 30
0.0
 10
286.4816829038797
 20
111.5169766410519
 30
0.0
 10
287.1450909579601
 20
111.925666407907
 30
0.0
 10
287.7963869001263
 20
112.32693215289
 30
0.0
 10
288.4364830906397
 20
112.7212976910703
 30
0.0
  0
SPLINE
  5
51B
330
1B
100
AcDbEntity
 67
     1
  8
SLD-0_0
  6
SLD-実線
 62
   179
370
    25
100
AcDbSpline
210
0.0
220
0.0
230
1.0
 70
     8
 71
     3
 72
     9
 73
     5
 74
     0
 42
0.000000001
 43
0.00000001
 40
0.0
 40
0.0
 40
0.0
 40
0.0
 40
0.0701852918783811
 40
1.0
 40
1.0
 40
1.0
 40
1.0
 10
288.3705251413766
 20
115.0297549107959
 30
0.0
 10
288.368962261448
 20
115.0844672150662
 30
0.0
 10
288.346694349087
 20
115.8640080961547
 30
0.0
 10
288.3248671219505
 20
116.6279191282805
 30
0.0
 10
288.3045718451214
 20
117.3382148416473
 30
0.0
  0
SPLINE
  5
51C
330
1B
100
AcDbEntity
 67
     1
  8
SLD-0_0
  6
SLD-実線
 62
   179
370
    25
100
AcDbSpline
210
0.0
220
0.0
230
1.0
 70
     8
 71
     3
 72
     9
 73
     5
 74
     0
 42
0.000000001
 43
0.00000001
 40
0.0
 40
0.0
 40
0.0
 40
0.0
 40
0.0171961023056334
 40
1.0
 40
1.0
 40
1.0
 40
1.0
 10
282.2740399298342
 20
118.3210876114665
 30
0.0
 10
282.262631896069
 20
118.3140597420425
 30
0.0
 10
281.5992237840204
 20
117.9053700692848
 30
0.0
 10
280.9479277849389
 20
117.5041044166813
 30
0.0
 10
280.3078315384889
 20
117.1097389692918
 30
0.0
  0
ELLIPSE
  5
51D
330
1B
100
AcDbEntity
 67
     1
  8
SLD-0_0
  6
SLD-実線
 62
   179
370
    25
100
AcDbEllipse
 10
166.3900738578
 20
569.8066860818
 30
0.0
 11
0.0
 21
5.0
 31
0.0
210
0.0
220
0.0
230
1.0
 40
0.9607344774
 41
4.712388980384725
 42
6.283185307179586
  0
ELLIPSE
  5
51E
330
1B
100
AcDbEntity
 67
     1
  8
SLD-0_0
  6
SLD-実線
 62
   179
370
    25
100
AcDbEllipse
 10
182.1084403721
 20
569.8066860818
 30
0.0
 11
0.0
 21
5.0
 31
0.0
210
0.0
220
0.0
230
1.0
 40
0.9607344774
 41
0.0
 42
1.570796326794897
  0
ELLIPSE
  5
51F
330
1B
100
AcDbEntity
 67
     1
  8
SLD-0_0
  6
SLD-実線
 62
   179
370
    25
100
AcDbEllipse
 10
183.2512975149
 20
569.8066860818
 30
0.0
 11
-5.002040400003324
 21
0.0
 31
0.0
210
0.0
220
0.0
230
1.0
 40
0.9995920865
 41
4.712388980384715
 42
6.283185307179586
  0
ELLIPSE
  5
520
330
1B
100
AcDbEntity
 67
     1
  8
SLD-0_0
  6
SLD-実線
 62
   179
370
    25
100
AcDbEllipse
 10
255.3900738578
 20
569.8066860818
 30
0.0
 11
0.0
 21
5.0
 31
0.0
210
0.0
220
0.0
230
1.0
 40
0.9607344774
 41
4.712388980384725
 42
6.283185307179586
  0
ELLIPSE
  5
521
330
1B
100
AcDbEntity
 67
     1
  8
SLD-0_0
  6
SLD-実線
 62
   179
370
    25
100
AcDbEllipse
 10
254.2472167149
 20
569.8066860818
 30
0.0
 11
-5.002040400003324
 21
0.0
 31
0.0
210
0.0
220
0.0
230
1.0
 40
0.9995920865
 41
3.141592653589543
 42
4.712388980384715
  0
ELLIPSE
  5
522
330
1B
100
AcDbEntity
 67
     1
  8
SLD-0_0
  6
SLD-実線
 62
   179
370
    25
100
AcDbEllipse
 10
271.1084403721
 20
569.8066860818
 30
0.0
 11
0.0
 21
5.0
 31
0.0
210
0.0
220
0.0
230
1.0
 40
0.9607344774
 41
0.0
 42
1.570796326794897
  0
ELLIPSE
  5
523
330
1B
100
AcDbEntity
 67
     1
  8
SLD-0_0
  6
SLD-実線
 62
   179
370
    25
100
AcDbEllipse
 10
272.0227260864
 20
569.8066860818
 30
0.0
 11
0.0
 21
5.0
 31
0.0
210
0.0
220
0.0
230
1.0
 40
0.9884899124
 41
0.0
 42
1.570796326794897
  0
ELLIPSE
  5
524
330
1B
100
AcDbEntity
 67
     1
  8
SLD-0_0
  6
SLD-実線
 62
   179
370
    25
100
AcDbEllipse
 10
183.0191262177
 20
332.9066860818
 30
0.0
 11
5.010366044860348
 21
0.0
 31
0.0
210
0.0
220
0.0
230
1.0
 40
0.9979310803
 41
3.141592653589793
 42
4.712388980384715
  0
ELLIPSE
  5
525
330
1B
100
AcDbEntity
 67
     1
  8
SLD-0_0
  6
SLD-実線
 62
   179
370
    25
100
AcDbEllipse
 10
254.4793880122
 20
332.9066860818
 30
0.0
 11
5.010366044860348
 21
0.0
 31
0.0
210
0.0
220
0.0
230
1.0
 40
0.9979310803
 41
4.712388980384715
 42
6.283185307179586
  0
ELLIPSE
  5
526
330
1B
100
AcDbEntity
 67
     1
  8
SLD-0_0
  6
SLD-実線
 62
   179
370
    25
100
AcDbEllipse
 10
272.0798689435
 20
332.9066860818
 30
0.0
 11
0.0
 21
5.0
 31
0.0
210
0.0
220
0.0
230
1.0
 40
0.9999184839
 41
1.570796326794897
 42
3.141592653589793
  0
ELLIPSE
  5
527
330
1B
100
AcDbEntity
 67
     1
  8
SLD-0_0
  6
SLD-実線
 62
   179
370
    25
100
AcDbEllipse
 10
207.4186447507
 20
340.408871202
 30
0.0
 11
-10.57364472703824
 21
10.95171047300533
 31
0.0
210
0.0
220
0.0
230
1.0
 40
0.130220657
 41
0.0034167464766973
 42
0.1340676909342021
  0
ELLIPSE
  5
528
330
1B
100
AcDbEntity
 67
     1
  8
SLD-0_0
  6
SLD-実線
 62
   179
370
    25
100
AcDbEllipse
 10
192.9208308025
 20
354.9066870127
 30
0.0
 11
0.8266601311241288
 21
1.995734100033133
 31
0.0
210
0.0
220
0.0
230
1.0
 40
0.1579343622
 41
4.777714452613436
 42
6.217859912800145
  0
ELLIPSE
  5
529
330
1B
100
AcDbEntity
 67
     1
  8
SLD-0_0
  6
SLD-実線
 62
   179
370
    25
100
AcDbEllipse
 10
230.0798693598
 20
340.408871202
 30
0.0
 11
10.57364472703805
 21
10.951710473005
 31
0.0
210
0.0
220
0.0
230
1.0
 40
0.130220657
 41
6.149117616245658
 42
6.279768560703147
  0
ELLIPSE
  5
52A
330
1B
100
AcDbEntity
 67
     1
  8
SLD-0_0
  6
SLD-実線
 62
   179
370
    25
100
AcDbEllipse
 10
244.577684928
 20
354.9066853933
 30
0.0
 11
-0.8266601311241573
 21
1.995734100033133
 31
0.0
210
0.0
220
0.0
230
1.0
 40
0.1579343622
 41
0.0653253943794713
 42
1.50547085456616
  0
ELLIPSE
  5
52B
330
1B
100
AcDbEntity
 67
     1
  8
SLD-0_0
  6
SLD-実線
 62
   179
370
    25
100
AcDbEllipse
 10
181.2504813549
 20
359.9066860818
 30
0.0
 11
3.001224240001989
 21
0.0
 31
0.0
210
0.0
220
0.0
230
1.0
 40
0.9995920865
 41
3.141590340923217
 42
4.712388980384713
  0
ELLIPSE
  5
52C
330
1B
100
AcDbEntity
 67
     1
  8
SLD-0_0
  6
SLD-実線
 62
   179
370
    25
100
AcDbEllipse
 10
256.2480328749
 20
359.9066860818
 30
0.0
 11
3.001224240001989
 21
0.0
 31
0.0
210
0.0
220
0.0
230
1.0
 40
0.9995920865
 41
4.712388980384723
 42
6.283187619846163
  0
ELLIPSE
  5
52D
330
1B
100
AcDbEntity
 67
     1
  8
SLD-0_0
  6
SLD-実線
 62
   179
370
    25
100
AcDbEllipse
 10
196.563423193
 20
351.2640927597
 30
0.0
 11
1.414213562373135
 21
1.414213562373106
 31
0.0
210
0.0
220
0.0
230
1.0
 40
0.0659857872
 41
4.843039924840699
 42
6.283173891587496
  0
ELLIPSE
  5
52E
330
1B
100
AcDbEntity
 67
     1
  8
SLD-0_0
  6
SLD-実線
 62
   179
370
    25
100
AcDbEllipse
 10
240.9350909175
 20
351.2640927597
 30
0.0
 11
1.414213562373078
 21
-1.414213562373106
 31
0.0
210
0.0
220
0.0
230
1.0
 40
0.0659857872
 41
3.141592653590915
 42
4.581738035928693
  0
ELLIPSE
  5
52F
330
1B
100
AcDbEntity
 67
     1
  8
SLD-0_0
  6
SLD-実線
 62
   179
370
    25
100
AcDbEllipse
 10
196.5634233122
 20
346.9066860818
 30
0.0
 11
0.0
 21
2.0
 31
0.0
210
0.0
220
0.0
230
1.0
 40
0.0929169013
 41
3.141590920760524
 42
4.712386727336155
  0
ELLIPSE
  5
530
330
1B
100
AcDbEntity
 67
     1
  8
SLD-0_0
  6
SLD-実線
 62
   179
370
    25
100
AcDbEllipse
 10
240.9350907983
 20
346.9066860818
 30
0.0
 11
0.0
 21
2.0
 31
0.0
210
0.0
220
0.0
230
1.0
 40
0.0929169013
 41
1.570798579843432
 42
3.14159438695772
  0
ENDSEC
  0
SECTION
  2
OBJECTS
  0
DICTIONARY
  5
C
330
0
100
AcDbDictionary
281
     1
  3
ACAD_GROUP
350
D
  3
ACAD_LAYOUT
350
1A
  3
ACAD_MLINESTYLE
350
17
  3
ACAD_PLOTSETTINGS
350
19
  3
ACAD_PLOTSTYLENAME
350
E
  3
ACAD_SCALELIST
350
47
  0
DICTIONARY
  5
D
102
{ACAD_REACTORS
330
C
102
}
330
C
100
AcDbDictionary
281
     1
  0
DICTIONARY
  5
1A
102
{ACAD_REACTORS
330
C
102
}
330
C
100
AcDbDictionary
281
     1
  3
Model
350
22
  3
SW_Model_2
350
1E
  0
DICTIONARY
  5
17
102
{ACAD_REACTORS
330
C
102
}
330
C
100
AcDbDictionary
281
     1
  3
Standard
350
18
  0
DICTIONARY
  5
19
102
{ACAD_REACTORS
330
C
102
}
330
C
100
AcDbDictionary
281
     1
  0
ACDBDICTIONARYWDFLT
  5
E
102
{ACAD_REACTORS
330
C
102
}
330
C
100
AcDbDictionary
281
     1
  3
Normal
350
F
100
AcDbDictionaryWithDefault
340
F
  0
DICTIONARY
  5
47
102
{ACAD_REACTORS
330
C
102
}
330
C
100
AcDbDictionary
281
     1
  3
A0
350
48
  3
A1
350
49
  3
A2
350
4A
  3
A3
350
4B
  3
A4
350
4C
  3
A5
350
4D
  3
A6
350
4E
  3
A7
350
4F
  3
A8
350
50
  3
A9
350
51
  3
B0
350
52
  3
B1
350
53
  3
B2
350
54
  3
B3
350
55
  3
B4
350
56
  3
B5
350
57
  3
B6
350
58
  3
B7
350
59
  3
B8
350
5A
  3
B9
350
5B
  3
C0
350
5C
  3
C1
350
5D
  3
C2
350
5E
  3
C3
350
5F
  3
C4
350
60
  3
C5
350
61
  3
C6
350
62
  3
C7
350
63
  3
C8
350
64
  3
C9
350
65
  3
D0
350
66
  3
D1
350
67
  3
D2
350
68
  0
LAYOUT
  5
22
102
{ACAD_REACTORS
330
1A
102
}
330
1A
100
AcDbPlotSettings
  1

  2
none_device
  4
Letter_(8.50_x_11.00_Inches)
  6

 40
6.35
 41
6.35
 42
6.35000508
 43
6.35000508
 44
215.9
 45
279.4
 46
0.0
 47
0.0
 48
0.0
 49
0.0
140
0.0
141
0.0
142
1.0
143
1.0
 70
  1712
 72
     1
 73
     0
 74
     0
  7

 75
     0
147
1.0
148
0.0
149
0.0
100
AcDbLayout
  1
Model
 70
     1
 71
     0
 10
0.0
 20
0.0
 11
2100.0
 21
1485.0
 12
0.0
 22
0.0
 32
0.0
 14
0.0
 24
0.0
 34
0.0
 15
420.0
 25
297.0
 35
0.0
146
0.0
 13
0.0
 23
0.0
 33
0.0
 16
1.0
 26
0.0
 36
0.0
 17
0.0
 27
1.0
 37
0.0
 76
     0
330
1F
331
29
  0
LAYOUT
  5
1E
102
{ACAD_REACTORS
330
1A
102
}
330
1A
100
AcDbPlotSettings
  1

  2
none_device
  4
ISO_A3_(420.00_x_297.00_MM)
  6

 40
7.5
 41
20.0
 42
7.5
 43
20.0
 44
420.0
 45
297.0
 46
0.0
 47
0.0
 48
0.0
 49
0.0
140
0.0
141
0.0
142
1.0
143
1.0
 70
  4832
 72
     1
 73
     0
 74
     1
  7

 75
     0
147
1.0
148
0.0
149
0.0
100
AcDbLayout
  1
SW_Model_2
 70
     1
 71
     1
 10
0.0
 20
0.0
 11
420.0
 21
297.0
 12
0.0
 22
0.0
 32
0.0
 14
0.0
 24
0.0
 34
0.0
 15
420.0
 25
297.0
 35
0.0
146
0.0
 13
0.0
 23
0.0
 33
0.0
 16
1.0
 26
0.0
 36
0.0
 17
0.0
 27
1.0
 37
0.0
 76
     0
330
1B
331
77
  0
MLINESTYLE
  5
18
102
{ACAD_REACTORS
330
17
102
}
330
17
100
AcDbMlineStyle
  2
Standard
 70
     0
  3

 62
   256
 51
90.0
 52
90.0
 71
     2
 49
0.5
 62
   256
  6
BYLAYER
 49
-0.5
 62
   256
  6
BYLAYER
  0
ACDBPLACEHOLDER
  5
F
102
{ACAD_REACTORS
330
E
102
}
330
E
  0
SCALE
  5
48
102
{ACAD_REACTORS
330
47
102
}
330
47
100
AcDbScale
 70
     0
300
1:1
140
1.0
141
1.0
290
     1
  0
SCALE
  5
49
102
{ACAD_REACTORS
330
47
102
}
330
47
100
AcDbScale
 70
     0
300
1:2
140
1.0
141
2.0
290
     0
  0
SCALE
  5
4A
102
{ACAD_REACTORS
330
47
102
}
330
47
100
AcDbScale
 70
     0
300
1:4
140
1.0
141
4.0
290
     0
  0
SCALE
  5
4B
102
{ACAD_REACTORS
330
47
102
}
330
47
100
AcDbScale
 70
     0
300
1:5
140
1.0
141
5.0
290
     0
  0
SCALE
  5
4C
102
{ACAD_REACTORS
330
47
102
}
330
47
100
AcDbScale
 70
     0
300
1:8
140
1.0
141
8.0
290
     0
  0
SCALE
  5
4D
102
{ACAD_REACTORS
330
47
102
}
330
47
100
AcDbScale
 70
     0
300
1:10
140
1.0
141
10.0
290
     0
  0
SCALE
  5
4E
102
{ACAD_REACTORS
330
47
102
}
330
47
100
AcDbScale
 70
     0
300
1:16
140
1.0
141
16.0
290
     0
  0
SCALE
  5
4F
102
{ACAD_REACTORS
330
47
102
}
330
47
100
AcDbScale
 70
     0
300
1:20
140
1.0
141
20.0
290
     0
  0
SCALE
  5
50
102
{ACAD_REACTORS
330
47
102
}
330
47
100
AcDbScale
 70
     0
300
1:30
140
1.0
141
30.0
290
     0
  0
SCALE
  5
51
102
{ACAD_REACTORS
330
47
102
}
330
47
100
AcDbScale
 70
     0
300
1:40
140
1.0
141
40.0
290
     0
  0
SCALE
  5
52
102
{ACAD_REACTORS
330
47
102
}
330
47
100
AcDbScale
 70
     0
300
1:50
140
1.0
141
50.0
290
     0
  0
SCALE
  5
53
102
{ACAD_REACTORS
330
47
102
}
330
47
100
AcDbScale
 70
     0
300
1:100
140
1.0
141
100.0
290
     0
  0
SCALE
  5
54
102
{ACAD_REACTORS
330
47
102
}
330
47
100
AcDbScale
 70
     0
300
2:1
140
2.0
141
1.0
290
     0
  0
SCALE
  5
55
102
{ACAD_REACTORS
330
47
102
}
330
47
100
AcDbScale
 70
     0
300
4:1
140
4.0
141
1.0
290
     0
  0
SCALE
  5
56
102
{ACAD_REACTORS
330
47
102
}
330
47
100
AcDbScale
 70
     0
300
8:1
140
8.0
141
1.0
290
     0
  0
SCALE
  5
57
102
{ACAD_REACTORS
330
47
102
}
330
47
100
AcDbScale
 70
     0
300
10:1
140
10.0
141
1.0
290
     0
  0
SCALE
  5
58
102
{ACAD_REACTORS
330
47
102
}
330
47
100
AcDbScale
 70
     0
300
100:1
140
100.0
141
1.0
290
     0
  0
SCALE
  5
59
102
{ACAD_REACTORS
330
47
102
}
330
47
100
AcDbScale
 70
     0
300
1/128" = 1'-0"
140
0.0078125
141
12.0
290
     0
  0
SCALE
  5
5A
102
{ACAD_REACTORS
330
47
102
}
330
47
100
AcDbScale
 70
     0
300
1/64" = 1'-0"
140
0.015625
141
12.0
290
     0
  0
SCALE
  5
5B
102
{ACAD_REACTORS
330
47
102
}
330
47
100
AcDbScale
 70
     0
300
1/32" = 1'-0"
140
0.03125
141
12.0
290
     0
  0
SCALE
  5
5C
102
{ACAD_REACTORS
330
47
102
}
330
47
100
AcDbScale
 70
     0
300
1/16" = 1'-0"
140
0.0625
141
12.0
290
     0
  0
SCALE
  5
5D
102
{ACAD_REACTORS
330
47
102
}
330
47
100
AcDbScale
 70
     0
300
3/32" = 1'-0"
140
0.09375
141
12.0
290
     0
  0
SCALE
  5
5E
102
{ACAD_REACTORS
330
47
102
}
330
47
100
AcDbScale
 70
     0
300
1/8" = 1'-0"
140
0.125
141
12.0
290
     0
  0
SCALE
  5
5F
102
{ACAD_REACTORS
330
47
102
}
330
47
100
AcDbScale
 70
     0
300
3/16" = 1'-0"
140
0.1875
141
12.0
290
     0
  0
SCALE
  5
60
102
{ACAD_REACTORS
330
47
102
}
330
47
100
AcDbScale
 70
     0
300
1/4" = 1'-0"
140
0.25
141
12.0
290
     0
  0
SCALE
  5
61
102
{ACAD_REACTORS
330
47
102
}
330
47
100
AcDbScale
 70
     0
300
3/8" = 1'-0"
140
0.375
141
12.0
290
     0
  0
SCALE
  5
62
102
{ACAD_REACTORS
330
47
102
}
330
47
100
AcDbScale
 70
     0
300
1/2" = 1'-0"
140
0.5
141
12.0
290
     0
  0
SCALE
  5
63
102
{ACAD_REACTORS
330
47
102
}
330
47
100
AcDbScale
 70
     0
300
3/4" = 1'-0"
140
0.75
141
12.0
290
     0
  0
SCALE
  5
64
102
{ACAD_REACTORS
330
47
102
}
330
47
100
AcDbScale
 70
     0
300
1" = 1'-0"
140
1.0
141
12.0
290
     0
  0
SCALE
  5
65
102
{ACAD_REACTORS
330
47
102
}
330
47
100
AcDbScale
 70
     0
300
1-1/2" = 1'-0"
140
1.5
141
12.0
290
     0
  0
SCALE
  5
66
102
{ACAD_REACTORS
330
47
102
}
330
47
100
AcDbScale
 70
     0
300
3" = 1'-0"
140
3.0
141
12.0
290
     0
  0
SCALE
  5
67
102
{ACAD_REACTORS
330
47
102
}
330
47
100
AcDbScale
 70
     0
300
6" = 1'-0"
140
6.0
141
12.0
290
     0
  0
SCALE
  5
68
102
{ACAD_REACTORS
330
47
102
}
330
47
100
AcDbScale
 70
     0
300
1'-0" = 1'-0"
140
12.0
141
12.0
290
     0
  0
ENDSEC
  0
EOF
