  0
SECTION
  2
HEADER
  9
$ACADVER
  1
AC1018
  9
$ACADMAINTVER
 70
     0
  9
$DWGCODEPAGE
  3
DOS932
  9
$INSBASE
 10
0.0
 20
0.0
 30
0.0
  9
$EXTMIN
 10
0.0
 20
0.0
 30
0.0
  9
$EXTMAX
 10
1189.0
 20
841.0
 30
0.0
  9
$LIMMIN
 10
0.0
 20
0.0
  9
$LIMMAX
 10
1189.0
 20
841.0
  9
$ORTHOMODE
 70
     0
  9
$REGENMODE
 70
     1
  9
$FILLMODE
 70
     1
  9
$QTEXTMODE
 70
     0
  9
$MIRRTEXT
 70
     1
  9
$LTSCALE
 40
1.0
  9
$ATTMODE
 70
     1
  9
$TEXTSIZE
 40
3.5
  9
$TRACEWID
 40
1.0
  9
$TEXTSTYLE
  7
Standard
  9
$CLAYER
  8
0
  9
$CELTYPE
  6
ByLayer
  9
$CECOLOR
 62
   256
  9
$CELTSCALE
 40
1.0
  9
$DISPSILH
 70
     0
  9
$DIMSCALE
 40
1.0
  9
$DIMASZ
 40
3.302
  9
$DIMEXO
 40
1.0
  9
$DIMDLI
 40
3.75
  9
$DIMRND
 40
0.0
  9
$DIMDLE
 40
0.0
  9
$DIMEXE
 40
1.0
  9
$DIMTP
 40
0.0
  9
$DIMTM
 40
0.0
  9
$DIMTXT
 40
3.5
  9
$DIMCEN
 40
2.5
  9
$DIMTSZ
 40
0.0
  9
$DIMTOL
 70
     0
  9
$DIMLIM
 70
     0
  9
$DIMTIH
 70
     1
  9
$DIMTOH
 70
     1
  9
$DIMSE1
 70
     0
  9
$DIMSE2
 70
     0
  9
$DIMTAD
 70
     1
  9
$DIMZIN
 70
     1
  9
$DIMBLK
  1

  9
$DIMASO
 70
     1
  9
$DIMSHO
 70
     1
  9
$DIMPOST
  1

  9
$DIMAPOST
  1

  9
$DIMALT
 70
     0
  9
$DIMALTD
 70
     3
  9
$DIMALTF
 40
0.0393700787
  9
$DIMLFAC
 40
1.0
  9
$DIMTOFL
 70
     1
  9
$DIMTVP
 40
0.0
  9
$DIMTIX
 70
     0
  9
$DIMSOXD
 70
     0
  9
$DIMSAH
 70
     0
  9
$DIMBLK1
  1

  9
$DIMBLK2
  1

  9
$DIMSTYLE
  2
ISO-25
  9
$DIMCLRD
 70
     0
  9
$DIMCLRE
 70
     0
  9
$DIMCLRT
 70
     0
  9
$DIMTFAC
 40
1.0
  9
$DIMGAP
 40
1.524
  9
$DIMJUST
 70
     0
  9
$DIMSD1
 70
     0
  9
$DIMSD2
 70
     0
  9
$DIMTOLJ
 70
     0
  9
$DIMTZIN
 70
     1
  9
$DIMALTZ
 70
     0
  9
$DIMALTTZ
 70
     0
  9
$DIMUPT
 70
     0
  9
$DIMDEC
 70
     0
  9
$DIMTDEC
 70
     4
  9
$DIMALTU
 70
     2
  9
$DIMALTTD
 70
     3
  9
$DIMTXSTY
  7
Standard
  9
$DIMAUNIT
 70
     0
  9
$DIMADEC
 70
     0
  9
$DIMALTRND
 40
0.0
  9
$DIMAZIN
 70
     0
  9
$DIMDSEP
 70
    44
  9
$DIMATFIT
 70
     3
  9
$DIMFRAC
 70
     0
  9
$DIMLDRBLK
  1

  9
$DIMLUNIT
 70
     2
  9
$DIMLWD
 70
    -2
  9
$DIMLWE
 70
    -2
  9
$DIMTMOVE
 70
     0
  9
$LUNITS
 70
     2
  9
$LUPREC
 70
     3
  9
$SKETCHINC
 40
1.0
  9
$FILLETRAD
 40
10.0
  9
$AUNITS
 70
     0
  9
$AUPREC
 70
     0
  9
$MENU
  1
.
  9
$ELEVATION
 40
0.0
  9
$PELEVATION
 40
0.0
  9
$THICKNESS
 40
0.0
  9
$LIMCHECK
 70
     0
  9
$CHAMFERA
 40
0.0
  9
$CHAMFERB
 40
0.0
  9
$CHAMFERC
 40
0.0
  9
$CHAMFERD
 40
0.0
  9
$SKPOLY
 70
     0
  9
$TDCREATE
 40
2460409.489353322
  9
$TDUCREATE
 40
2460409.114353322
  9
$TDUPDATE
 40
2460409.489353507
  9
$TDUUPDATE
 40
2460409.114353507
  9
$TDINDWG
 40
0.0000000116
  9
$TDUSRTIMER
 40
0.0000000116
  9
$USRTIMER
 70
     1
  9
$ANGBASE
 50
0.0
  9
$ANGDIR
 70
     0
  9
$PDMODE
 70
     0
  9
$PDSIZE
 40
-1.0
  9
$PLINEWID
 40
0.0
  9
$SPLFRAME
 70
     0
  9
$SPLINETYPE
 70
     6
  9
$SPLINESEGS
 70
     8
  9
$HANDSEED
  5
15B
  9
$SURFTAB1
 70
     6
  9
$SURFTAB2
 70
     6
  9
$SURFTYPE
 70
     6
  9
$SURFU
 70
     6
  9
$SURFV
 70
     6
  9
$UCSBASE
  2

  9
$UCSNAME
  2

  9
$UCSORG
 10
0.0
 20
0.0
 30
0.0
  9
$UCSXDIR
 10
1.0
 20
0.0
 30
0.0
  9
$UCSYDIR
 10
0.0
 20
1.0
 30
0.0
  9
$UCSORTHOREF
  2

  9
$UCSORTHOVIEW
 70
     0
  9
$UCSORGTOP
 10
0.0
 20
0.0
 30
0.0
  9
$UCSORGBOTTOM
 10
0.0
 20
0.0
 30
0.0
  9
$UCSORGLEFT
 10
0.0
 20
0.0
 30
0.0
  9
$UCSORGRIGHT
 10
0.0
 20
0.0
 30
0.0
  9
$UCSORGFRONT
 10
0.0
 20
0.0
 30
0.0
  9
$UCSORGBACK
 10
0.0
 20
0.0
 30
0.0
  9
$PUCSBASE
  2

  9
$PUCSNAME
  2

  9
$PUCSORG
 10
0.0
 20
0.0
 30
0.0
  9
$PUCSXDIR
 10
1.0
 20
0.0
 30
0.0
  9
$PUCSYDIR
 10
0.0
 20
1.0
 30
0.0
  9
$PUCSORTHOREF
  2

  9
$PUCSORTHOVIEW
 70
     0
  9
$PUCSORGTOP
 10
0.0
 20
0.0
 30
0.0
  9
$PUCSORGBOTTOM
 10
0.0
 20
0.0
 30
0.0
  9
$PUCSORGLEFT
 10
0.0
 20
0.0
 30
0.0
  9
$PUCSORGRIGHT
 10
0.0
 20
0.0
 30
0.0
  9
$PUCSORGFRONT
 10
0.0
 20
0.0
 30
0.0
  9
$PUCSORGBACK
 10
0.0
 20
0.0
 30
0.0
  9
$USERI1
 70
     0
  9
$USERI2
 70
     0
  9
$USERI3
 70
     0
  9
$USERI4
 70
     0
  9
$USERI5
 70
     0
  9
$USERR1
 40
0.0
  9
$USERR2
 40
0.0
  9
$USERR3
 40
0.0
  9
$USERR4
 40
0.0
  9
$USERR5
 40
0.0
  9
$WORLDVIEW
 70
     1
  9
$SHADEDGE
 70
     3
  9
$SHADEDIF
 70
    70
  9
$TILEMODE
 70
     1
  9
$MAXACTVP
 70
    64
  9
$PINSBASE
 10
0.0
 20
0.0
 30
0.0
  9
$PLIMCHECK
 70
     0
  9
$PEXTMIN
 10
1.0000000000E+20
 20
1.0000000000E+20
 30
1.0000000000E+20
  9
$PEXTMAX
 10
-1.0000000000E+20
 20
-1.0000000000E+20
 30
-1.0000000000E+20
  9
$PLIMMIN
 10
0.0
 20
0.0
  9
$PLIMMAX
 10
420.0
 20
297.0
  9
$UNITMODE
 70
     0
  9
$VISRETAIN
 70
     1
  9
$PLINEGEN
 70
     0
  9
$PSLTSCALE
 70
     1
  9
$TREEDEPTH
 70
  3020
  9
$CMLSTYLE
  2
Standard
  9
$CMLJUST
 70
     0
  9
$CMLSCALE
 40
20.0
  9
$PROXYGRAPHICS
 70
     1
  9
$MEASUREMENT
 70
     1
  9
$CELWEIGHT
370
    -1
  9
$ENDCAPS
280
     0
  9
$JOINSTYLE
280
     0
  9
$LWDISPLAY
290
     1
  9
$INSUNITS
 70
     4
  9
$HYPERLINKBASE
  1

  9
$STYLESHEET
  1

  9
$XEDIT
290
     1
  9
$CEPSNTYPE
380
     0
  9
$PSTYLEMODE
290
     1
  9
$FINGERPRINTGUID
  2
{3ca609e5-391d-4646-b72b-139738d3d9b3}
  9
$VERSIONGUID
  2
{FAEB1C32-E019-11D5-929B-00C0DF256EC4}
  9
$EXTNAMES
290
     1
  9
$PSVPSCALE
 40
0.0
  9
$OLESTARTUP
290
     0
  9
$SORTENTS
280
   127
  9
$INDEXCTL
280
     0
  9
$HIDETEXT
280
     1
  9
$XCLIPFRAME
290
     0
  9
$HALOGAP
280
     0
  9
$OBSCOLOR
 70
   257
  9
$OBSLTYPE
280
     0
  9
$INTERSECTIONDISPLAY
280
     0
  9
$INTERSECTIONCOLOR
 70
   257
  9
$DIMASSOC
280
     2
  9
$PROJECTNAME
  1

  0
ENDSEC
  0
SECTION
  2
CLASSES
  0
CLASS
  1
ACDBDICTIONARYWDFLT
  2
AcDbDictionaryWithDefault
  3
ObjectDBX Classes
 90
        0
 91
        3
280
     0
281
     0
  0
CLASS
  1
VISUALSTYLE
  2
AcDbVisualStyle
  3
ObjectDBX Classes
 90
     4095
 91
        3
280
     0
281
     0
  0
CLASS
  1
MATERIAL
  2
AcDbMaterial
  3
ObjectDBX Classes
 90
     1153
 91
        3
280
     0
281
     0
  0
CLASS
  1
SCALE
  2
AcDbScale
  3
ObjectDBX Classes
 90
     1153
 91
        3
280
     0
281
     0
  0
CLASS
  1
TABLESTYLE
  2
AcDbTableStyle
  3
ObjectDBX Classes
 90
     4095
 91
        3
280
     0
281
     0
  0
CLASS
  1
MLEADERSTYLE
  2
AcDbMLeaderStyle
  3
ACDB_MLEADERSTYLE_CLASS
 90
     4095
 91
        3
280
     0
281
     0
  0
CLASS
  1
SUN
  2
AcDbSun
  3
SCENEOE
 90
     1153
 91
        3
280
     0
281
     0
  0
CLASS
  1
DICTIONARYVAR
  2
AcDbDictionaryVar
  3
ObjectDBX Classes
 90
        0
 91
        3
280
     0
281
     0
  0
CLASS
  1
CELLSTYLEMAP
  2
AcDbCellStyleMap
  3
ObjectDBX Classes
 90
     1152
 91
        3
280
     0
281
     0
  0
ENDSEC
  0
SECTION
  2
TABLES
  0
TABLE
  2
VPORT
  5
8
330
0
100
AcDbSymbolTable
 70
     1
  0
VPORT
  5
29
330
8
100
AcDbSymbolTableRecord
100
AcDbViewportTableRecord
  2
*Active
 70
     0
 10
0.0
 20
0.0
 11
1.0
 21
1.0
 12
594.5
 22
420.5
 13
0.0
 23
0.0
 14
10.0
 24
10.0
 15
10.0
 25
10.0
 16
0.0
 26
0.0
 36
1.0
 17
0.0
 27
0.0
 37
0.0
 40
841.0
 41
1.4137931034
 42
50.0
 43
0.0
 44
0.0
 50
0.0
 51
0.0
 71
     0
 72
  2000
 73
     1
 74
     3
 75
     0
 76
     0
 77
     0
 78
     0
281
     0
 65
     1
110
0.0
120
0.0
130
0.0
111
1.0
121
0.0
131
0.0
112
0.0
122
1.0
132
0.0
 79
     0
146
0.0
  0
ENDTAB
  0
TABLE
  2
LTYPE
  5
5
330
0
100
AcDbSymbolTable
 70
     8
  0
LTYPE
  5
14
330
5
100
AcDbSymbolTableRecord
100
AcDbLinetypeTableRecord
  2
ByBlock
 70
     0
  3

 72
    65
 73
     0
 40
0.0
  0
LTYPE
  5
15
330
5
100
AcDbSymbolTableRecord
100
AcDbLinetypeTableRecord
  2
ByLayer
 70
     0
  3

 72
    65
 73
     0
 40
0.0
  0
LTYPE
  5
16
330
5
100
AcDbSymbolTableRecord
100
AcDbLinetypeTableRecord
  2
Continuous
 70
     0
  3
Solid line
 72
    65
 73
     0
 40
0.0
  0
LTYPE
  5
6E
330
5
100
AcDbSymbolTableRecord
100
AcDbLinetypeTableRecord
  2
SLD-実線
 70
     0
  3
SolidWorks Line Style
 72
    65
 73
     0
 40
0.0
  0
LTYPE
  5
6F
330
5
100
AcDbSymbolTableRecord
100
AcDbLinetypeTableRecord
  2
SLD-破線
 70
     0
  3
SolidWorks Line Style
 72
    65
 73
     2
 40
1.905
 49
1.27
 74
     0
 49
-0.635
 74
     0
  0
LTYPE
  5
70
330
5
100
AcDbSymbolTableRecord
100
AcDbLinetypeTableRecord
  2
SLD-2点鎖線
 70
     0
  3
SolidWorks Line Style
 72
    65
 73
     6
 40
12.7
 49
6.35
 74
     0
 49
-1.27
 74
     0
 49
1.27
 74
     0
 49
-1.27
 74
     0
 49
1.27
 74
     0
 49
-1.27
 74
     0
  0
LTYPE
  5
71
330
5
100
AcDbSymbolTableRecord
100
AcDbLinetypeTableRecord
  2
SLD-鎖線
 70
     0
  3
SolidWorks Line Style
 72
    65
 73
     4
 40
10.16
 49
6.35
 74
     0
 49
-1.27
 74
     0
 49
1.27
 74
     0
 49
-1.27
 74
     0
  0
LTYPE
  5
72
330
5
100
AcDbSymbolTableRecord
100
AcDbLinetypeTableRecord
  2
SLD-1点鎖線(中心線)
 70
     0
  3
SolidWorks Line Style
 72
    65
 73
     4
 40
34.29
 49
30.48
 74
     0
 49
-1.27
 74
     0
 49
1.27
 74
     0
 49
-1.27
 74
     0
  0
LTYPE
  5
73
330
5
100
AcDbSymbolTableRecord
100
AcDbLinetypeTableRecord
  2
SLD-点線
 70
     0
  3
SolidWorks Line Style
 72
    65
 73
     2
 40
0.635
 49
0.0
 74
     0
 49
-0.635
 74
     0
  0
LTYPE
  5
74
330
5
100
AcDbSymbolTableRecord
100
AcDbLinetypeTableRecord
  2
SLD-細-太鎖線(切断面)
 70
     0
  3
SolidWorks Line Style
 72
    65
 73
     4
 40
10.16
 49
6.35
 74
     0
 49
-1.27
 74
     0
 49
1.27
 74
     0
 49
-1.27
 74
     0
  0
ENDTAB
  0
TABLE
  2
LAYER
  5
2
330
0
100
AcDbSymbolTable
 70
     6
  0
LAYER
  5
10
330
2
100
AcDbSymbolTableRecord
100
AcDbLayerTableRecord
  2
0
 70
     0
 62
     7
  6
Continuous
370
    -3
390
F
  0
LAYER
  5
75
330
2
100
AcDbSymbolTableRecord
100
AcDbLayerTableRecord
  2
SLD-0_1
 70
     0
 62
     7
  6
Continuous
370
    -1
390
F
  0
LAYER
  5
76
330
2
100
AcDbSymbolTableRecord
100
AcDbLayerTableRecord
  2
SLD-0_0
 70
     0
 62
   179
  6
SLD-実線
370
    -3
390
F
  0
LAYER
  5
77
330
2
100
AcDbSymbolTableRecord
100
AcDbLayerTableRecord
  2
SLD-0
 70
     0
 62
   179
  6
SLD-実線
370
    -3
390
F
  0
LAYER
  5
78
330
2
100
AcDbSymbolTableRecord
100
AcDbLayerTableRecord
  2
100
 70
     0
 62
   179
  6
SLD-実線
370
    -3
390
F
  0
LAYER
  5
79
330
2
100
AcDbSymbolTableRecord
100
AcDbLayerTableRecord
  2
1
 70
     0
 62
   179
  6
SLD-実線
370
    -3
390
F
  0
ENDTAB
  0
TABLE
  2
STYLE
  5
3
330
0
100
AcDbSymbolTable
 70
     1
  0
STYLE
  5
11
330
3
100
AcDbSymbolTableRecord
100
AcDbTextStyleTableRecord
  2
Standard
 70
     0
 40
0.0
 41
1.0
 50
0.0
 71
     0
 42
3.5
  3
txt
  4
bigfont
  0
ENDTAB
  0
TABLE
  2
VIEW
  5
6
330
0
100
AcDbSymbolTable
 70
     0
  0
ENDTAB
  0
TABLE
  2
UCS
  5
7
330
0
100
AcDbSymbolTable
 70
     0
  0
ENDTAB
  0
TABLE
  2
APPID
  5
9
330
0
100
AcDbSymbolTable
 70
     2
  0
APPID
  5
12
330
9
100
AcDbSymbolTableRecord
100
AcDbRegAppTableRecord
  2
ACAD
 70
     0
  0
APPID
  5
153
330
9
100
AcDbSymbolTableRecord
100
AcDbRegAppTableRecord
  2
ACAD_MLEADERVER
 70
     0
  0
ENDTAB
  0
TABLE
  2
DIMSTYLE
  5
A
330
0
100
AcDbSymbolTable
 70
     1
100
AcDbDimStyleTable
  0
DIMSTYLE
105
27
330
A
100
AcDbSymbolTableRecord
100
AcDbDimStyleTableRecord
  2
ISO-25
 70
     0
 41
2.5
 42
0.625
 43
3.75
 44
1.25
 73
     0
 74
     0
 77
     1
 78
     8
140
2.5
141
2.5
143
0.0393700787
147
0.625
171
     3
172
     1
178
     0
271
     2
272
     2
274
     3
278
    44
283
     0
284
     8
340
11
  0
ENDTAB
  0
TABLE
  2
BLOCK_RECORD
  5
1
330
0
100
AcDbSymbolTable
 70
     1
  0
BLOCK_RECORD
  5
1F
330
1
100
AcDbSymbolTableRecord
100
AcDbBlockTableRecord
  2
*Model_Space
340
22
  0
BLOCK_RECORD
  5
1B
330
1
100
AcDbSymbolTableRecord
100
AcDbBlockTableRecord
  2
*Paper_Space
340
1E
  0
BLOCK_RECORD
  5
23
330
1
100
AcDbSymbolTableRecord
100
AcDbBlockTableRecord
  2
*Paper_Space0
340
26
  0
ENDTAB
  0
ENDSEC
  0
SECTION
  2
BLOCKS
  0
BLOCK
  5
20
330
1F
100
AcDbEntity
  8
0
100
AcDbBlockBegin
  2
*Model_Space
 70
     0
 10
0.0
 20
0.0
 30
0.0
  3
*Model_Space
  1

  0
ENDBLK
  5
21
330
1F
100
AcDbEntity
  8
0
100
AcDbBlockEnd
  0
BLOCK
  5
1C
330
1B
100
AcDbEntity
 67
     1
  8
0
100
AcDbBlockBegin
  2
*Paper_Space
 70
     0
 10
0.0
 20
0.0
 30
0.0
  3
*Paper_Space
  1

  0
ENDBLK
  5
1D
330
1B
100
AcDbEntity
 67
     1
  8
0
100
AcDbBlockEnd
  0
BLOCK
  5
24
330
23
100
AcDbEntity
  8
0
100
AcDbBlockBegin
  2
*Paper_Space0
 70
     0
 10
0.0
 20
0.0
 30
0.0
  3
*Paper_Space0
  1

  0
ENDBLK
  5
25
330
23
100
AcDbEntity
  8
0
100
AcDbBlockEnd
  0
ENDSEC
  0
SECTION
  2
ENTITIES
  0
LINE
  5
7A
330
1F
100
AcDbEntity
  8
SLD-0_0
  6
SLD-1点鎖線(中心線)
 62
   250
420
  1644836
370
    18
100
AcDbLine
 10
573.9645854137
 20
209.2595113506
 30
0.0
 11
561.5456374119
 21
221.6784553544
 31
0.0
  0
LINE
  5
7B
330
1F
100
AcDbEntity
  8
SLD-0_0
  6
SLD-実線
 62
   250
420
  1644836
370
    18
100
AcDbLine
 10
451.3195653829
 20
559.7462554379
 30
0.0
 11
451.3195653829
 21
548.5096634357
 31
0.0
  0
LINE
  5
7C
330
1F
100
AcDbEntity
  8
SLD-0_0
  6
SLD-実線
 62
   250
420
  1644836
370
    18
100
AcDbLine
 10
573.4972254137
 20
625.4909114541
 30
0.0
 11
574.0843694134
 21
625.4909114541
 31
0.0
  0
LINE
  5
7D
330
1F
100
AcDbEntity
  8
SLD-0_0
  6
SLD-実線
 62
   250
420
  1644836
370
    18
100
AcDbLine
 10
578.2761494903
 20
633.7031555185
 30
0.0
 11
578.8056694905
 21
614.287359514
 31
0.0
  0
LINE
  5
7E
330
1F
100
AcDbEntity
  8
SLD-0_0
  6
SLD-実線
 62
   250
420
  1644836
370
    18
100
AcDbLine
 10
485.6138198467
 20
313.3582876033
 30
0.0
 11
469.8658038422
 21
297.6102715988
 31
0.0
  0
LINE
  5
7F
330
1F
100
AcDbEntity
  8
SLD-0_0
  6
SLD-破線
 62
   250
420
  1644836
370
    18
100
AcDbLine
 10
475.7268813891
 20
253.6472153614
 30
0.0
 11
455.2268813859
 21
253.6472153614
 31
0.0
  0
LINE
  5
80
330
1F
100
AcDbEntity
  8
SLD-0_0
  6
SLD-実線
 62
   250
420
  1644836
370
    18
100
AcDbLine
 10
460.2268813859
 20
548.5096634357
 30
0.0
 11
460.1821053871
 21
547.5096634342
 31
0.0
  0
LINE
  5
81
330
1F
100
AcDbEntity
  8
SLD-0_0
  6
SLD-破線
 62
   250
420
  1644836
370
    18
100
AcDbLine
 10
574.2268814144
 20
532.0096634309
 30
0.0
 11
587.2268814189
 21
532.0096634309
 31
0.0
  0
LINE
  5
82
330
1F
100
AcDbEntity
  8
SLD-0_0
  6
SLD-実線
 62
   250
420
  1644836
370
    18
100
AcDbLine
 10
546.9268814069
 20
362.6618233897
 30
0.0
 11
521.2268814024
 21
362.6618233897
 31
0.0
  0
LINE
  5
83
330
1F
100
AcDbEntity
  8
SLD-0_0
  6
SLD-実線
 62
   250
420
  1644836
370
    18
100
AcDbLine
 10
495.5268813954
 20
362.6618233897
 30
0.0
 11
521.2268814024
 21
362.6618233897
 31
0.0
  0
LINE
  5
84
330
1F
100
AcDbEntity
  8
SLD-0_0
  6
SLD-1点鎖線(中心線)
 62
   250
420
  1644836
370
    18
100
AcDbLine
 10
521.2268814024
 20
646.76780746
 30
0.0
 11
521.2268814024
 21
462.6670314129
 31
0.0
  0
LINE
  5
85
330
1F
100
AcDbEntity
  8
SLD-0_0
  6
SLD-実線
 62
   250
420
  1644836
370
    18
100
AcDbLine
 10
466.0291251769
 20
635.6431632432
 30
0.0
 11
490.3007528718
 21
637.4410634905
 31
0.0
  0
LINE
  5
86
330
1F
100
AcDbEntity
  8
SLD-0_0
  6
SLD-実線
 62
   250
420
  1644836
370
    18
100
AcDbLine
 10
469.8658055035
 20
226.3841554344
 30
0.0
 11
485.6138215068
 21
210.6361394311
 31
0.0
  0
LINE
  5
87
330
1F
100
AcDbEntity
  8
SLD-0_0
  6
SLD-破線
 62
   250
420
  1644836
370
    18
100
AcDbLine
 10
574.2268814144
 20
254.4972153607
 30
0.0
 11
587.2268814189
 21
254.4972153607
 31
0.0
  0
LINE
  5
88
330
1F
100
AcDbEntity
  8
SLD-0_0
  6
SLD-実線
 62
   250
420
  1644836
370
    18
100
AcDbLine
 10
496.7268813957
 20
554.709663436
 30
0.0
 11
496.7268813957
 21
621.7644594531
 31
0.0
  0
LINE
  5
89
330
1F
100
AcDbEntity
  8
SLD-0_0
  6
SLD-1点鎖線(中心線)
 62
   250
420
  1644836
370
    18
100
AcDbLine
 10
497.8546013957
 20
546.8905874358
 30
0.0
 11
490.9773213937
 21
546.8905874358
 31
0.0
  0
LINE
  5
8A
330
1F
100
AcDbEntity
  8
SLD-0_0
  6
SLD-実線
 62
   250
420
  1644836
370
    18
100
AcDbLine
 10
546.2268814074
 20
468.5096634157
 30
0.0
 11
587.2268814189
 21
468.5096634157
 31
0.0
  0
LINE
  5
8B
330
1F
100
AcDbEntity
  8
SLD-0_0
  6
SLD-実線
 62
   250
420
  1644836
370
    18
100
AcDbLine
 10
475.641125391
 20
636.3551634568
 30
0.0
 11
475.641125391
 21
557.5096634367
 31
0.0
  0
LINE
  5
8C
330
1F
100
AcDbEntity
  8
SLD-0_0
  6
SLD-実線
 62
   250
420
  1644836
370
    18
100
AcDbLine
 10
582.2268814164
 20
548.5096634357
 30
0.0
 11
582.2268814164
 21
557.5096634367
 31
0.0
  0
LINE
  5
8D
330
1F
100
AcDbEntity
  8
SLD-0_0
  6
SLD-実線
 62
   250
420
  1644836
370
    18
100
AcDbLine
 10
568.4791054119
 20
625.4909114541
 30
0.0
 11
568.4791054119
 21
557.5096634367
 31
0.0
  0
LINE
  5
8E
330
1F
100
AcDbEntity
  8
SLD-0_0
  6
SLD-実線
 62
   250
420
  1644836
370
    18
100
AcDbLine
 10
551.2268811974
 20
638.4383312441
 30
0.0
 11
551.2268811974
 21
638.5096632452
 31
0.0
  0
LINE
  5
8F
330
1F
100
AcDbEntity
  8
SLD-0_0
  6
SLD-実線
 62
   250
420
  1644836
370
    18
100
AcDbLine
 10
587.2268804748
 20
286.9972145562
 30
0.0
 11
582.2268806297
 21
286.9972145562
 31
0.0
  0
LINE
  5
90
330
1F
100
AcDbEntity
  8
SLD-0_0
  6
SLD-実線
 62
   250
420
  1644836
370
    18
100
AcDbLine
 10
469.4678228671
 20
200.9972138446
 30
0.0
 11
496.2268798671
 21
200.9972138446
 31
0.0
  0
LINE
  5
91
330
1F
100
AcDbEntity
  8
SLD-0_0
  6
SLD-実線
 62
   250
420
  1644836
370
    18
100
AcDbLine
 10
455.2268813859
 20
547.5096634342
 30
0.0
 11
468.8865813893
 21
547.5096634342
 31
0.0
  0
LINE
  5
92
330
1F
100
AcDbEntity
  8
SLD-0_0
  6
SLD-破線
 62
   250
420
  1644836
370
    18
100
AcDbLine
 10
468.2268813879
 20
532.0096634309
 30
0.0
 11
455.2268813859
 21
532.0096634309
 31
0.0
  0
LINE
  5
93
330
1F
100
AcDbEntity
  8
SLD-0_0
  6
SLD-1点鎖線(中心線)
 62
   250
420
  1644836
370
    18
100
AcDbLine
 10
494.2268813944
 20
625.1802114532
 30
0.0
 11
494.2268813944
 21
632.8205194568
 31
0.0
  0
LINE
  5
94
330
1F
100
AcDbEntity
  8
SLD-0_0
  6
SLD-実線
 62
   250
420
  1644836
370
    18
100
AcDbLine
 10
554.2268814107
 20
367.5475313894
 30
0.0
 11
521.2268814037
 21
367.5475313894
 31
0.0
  0
LINE
  5
95
330
1F
100
AcDbEntity
  8
SLD-0_0
  6
SLD-実線
 62
   250
420
  1644836
370
    18
100
AcDbLine
 10
495.2155893929
 20
636.7871834575
 30
0.0
 11
546.215589407
 21
636.7871834575
 31
0.0
  0
LINE
  5
96
330
1F
100
AcDbEntity
  8
SLD-0_0
  6
SLD-実線
 62
   250
420
  1644836
370
    18
100
AcDbLine
 10
458.2078693863
 20
559.7462554379
 30
0.0
 11
458.2078693863
 21
548.5096634357
 31
0.0
  0
LINE
  5
97
330
1F
100
AcDbEntity
  8
SLD-0_0
  6
SLD-実線
 62
   250
420
  1644836
370
    18
100
AcDbLine
 10
482.3608253907
 20
636.8529194565
 30
0.0
 11
482.3608253907
 21
557.5096634367
 31
0.0
  0
LINE
  5
98
330
1F
100
AcDbEntity
  8
SLD-0_0
  6
SLD-実線
 62
   250
420
  1644836
370
    18
100
AcDbLine
 10
576.0843694139
 20
616.9202194515
 30
0.0
 11
576.0843694139
 21
623.4909114536
 31
0.0
  0
LINE
  5
99
330
1F
100
AcDbEntity
  8
SLD-0_0
  6
SLD-実線
 62
   250
420
  1644836
370
    18
100
AcDbLine
 10
580.7268814165
 20
616.2209914518
 30
0.0
 11
584.7427974182
 21
613.9023994519
 31
0.0
  0
LINE
  5
9A
330
1F
100
AcDbEntity
  8
SLD-0_0
  6
SLD-実線
 62
   250
420
  1644836
370
    18
100
AcDbLine
 10
556.8399414106
 20
313.3582873767
 30
0.0
 11
572.5879574151
 21
297.6102713722
 31
0.0
  0
LINE
  5
9B
330
1F
100
AcDbEntity
  8
SLD-0_0
  6
SLD-実線
 62
   250
420
  1644836
370
    18
100
AcDbLine
 10
546.2268804761
 20
322.9972147355
 30
0.0
 11
572.985937476
 21
322.9972147355
 31
0.0
  0
LINE
  5
9C
330
1F
100
AcDbEntity
  8
SLD-0_0
  6
SLD-破線
 62
   250
420
  1644836
370
    18
100
AcDbLine
 10
574.2268814144
 20
270.3472153649
 30
0.0
 11
587.2268814189
 21
270.3472153649
 31
0.0
  0
LINE
  5
9D
330
1F
100
AcDbEntity
  8
SLD-0_0
  6
SLD-実線
 62
   250
420
  1644836
370
    18
100
AcDbLine
 10
455.2268813859
 20
481.5096634177
 30
0.0
 11
587.2268814189
 21
481.5096634177
 31
0.0
  0
LINE
  5
9E
330
1F
100
AcDbEntity
  8
SLD-0_0
  6
SLD-実線
 62
   250
420
  1644836
370
    18
100
AcDbLine
 10
486.0268813936
 20
557.5096634367
 30
0.0
 11
460.2268813859
 21
557.5096634367
 31
0.0
  0
LINE
  5
9F
330
1F
100
AcDbEntity
  8
SLD-0_0
  6
SLD-1点鎖線(中心線)
 62
   250
420
  1644836
370
    18
100
AcDbLine
 10
576.4085980522
 20
317.1789320326
 30
0.0
 11
565.6134620479
 21
306.3837960283
 31
0.0
  0
LINE
  5
A0
330
1F
100
AcDbEntity
  8
SLD-0_0
  6
SLD-実線
 62
   250
420
  1644836
370
    18
100
AcDbLine
 10
548.972849408
 20
557.5096634367
 30
0.0
 11
582.2268814164
 21
557.5096634367
 31
0.0
  0
LINE
  5
A1
330
1F
100
AcDbEntity
  8
SLD-0_0
  6
SLD-実線
 62
   250
420
  1644836
370
    18
100
AcDbLine
 10
521.2268811912
 20
639.5096632454
 30
0.0
 11
550.2268811972
 21
639.5096632454
 31
0.0
  0
LINE
  5
A2
330
1F
100
AcDbEntity
  8
SLD-0_0
  6
SLD-実線
 62
   250
420
  1644836
370
    18
100
AcDbLine
 10
587.2268804816
 20
313.9587387262
 30
0.0
 11
587.2268804805
 21
210.0356907013
 31
0.0
  0
LINE
  5
A3
330
1F
100
AcDbEntity
  8
SLD-0_0
  6
SLD-実線
 62
   250
420
  1644836
370
    18
100
AcDbLine
 10
559.0268814106
 20
548.5096634357
 30
0.0
 11
558.0268814116
 21
481.5096634177
 31
0.0
  0
LINE
  5
A4
330
1F
100
AcDbEntity
  8
SLD-0_0
  6
SLD-破線
 62
   250
420
  1644836
370
    18
100
AcDbLine
 10
574.2268814144
 20
517.0096634284
 30
0.0
 11
587.2268814189
 21
517.0096634284
 31
0.0
  0
LINE
  5
A5
330
1F
100
AcDbEntity
  8
SLD-0_0
  6
SLD-実線
 62
   250
420
  1644836
370
    18
100
AcDbLine
 10
488.2268813942
 20
367.5475313894
 30
0.0
 11
521.2268814037
 21
367.5475313894
 31
0.0
  0
LINE
  5
A6
330
1F
100
AcDbEntity
  8
SLD-0_0
  6
SLD-実線
 62
   250
420
  1644836
370
    18
100
AcDbLine
 10
546.9268814069
 20
362.6618233897
 30
0.0
 11
546.9268814069
 21
327.9972153809
 31
0.0
  0
LINE
  5
A7
330
1F
100
AcDbEntity
  8
SLD-0_0
  6
SLD-実線
 62
   250
420
  1644836
370
    18
100
AcDbLine
 10
460.2268813859
 20
548.5096634357
 30
0.0
 11
460.2268813859
 21
557.5096634367
 31
0.0
  0
LINE
  5
A8
330
1F
100
AcDbEntity
  8
SLD-0_0
  6
SLD-実線
 62
   250
420
  1644836
370
    18
100
AcDbLine
 10
478.4695533917
 20
636.5646794564
 30
0.0
 11
478.4695533917
 21
557.5096634367
 31
0.0
  0
LINE
  5
A9
330
1F
100
AcDbEntity
  8
SLD-0_0
  6
SLD-実線
 62
   250
420
  1644836
370
    18
100
AcDbLine
 10
576.4647533475
 20
616.1353144061
 30
0.0
 11
579.974785479
 21
613.3644404965
 31
0.0
  0
LINE
  5
AA
330
1F
100
AcDbEntity
  8
SLD-0_0
  6
SLD-実線
 62
   250
420
  1644836
370
    18
100
AcDbLine
 10
563.9842094131
 20
636.5646794564
 30
0.0
 11
563.9842094131
 21
557.5096634367
 31
0.0
  0
LINE
  5
AB
330
1F
100
AcDbEntity
  8
SLD-0_0
  6
SLD-実線
 62
   250
420
  1644836
370
    18
100
AcDbLine
 10
582.2268794925
 20
210.238155537
 30
0.0
 11
582.2268794925
 21
236.9972155443
 31
0.0
  0
LINE
  5
AC
330
1F
100
AcDbEntity
  8
SLD-0_0
  6
SLD-破線
 62
   250
420
  1644836
370
    18
100
AcDbLine
 10
472.2588133901
 20
269.4972153657
 30
0.0
 11
455.2268813859
 21
269.4972153657
 31
0.0
  0
LINE
  5
AD
330
1F
100
AcDbEntity
  8
SLD-0_0
  6
SLD-破線
 62
   250
420
  1644836
370
    18
100
AcDbLine
 10
472.2588133901
 20
254.4972153607
 30
0.0
 11
455.2268813859
 21
254.4972153607
 31
0.0
  0
LINE
  5
AE
330
1F
100
AcDbEntity
  8
SLD-0_0
  6
SLD-1点鎖線(中心線)
 62
   250
420
  1644836
370
    18
100
AcDbLine
 10
442.2079093823
 20
524.5096634297
 30
0.0
 11
469.6538333879
 21
524.5096634297
 31
0.0
  0
LINE
  5
AF
330
1F
100
AcDbEntity
  8
SLD-0_0
  6
SLD-1点鎖線(中心線)
 62
   250
420
  1644836
370
    18
100
AcDbLine
 10
548.2268814079
 20
542.9571074339
 30
0.0
 11
548.2268814079
 21
550.5974154349
 31
0.0
  0
LINE
  5
B0
330
1F
100
AcDbEntity
  8
SLD-0_0
  6
SLD-1点鎖線(中心線)
 62
   250
420
  1644836
370
    18
100
AcDbLine
 10
502.6958333973
 20
344.1333633829
 30
0.0
 11
539.0445454063
 21
344.1333633829
 31
0.0
  0
LINE
  5
B1
330
1F
100
AcDbEntity
  8
SLD-0_0
  6
SLD-1点鎖線(中心線)
 62
   250
420
  1644836
370
    18
100
AcDbLine
 10
476.3315050716
 20
217.1018390439
 30
0.0
 11
464.9924010696
 21
205.7627350419
 31
0.0
  0
LINE
  5
B2
330
1F
100
AcDbEntity
  8
SLD-0_0
  6
SLD-実線
 62
   250
420
  1644836
370
    18
100
AcDbLine
 10
546.2268804761
 20
327.997214738
 30
0.0
 11
546.2268804761
 21
322.9972147355
 31
0.0
  0
LINE
  5
B3
330
1F
100
AcDbEntity
  8
SLD-0_0
  6
SLD-実線
 62
   250
420
  1644836
370
    18
100
AcDbLine
 10
483.4268813917
 20
548.5096634357
 30
0.0
 11
484.4268813932
 21
481.5096634177
 31
0.0
  0
LINE
  5
B4
330
1F
100
AcDbEntity
  8
SLD-0_0
  6
SLD-実線
 62
   250
420
  1644836
370
    18
100
AcDbLine
 10
556.402841411
 20
548.5096634357
 30
0.0
 11
591.1341974194
 21
548.5096634357
 31
0.0
  0
LINE
  5
B5
330
1F
100
AcDbEntity
  8
SLD-0_0
  6
SLD-実線
 62
   250
420
  1644836
370
    18
100
AcDbLine
 10
556.4268814112
 20
557.5096634367
 30
0.0
 11
582.2268814164
 21
557.5096634367
 31
0.0
  0
LINE
  5
B6
330
1F
100
AcDbEntity
  8
SLD-0_0
  6
SLD-実線
 62
   250
420
  1644836
370
    18
100
AcDbLine
 10
495.5268813954
 20
362.6618233897
 30
0.0
 11
495.5268813954
 21
327.9972153809
 31
0.0
  0
LINE
  5
B7
330
1F
100
AcDbEntity
  8
SLD-0_0
  6
SLD-実線
 62
   250
420
  1644836
370
    18
100
AcDbLine
 10
573.1884054141
 20
468.5096634157
 30
0.0
 11
573.1884054141
 21
481.5096634177
 31
0.0
  0
LINE
  5
B8
330
1F
100
AcDbEntity
  8
SLD-0_0
  6
SLD-実線
 62
   250
420
  1644836
370
    18
100
AcDbLine
 10
458.3592973842
 20
560.5096634387
 30
0.0
 11
451.4709973839
 21
560.5096634387
 31
0.0
  0
LINE
  5
B9
330
1F
100
AcDbEntity
  8
SLD-0_0
  6
SLD-実線
 62
   250
420
  1644836
370
    18
100
AcDbLine
 10
560.0929334111
 20
636.8529194565
 30
0.0
 11
560.0929334111
 21
557.5096634367
 31
0.0
  0
LINE
  5
BA
330
1F
100
AcDbEntity
  8
SLD-0_0
  6
SLD-実線
 62
   250
420
  1644836
370
    18
100
AcDbLine
 10
580.2268824802
 20
617.0870157143
 30
0.0
 11
580.2268818731
 21
623.5096637173
 31
0.0
  0
LINE
  5
BB
330
1F
100
AcDbEntity
  8
SLD-0_0
  6
SLD-実線
 62
   250
420
  1644836
370
    18
100
AcDbLine
 10
546.2268813074
 20
195.9972137114
 30
0.0
 11
546.2268813074
 21
200.9972137114
 31
0.0
  0
LINE
  5
BC
330
1F
100
AcDbEntity
  8
SLD-0_0
  6
SLD-破線
 62
   250
420
  1644836
370
    18
100
AcDbLine
 10
475.7268813891
 20
270.3472153649
 30
0.0
 11
455.2268813859
 21
270.3472153649
 31
0.0
  0
LINE
  5
BD
330
1F
100
AcDbEntity
  8
SLD-0_0
  6
SLD-破線
 62
   250
420
  1644836
370
    18
100
AcDbLine
 10
574.2268814144
 20
253.6472153614
 30
0.0
 11
587.2268814189
 21
253.6472153614
 31
0.0
  0
LINE
  5
BE
330
1F
100
AcDbEntity
  8
SLD-0_0
  6
SLD-実線
 62
   250
420
  1644836
370
    18
100
AcDbLine
 10
569.1268814138
 20
548.5096634357
 30
0.0
 11
573.5868814142
 21
481.5096634177
 31
0.0
  0
LINE
  5
BF
330
1F
100
AcDbEntity
  8
SLD-0_0
  6
SLD-破線
 62
   250
420
  1644836
370
    18
100
AcDbLine
 10
574.2268814144
 20
532.8596634302
 30
0.0
 11
587.2268814189
 21
532.8596634302
 31
0.0
  0
LINE
  5
C0
330
1F
100
AcDbEntity
  8
SLD-0_0
  6
SLD-実線
 62
   250
420
  1644836
370
    18
100
AcDbLine
 10
556.4268814126
 20
327.9972153797
 30
0.0
 11
556.4268814126
 21
365.3475313875
 31
0.0
  0
LINE
  5
C1
330
1F
100
AcDbEntity
  8
SLD-0_0
  6
SLD-実線
 62
   250
420
  1644836
370
    18
100
AcDbLine
 10
495.2155893942
 20
539.2973074333
 30
0.0
 11
546.2155894081
 21
539.2973074333
 31
0.0
  0
LINE
  5
C2
330
1F
100
AcDbEntity
  8
SLD-0_0
  6
SLD-1点鎖線(中心線)
 62
   250
420
  1644836
370
    18
100
AcDbLine
 10
574.239037415
 20
524.5096634297
 30
0.0
 11
591.7106814201
 21
524.5096634297
 31
0.0
  0
LINE
  5
C3
330
1F
100
AcDbEntity
  8
SLD-0_0
  6
SLD-実線
 62
   250
420
  1644836
370
    18
100
AcDbLine
 10
521.2268811912
 20
639.5096632454
 30
0.0
 11
492.2268811827
 21
639.5096632454
 31
0.0
  0
LINE
  5
C4
330
1F
100
AcDbEntity
  8
SLD-0_0
  6
SLD-実線
 62
   250
420
  1644836
370
    18
100
AcDbLine
 10
576.4246365808
 20
635.643162753
 30
0.0
 11
552.1530095082
 21
637.4410634905
 31
0.0
  0
LINE
  5
C5
330
1F
100
AcDbEntity
  8
SLD-0_0
  6
SLD-実線
 62
   250
420
  1644836
370
    18
100
AcDbLine
 10
582.2268806297
 20
313.7562715561
 30
0.0
 11
582.2268806297
 21
286.9972145562
 31
0.0
  0
LINE
  5
C6
330
1F
100
AcDbEntity
  8
SLD-0_0
  6
SLD-実線
 62
   250
420
  1644836
370
    18
100
AcDbLine
 10
455.2268813859
 20
547.5096634342
 30
0.0
 11
455.2268813859
 21
468.5096634157
 31
0.0
  0
LINE
  5
C7
330
1F
100
AcDbEntity
  8
SLD-0_0
  6
SLD-実線
 62
   250
420
  1644836
370
    18
100
AcDbLine
 10
468.9268813874
 20
548.5096634357
 30
0.0
 11
466.2268813874
 21
481.5096634177
 31
0.0
  0
LINE
  5
C8
330
1F
100
AcDbEntity
  8
SLD-0_0
  6
SLD-実線
 62
   250
420
  1644836
370
    18
100
AcDbLine
 10
540.726881408
 20
626.7644594544
 30
0.0
 11
501.7268813969
 21
626.7644594544
 31
0.0
  0
LINE
  5
C9
330
1F
100
AcDbEntity
  8
SLD-0_0
  6
SLD-1点鎖線(中心線)
 62
   250
420
  1644836
370
    18
100
AcDbLine
 10
481.3326653922
 20
301.8914273742
 30
0.0
 11
480.8020693922
 21
302.4220233742
 31
0.0
  0
LINE
  5
CA
330
1F
100
AcDbEntity
  8
SLD-0_0
  6
SLD-実線
 62
   250
420
  1644836
370
    18
100
AcDbLine
 10
521.2268814024
 20
637.5096634567
 30
0.0
 11
490.5977973927
 21
637.5096634567
 31
0.0
  0
LINE
  5
CB
330
1F
100
AcDbEntity
  8
SLD-0_0
  6
SLD-実線
 62
   250
420
  1644836
370
    18
100
AcDbLine
 10
461.7268844509
 20
616.2209882203
 30
0.0
 11
457.7109644512
 21
613.9023976251
 31
0.0
  0
LINE
  5
CC
330
1F
100
AcDbEntity
  8
SLD-0_0
  6
SLD-実線
 62
   250
420
  1644836
370
    18
100
AcDbLine
 10
573.4972254137
 20
625.4909114541
 30
0.0
 11
573.4972254137
 21
614.3461714525
 31
0.0
  0
LINE
  5
CD
330
1F
100
AcDbEntity
  8
SLD-0_0
  6
SLD-実線
 62
   250
420
  1644836
370
    18
100
AcDbLine
 10
585.2424134844
 20
613.0641594924
 30
0.0
 11
587.7103214849
 21
556.2808874763
 31
0.0
  0
LINE
  5
CE
330
1F
100
AcDbEntity
  8
SLD-0_0
  6
SLD-実線
 62
   250
420
  1644836
370
    18
100
AcDbLine
 10
469.2653564508
 20
195.997214698
 30
0.0
 11
573.1884044768
 21
195.997214698
 31
0.0
  0
LINE
  5
CF
330
1F
100
AcDbEntity
  8
SLD-0_0
  6
SLD-実線
 62
   250
420
  1644836
370
    18
100
AcDbLine
 10
460.2268802913
 20
313.7562717194
 30
0.0
 11
460.2268802913
 21
286.9972147195
 31
0.0
  0
LINE
  5
D0
330
1F
100
AcDbEntity
  8
SLD-0_0
  6
SLD-実線
 62
   250
420
  1644836
370
    18
100
AcDbLine
 10
473.3268813885
 20
548.5096634357
 30
0.0
 11
468.8668813881
 21
481.5096634177
 31
0.0
  0
LINE
  5
D1
330
1F
100
AcDbEntity
  8
SLD-0_0
  6
SLD-1点鎖線(中心線)
 62
   250
420
  1644836
370
    18
100
AcDbLine
 10
497.8546013957
 20
629.1136914551
 30
0.0
 11
490.9773213937
 21
629.1136914551
 31
0.0
  0
LINE
  5
D2
330
1F
100
AcDbEntity
  8
SLD-0_0
  6
SLD-実線
 62
   250
420
  1644836
370
    18
100
AcDbLine
 10
521.2268814024
 20
369.4972153907
 30
0.0
 11
498.7268813962
 21
369.4972153907
 31
0.0
  0
LINE
  5
D3
330
1F
100
AcDbEntity
  8
SLD-0_0
  6
SLD-実線
 62
   250
420
  1644836
370
    18
100
AcDbLine
 10
485.5155893911
 20
548.9973074363
 30
0.0
 11
485.5155893911
 21
627.0871834558
 31
0.0
  0
LINE
  5
D4
330
1F
100
AcDbEntity
  8
SLD-0_0
  6
SLD-実線
 62
   250
420
  1644836
370
    18
100
AcDbLine
 10
461.6231606657
 20
572.0400117176
 30
0.0
 11
451.8282446625
 21
561.078907714
 31
0.0
  0
LINE
  5
D5
330
1F
100
AcDbEntity
  8
SLD-0_0
  6
SLD-実線
 62
   250
420
  1644836
370
    18
100
AcDbLine
 10
464.1776126663
 20
633.7031557317
 30
0.0
 11
461.6231606657
 21
572.0400117176
 31
0.0
  0
LINE
  5
D6
330
1F
100
AcDbEntity
  8
SLD-0_0
  6
SLD-実線
 62
   250
420
  1644836
370
    18
100
AcDbLine
 10
569.2080494125
 20
625.4909114541
 30
0.0
 11
568.4791054119
 21
625.4909114541
 31
0.0
  0
LINE
  5
D7
330
1F
100
AcDbEntity
  8
SLD-0_0
  6
SLD-実線
 62
   250
420
  1644836
370
    18
100
AcDbLine
 10
591.1341974194
 20
560.5096634387
 30
0.0
 11
587.4744414166
 21
564.7666794382
 31
0.0
  0
LINE
  5
D8
330
1F
100
AcDbEntity
  8
SLD-0_0
  6
SLD-実線
 62
   250
420
  1644836
370
    18
100
AcDbLine
 10
572.5879555407
 20
226.3841553538
 30
0.0
 11
556.8399397911
 21
210.636139686
 31
0.0
  0
LINE
  5
D9
330
1F
100
AcDbEntity
  8
SLD-0_0
  6
SLD-実線
 62
   250
420
  1644836
370
    18
100
AcDbLine
 10
469.2653564514
 20
327.9972147305
 30
0.0
 11
573.1884044774
 21
327.9972147305
 31
0.0
  0
LINE
  5
DA
330
1F
100
AcDbEntity
  8
SLD-0_0
  6
SLD-1点鎖線(中心線)
 62
   250
420
  1644836
370
    18
100
AcDbLine
 10
521.2268814024
 20
372.7295513923
 30
0.0
 11
521.2268814024
 21
186.6312073439
 31
0.0
  0
LINE
  5
DB
330
1F
100
AcDbEntity
  8
SLD-0_0
  6
SLD-破線
 62
   250
420
  1644836
370
    18
100
AcDbLine
 10
468.2268813879
 20
516.1596634266
 30
0.0
 11
455.2268813859
 21
516.1596634266
 31
0.0
  0
LINE
  5
DC
330
1F
100
AcDbEntity
  8
SLD-0_0
  6
SLD-実線
 62
   250
420
  1644836
370
    18
100
AcDbLine
 10
545.7268814067
 20
554.709663436
 30
0.0
 11
545.7268814067
 21
621.7644594531
 31
0.0
  0
LINE
  5
DD
330
1F
100
AcDbEntity
  8
SLD-0_0
  6
SLD-実線
 62
   250
420
  1644836
370
    18
100
AcDbLine
 10
574.5759450076
 20
613.3615801064
 30
0.0
 11
571.5339018182
 21
616.138178795
 31
0.0
  0
LINE
  5
DE
330
1F
100
AcDbEntity
  8
SLD-0_0
  6
SLD-実線
 62
   250
420
  1644836
370
    18
100
AcDbLine
 10
460.2268811447
 20
210.2381552903
 30
0.0
 11
460.2268811447
 21
236.9972152976
 31
0.0
  0
LINE
  5
DF
330
1F
100
AcDbEntity
  8
SLD-0_0
  6
SLD-実線
 62
   250
420
  1644836
370
    18
100
AcDbLine
 10
582.2268814164
 20
548.5096634357
 30
0.0
 11
585.2268814184
 21
481.5096634177
 31
0.0
  0
LINE
  5
E0
330
1F
100
AcDbEntity
  8
SLD-0_0
  6
SLD-1点鎖線(中心線)
 62
   250
420
  1644836
370
    18
100
AcDbLine
 10
548.2268814079
 20
625.1802114532
 30
0.0
 11
548.2268814079
 21
632.8205194568
 31
0.0
  0
LINE
  5
E1
330
1F
100
AcDbEntity
  8
SLD-0_0
  6
SLD-1点鎖線(中心線)
 62
   250
420
  1644836
370
    18
100
AcDbLine
 10
551.8546014092
 20
546.8905874358
 30
0.0
 11
544.9773214072
 21
546.8905874358
 31
0.0
  0
LINE
  5
E2
330
1F
100
AcDbEntity
  8
SLD-0_0
  6
SLD-実線
 62
   250
420
  1644836
370
    18
100
AcDbLine
 10
469.2653573882
 20
468.5096634157
 30
0.0
 11
469.2653573882
 21
481.5096634177
 31
0.0
  0
LINE
  5
E3
330
1F
100
AcDbEntity
  8
SLD-0_0
  6
SLD-実線
 62
   250
420
  1644836
370
    18
100
AcDbLine
 10
462.2268844528
 20
617.087013625
 30
0.0
 11
462.2268844528
 21
623.5096616255
 31
0.0
  0
LINE
  5
E4
330
1F
100
AcDbEntity
  8
SLD-0_0
  6
SLD-実線
 62
   250
420
  1644836
370
    18
100
AcDbLine
 10
591.1341974194
 20
560.5096634387
 30
0.0
 11
591.1341974194
 21
548.5096634357
 31
0.0
  0
LINE
  5
E5
330
1F
100
AcDbEntity
  8
SLD-0_0
  6
SLD-1点鎖線(中心線)
 62
   250
420
  1644836
370
    18
100
AcDbLine
 10
610.3114414245
 20
261.9972153644
 30
0.0
 11
434.9343613792
 21
261.9972153644
 31
0.0
  0
LINE
  5
E6
330
1F
100
AcDbEntity
  8
SLD-0_0
  6
SLD-実線
 62
   250
420
  1644836
370
    18
100
AcDbLine
 10
496.2268798671
 20
195.9972140021
 30
0.0
 11
496.2268798671
 21
200.9972138446
 31
0.0
  0
LINE
  5
E7
330
1F
100
AcDbEntity
  8
SLD-0_0
  6
SLD-実線
 62
   250
420
  1644836
370
    18
100
AcDbLine
 10
546.2268813074
 20
200.9972137114
 30
0.0
 11
572.9859373142
 21
200.9972137114
 31
0.0
  0
LINE
  5
E8
330
1F
100
AcDbEntity
  8
SLD-0_0
  6
SLD-実線
 62
   250
420
  1644836
370
    18
100
AcDbLine
 10
582.461257417
 20
543.275291433
 30
0.0
 11
587.2268814189
 21
538.5096634332
 31
0.0
  0
LINE
  5
E9
330
1F
100
AcDbEntity
  8
SLD-0_0
  6
SLD-破線
 62
   250
420
  1644836
370
    18
100
AcDbLine
 10
468.2268813879
 20
532.8596634302
 30
0.0
 11
455.2268813859
 21
532.8596634302
 31
0.0
  0
LINE
  5
EA
330
1F
100
AcDbEntity
  8
SLD-0_0
  6
SLD-1点鎖線(中心線)
 62
   250
420
  1644836
370
    18
100
AcDbLine
 10
494.2268813944
 20
542.9571074339
 30
0.0
 11
494.2268813944
 21
550.5974154349
 31
0.0
  0
LINE
  5
EB
330
1F
100
AcDbEntity
  8
SLD-0_0
  6
SLD-実線
 62
   250
420
  1644836
370
    18
100
AcDbLine
 10
555.9155894099
 20
548.9973074351
 30
0.0
 11
555.9155894099
 21
627.0871834547
 31
0.0
  0
LINE
  5
EC
330
1F
100
AcDbEntity
  8
SLD-0_0
  6
SLD-実線
 62
   250
420
  1644836
370
    18
100
AcDbLine
 10
491.2268811837
 20
638.4383312453
 30
0.0
 11
491.2268811837
 21
638.5096632464
 31
0.0
  0
LINE
  5
ED
330
1F
100
AcDbEntity
  8
SLD-0_0
  6
SLD-実線
 62
   250
420
  1644836
370
    18
100
AcDbLine
 10
566.8126334134
 20
636.3551634568
 30
0.0
 11
566.8126334134
 21
557.5096634367
 31
0.0
  0
LINE
  5
EE
330
1F
100
AcDbEntity
  8
SLD-0_0
  6
SLD-実線
 62
   250
420
  1644836
370
    18
100
AcDbLine
 10
496.2268804576
 20
327.9972147312
 30
0.0
 11
496.2268804576
 21
322.9972148862
 31
0.0
  0
LINE
  5
EF
330
1F
100
AcDbEntity
  8
SLD-0_0
  6
SLD-破線
 62
   250
420
  1644836
370
    18
100
AcDbLine
 10
574.2268814144
 20
269.4972153657
 30
0.0
 11
587.2268814189
 21
269.4972153657
 31
0.0
  0
LINE
  5
F0
330
1F
100
AcDbEntity
  8
SLD-0_0
  6
SLD-1点鎖線(中心線)
 62
   250
420
  1644836
370
    18
100
AcDbLine
 10
511.2268813999
 20
528.5096634307
 30
0.0
 11
531.2268814049
 21
528.5096634307
 31
0.0
  0
LINE
  5
F1
330
1F
100
AcDbEntity
  8
SLD-0_0
  6
SLD-実線
 62
   250
420
  1644836
370
    18
100
AcDbLine
 10
463.2268813879
 20
548.5096634357
 30
0.0
 11
460.2268813859
 21
548.5096634357
 31
0.0
  0
LINE
  5
F2
330
1F
100
AcDbEntity
  8
SLD-0_0
  6
SLD-実線
 62
   250
420
  1644836
370
    18
100
AcDbLine
 10
486.0509173933
 20
548.5096634357
 30
0.0
 11
451.3195653829
 21
548.5096634357
 31
0.0
  0
LINE
  5
F3
330
1F
100
AcDbEntity
  8
SLD-0_0
  6
SLD-実線
 62
   250
420
  1644836
370
    18
100
AcDbLine
 10
458.2078693863
 20
547.5096634342
 30
0.0
 11
458.2078693863
 21
481.5096634177
 31
0.0
  0
LINE
  5
F4
330
1F
100
AcDbEntity
  8
SLD-0_0
  6
SLD-実線
 62
   250
420
  1644836
370
    18
100
AcDbLine
 10
457.2113493855
 20
613.0641594522
 30
0.0
 11
454.9746893859
 21
564.5999674399
 31
0.0
  0
LINE
  5
F5
330
1F
100
AcDbEntity
  8
SLD-0_0
  6
SLD-実線
 62
   250
420
  1644836
370
    18
100
AcDbLine
 10
571.208049413
 20
616.8767754515
 30
0.0
 11
571.208049413
 21
623.4909114536
 31
0.0
  0
LINE
  5
F6
330
1F
100
AcDbEntity
  8
SLD-0_0
  6
SLD-実線
 62
   250
420
  1644836
370
    18
100
AcDbLine
 10
582.2268830185
 20
552.5096626192
 30
0.0
 11
587.2107070209
 21
555.3870772149
 31
0.0
  0
LINE
  5
F7
330
1F
100
AcDbEntity
  8
SLD-0_0
  6
SLD-実線
 62
   250
420
  1644836
370
    18
100
AcDbLine
 10
455.2268804481
 20
313.9587387268
 30
0.0
 11
455.2268804481
 21
210.0356907008
 31
0.0
  0
LINE
  5
F8
330
1F
100
AcDbEntity
  8
SLD-0_0
  6
SLD-実線
 62
   250
420
  1644836
370
    18
100
AcDbLine
 10
460.2268802913
 20
286.9972147195
 30
0.0
 11
455.2268804488
 21
286.9972147195
 31
0.0
  0
LINE
  5
F9
330
1F
100
AcDbEntity
  8
SLD-0_0
  6
SLD-実線
 62
   250
420
  1644836
370
    18
100
AcDbLine
 10
582.2716574152
 20
547.5096634342
 30
0.0
 11
587.2268814189
 21
547.5096634342
 31
0.0
  0
LINE
  5
FA
330
1F
100
AcDbEntity
  8
SLD-0_0
  6
SLD-破線
 62
   250
420
  1644836
370
    18
100
AcDbLine
 10
574.2268814144
 20
516.1596634266
 30
0.0
 11
587.2268814189
 21
516.1596634266
 31
0.0
  0
LINE
  5
FB
330
1F
100
AcDbEntity
  8
SLD-0_0
  6
SLD-実線
 62
   250
420
  1644836
370
    18
100
AcDbLine
 10
521.2268814024
 20
369.4972153907
 30
0.0
 11
543.7268814061
 21
369.4972153907
 31
0.0
  0
LINE
  5
FC
330
1F
100
AcDbEntity
  8
SLD-0_0
  6
SLD-実線
 62
   250
420
  1644836
370
    18
100
AcDbLine
 10
468.9311486676
 20
572.5096637165
 30
0.0
 11
458.7165486651
 21
561.0789077134
 31
0.0
  0
LINE
  5
FD
330
1F
100
AcDbEntity
  8
SLD-0_0
  6
SLD-実線
 62
   250
420
  1644836
370
    18
100
AcDbLine
 10
574.9017974128
 20
612.62298345
 30
0.0
 11
574.9017974128
 21
557.5096634355
 31
0.0
  0
LINE
  5
FE
330
1F
100
AcDbEntity
  8
SLD-0_0
  6
SLD-実線
 62
   250
420
  1644836
370
    18
100
AcDbLine
 10
521.2268814024
 20
637.5096634567
 30
0.0
 11
551.8559614091
 21
637.5096634567
 31
0.0
  0
LINE
  5
FF
330
1F
100
AcDbEntity
  8
SLD-0_0
  6
SLD-実線
 62
   250
420
  1644836
370
    18
100
AcDbLine
 10
469.4678234576
 20
322.9972148862
 30
0.0
 11
496.2268804576
 21
322.9972148862
 31
0.0
  0
LINE
  5
100
330
1F
100
AcDbEntity
  8
SLD-0_0
  6
SLD-実線
 62
   250
420
  1644836
370
    18
100
AcDbLine
 10
587.226879495
 20
236.9972155443
 30
0.0
 11
582.2268794925
 21
236.9972155443
 31
0.0
  0
LINE
  5
101
330
1F
100
AcDbEntity
  8
SLD-0_0
  6
SLD-実線
 62
   250
420
  1644836
370
    18
100
AcDbLine
 10
455.2268813859
 20
468.5096634157
 30
0.0
 11
546.2268814074
 21
468.5096634157
 31
0.0
  0
LINE
  5
102
330
1F
100
AcDbEntity
  8
SLD-0_0
  6
SLD-破線
 62
   250
420
  1644836
370
    18
100
AcDbLine
 10
468.2268813879
 20
517.0096634284
 30
0.0
 11
455.2268813859
 21
517.0096634284
 31
0.0
  0
LINE
  5
103
330
1F
100
AcDbEntity
  8
SLD-0_0
  6
SLD-1点鎖線(中心線)
 62
   250
420
  1644836
370
    18
100
AcDbLine
 10
551.8546014092
 20
629.1136914551
 30
0.0
 11
544.9773214072
 21
629.1136914551
 31
0.0
  0
LINE
  5
104
330
1F
100
AcDbEntity
  8
SLD-0_0
  6
SLD-1点鎖線(中心線)
 62
   250
420
  1644836
370
    18
100
AcDbLine
 10
480.0949653911
 20
303.1291313732
 30
0.0
 11
469.5204893874
 21
313.7036073769
 31
0.0
  0
LINE
  5
105
330
1F
100
AcDbEntity
  8
SLD-0_0
  6
SLD-実線
 62
   250
420
  1644836
370
    18
100
AcDbLine
 10
580.3551694141
 20
557.5096634353
 30
0.0
 11
580.3551694141
 21
612.5795354493
 31
0.0
  0
LINE
  5
106
330
1F
100
AcDbEntity
  8
SLD-0_0
  6
SLD-実線
 62
   250
420
  1644836
370
    18
100
AcDbLine
 10
460.2268811447
 20
236.9972152976
 30
0.0
 11
455.2268811447
 21
236.9972152976
 31
0.0
  0
LINE
  5
107
330
1F
100
AcDbEntity
  8
SLD-0_0
  6
SLD-実線
 62
   250
420
  1644836
370
    18
100
AcDbLine
 10
587.2268814189
 20
547.5096634342
 30
0.0
 11
587.2268814189
 21
468.5096634157
 31
0.0
  0
LINE
  5
108
330
1F
100
AcDbEntity
  8
SLD-0_0
  6
SLD-実線
 62
   250
420
  1644836
370
    18
100
AcDbLine
 10
501.7268813957
 20
549.709663436
 30
0.0
 11
540.7268814068
 21
549.709663436
 31
0.0
  0
LINE
  5
109
330
1F
100
AcDbEntity
  8
SLD-0_0
  6
SLD-実線
 62
   250
420
  1644836
370
    18
100
AcDbLine
 10
486.0268813936
 20
327.9972153809
 30
0.0
 11
486.0268813936
 21
365.3475313888
 31
0.0
  0
CIRCLE
  5
10A
330
1F
100
AcDbEntity
  8
1
  6
SLD-実線
 62
   179
420
  2171202
370
    18
100
AcDbCircle
 10
2229.2266312
 20
12539.8181512
 30
0.0
 40
63.49999999999864
  0
ARC
  5
10B
330
1F
100
AcDbEntity
  8
SLD-0_0
  6
SLD-実線
 62
   250
420
  1644836
370
    18
100
AcDbCircle
 10
543.7268814061
 20
366.2972153899
 30
0.0
 40
3.200000000800003
100
AcDbArc
 50
22.999613
 51
90.0
  0
ARC
  5
10C
330
1F
100
AcDbEntity
  8
SLD-0_0
  6
SLD-実線
 62
   250
420
  1644836
370
    18
100
AcDbCircle
 10
572.2080494137
 20
616.8767754515
 30
0.0
 40
1.000000000727823
100
AcDbArc
 50
180.0
 51
227.6120090048
  0
ARC
  5
10D
330
1F
100
AcDbEntity
  8
SLD-0_0
  6
SLD-実線
 62
   250
420
  1644836
370
    18
100
AcDbCircle
 10
569.2080494125
 20
623.4909114536
 30
0.0
 40
2.000000000499995
100
AcDbArc
 50
0.0
 51
90.0
  0
ARC
  5
10E
330
1F
100
AcDbEntity
  8
SLD-0_0
  6
SLD-実線
 62
   250
420
  1644836
370
    18
100
AcDbCircle
 10
584.24279744
 20
613.0363714898
 30
0.0
 40
1.000002204660049
100
AcDbArc
 50
1.5923367305
 51
60.0000743719
  0
ARC
  5
10F
330
1F
100
AcDbEntity
  8
SLD-0_0
  6
SLD-実線
 62
   250
420
  1644836
370
    18
100
AcDbCircle
 10
521.2268804652
 20
261.9972147146
 30
0.0
 40
79.99999990746143
100
AcDbArc
 50
40.3149089145
 51
49.6850909265
  0
ARC
  5
110
330
1F
100
AcDbEntity
  8
SLD-0_0
  6
SLD-実線
 62
   250
420
  1644836
370
    18
100
AcDbCircle
 10
521.2268804652
 20
261.9972147146
 30
0.0
 40
80.00000055177905
100
AcDbArc
 50
310.31490853
 51
319.6850892828
  0
ARC
  5
111
330
1F
100
AcDbEntity
  8
SLD-0_0
  6
SLD-破線
 62
   250
420
  1644836
370
    18
100
AcDbCircle
 10
521.2268814024
 20
344.1333633829
 30
0.0
 40
11.0000000027502
100
AcDbArc
 50
207.834737
 51
332.165263
  0
ARC
  5
112
330
1F
100
AcDbEntity
  8
SLD-0_0
  6
SLD-実線
 62
   250
420
  1644836
370
    18
100
AcDbCircle
 10
492.2268811827
 20
638.5096632464
 30
0.0
 40
0.9999999989999537
100
AcDbArc
 50
90.0
 51
180.0
  0
ARC
  5
113
330
1F
100
AcDbEntity
  8
SLD-0_0
  6
SLD-実線
 62
   250
420
  1644836
370
    18
100
AcDbCircle
 10
540.7268814068
 20
554.709663436
 30
0.0
 40
4.999999999949978
100
AcDbArc
 50
270.0
 51
0.0
  0
ARC
  5
114
330
1F
100
AcDbEntity
  8
SLD-0_0
  6
SLD-実線
 62
   250
420
  1644836
370
    18
100
AcDbCircle
 10
453.3195649701
 20
559.7462554379
 30
0.0
 40
1.999999587169515
100
AcDbArc
 50
138.2158457453
 51
180.0
  0
ARC
  5
115
330
1F
100
AcDbEntity
  8
SLD-0_0
  6
SLD-実線
 62
   250
420
  1644836
370
    18
100
AcDbCircle
 10
490.2268811831
 20
638.4383312453
 30
0.0
 40
1.00000000058886
100
AcDbArc
 50
274.2363949796
 51
0.0
  0
ARC
  5
116
330
1F
100
AcDbEntity
  8
SLD-0_0
  6
SLD-1点鎖線(中心線)
 62
   250
420
  1644836
370
    18
100
AcDbCircle
 10
521.2268804652
 20
261.9972147146
 30
0.0
 40
58.00000001449996
100
AcDbArc
 50
265.05457
 51
274.94543
  0
ARC
  5
117
330
1F
100
AcDbEntity
  8
SLD-0_0
  6
SLD-1点鎖線(中心線)
 62
   250
420
  1644836
370
    18
100
AcDbCircle
 10
521.2268804652
 20
261.9972147146
 30
0.0
 40
58.0000000145002
100
AcDbArc
 50
85.05457
 51
94.94543
  0
ARC
  5
118
330
1F
100
AcDbEntity
  8
SLD-0_0
  6
SLD-実線
 62
   250
420
  1644836
370
    18
100
AcDbCircle
 10
521.2268804652
 20
261.9972147146
 30
0.0
 40
80.00000093491457
100
AcDbArc
 50
220.314910716
 51
229.6850909992
  0
ARC
  5
119
330
1F
100
AcDbEntity
  8
SLD-0_0
  6
SLD-実線
 62
   250
420
  1644836
370
    18
100
AcDbCircle
 10
521.2268814024
 20
344.1333633829
 30
0.0
 40
11.0000000027502
100
AcDbArc
 50
332.165263
 51
207.834737
  0
ARC
  5
11A
330
1F
100
AcDbEntity
  8
SLD-0_0
  6
SLD-実線
 62
   250
420
  1644836
370
    18
100
AcDbCircle
 10
521.2268804652
 20
261.9972147146
 30
0.0
 40
83.99999988151693
100
AcDbArc
 50
218.2132105802
 51
231.7867894193
  0
ARC
  5
11B
330
1F
100
AcDbEntity
  8
SLD-0_0
  6
SLD-実線
 62
   250
420
  1644836
370
    18
100
AcDbCircle
 10
521.2268804652
 20
261.9972147146
 30
0.0
 40
80.00000002029107
100
AcDbArc
 50
130.3149090019
 51
139.6850910007
  0
ARC
  5
11C
330
1F
100
AcDbEntity
  8
SLD-0_0
  6
SLD-1点鎖線(中心線)
 62
   250
420
  1644836
370
    18
100
AcDbCircle
 10
521.2268804652
 20
261.9972147146
 30
0.0
 40
66.0000000165
100
AcDbArc
 50
306.285258
 51
323.714742
  0
ARC
  5
11D
330
1F
100
AcDbEntity
  8
SLD-0_0
  6
SLD-実線
 62
   250
420
  1644836
370
    18
100
AcDbCircle
 10
550.2268811972
 20
638.5096632452
 30
0.0
 40
1.000000000199975
100
AcDbArc
 50
0.0
 51
90.0
  0
CIRCLE
  5
11E
330
1F
100
AcDbEntity
  8
SLD-0_0
  6
SLD-実線
 62
   250
420
  1644836
370
    18
100
AcDbCircle
 10
521.2268814024
 20
203.9972153499
 30
0.0
 40
2.750000000687578
  0
CIRCLE
  5
11F
330
1F
100
AcDbEntity
  8
SLD-0_0
  6
SLD-実線
 62
   250
420
  1644836
370
    18
100
AcDbCircle
 10
567.8959294129
 20
215.3281673514
 30
0.0
 40
3.500000000875048
  0
ARC
  5
120
330
1F
100
AcDbEntity
  8
SLD-0_0
  6
SLD-実線
 62
   250
420
  1644836
370
    18
100
AcDbCircle
 10
460.2078689744
 20
559.7462554379
 30
0.0
 40
1.999999588100025
100
AcDbArc
 50
138.2158457925
 51
180.0
  0
CIRCLE
  5
121
330
1F
100
AcDbEntity
  8
SLD-0_0
  6
SLD-実線
 62
   250
420
  1644836
370
    18
100
AcDbCircle
 10
521.2268804652
 20
261.9972147146
 30
0.0
 40
12.50000000310888
  0
CIRCLE
  5
122
330
1F
100
AcDbEntity
  8
SLD-0_0
  6
SLD-実線
 62
   250
420
  1644836
370
    18
100
AcDbCircle
 10
463.2268813879
 20
261.9972153644
 30
0.0
 40
2.750000000687407
  0
ARC
  5
123
330
1F
100
AcDbEntity
  8
SLD-0_0
  6
SLD-実線
 62
   250
420
  1644836
370
    18
100
AcDbCircle
 10
579.3551694129
 20
612.5795354493
 30
0.0
 40
1.000000001191438
100
AcDbArc
 50
0.0
 51
51.7118970565
  0
ARC
  5
124
330
1F
100
AcDbEntity
  8
SLD-0_0
  6
SLD-実線
 62
   250
420
  1644836
370
    18
100
AcDbCircle
 10
521.2268804652
 20
261.9972147146
 30
0.0
 40
29.50000000737516
100
AcDbArc
 50
79.174844
 51
103.953743
  0
ARC
  5
125
330
1F
100
AcDbEntity
  8
SLD-0_0
  6
SLD-1点鎖線(中心線)
 62
   250
420
  1644836
370
    18
100
AcDbCircle
 10
521.2268804652
 20
261.9972147146
 30
0.0
 40
66.00000001650018
100
AcDbArc
 50
126.285258
 51
143.714742
  0
ARC
  5
126
330
1F
100
AcDbEntity
  8
SLD-0_0
  6
SLD-実線
 62
   250
420
  1644836
370
    18
100
AcDbCircle
 10
521.2268804652
 20
261.9972147146
 30
0.0
 40
42.50000001062515
100
AcDbArc
 50
151.234647
 51
46.005816
  0
ARC
  5
127
330
1F
100
AcDbEntity
  8
SLD-0_0
  6
SLD-実線
 62
   250
420
  1644836
370
    18
100
AcDbCircle
 10
495.2155893942
 20
548.9973074363
 30
0.0
 40
9.70000000304998
100
AcDbArc
 50
180.0
 51
270.0
  0
ARC
  5
128
330
1F
100
AcDbEntity
  8
SLD-0_0
  6
SLD-実線
 62
   250
420
  1644836
370
    18
100
AcDbCircle
 10
546.2155894081
 20
548.9973074351
 30
0.0
 40
9.700000001800163
100
AcDbArc
 50
270.0
 51
0.0
  0
ARC
  5
129
330
1F
100
AcDbEntity
  8
SLD-0_0
  6
SLD-1点鎖線(中心線)
 62
   250
420
  1644836
370
    18
100
AcDbCircle
 10
521.2268804652
 20
261.9972147146
 30
0.0
 40
58.00000001450002
100
AcDbArc
 50
355.05457
 51
4.94543
  0
ARC
  5
12A
330
1F
100
AcDbEntity
  8
SLD-0_0
  6
SLD-1点鎖線(中心線)
 62
   250
420
  1644836
370
    18
100
AcDbCircle
 10
521.2268804652
 20
261.9972147146
 30
0.0
 40
58.00000001450002
100
AcDbArc
 50
175.05457
 51
184.94543
  0
ARC
  5
12B
330
1F
100
AcDbEntity
  8
SLD-0_0
  6
SLD-実線
 62
   250
420
  1644836
370
    18
100
AcDbCircle
 10
521.2268804652
 20
261.9972147146
 30
0.0
 40
29.50000000737508
100
AcDbArc
 50
153.770729
 51
43.481194
  0
ARC
  5
12C
330
1F
100
AcDbEntity
  8
SLD-0_0
  6
SLD-実線
 62
   250
420
  1644836
370
    18
100
AcDbCircle
 10
488.2268813942
 20
365.3475313888
 30
0.0
 40
2.200000000599971
100
AcDbArc
 50
90.0
 51
180.0
  0
ARC
  5
12D
330
1F
100
AcDbEntity
  8
SLD-0_0
  6
SLD-実線
 62
   250
420
  1644836
370
    18
100
AcDbCircle
 10
546.2155894094
 20
627.087183457
 30
0.0
 40
9.700000000500154
100
AcDbArc
 50
359.9999999858
 51
90.0000000148
  0
ARC
  5
12E
330
1F
100
AcDbEntity
  8
SLD-0_0
  6
SLD-実線
 62
   250
420
  1644836
370
    18
100
AcDbCircle
 10
586.7107065085
 20
556.2531035064
 30
0.0
 40
1.000001024998611
100
AcDbArc
 50
299.9999999939
 51
1.5921074637
  0
ARC
  5
12F
330
1F
100
AcDbEntity
  8
SLD-0_0
  6
SLD-実線
 62
   250
420
  1644836
370
    18
100
AcDbCircle
 10
521.2268804652
 20
261.9972147146
 30
0.0
 40
83.99999987957332
100
AcDbArc
 50
38.2132105793
 51
51.7867894201
  0
ARC
  5
130
330
1F
100
AcDbEntity
  8
SLD-0_0
  6
SLD-実線
 62
   250
420
  1644836
370
    18
100
AcDbCircle
 10
501.7268813957
 20
554.709663436
 30
0.0
 40
4.999999999950091
100
AcDbArc
 50
180.0
 51
270.0
  0
ARC
  5
131
330
1F
100
AcDbEntity
  8
SLD-0_0
  6
SLD-実線
 62
   250
420
  1644836
370
    18
100
AcDbCircle
 10
495.2155893929
 20
627.0871834558
 30
0.0
 40
9.700000001750027
100
AcDbArc
 50
90.0
 51
180.0
  0
ARC
  5
132
330
1F
100
AcDbEntity
  8
SLD-0_0
  6
SLD-実線
 62
   250
420
  1644836
370
    18
100
AcDbCircle
 10
466.1768691312
 20
633.6486278522
 30
0.0
 40
1.99999992550888
100
AcDbArc
 50
94.2364117124
 51
178.4376976714
  0
CIRCLE
  5
133
330
1F
100
AcDbEntity
  8
SLD-0_0
  6
SLD-実線
 62
   250
420
  1644836
370
    18
100
AcDbCircle
 10
521.2268814024
 20
319.9972153789
 30
0.0
 40
2.750000000687578
  0
ARC
  5
134
330
1F
100
AcDbEntity
  8
SLD-0_0
  6
SLD-実線
 62
   250
420
  1644836
370
    18
100
AcDbCircle
 10
574.0843694134
 20
623.4909114536
 30
0.0
 40
2.000000000499995
100
AcDbArc
 50
0.0
 51
90.0
  0
ARC
  5
135
330
1F
100
AcDbEntity
  8
SLD-0_0
  6
SLD-実線
 62
   250
420
  1644836
370
    18
100
AcDbCircle
 10
581.2268815671
 20
617.0870157143
 30
0.0
 40
0.99999908693453
100
AcDbArc
 50
180.0
 51
239.9999598269
  0
ARC
  5
136
330
1F
100
AcDbEntity
  8
SLD-0_0
  6
SLD-実線
 62
   250
420
  1644836
370
    18
100
AcDbCircle
 10
521.2268804652
 20
261.9972147146
 30
0.0
 40
62.50000010011071
100
AcDbArc
 50
145.263098511
 51
214.7369041618
  0
ARC
  5
137
330
1F
100
AcDbEntity
  8
SLD-0_0
  6
SLD-実線
 62
   250
420
  1644836
370
    18
100
AcDbCircle
 10
521.2268804652
 20
261.9972147146
 30
0.0
 40
62.50000018119545
100
AcDbArc
 50
235.2630962487
 51
304.7369041613
  0
ARC
  5
138
330
1F
100
AcDbEntity
  8
SLD-0_0
  6
SLD-実線
 62
   250
420
  1644836
370
    18
100
AcDbCircle
 10
501.7268813969
 20
621.7644594531
 30
0.0
 40
5.000000001249987
100
AcDbArc
 50
90.0
 51
180.0
  0
ARC
  5
139
330
1F
100
AcDbEntity
  8
SLD-0_0
  6
SLD-実線
 62
   250
420
  1644836
370
    18
100
AcDbCircle
 10
576.2768932232
 20
633.6486275126
 30
0.0
 40
1.999999731234797
100
AcDbArc
 50
1.5623061028
 51
85.7636050164
  0
ARC
  5
13A
330
1F
100
AcDbEntity
  8
SLD-0_0
  6
SLD-実線
 62
   250
420
  1644836
370
    18
100
AcDbCircle
 10
521.2268804652
 20
261.9972147146
 30
0.0
 40
42.50000001062531
100
AcDbArc
 50
78.904249
 51
116.640157
  0
ARC
  5
13B
330
1F
100
AcDbEntity
  8
SLD-0_0
  6
SLD-実線
 62
   250
420
  1644836
370
    18
100
AcDbCircle
 10
577.0843694141
 20
616.9202194515
 30
0.0
 40
1.000000000170758
100
AcDbArc
 50
180.0
 51
231.7118969656
  0
ARC
  5
13C
330
1F
100
AcDbEntity
  8
SLD-0_0
  6
SLD-実線
 62
   250
420
  1644836
370
    18
100
AcDbCircle
 10
573.9017974121
 20
612.62298345
 30
0.0
 40
1.000000000690875
100
AcDbArc
 50
0.0
 51
47.6120090009
  0
ARC
  5
13D
330
1F
100
AcDbEntity
  8
SLD-0_0
  6
SLD-実線
 62
   250
420
  1644836
370
    18
100
AcDbCircle
 10
521.2268804652
 20
261.9972147146
 30
0.0
 40
83.99999987982413
100
AcDbArc
 50
308.2132105793
 51
321.7867894193
  0
CIRCLE
  5
13E
330
1F
100
AcDbEntity
  8
SLD-0_0
  6
SLD-破線
 62
   250
420
  1644836
370
    18
100
AcDbCircle
 10
521.2268814024
 20
528.5096634307
 30
0.0
 40
4.000000000999876
  0
ARC
  5
13F
330
1F
100
AcDbEntity
  8
SLD-0_0
  6
SLD-実線
 62
   250
420
  1644836
370
    18
100
AcDbCircle
 10
554.2268814107
 20
365.3475313875
 30
0.0
 40
2.200000001850071
100
AcDbArc
 50
0.0
 51
90.0
  0
ARC
  5
140
330
1F
100
AcDbEntity
  8
SLD-0_0
  6
SLD-実線
 62
   250
420
  1644836
370
    18
100
AcDbCircle
 10
458.2109634275
 20
613.036371394
 30
0.0
 40
1.000000204599086
100
AcDbArc
 50
119.9999255036
 51
178.407656897
  0
ARC
  5
141
330
1F
100
AcDbEntity
  8
SLD-0_0
  6
SLD-実線
 62
   250
420
  1644836
370
    18
100
AcDbCircle
 10
521.2268804652
 20
261.9972147146
 30
0.0
 40
62.49999915918723
100
AcDbArc
 50
55.2630933825
 51
124.7369062529
  0
ARC
  5
142
330
1F
100
AcDbEntity
  8
SLD-0_0
  6
SLD-実線
 62
   250
420
  1644836
370
    18
100
AcDbCircle
 10
540.7268814054
 20
621.7644594531
 30
0.0
 40
5.0000000012501
100
AcDbArc
 50
360.0
 51
89.9999999714
  0
ARC
  5
143
330
1F
100
AcDbEntity
  8
SLD-0_0
  6
SLD-実線
 62
   250
420
  1644836
370
    18
100
AcDbCircle
 10
464.2268844533
 20
623.5096616255
 30
0.0
 40
2.000000000500037
100
AcDbArc
 50
101.253011
 51
180.0
  0
ARC
  5
144
330
1F
100
AcDbEntity
  8
SLD-0_0
  6
SLD-実線
 62
   250
420
  1644836
370
    18
100
AcDbCircle
 10
461.226884453
 20
617.087013625
 30
0.0
 40
0.9999999997722284
100
AcDbArc
 50
299.9999998696
 51
0.0
  0
CIRCLE
  5
145
330
1F
100
AcDbEntity
  8
SLD-0_0
  6
SLD-実線
 62
   250
420
  1644836
370
    18
100
AcDbCircle
 10
579.2268814169
 20
261.9972153644
 30
0.0
 40
2.750000000687578
  0
ARC
  5
146
330
1F
100
AcDbEntity
  8
SLD-0_0
  6
SLD-実線
 62
   250
420
  1644836
370
    18
100
AcDbCircle
 10
521.2268804652
 20
261.9972147146
 30
0.0
 40
83.99999988054512
100
AcDbArc
 50
128.2132105807
 51
141.7867894206
  0
CIRCLE
  5
147
330
1F
100
AcDbEntity
  8
SLD-0_0
  6
SLD-実線
 62
   250
420
  1644836
370
    18
100
AcDbCircle
 10
474.5578333894
 20
308.6662593744
 30
0.0
 40
3.500000000874877
  0
ARC
  5
148
330
1F
100
AcDbEntity
  8
SLD-0_0
  6
SLD-実線
 62
   250
420
  1644836
370
    18
100
AcDbCircle
 10
578.2268818726
 20
623.5096637173
 30
0.0
 40
2.000000000500033
100
AcDbArc
 50
0.0
 51
82.14773
  0
ARC
  5
149
330
1F
100
AcDbEntity
  8
SLD-0_0
  6
SLD-実線
 62
   250
420
  1644836
370
    18
100
AcDbCircle
 10
552.2268811968
 20
638.4383312441
 30
0.0
 40
0.9999999993867732
100
AcDbArc
 50
180.0
 51
265.7636050211
  0
ARC
  5
14A
330
1F
100
AcDbEntity
  8
SLD-0_0
  6
SLD-実線
 62
   250
420
  1644836
370
    18
100
AcDbCircle
 10
521.2268804652
 20
261.9972147146
 30
0.0
 40
62.50000023959198
100
AcDbArc
 50
325.2630958368
 51
34.7369011475
  0
ARC
  5
14B
330
1F
100
AcDbEntity
  8
SLD-0_0
  6
SLD-実線
 62
   250
420
  1644836
370
    18
100
AcDbCircle
 10
498.7268813962
 20
366.2972153899
 30
0.0
 40
3.200000000800003
100
AcDbArc
 50
90.0
 51
157.000387
  0
CIRCLE
  5
14C
330
1F
100
AcDbEntity
  8
SLD-0_0
 62
     7
370
    18
100
AcDbCircle
 10
567.1888213769
 20
307.9591553572
 30
0.0
 40
3.500000000000028
  0
CIRCLE
  5
14D
330
1F
100
AcDbEntity
  8
SLD-0_0
 62
     7
370
    18
100
AcDbCircle
 10
475.2649398266
 20
216.0352737989
 30
0.0
 40
3.500000000000036
  0
ENDSEC
  0
SECTION
  2
OBJECTS
  0
DICTIONARY
  5
C
330
0
100
AcDbDictionary
281
     1
  3
ACAD_DETAILVIEWSTYLE
350
157
  3
ACAD_GROUP
350
D
  3
ACAD_LAYOUT
350
1A
  3
ACAD_MATERIAL
350
43
  3
ACAD_MLEADERSTYLE
350
6B
  3
ACAD_MLINESTYLE
350
17
  3
ACAD_PLOTSETTINGS
350
19
  3
ACAD_PLOTSTYLENAME
350
E
  3
ACAD_SCALELIST
350
47
  3
ACAD_SECTIONVIEWSTYLE
350
158
  3
ACAD_TABLESTYLE
350
69
  3
ACDB_RECOMPOSE_DATA
350
154
  3
AcDbVariableDictionary
350
14E
  0
DICTIONARY
  5
157
102
{ACAD_REACTORS
330
C
102
}
330
C
100
AcDbDictionary
281
     1
  0
DICTIONARY
  5
D
102
{ACAD_REACTORS
330
C
102
}
330
C
100
AcDbDictionary
281
     1
  0
DICTIONARY
  5
1A
102
{ACAD_REACTORS
330
C
102
}
330
C
100
AcDbDictionary
281
     1
  3
Layout1
350
1E
  3
Layout2
350
26
  3
Model
350
22
  0
DICTIONARY
  5
43
102
{ACAD_REACTORS
330
C
102
}
330
C
100
AcDbDictionary
281
     1
  3
ByBlock
350
45
  3
ByLayer
350
44
  3
Global
350
46
  0
DICTIONARY
  5
6B
102
{ACAD_REACTORS
330
C
102
}
330
C
100
AcDbDictionary
281
     1
  3
Standard
350
6C
  0
DICTIONARY
  5
17
102
{ACAD_REACTORS
330
C
102
}
330
C
100
AcDbDictionary
281
     1
  3
Standard
350
18
  0
DICTIONARY
  5
19
102
{ACAD_REACTORS
330
C
102
}
330
C
100
AcDbDictionary
281
     1
  0
ACDBDICTIONARYWDFLT
  5
E
102
{ACAD_REACTORS
330
C
102
}
330
C
100
AcDbDictionary
281
     1
  3
Normal
350
F
100
AcDbDictionaryWithDefault
340
F
  0
DICTIONARY
  5
47
102
{ACAD_REACTORS
330
C
102
}
330
C
100
AcDbDictionary
281
     1
  3
A0
350
48
  3
A1
350
49
  3
A2
350
4A
  3
A3
350
4B
  3
A4
350
4C
  3
A5
350
4D
  3
A6
350
4E
  3
A7
350
4F
  3
A8
350
50
  3
A9
350
51
  3
B0
350
52
  3
B1
350
53
  3
B2
350
54
  3
B3
350
55
  3
B4
350
56
  3
B5
350
57
  3
B6
350
58
  3
B7
350
59
  3
B8
350
5A
  3
B9
350
5B
  3
C0
350
5C
  3
C1
350
5D
  3
C2
350
5E
  3
C3
350
5F
  3
C4
350
60
  3
C5
350
61
  3
C6
350
62
  3
C7
350
63
  3
C8
350
64
  3
C9
350
65
  3
D0
350
66
  3
D1
350
67
  3
D2
350
68
  0
DICTIONARY
  5
158
102
{ACAD_REACTORS
330
C
102
}
330
C
100
AcDbDictionary
281
     1
  0
DICTIONARY
  5
69
102
{ACAD_REACTORS
330
C
102
}
330
C
100
AcDbDictionary
281
     1
  3
Standard
350
6A
  0
XRECORD
  5
154
102
{ACAD_REACTORS
330
C
102
}
330
C
100
AcDbXrecord
280
     1
 90
        1
330
6A
  0
DICTIONARY
  5
14E
102
{ACAD_REACTORS
330
C
102
}
330
C
100
AcDbDictionary
281
     1
  3
CANNOSCALE
350
14F
  3
CENTEREXE
350
159
  3
CENTERLTYPEFILE
350
15A
  3
CMLEADERSTYLE
350
156
  3
CTABLESTYLE
350
155
  0
LAYOUT
  5
1E
102
{ACAD_REACTORS
330
1A
102
}
330
1A
100
AcDbPlotSettings
  1

  2
none_device
  4

  6

 40
0.0
 41
0.0
 42
0.0
 43
0.0
 44
0.0
 45
0.0
 46
0.0
 47
0.0
 48
0.0
 49
0.0
140
0.0
141
0.0
142
1.0
143
1.0
 70
   688
 72
     1
 73
     0
 74
     5
  7

 75
    16
 76
     0
 77
     2
 78
   300
147
1.0
148
0.0
149
0.0
100
AcDbLayout
  1
Layout1
 70
     1
 71
     1
 10
0.0
 20
0.0
 11
420.0
 21
297.0
 12
0.0
 22
0.0
 32
0.0
 14
1.0000000000E+20
 24
1.0000000000E+20
 34
1.0000000000E+20
 15
-1.0000000000E+20
 25
-1.0000000000E+20
 35
-1.0000000000E+20
146
0.0
 13
0.0
 23
0.0
 33
0.0
 16
1.0
 26
0.0
 36
0.0
 17
0.0
 27
1.0
 37
0.0
 76
     0
330
1B
  0
LAYOUT
  5
26
102
{ACAD_REACTORS
330
1A
102
}
330
1A
100
AcDbPlotSettings
  1

  2
none_device
  4

  6

 40
0.0
 41
0.0
 42
0.0
 43
0.0
 44
0.0
 45
0.0
 46
0.0
 47
0.0
 48
0.0
 49
0.0
140
0.0
141
0.0
142
1.0
143
1.0
 70
   688
 72
     1
 73
     0
 74
     5
  7

 75
    16
 76
     0
 77
     2
 78
   300
147
1.0
148
0.0
149
0.0
100
AcDbLayout
  1
Layout2
 70
     1
 71
     2
 10
0.0
 20
0.0
 11
0.0
 21
0.0
 12
0.0
 22
0.0
 32
0.0
 14
0.0
 24
0.0
 34
0.0
 15
0.0
 25
0.0
 35
0.0
146
0.0
 13
0.0
 23
0.0
 33
0.0
 16
1.0
 26
0.0
 36
0.0
 17
0.0
 27
1.0
 37
0.0
 76
     0
330
23
  0
LAYOUT
  5
22
102
{ACAD_REACTORS
330
1A
102
}
330
1A
100
AcDbPlotSettings
  1

  2
none_device
  4
Letter_(8.50_x_11.00_Inches)
  6

 40
6.35
 41
6.35
 42
6.35000508
 43
6.35000508
 44
215.9
 45
279.4
 46
0.0
 47
0.0
 48
0.0
 49
0.0
140
0.0
141
0.0
142
1.0
143
1.0
 70
  1712
 72
     1
 73
     0
 74
     0
  7

 75
     0
 76
     0
 77
     2
 78
   300
147
1.0
148
0.0
149
0.0
100
AcDbLayout
  1
Model
 70
     1
 71
     0
 10
0.0
 20
0.0
 11
1189.0
 21
841.0
 12
0.0
 22
0.0
 32
0.0
 14
0.0
 24
0.0
 34
0.0
 15
1189.0
 25
841.0
 35
0.0
146
0.0
 13
0.0
 23
0.0
 33
0.0
 16
1.0
 26
0.0
 36
0.0
 17
0.0
 27
1.0
 37
0.0
 76
     0
330
1F
331
29
  0
MATERIAL
  5
45
102
{ACAD_REACTORS
330
43
102
}
330
43
100
AcDbMaterial
  1
ByBlock
  0
MATERIAL
  5
44
102
{ACAD_REACTORS
330
43
102
}
330
43
100
AcDbMaterial
  1
ByLayer
  0
MATERIAL
  5
46
102
{ACAD_REACTORS
330
43
102
}
330
43
100
AcDbMaterial
  1
Global
  0
MLEADERSTYLE
  5
6C
102
{ACAD_REACTORS
330
6B
102
}
330
6B
100
AcDbMLeaderStyle
170
     2
171
     1
172
     0
 90
        2
 40
0.0
 41
0.0
173
     1
 91
-1056964608
340
14
 92
       -2
290
     1
 42
2.0
291
     1
 43
8.0
  3
Standard
341
0
 44
4.0
300

342
11
174
     1
178
     6
175
     1
176
     0
 93
-1056964608
 45
4.0
292
     0
297
     0
 46
4.0
343
0
 94
-1056964608
 47
1.0
 49
1.0
140
1.0
293
     1
141
0.0
294
     1
177
     0
142
1.0
295
     0
296
     0
143
3.75
1001
ACAD_MLEADERVER
1070
     2
  0
MLINESTYLE
  5
18
102
{ACAD_REACTORS
330
17
102
}
330
17
100
AcDbMlineStyle
  2
Standard
 70
     0
  3

 62
   256
 51
90.0
 52
90.0
 71
     2
 49
0.5
 62
   256
  6
BYLAYER
 49
-0.5
 62
   256
  6
BYLAYER
  0
ACDBPLACEHOLDER
  5
F
102
{ACAD_REACTORS
330
E
102
}
330
E
  0
SCALE
  5
48
102
{ACAD_REACTORS
330
47
102
}
330
47
100
AcDbScale
 70
     0
300
1:1
140
1.0
141
1.0
290
     1
  0
SCALE
  5
49
102
{ACAD_REACTORS
330
47
102
}
330
47
100
AcDbScale
 70
     0
300
1:2
140
1.0
141
2.0
290
     0
  0
SCALE
  5
4A
102
{ACAD_REACTORS
330
47
102
}
330
47
100
AcDbScale
 70
     0
300
1:4
140
1.0
141
4.0
290
     0
  0
SCALE
  5
4B
102
{ACAD_REACTORS
330
47
102
}
330
47
100
AcDbScale
 70
     0
300
1:5
140
1.0
141
5.0
290
     0
  0
SCALE
  5
4C
102
{ACAD_REACTORS
330
47
102
}
330
47
100
AcDbScale
 70
     0
300
1:8
140
1.0
141
8.0
290
     0
  0
SCALE
  5
4D
102
{ACAD_REACTORS
330
47
102
}
330
47
100
AcDbScale
 70
     0
300
1:10
140
1.0
141
10.0
290
     0
  0
SCALE
  5
4E
102
{ACAD_REACTORS
330
47
102
}
330
47
100
AcDbScale
 70
     0
300
1:16
140
1.0
141
16.0
290
     0
  0
SCALE
  5
4F
102
{ACAD_REACTORS
330
47
102
}
330
47
100
AcDbScale
 70
     0
300
1:20
140
1.0
141
20.0
290
     0
  0
SCALE
  5
50
102
{ACAD_REACTORS
330
47
102
}
330
47
100
AcDbScale
 70
     0
300
1:30
140
1.0
141
30.0
290
     0
  0
SCALE
  5
51
102
{ACAD_REACTORS
330
47
102
}
330
47
100
AcDbScale
 70
     0
300
1:40
140
1.0
141
40.0
290
     0
  0
SCALE
  5
52
102
{ACAD_REACTORS
330
47
102
}
330
47
100
AcDbScale
 70
     0
300
1:50
140
1.0
141
50.0
290
     0
  0
SCALE
  5
53
102
{ACAD_REACTORS
330
47
102
}
330
47
100
AcDbScale
 70
     0
300
1:100
140
1.0
141
100.0
290
     0
  0
SCALE
  5
54
102
{ACAD_REACTORS
330
47
102
}
330
47
100
AcDbScale
 70
     0
300
2:1
140
2.0
141
1.0
290
     0
  0
SCALE
  5
55
102
{ACAD_REACTORS
330
47
102
}
330
47
100
AcDbScale
 70
     0
300
4:1
140
4.0
141
1.0
290
     0
  0
SCALE
  5
56
102
{ACAD_REACTORS
330
47
102
}
330
47
100
AcDbScale
 70
     0
300
8:1
140
8.0
141
1.0
290
     0
  0
SCALE
  5
57
102
{ACAD_REACTORS
330
47
102
}
330
47
100
AcDbScale
 70
     0
300
10:1
140
10.0
141
1.0
290
     0
  0
SCALE
  5
58
102
{ACAD_REACTORS
330
47
102
}
330
47
100
AcDbScale
 70
     0
300
100:1
140
100.0
141
1.0
290
     0
  0
SCALE
  5
59
102
{ACAD_REACTORS
330
47
102
}
330
47
100
AcDbScale
 70
     0
300
1/128" = 1'-0"
140
0.0078125
141
12.0
290
     0
  0
SCALE
  5
5A
102
{ACAD_REACTORS
330
47
102
}
330
47
100
AcDbScale
 70
     0
300
1/64" = 1'-0"
140
0.015625
141
12.0
290
     0
  0
SCALE
  5
5B
102
{ACAD_REACTORS
330
47
102
}
330
47
100
AcDbScale
 70
     0
300
1/32" = 1'-0"
140
0.03125
141
12.0
290
     0
  0
SCALE
  5
5C
102
{ACAD_REACTORS
330
47
102
}
330
47
100
AcDbScale
 70
     0
300
1/16" = 1'-0"
140
0.0625
141
12.0
290
     0
  0
SCALE
  5
5D
102
{ACAD_REACTORS
330
47
102
}
330
47
100
AcDbScale
 70
     0
300
3/32" = 1'-0"
140
0.09375
141
12.0
290
     0
  0
SCALE
  5
5E
102
{ACAD_REACTORS
330
47
102
}
330
47
100
AcDbScale
 70
     0
300
1/8" = 1'-0"
140
0.125
141
12.0
290
     0
  0
SCALE
  5
5F
102
{ACAD_REACTORS
330
47
102
}
330
47
100
AcDbScale
 70
     0
300
3/16" = 1'-0"
140
0.1875
141
12.0
290
     0
  0
SCALE
  5
60
102
{ACAD_REACTORS
330
47
102
}
330
47
100
AcDbScale
 70
     0
300
1/4" = 1'-0"
140
0.25
141
12.0
290
     0
  0
SCALE
  5
61
102
{ACAD_REACTORS
330
47
102
}
330
47
100
AcDbScale
 70
     0
300
3/8" = 1'-0"
140
0.375
141
12.0
290
     0
  0
SCALE
  5
62
102
{ACAD_REACTORS
330
47
102
}
330
47
100
AcDbScale
 70
     0
300
1/2" = 1'-0"
140
0.5
141
12.0
290
     0
  0
SCALE
  5
63
102
{ACAD_REACTORS
330
47
102
}
330
47
100
AcDbScale
 70
     0
300
3/4" = 1'-0"
140
0.75
141
12.0
290
     0
  0
SCALE
  5
64
102
{ACAD_REACTORS
330
47
102
}
330
47
100
AcDbScale
 70
     0
300
1" = 1'-0"
140
1.0
141
12.0
290
     0
  0
SCALE
  5
65
102
{ACAD_REACTORS
330
47
102
}
330
47
100
AcDbScale
 70
     0
300
1-1/2" = 1'-0"
140
1.5
141
12.0
290
     0
  0
SCALE
  5
66
102
{ACAD_REACTORS
330
47
102
}
330
47
100
AcDbScale
 70
     0
300
3" = 1'-0"
140
3.0
141
12.0
290
     0
  0
SCALE
  5
67
102
{ACAD_REACTORS
330
47
102
}
330
47
100
AcDbScale
 70
     0
300
6" = 1'-0"
140
6.0
141
12.0
290
     0
  0
SCALE
  5
68
102
{ACAD_REACTORS
330
47
102
}
330
47
100
AcDbScale
 70
     0
300
1'-0" = 1'-0"
140
12.0
141
12.0
290
     0
  0
TABLESTYLE
  5
6A
102
{ACAD_REACTORS
330
69
102
}
102
{ACAD_XDICTIONARY
360
150
102
}
330
69
100
AcDbTableStyle
  3
Standard
 70
     0
 71
     0
 40
0.06
 41
0.06
280
     0
281
     0
  7
Standard
140
4.5
170
     2
 62
     0
 63
   257
283
     0
274
    -2
284
     1
 64
     0
275
    -2
285
     1
 65
     0
276
    -2
286
     1
 66
     0
277
    -2
287
     1
 67
     0
278
    -2
288
     1
 68
     0
279
    -2
289
     1
 69
     0
  7
Standard
140
6.0
170
     5
 62
     0
 63
   257
283
     0
274
    -2
284
     1
 64
     0
275
    -2
285
     1
 65
     0
276
    -2
286
     1
 66
     0
277
    -2
287
     1
 67
     0
278
    -2
288
     1
 68
     0
279
    -2
289
     1
 69
     0
  7
Standard
140
4.5
170
     5
 62
     0
 63
   257
283
     0
274
    -2
284
     1
 64
     0
275
    -2
285
     1
 65
     0
276
    -2
286
     1
 66
     0
277
    -2
287
     1
 67
     0
278
    -2
288
     1
 68
     0
279
    -2
289
     1
 69
     0
  0
DICTIONARYVAR
  5
14F
102
{ACAD_REACTORS
330
14E
102
}
330
14E
100
DictionaryVariables
280
     0
  1
1:1
  0
DICTIONARYVAR
  5
159
102
{ACAD_REACTORS
330
14E
102
}
330
14E
100
DictionaryVariables
280
     0
  1
3.500000
  0
DICTIONARYVAR
  5
15A
102
{ACAD_REACTORS
330
14E
102
}
330
14E
100
DictionaryVariables
280
     0
  1
acadiso.lin
  0
DICTIONARYVAR
  5
156
102
{ACAD_REACTORS
330
14E
102
}
330
14E
100
DictionaryVariables
280
     0
  1
Standard
  0
DICTIONARYVAR
  5
155
102
{ACAD_REACTORS
330
14E
102
}
330
14E
100
DictionaryVariables
280
     0
  1
Standard
  0
DICTIONARY
  5
150
330
6A
100
AcDbDictionary
280
     1
281
     1
  3
ACAD_ROUNDTRIP_2008_TABLESTYLE_CELLSTYLEMAP
360
152
  3
ACAD_XREC_ROUNDTRIP
360
151
  0
CELLSTYLEMAP
  5
152
102
{ACAD_REACTORS
330
150
102
}
330
150
100
AcDbCellStyleMap
 90
        3
300
CELLSTYLE
  1
TABLEFORMAT_BEGIN
 90
        5
170
     1
 91
        0
 92
    32768
 62
   257
 93
        1
300
CONTENTFORMAT
  1
CONTENTFORMAT_BEGIN
 90
        0
 91
        0
 92
        4
 93
        0
300

 40
0.0
140
1.0
 94
        5
 62
     0
340
11
144
6.0
309
CONTENTFORMAT_END
171
     1
301
MARGIN
  1
CELLMARGIN_BEGIN
 40
1.5
 40
1.5
 40
1.5
 40
1.5
 40
1.5
 40
1.5
309
CELLMARGIN_END
 94
        6
 95
        1
302
GRIDFORMAT
  1
GRIDFORMAT_BEGIN
 90
        0
 91
        1
 62
     0
 92
       -2
340
14
 93
        0
 40
0.045
309
GRIDFORMAT_END
 95
        2
302
GRIDFORMAT
  1
GRIDFORMAT_BEGIN
 90
        0
 91
        1
 62
     0
 92
       -2
340
14
 93
        0
 40
0.045
309
GRIDFORMAT_END
 95
        4
302
GRIDFORMAT
  1
GRIDFORMAT_BEGIN
 90
        0
 91
        1
 62
     0
 92
       -2
340
14
 93
        0
 40
0.045
309
GRIDFORMAT_END
 95
        8
302
GRIDFORMAT
  1
GRIDFORMAT_BEGIN
 90
        0
 91
        1
 62
     0
 92
       -2
340
14
 93
        0
 40
0.045
309
GRIDFORMAT_END
 95
       16
302
GRIDFORMAT
  1
GRIDFORMAT_BEGIN
 90
        0
 91
        1
 62
     0
 92
       -2
340
14
 93
        0
 40
0.045
309
GRIDFORMAT_END
 95
       32
302
GRIDFORMAT
  1
GRIDFORMAT_BEGIN
 90
        0
 91
        1
 62
     0
 92
       -2
340
14
 93
        0
 40
0.045
309
GRIDFORMAT_END
309
TABLEFORMAT_END
  1
CELLSTYLE_BEGIN
 90
        1
 91
        1
300
_TITLE
309
CELLSTYLE_END
300
CELLSTYLE
  1
TABLEFORMAT_BEGIN
 90
        5
170
     1
 91
        0
 92
        0
 62
   257
 93
        1
300
CONTENTFORMAT
  1
CONTENTFORMAT_BEGIN
 90
        0
 91
        0
 92
        4
 93
        0
300

 40
0.0
140
1.0
 94
        5
 62
     0
340
11
144
4.5
309
CONTENTFORMAT_END
171
     1
301
MARGIN
  1
CELLMARGIN_BEGIN
 40
1.5
 40
1.5
 40
1.5
 40
1.5
 40
1.5
 40
1.5
309
CELLMARGIN_END
 94
        6
 95
        1
302
GRIDFORMAT
  1
GRIDFORMAT_BEGIN
 90
        0
 91
        1
 62
     0
 92
       -2
340
14
 93
        0
 40
0.045
309
GRIDFORMAT_END
 95
        2
302
GRIDFORMAT
  1
GRIDFORMAT_BEGIN
 90
        0
 91
        1
 62
     0
 92
       -2
340
14
 93
        0
 40
0.045
309
GRIDFORMAT_END
 95
        4
302
GRIDFORMAT
  1
GRIDFORMAT_BEGIN
 90
        0
 91
        1
 62
     0
 92
       -2
340
14
 93
        0
 40
0.045
309
GRIDFORMAT_END
 95
        8
302
GRIDFORMAT
  1
GRIDFORMAT_BEGIN
 90
        0
 91
        1
 62
     0
 92
       -2
340
14
 93
        0
 40
0.045
309
GRIDFORMAT_END
 95
       16
302
GRIDFORMAT
  1
GRIDFORMAT_BEGIN
 90
        0
 91
        1
 62
     0
 92
       -2
340
14
 93
        0
 40
0.045
309
GRIDFORMAT_END
 95
       32
302
GRIDFORMAT
  1
GRIDFORMAT_BEGIN
 90
        0
 91
        1
 62
     0
 92
       -2
340
14
 93
        0
 40
0.045
309
GRIDFORMAT_END
309
TABLEFORMAT_END
  1
CELLSTYLE_BEGIN
 90
        2
 91
        1
300
_HEADER
309
CELLSTYLE_END
300
CELLSTYLE
  1
TABLEFORMAT_BEGIN
 90
        5
170
     1
 91
        0
 92
        0
 62
   257
 93
        1
300
CONTENTFORMAT
  1
CONTENTFORMAT_BEGIN
 90
        0
 91
        0
 92
        4
 93
        0
300

 40
0.0
140
1.0
 94
        2
 62
     0
340
11
144
4.5
309
CONTENTFORMAT_END
171
     1
301
MARGIN
  1
CELLMARGIN_BEGIN
 40
1.5
 40
1.5
 40
1.5
 40
1.5
 40
1.5
 40
1.5
309
CELLMARGIN_END
 94
        6
 95
        1
302
GRIDFORMAT
  1
GRIDFORMAT_BEGIN
 90
        0
 91
        1
 62
     0
 92
       -2
340
14
 93
        0
 40
0.045
309
GRIDFORMAT_END
 95
        2
302
GRIDFORMAT
  1
GRIDFORMAT_BEGIN
 90
        0
 91
        1
 62
     0
 92
       -2
340
14
 93
        0
 40
0.045
309
GRIDFORMAT_END
 95
        4
302
GRIDFORMAT
  1
GRIDFORMAT_BEGIN
 90
        0
 91
        1
 62
     0
 92
       -2
340
14
 93
        0
 40
0.045
309
GRIDFORMAT_END
 95
        8
302
GRIDFORMAT
  1
GRIDFORMAT_BEGIN
 90
        0
 91
        1
 62
     0
 92
       -2
340
14
 93
        0
 40
0.045
309
GRIDFORMAT_END
 95
       16
302
GRIDFORMAT
  1
GRIDFORMAT_BEGIN
 90
        0
 91
        1
 62
     0
 92
       -2
340
14
 93
        0
 40
0.045
309
GRIDFORMAT_END
 95
       32
302
GRIDFORMAT
  1
GRIDFORMAT_BEGIN
 90
        0
 91
        1
 62
     0
 92
       -2
340
14
 93
        0
 40
0.045
309
GRIDFORMAT_END
309
TABLEFORMAT_END
  1
CELLSTYLE_BEGIN
 90
        3
 91
        2
300
_DATA
309
CELLSTYLE_END
  0
XRECORD
  5
151
102
{ACAD_REACTORS
330
150
102
}
330
150
100
AcDbXrecord
280
     1
102
ACAD_ROUNDTRIP_PRE2007_TABLESTYLE
 90
        4
 91
        0
  1

 92
        4
 93
        0
  2

 94
        4
 95
        0
  3

  0
ENDSEC
  0
EOF
