  0
SECTION
  2
HEADER
  9
$ACADVER
  1
AC1018
  9
$ACADMAINTVER
 70
     0
  9
$DWGCODEPAGE
  3
DOS932
  9
$INSBASE
 10
0.0
 20
0.0
 30
0.0
  9
$EXTMIN
 10
0.0
 20
0.0
 30
0.0
  9
$EXTMAX
 10
1117.6
 20
863.6
 30
0.0
  9
$LIMMIN
 10
0.0
 20
0.0
  9
$LIMMAX
 10
1117.6
 20
863.6
  9
$ORTHOMODE
 70
     0
  9
$REGENMODE
 70
     1
  9
$FILLMODE
 70
     1
  9
$QTEXTMODE
 70
     0
  9
$MIRRTEXT
 70
     1
  9
$LTSCALE
 40
1.0
  9
$ATTMODE
 70
     1
  9
$TEXTSIZE
 40
3.5
  9
$TRACEWID
 40
1.0
  9
$TEXTSTYLE
  7
Standard
  9
$CLAYER
  8
0
  9
$CELTYPE
  6
ByLayer
  9
$CECOLOR
 62
   256
  9
$CELTSCALE
 40
1.0
  9
$DISPSILH
 70
     0
  9
$DIMSCALE
 40
1.0
  9
$DIMASZ
 40
3.302
  9
$DIMEXO
 40
1.0
  9
$DIMDLI
 40
3.75
  9
$DIMRND
 40
0.0
  9
$DIMDLE
 40
0.0
  9
$DIMEXE
 40
1.0
  9
$DIMTP
 40
0.0
  9
$DIMTM
 40
0.0
  9
$DIMTXT
 40
3.5
  9
$DIMCEN
 40
2.5
  9
$DIMTSZ
 40
0.0
  9
$DIMTOL
 70
     0
  9
$DIMLIM
 70
     0
  9
$DIMTIH
 70
     1
  9
$DIMTOH
 70
     1
  9
$DIMSE1
 70
     0
  9
$DIMSE2
 70
     0
  9
$DIMTAD
 70
     1
  9
$DIMZIN
 70
     1
  9
$DIMBLK
  1

  9
$DIMASO
 70
     1
  9
$DIMSHO
 70
     1
  9
$DIMPOST
  1

  9
$DIMAPOST
  1

  9
$DIMALT
 70
     0
  9
$DIMALTD
 70
     3
  9
$DIMALTF
 40
0.0393700787
  9
$DIMLFAC
 40
1.0
  9
$DIMTOFL
 70
     1
  9
$DIMTVP
 40
0.0
  9
$DIMTIX
 70
     0
  9
$DIMSOXD
 70
     0
  9
$DIMSAH
 70
     0
  9
$DIMBLK1
  1

  9
$DIMBLK2
  1

  9
$DIMSTYLE
  2
ISO-25
  9
$DIMCLRD
 70
     0
  9
$DIMCLRE
 70
     0
  9
$DIMCLRT
 70
     0
  9
$DIMTFAC
 40
1.0
  9
$DIMGAP
 40
1.524
  9
$DIMJUST
 70
     0
  9
$DIMSD1
 70
     0
  9
$DIMSD2
 70
     0
  9
$DIMTOLJ
 70
     0
  9
$DIMTZIN
 70
     1
  9
$DIMALTZ
 70
     0
  9
$DIMALTTZ
 70
     0
  9
$DIMUPT
 70
     0
  9
$DIMDEC
 70
     4
  9
$DIMTDEC
 70
     4
  9
$DIMALTU
 70
     2
  9
$DIMALTTD
 70
     3
  9
$DIMTXSTY
  7
Standard
  9
$DIMAUNIT
 70
     0
  9
$DIMADEC
 70
     0
  9
$DIMALTRND
 40
0.0
  9
$DIMAZIN
 70
     0
  9
$DIMDSEP
 70
    44
  9
$DIMATFIT
 70
     3
  9
$DIMFRAC
 70
     0
  9
$DIMLDRBLK
  1

  9
$DIMLUNIT
 70
     2
  9
$DIMLWD
 70
    -2
  9
$DIMLWE
 70
    -2
  9
$DIMTMOVE
 70
     0
  9
$LUNITS
 70
     2
  9
$LUPREC
 70
     3
  9
$SKETCHINC
 40
1.0
  9
$FILLETRAD
 40
10.0
  9
$AUNITS
 70
     0
  9
$AUPREC
 70
     0
  9
$MENU
  1
.
  9
$ELEVATION
 40
0.0
  9
$PELEVATION
 40
0.0
  9
$THICKNESS
 40
0.0
  9
$LIMCHECK
 70
     0
  9
$CHAMFERA
 40
0.0
  9
$CHAMFERB
 40
0.0
  9
$CHAMFERC
 40
0.0
  9
$CHAMFERD
 40
0.0
  9
$SKPOLY
 70
     0
  9
$TDCREATE
 40
2460409.485933692
  9
$TDUCREATE
 40
2460409.110933692
  9
$TDUPDATE
 40
2460409.485934051
  9
$TDUUPDATE
 40
2460409.110934051
  9
$TDINDWG
 40
0.0000000116
  9
$TDUSRTIMER
 40
0.0000000116
  9
$USRTIMER
 70
     1
  9
$ANGBASE
 50
0.0
  9
$ANGDIR
 70
     0
  9
$PDMODE
 70
     0
  9
$PDSIZE
 40
-1.0
  9
$PLINEWID
 40
0.0
  9
$SPLFRAME
 70
     0
  9
$SPLINETYPE
 70
     6
  9
$SPLINESEGS
 70
     8
  9
$HANDSEED
  5
179
  9
$SURFTAB1
 70
     6
  9
$SURFTAB2
 70
     6
  9
$SURFTYPE
 70
     6
  9
$SURFU
 70
     6
  9
$SURFV
 70
     6
  9
$UCSBASE
  2

  9
$UCSNAME
  2

  9
$UCSORG
 10
0.0
 20
0.0
 30
0.0
  9
$UCSXDIR
 10
1.0
 20
0.0
 30
0.0
  9
$UCSYDIR
 10
0.0
 20
1.0
 30
0.0
  9
$UCSORTHOREF
  2

  9
$UCSORTHOVIEW
 70
     0
  9
$UCSORGTOP
 10
0.0
 20
0.0
 30
0.0
  9
$UCSORGBOTTOM
 10
0.0
 20
0.0
 30
0.0
  9
$UCSORGLEFT
 10
0.0
 20
0.0
 30
0.0
  9
$UCSORGRIGHT
 10
0.0
 20
0.0
 30
0.0
  9
$UCSORGFRONT
 10
0.0
 20
0.0
 30
0.0
  9
$UCSORGBACK
 10
0.0
 20
0.0
 30
0.0
  9
$PUCSBASE
  2

  9
$PUCSNAME
  2

  9
$PUCSORG
 10
0.0
 20
0.0
 30
0.0
  9
$PUCSXDIR
 10
1.0
 20
0.0
 30
0.0
  9
$PUCSYDIR
 10
0.0
 20
1.0
 30
0.0
  9
$PUCSORTHOREF
  2

  9
$PUCSORTHOVIEW
 70
     0
  9
$PUCSORGTOP
 10
0.0
 20
0.0
 30
0.0
  9
$PUCSORGBOTTOM
 10
0.0
 20
0.0
 30
0.0
  9
$PUCSORGLEFT
 10
0.0
 20
0.0
 30
0.0
  9
$PUCSORGRIGHT
 10
0.0
 20
0.0
 30
0.0
  9
$PUCSORGFRONT
 10
0.0
 20
0.0
 30
0.0
  9
$PUCSORGBACK
 10
0.0
 20
0.0
 30
0.0
  9
$USERI1
 70
     0
  9
$USERI2
 70
     0
  9
$USERI3
 70
     0
  9
$USERI4
 70
     0
  9
$USERI5
 70
     0
  9
$USERR1
 40
0.0
  9
$USERR2
 40
0.0
  9
$USERR3
 40
0.0
  9
$USERR4
 40
0.0
  9
$USERR5
 40
0.0
  9
$WORLDVIEW
 70
     1
  9
$SHADEDGE
 70
     3
  9
$SHADEDIF
 70
    70
  9
$TILEMODE
 70
     1
  9
$MAXACTVP
 70
    64
  9
$PINSBASE
 10
0.0
 20
0.0
 30
0.0
  9
$PLIMCHECK
 70
     0
  9
$PEXTMIN
 10
1.0000000000E+20
 20
1.0000000000E+20
 30
1.0000000000E+20
  9
$PEXTMAX
 10
-1.0000000000E+20
 20
-1.0000000000E+20
 30
-1.0000000000E+20
  9
$PLIMMIN
 10
0.0
 20
0.0
  9
$PLIMMAX
 10
420.0
 20
297.0
  9
$UNITMODE
 70
     0
  9
$VISRETAIN
 70
     1
  9
$PLINEGEN
 70
     0
  9
$PSLTSCALE
 70
     1
  9
$TREEDEPTH
 70
  3020
  9
$CMLSTYLE
  2
Standard
  9
$CMLJUST
 70
     0
  9
$CMLSCALE
 40
20.0
  9
$PROXYGRAPHICS
 70
     1
  9
$MEASUREMENT
 70
     1
  9
$CELWEIGHT
370
    -1
  9
$ENDCAPS
280
     0
  9
$JOINSTYLE
280
     0
  9
$LWDISPLAY
290
     1
  9
$INSUNITS
 70
     4
  9
$HYPERLINKBASE
  1

  9
$STYLESHEET
  1

  9
$XEDIT
290
     1
  9
$CEPSNTYPE
380
     0
  9
$PSTYLEMODE
290
     1
  9
$FINGERPRINTGUID
  2
{57edcc1e-ddaa-46b3-8c0b-a2d6922303df}
  9
$VERSIONGUID
  2
{FAEB1C32-E019-11D5-929B-00C0DF256EC4}
  9
$EXTNAMES
290
     1
  9
$PSVPSCALE
 40
0.0
  9
$OLESTARTUP
290
     0
  9
$SORTENTS
280
   127
  9
$INDEXCTL
280
     0
  9
$HIDETEXT
280
     1
  9
$XCLIPFRAME
290
     0
  9
$HALOGAP
280
     0
  9
$OBSCOLOR
 70
   257
  9
$OBSLTYPE
280
     0
  9
$INTERSECTIONDISPLAY
280
     0
  9
$INTERSECTIONCOLOR
 70
   257
  9
$DIMASSOC
280
     2
  9
$PROJECTNAME
  1

  0
ENDSEC
  0
SECTION
  2
CLASSES
  0
CLASS
  1
ACDBDICTIONARYWDFLT
  2
AcDbDictionaryWithDefault
  3
ObjectDBX Classes
 90
        0
 91
        3
280
     0
281
     0
  0
CLASS
  1
VISUALSTYLE
  2
AcDbVisualStyle
  3
ObjectDBX Classes
 90
     4095
 91
        3
280
     0
281
     0
  0
CLASS
  1
MATERIAL
  2
AcDbMaterial
  3
ObjectDBX Classes
 90
     1153
 91
        3
280
     0
281
     0
  0
CLASS
  1
SCALE
  2
AcDbScale
  3
ObjectDBX Classes
 90
     1153
 91
        3
280
     0
281
     0
  0
CLASS
  1
TABLESTYLE
  2
AcDbTableStyle
  3
ObjectDBX Classes
 90
     4095
 91
        3
280
     0
281
     0
  0
CLASS
  1
MLEADERSTYLE
  2
AcDbMLeaderStyle
  3
ACDB_MLEADERSTYLE_CLASS
 90
     4095
 91
        3
280
     0
281
     0
  0
CLASS
  1
SUN
  2
AcDbSun
  3
SCENEOE
 90
     1153
 91
        3
280
     0
281
     0
  0
CLASS
  1
DICTIONARYVAR
  2
AcDbDictionaryVar
  3
ObjectDBX Classes
 90
        0
 91
        3
280
     0
281
     0
  0
CLASS
  1
CELLSTYLEMAP
  2
AcDbCellStyleMap
  3
ObjectDBX Classes
 90
     1152
 91
        3
280
     0
281
     0
  0
ENDSEC
  0
SECTION
  2
TABLES
  0
TABLE
  2
VPORT
  5
8
330
0
100
AcDbSymbolTable
 70
     1
  0
VPORT
  5
29
330
8
100
AcDbSymbolTableRecord
100
AcDbViewportTableRecord
  2
*Active
 70
     0
 10
0.0
 20
0.0
 11
1.0
 21
1.0
 12
558.8
 22
431.8
 13
0.0
 23
0.0
 14
10.0
 24
10.0
 15
10.0
 25
10.0
 16
0.0
 26
0.0
 36
1.0
 17
0.0
 27
0.0
 37
0.0
 40
863.6
 41
1.2941176471
 42
50.0
 43
0.0
 44
0.0
 50
0.0
 51
0.0
 71
     0
 72
  2000
 73
     1
 74
     3
 75
     0
 76
     0
 77
     0
 78
     0
281
     0
 65
     1
110
0.0
120
0.0
130
0.0
111
1.0
121
0.0
131
0.0
112
0.0
122
1.0
132
0.0
 79
     0
146
0.0
  0
ENDTAB
  0
TABLE
  2
LTYPE
  5
5
330
0
100
AcDbSymbolTable
 70
     8
  0
LTYPE
  5
14
330
5
100
AcDbSymbolTableRecord
100
AcDbLinetypeTableRecord
  2
ByBlock
 70
     0
  3

 72
    65
 73
     0
 40
0.0
  0
LTYPE
  5
15
330
5
100
AcDbSymbolTableRecord
100
AcDbLinetypeTableRecord
  2
ByLayer
 70
     0
  3

 72
    65
 73
     0
 40
0.0
  0
LTYPE
  5
16
330
5
100
AcDbSymbolTableRecord
100
AcDbLinetypeTableRecord
  2
Continuous
 70
     0
  3
Solid line
 72
    65
 73
     0
 40
0.0
  0
LTYPE
  5
6E
330
5
100
AcDbSymbolTableRecord
100
AcDbLinetypeTableRecord
  2
SLD-実線
 70
     0
  3
SolidWorks Line Style
 72
    65
 73
     0
 40
0.0
  0
LTYPE
  5
6F
330
5
100
AcDbSymbolTableRecord
100
AcDbLinetypeTableRecord
  2
SLD-破線
 70
     0
  3
SolidWorks Line Style
 72
    65
 73
     2
 40
1.905
 49
1.27
 74
     0
 49
-0.635
 74
     0
  0
LTYPE
  5
70
330
5
100
AcDbSymbolTableRecord
100
AcDbLinetypeTableRecord
  2
SLD-2点鎖線
 70
     0
  3
SolidWorks Line Style
 72
    65
 73
     6
 40
12.7
 49
6.35
 74
     0
 49
-1.27
 74
     0
 49
1.27
 74
     0
 49
-1.27
 74
     0
 49
1.27
 74
     0
 49
-1.27
 74
     0
  0
LTYPE
  5
71
330
5
100
AcDbSymbolTableRecord
100
AcDbLinetypeTableRecord
  2
SLD-鎖線
 70
     0
  3
SolidWorks Line Style
 72
    65
 73
     4
 40
10.16
 49
6.35
 74
     0
 49
-1.27
 74
     0
 49
1.27
 74
     0
 49
-1.27
 74
     0
  0
LTYPE
  5
72
330
5
100
AcDbSymbolTableRecord
100
AcDbLinetypeTableRecord
  2
SLD-1点鎖線(中心線)
 70
     0
  3
SolidWorks Line Style
 72
    65
 73
     4
 40
34.29
 49
30.48
 74
     0
 49
-1.27
 74
     0
 49
1.27
 74
     0
 49
-1.27
 74
     0
  0
LTYPE
  5
73
330
5
100
AcDbSymbolTableRecord
100
AcDbLinetypeTableRecord
  2
SLD-点線
 70
     0
  3
SolidWorks Line Style
 72
    65
 73
     2
 40
0.635
 49
0.0
 74
     0
 49
-0.635
 74
     0
  0
LTYPE
  5
74
330
5
100
AcDbSymbolTableRecord
100
AcDbLinetypeTableRecord
  2
SLD-細-太鎖線(切断面)
 70
     0
  3
SolidWorks Line Style
 72
    65
 73
     4
 40
10.16
 49
6.35
 74
     0
 49
-1.27
 74
     0
 49
1.27
 74
     0
 49
-1.27
 74
     0
  0
ENDTAB
  0
TABLE
  2
LAYER
  5
2
330
0
100
AcDbSymbolTable
 70
     5
  0
LAYER
  5
10
330
2
100
AcDbSymbolTableRecord
100
AcDbLayerTableRecord
  2
0
 70
     0
 62
     7
  6
Continuous
370
    -3
390
F
  0
LAYER
  5
75
330
2
100
AcDbSymbolTableRecord
100
AcDbLayerTableRecord
  2
SLD-0_0
 70
     0
 62
     7
  6
Continuous
370
    -1
390
F
  0
LAYER
  5
76
330
2
100
AcDbSymbolTableRecord
100
AcDbLayerTableRecord
  2
SLD-0
 70
     0
 62
   179
  6
SLD-実線
370
    -3
390
F
  0
LAYER
  5
77
330
2
100
AcDbSymbolTableRecord
100
AcDbLayerTableRecord
  2
100
 70
     0
 62
   179
  6
SLD-実線
370
    -3
390
F
  0
LAYER
  5
78
330
2
100
AcDbSymbolTableRecord
100
AcDbLayerTableRecord
  2
1
 70
     0
 62
   179
  6
SLD-実線
370
    -3
390
F
  0
ENDTAB
  0
TABLE
  2
STYLE
  5
3
330
0
100
AcDbSymbolTable
 70
     1
  0
STYLE
  5
11
330
3
100
AcDbSymbolTableRecord
100
AcDbTextStyleTableRecord
  2
Standard
 70
     0
 40
0.0
 41
1.0
 50
0.0
 71
     0
 42
3.5
  3
txt
  4
bigfont
  0
ENDTAB
  0
TABLE
  2
VIEW
  5
6
330
0
100
AcDbSymbolTable
 70
     0
  0
ENDTAB
  0
TABLE
  2
UCS
  5
7
330
0
100
AcDbSymbolTable
 70
     0
  0
ENDTAB
  0
TABLE
  2
APPID
  5
9
330
0
100
AcDbSymbolTable
 70
     2
  0
APPID
  5
12
330
9
100
AcDbSymbolTableRecord
100
AcDbRegAppTableRecord
  2
ACAD
 70
     0
  0
APPID
  5
171
330
9
100
AcDbSymbolTableRecord
100
AcDbRegAppTableRecord
  2
ACAD_MLEADERVER
 70
     0
  0
ENDTAB
  0
TABLE
  2
DIMSTYLE
  5
A
330
0
100
AcDbSymbolTable
 70
     1
100
AcDbDimStyleTable
  0
DIMSTYLE
105
27
330
A
100
AcDbSymbolTableRecord
100
AcDbDimStyleTableRecord
  2
ISO-25
 70
     0
 41
2.5
 42
0.625
 43
3.75
 44
1.25
 73
     0
 74
     0
 77
     1
 78
     8
140
2.5
141
2.5
143
0.0393700787
147
0.625
171
     3
172
     1
178
     0
271
     2
272
     2
274
     3
278
    44
283
     0
284
     8
340
11
  0
ENDTAB
  0
TABLE
  2
BLOCK_RECORD
  5
1
330
0
100
AcDbSymbolTable
 70
     1
  0
BLOCK_RECORD
  5
1F
330
1
100
AcDbSymbolTableRecord
100
AcDbBlockTableRecord
  2
*Model_Space
340
22
  0
BLOCK_RECORD
  5
1B
330
1
100
AcDbSymbolTableRecord
100
AcDbBlockTableRecord
  2
*Paper_Space
340
1E
  0
BLOCK_RECORD
  5
23
330
1
100
AcDbSymbolTableRecord
100
AcDbBlockTableRecord
  2
*Paper_Space0
340
26
  0
ENDTAB
  0
ENDSEC
  0
SECTION
  2
BLOCKS
  0
BLOCK
  5
20
330
1F
100
AcDbEntity
  8
0
100
AcDbBlockBegin
  2
*Model_Space
 70
     0
 10
0.0
 20
0.0
 30
0.0
  3
*Model_Space
  1

  0
ENDBLK
  5
21
330
1F
100
AcDbEntity
  8
0
100
AcDbBlockEnd
  0
BLOCK
  5
1C
330
1B
100
AcDbEntity
 67
     1
  8
0
100
AcDbBlockBegin
  2
*Paper_Space
 70
     0
 10
0.0
 20
0.0
 30
0.0
  3
*Paper_Space
  1

  0
ENDBLK
  5
1D
330
1B
100
AcDbEntity
 67
     1
  8
0
100
AcDbBlockEnd
  0
BLOCK
  5
24
330
23
100
AcDbEntity
  8
0
100
AcDbBlockBegin
  2
*Paper_Space0
 70
     0
 10
0.0
 20
0.0
 30
0.0
  3
*Paper_Space0
  1

  0
ENDBLK
  5
25
330
23
100
AcDbEntity
  8
0
100
AcDbBlockEnd
  0
ENDSEC
  0
SECTION
  2
ENTITIES
  0
LINE
  5
79
330
1F
100
AcDbEntity
  8
SLD-0
  6
SLD-実線
 62
     7
370
    18
100
AcDbLine
 10
559.3078894147
 20
301.4248060963
 30
0.0
 11
559.3078894147
 21
318.2751261015
 31
0.0
  0
LINE
  5
7A
330
1F
100
AcDbEntity
  8
SLD-0
  6
SLD-実線
 62
     7
370
    18
100
AcDbLine
 10
488.9078893984
 20
301.4248060951
 30
0.0
 11
488.9078893984
 21
318.2751261002
 31
0.0
  0
LINE
  5
7B
330
1F
100
AcDbEntity
  8
1
  6
SLD-実線
 62
     7
370
    18
100
AcDbLine
 10
488.9078893984
 20
577.7482101629
 30
0.0
 11
488.9078893984
 21
655.838090183
 31
0.0
  0
LINE
  5
7C
330
1F
100
AcDbEntity
  8
1
  6
SLD-実線
 62
     7
370
    18
100
AcDbLine
 10
498.6078894002
 20
568.0482101611
 30
0.0
 11
549.6078894117
 21
568.0482101611
 31
0.0
  0
LINE
  5
7D
330
1F
100
AcDbEntity
  8
1
  6
SLD-実線
 62
     7
370
    18
100
AcDbLine
 10
559.3078894135
 20
577.7482101629
 30
0.0
 11
559.3078894135
 21
655.838090183
 31
0.0
  0
LINE
  5
7E
330
1F
100
AcDbEntity
  8
1
  6
SLD-実線
 62
     7
370
    18
100
AcDbLine
 10
498.6078894015
 20
665.5380901861
 30
0.0
 11
549.607889413
 21
665.5380901861
 31
0.0
  0
LINE
  5
7F
330
1F
100
AcDbEntity
  8
SLD-0
  6
SLD-1点鎖線(中心線)
 62
     7
370
    18
100
AcDbLine
 10
500.7356094031
 20
575.446674164
 30
0.0
 11
493.858329401
 21
575.446674164
 31
0.0
  0
LINE
  5
80
330
1F
100
AcDbEntity
  8
SLD-0
  6
SLD-1点鎖線(中心線)
 62
     7
370
    18
100
AcDbLine
 10
497.1078894017
 20
571.5131941621
 30
0.0
 11
497.1078894017
 21
579.1535021657
 31
0.0
  0
LINE
  5
81
330
1F
100
AcDbEntity
  8
SLD-0
  6
SLD-実線
 62
     7
370
    18
100
AcDbLine
 10
504.6078894017
 20
578.2657541634
 30
0.0
 11
543.6078894102
 21
578.2657541634
 31
0.0
  0
LINE
  5
82
330
1F
100
AcDbEntity
  8
SLD-0
  6
SLD-1点鎖線(中心線)
 62
     7
370
    18
100
AcDbLine
 10
554.7356094166
 20
575.446674164
 30
0.0
 11
547.8583294145
 21
575.446674164
 31
0.0
  0
LINE
  5
83
330
1F
100
AcDbEntity
  8
SLD-0
  6
SLD-1点鎖線(中心線)
 62
     7
370
    18
100
AcDbLine
 10
551.1078894152
 20
571.5131941621
 30
0.0
 11
551.1078894152
 21
579.1535021657
 31
0.0
  0
LINE
  5
84
330
1F
100
AcDbEntity
  8
SLD-0
  6
SLD-実線
 62
     7
370
    18
100
AcDbLine
 10
548.6078894114
 20
583.2657541647
 30
0.0
 11
548.6078894114
 21
650.3205461813
 31
0.0
  0
LINE
  5
85
330
1F
100
AcDbEntity
  8
SLD-0
  6
SLD-1点鎖線(中心線)
 62
     7
370
    18
100
AcDbLine
 10
551.1078894152
 20
653.7362981839
 30
0.0
 11
551.1078894152
 21
661.376606185
 31
0.0
  0
LINE
  5
86
330
1F
100
AcDbEntity
  8
SLD-0
  6
SLD-1点鎖線(中心線)
 62
     7
370
    18
100
AcDbLine
 10
554.7356094166
 20
657.6697781833
 30
0.0
 11
547.8583294145
 21
657.6697781833
 31
0.0
  0
LINE
  5
87
330
1F
100
AcDbEntity
  8
SLD-0
  6
SLD-実線
 62
     7
370
    18
100
AcDbLine
 10
499.6078894005
 20
583.2657541647
 30
0.0
 11
499.6078894005
 21
650.3205461813
 31
0.0
  0
LINE
  5
88
330
1F
100
AcDbEntity
  8
SLD-0
  6
SLD-実線
 62
     7
370
    18
100
AcDbLine
 10
543.6078894115
 20
655.3205461838
 30
0.0
 11
504.607889403
 21
655.3205461838
 31
0.0
  0
LINE
  5
89
330
1F
100
AcDbEntity
  8
SLD-0
  6
SLD-1点鎖線(中心線)
 62
     7
370
    18
100
AcDbLine
 10
497.1078894017
 20
653.7362981839
 30
0.0
 11
497.1078894017
 21
661.376606185
 31
0.0
  0
LINE
  5
8A
330
1F
100
AcDbEntity
  8
SLD-0
  6
SLD-1点鎖線(中心線)
 62
     7
370
    18
100
AcDbLine
 10
500.7356094031
 20
657.6697781833
 30
0.0
 11
493.858329401
 21
657.6697781833
 31
0.0
  0
LINE
  5
8B
330
1F
100
AcDbEntity
  8
SLD-0
  6
SLD-1点鎖線(中心線)
 62
     7
370
    18
100
AcDbLine
 10
585.1295494236
 20
660.5657541846
 30
0.0
 11
590.5913334251
 21
660.5657541846
 31
0.0
  0
LINE
  5
8C
330
1F
100
AcDbEntity
  8
SLD-0
  6
SLD-実線
 62
     7
370
    18
100
AcDbLine
 10
560.607889417
 20
646.0657541804
 30
0.0
 11
587.4078894237
 21
646.0657541804
 31
0.0
  0
LINE
  5
8D
330
1F
100
AcDbEntity
  8
SLD-0
  6
SLD-実線
 62
     7
370
    18
100
AcDbLine
 10
524.1078894056
 20
696.0657541937
 30
0.0
 11
567.9778894175
 21
696.0657541937
 31
0.0
  0
LINE
  5
8E
330
1F
100
AcDbEntity
  8
SLD-0
  6
SLD-実線
 62
     7
370
    18
100
AcDbLine
 10
569.1078894181
 20
692.3260341929
 30
0.0
 11
569.1078894181
 21
694.9357541931
 31
0.0
  0
LINE
  5
8F
330
1F
100
AcDbEntity
  8
SLD-0
  6
SLD-実線
 62
     7
370
    18
100
AcDbLine
 10
569.3211013044
 20
691.9164581358
 30
0.0
 11
584.8175173092
 21
681.0657541324
 31
0.0
  0
LINE
  5
90
330
1F
100
AcDbEntity
  8
SLD-0
  6
SLD-実線
 62
     7
370
    18
100
AcDbLine
 10
524.1078894072
 20
692.0657541919
 30
0.0
 11
569.1809774194
 21
692.0657541919
 31
0.0
  0
LINE
  5
91
330
1F
100
AcDbEntity
  8
SLD-0
  6
SLD-実線
 62
     7
370
    18
100
AcDbLine
 10
587.4078894237
 20
646.0657541804
 30
0.0
 11
587.4078894237
 21
679.9357541898
 31
0.0
  0
LINE
  5
92
330
1F
100
AcDbEntity
  8
SLD-0
  6
SLD-実線
 62
     7
370
    18
100
AcDbLine
 10
524.1078894072
 20
681.0657541904
 30
0.0
 11
586.2778894231
 21
681.0657541904
 31
0.0
  0
LINE
  5
93
330
1F
100
AcDbEntity
  8
SLD-0
  6
SLD-実線
 62
     7
370
    18
100
AcDbLine
 10
524.1078894072
 20
692.0657541919
 30
0.0
 11
479.0347973971
 21
692.0657541919
 31
0.0
  0
LINE
  5
94
330
1F
100
AcDbEntity
  8
SLD-0
  6
SLD-実線
 62
     7
370
    18
100
AcDbLine
 10
524.1078894072
 20
681.0657541904
 30
0.0
 11
461.9378893914
 21
681.0657541904
 31
0.0
  0
LINE
  5
95
330
1F
100
AcDbEntity
  8
SLD-0
  6
SLD-実線
 62
     7
370
    18
100
AcDbLine
 10
478.8946776139
 20
691.9164581709
 30
0.0
 11
463.3982613931
 21
681.0657541904
 31
0.0
  0
LINE
  5
96
330
1F
100
AcDbEntity
  8
SLD-0
  6
SLD-実線
 62
     7
370
    18
100
AcDbLine
 10
479.1078893956
 20
692.3260341929
 30
0.0
 11
479.1078893956
 21
694.9357541931
 31
0.0
  0
LINE
  5
97
330
1F
100
AcDbEntity
  8
SLD-0
  6
SLD-実線
 62
     7
370
    18
100
AcDbLine
 10
460.8078893908
 20
646.0657541804
 30
0.0
 11
460.8078893908
 21
679.9357541898
 31
0.0
  0
LINE
  5
98
330
1F
100
AcDbEntity
  8
SLD-0
  6
SLD-実線
 62
     7
370
    18
100
AcDbLine
 10
524.1078894056
 20
696.0657541937
 30
0.0
 11
480.2378893962
 21
696.0657541937
 31
0.0
  0
LINE
  5
99
330
1F
100
AcDbEntity
  8
SLD-0
  6
SLD-実線
 62
     7
370
    18
100
AcDbLine
 10
487.6078893975
 20
646.0657541804
 30
0.0
 11
460.8078893908
 21
646.0657541804
 31
0.0
  0
LINE
  5
9A
330
1F
100
AcDbEntity
  8
SLD-0
  6
SLD-実線
 62
     7
370
    18
100
AcDbLine
 10
577.4569530187
 20
641.9176668363
 30
0.0
 11
574.4149098267
 21
644.6942655249
 31
0.0
  0
LINE
  5
9B
330
1F
100
AcDbEntity
  8
SLD-0
  6
SLD-実線
 62
     7
370
    18
100
AcDbLine
 10
579.3457632641
 20
644.6914030753
 30
0.0
 11
582.8557953321
 21
641.9205281192
 31
0.0
  0
LINE
  5
9C
330
1F
100
AcDbEntity
  8
SLD-0
  6
SLD-実線
 62
     7
370
    18
100
AcDbLine
 10
578.9653774213
 20
645.4763101802
 30
0.0
 11
578.9653774213
 21
646.0657541804
 31
0.0
  0
LINE
  5
9D
330
1F
100
AcDbEntity
  8
SLD-0
  6
SLD-実線
 62
     7
370
    18
100
AcDbLine
 10
576.3782334211
 20
646.0657541804
 30
0.0
 11
576.3782334211
 21
642.9022581807
 31
0.0
  0
LINE
  5
9E
330
1F
100
AcDbEntity
  8
SLD-0
  6
SLD-実線
 62
     7
370
    18
100
AcDbLine
 10
583.2361792668
 20
554.0657550515
 30
0.0
 11
583.2361792668
 21
641.135623073
 31
0.0
  0
LINE
  5
9F
330
1F
100
AcDbEntity
  8
SLD-0
  6
SLD-実線
 62
     7
370
    18
100
AcDbLine
 10
499.6405814026
 20
568.0482101624
 30
0.0
 11
499.6405814026
 21
554.0657541574
 31
0.0
  0
LINE
  5
A0
330
1F
100
AcDbEntity
  8
SLD-0
  6
SLD-実線
 62
     7
370
    18
100
AcDbLine
 10
503.2221694033
 20
568.0482101624
 30
0.0
 11
503.2221694033
 21
554.0657541574
 31
0.0
  0
LINE
  5
A1
330
1F
100
AcDbEntity
  8
SLD-0
  6
SLD-実線
 62
     7
370
    18
100
AcDbLine
 10
493.9069134009
 20
554.0657541574
 30
0.0
 11
493.9069134009
 21
569.2634701627
 31
0.0
  0
LINE
  5
A2
330
1F
100
AcDbEntity
  8
SLD-0
  6
SLD-実線
 62
     7
370
    18
100
AcDbLine
 10
485.2418333981
 20
646.0657541804
 30
0.0
 11
485.2418333981
 21
554.0657541574
 31
0.0
  0
LINE
  5
A3
330
1F
100
AcDbEntity
  8
SLD-0
  6
SLD-実線
 62
     7
370
    18
100
AcDbLine
 10
478.5221333958
 20
646.0657541804
 30
0.0
 11
478.5221333958
 21
554.0657541574
 31
0.0
  0
LINE
  5
A4
330
1F
100
AcDbEntity
  8
SLD-0
  6
SLD-実線
 62
     7
370
    18
100
AcDbLine
 10
481.3505613965
 20
646.0657541804
 30
0.0
 11
481.3505613965
 21
554.0657541574
 31
0.0
  0
LINE
  5
A5
330
1F
100
AcDbEntity
  8
SLD-0
  6
SLD-実線
 62
     7
370
    18
100
AcDbLine
 10
489.2731733999
 20
554.0657541574
 30
0.0
 11
489.2731733999
 21
575.1113461631
 31
0.0
  0
LINE
  5
A6
330
1F
100
AcDbEntity
  8
SLD-0
  6
SLD-実線
 62
     7
370
    18
100
AcDbLine
 10
574.0890574203
 20
645.4328621822
 30
0.0
 11
574.0890574203
 21
646.0657541804
 31
0.0
  0
LINE
  5
A7
330
1F
100
AcDbEntity
  8
SLD-0
  6
SLD-実線
 62
     7
370
    18
100
AcDbLine
 10
571.3601134192
 20
646.0657541804
 30
0.0
 11
571.3601134192
 21
554.0657541574
 31
0.0
  0
LINE
  5
A8
330
1F
100
AcDbEntity
  8
SLD-0
  6
SLD-実線
 62
     7
370
    18
100
AcDbLine
 10
577.7828054234
 20
641.1790701808
 30
0.0
 11
577.7828054234
 21
554.0657541588
 31
0.0
  0
LINE
  5
A9
330
1F
100
AcDbEntity
  8
SLD-0
  6
SLD-実線
 62
     7
370
    18
100
AcDbLine
 10
562.9739414184
 20
646.0657541804
 30
0.0
 11
562.9739414184
 21
554.0657541574
 31
0.0
  0
LINE
  5
AA
330
1F
100
AcDbEntity
  8
SLD-0
  6
SLD-実線
 62
     7
370
    18
100
AcDbLine
 10
566.8652174179
 20
646.0657541804
 30
0.0
 11
566.8652174179
 21
554.0657541574
 31
0.0
  0
LINE
  5
AB
330
1F
100
AcDbEntity
  8
SLD-0
  6
SLD-実線
 62
     7
370
    18
100
AcDbLine
 10
569.6936414182
 20
646.0657541804
 30
0.0
 11
569.6936414182
 21
554.0657541574
 31
0.0
  0
LINE
  5
AC
330
1F
100
AcDbEntity
  8
SLD-0
  6
SLD-実線
 62
     7
370
    18
100
AcDbLine
 10
544.9936094137
 20
568.0482101624
 30
0.0
 11
544.9936094137
 21
554.0657541574
 31
0.0
  0
LINE
  5
AD
330
1F
100
AcDbEntity
  8
SLD-0
  6
SLD-実線
 62
     7
370
    18
100
AcDbLine
 10
548.5751934138
 20
568.0482101624
 30
0.0
 11
548.5751934138
 21
554.0657541574
 31
0.0
  0
LINE
  5
AE
330
1F
100
AcDbEntity
  8
SLD-0
  6
SLD-実線
 62
     7
370
    18
100
AcDbLine
 10
558.9426054171
 20
554.0657541574
 30
0.0
 11
558.9426054171
 21
575.1113461631
 31
0.0
  0
LINE
  5
AF
330
1F
100
AcDbEntity
  8
SLD-0
  6
SLD-実線
 62
     7
370
    18
100
AcDbLine
 10
554.3088654161
 20
554.0657541574
 30
0.0
 11
554.3088654161
 21
569.2634701627
 31
0.0
  0
LINE
  5
B0
330
1F
100
AcDbEntity
  8
SLD-0
  6
SLD-実線
 62
     7
370
    18
100
AcDbLine
 10
583.6078885112
 20
644.7770776546
 30
0.0
 11
587.6238045129
 21
642.4584856547
 31
0.0
  0
LINE
  5
B1
330
1F
100
AcDbEntity
  8
SLD-0
  6
SLD-実線
 62
     7
370
    18
100
AcDbLine
 10
583.1078894232
 20
645.6431021809
 30
0.0
 11
583.1078894232
 21
646.0657541804
 31
0.0
  0
LINE
  5
B2
330
1F
100
AcDbEntity
  8
SLD-0
  6
SLD-実線
 62
     7
370
    18
100
AcDbLine
 10
465.1078899441
 20
645.6431018528
 30
0.0
 11
465.1078899441
 21
646.0657538523
 31
0.0
  0
LINE
  5
B3
330
1F
100
AcDbEntity
  8
SLD-0
  6
SLD-実線
 62
     7
370
    18
100
AcDbLine
 10
466.6169829972
 20
646.0657535677
 30
0.0
 11
464.5041709972
 21
568.5960975497
 31
0.0
  0
LINE
  5
B4
330
1F
100
AcDbEntity
  8
SLD-0
  6
SLD-実線
 62
     7
370
    18
100
AcDbLine
 10
506.1078894027
 20
545.0657541564
 30
0.0
 11
506.1078894027
 21
568.0482101624
 31
0.0
  0
LINE
  5
B5
330
1F
100
AcDbEntity
  8
SLD-0
  6
SLD-実線
 62
     7
370
    18
100
AcDbLine
 10
542.1078894117
 20
545.0657541564
 30
0.0
 11
542.1078894117
 21
568.0482101624
 31
0.0
  0
LINE
  5
B6
330
1F
100
AcDbEntity
  8
SLD-0
  6
SLD-実線
 62
     7
370
    18
100
AcDbLine
 10
594.0152054242
 20
557.0657541594
 30
0.0
 11
590.3554494239
 21
561.322766161
 31
0.0
  0
LINE
  5
B7
330
1F
100
AcDbEntity
  8
SLD-0
  6
SLD-実線
 62
     7
370
    18
100
AcDbLine
 10
594.0152054242
 20
557.0657541594
 30
0.0
 11
594.0152054242
 21
534.0657541524
 31
0.0
  0
LINE
  5
B8
330
1F
100
AcDbEntity
  8
SLD-0
  6
SLD-実線
 62
     7
370
    18
100
AcDbLine
 10
464.5041709972
 20
568.5960975497
 30
0.0
 11
454.7092549966
 21
557.6349975466
 31
0.0
  0
LINE
  5
B9
330
1F
100
AcDbEntity
  8
SLD-0
  6
SLD-実線
 62
     7
370
    18
100
AcDbLine
 10
471.812156398
 20
569.0657545429
 30
0.0
 11
461.5975563954
 21
557.6349985398
 31
0.0
  0
LINE
  5
BA
330
1F
100
AcDbEntity
  8
SLD-0
  6
SLD-実線
 62
     7
370
    18
100
AcDbLine
 10
454.2005733903
 20
556.3023421581
 30
0.0
 11
454.2005733903
 21
534.0657541524
 31
0.0
  0
LINE
  5
BB
330
1F
100
AcDbEntity
  8
SLD-0
  6
SLD-実線
 62
     7
370
    18
100
AcDbLine
 10
461.0888733932
 20
556.3023421581
 30
0.0
 11
461.0888733932
 21
532.0657541519
 31
0.0
  0
LINE
  5
BC
330
1F
100
AcDbEntity
  8
SLD-0
  6
SLD-実線
 62
     7
370
    18
100
AcDbLine
 10
471.8121573949
 20
577.5152061636
 30
0.0
 11
471.8121573949
 21
544.0657541549
 31
0.0
  0
LINE
  5
BD
330
1F
100
AcDbEntity
  8
SLD-0
  6
SLD-実線
 62
     7
370
    18
100
AcDbLine
 10
461.2403053916
 20
557.0657541594
 30
0.0
 11
454.3520053912
 21
557.0657541594
 31
0.0
  0
LINE
  5
BE
330
1F
100
AcDbEntity
  8
SLD-0
  6
SLD-1点鎖線(中心線)
 62
     7
370
    18
100
AcDbLine
 10
524.1078894072
 20
199.1650660684
 30
0.0
 11
524.1078894072
 21
704.0742781961
 31
0.0
  0
LINE
  5
BF
330
1F
100
AcDbEntity
  8
SLD-0
  6
SLD-実線
 62
     7
370
    18
100
AcDbLine
 10
506.1078894027
 20
554.0657541574
 30
0.0
 11
471.8121573949
 21
554.0657541574
 31
0.0
  0
LINE
  5
C0
330
1F
100
AcDbEntity
  8
SLD-0
  6
SLD-実線
 62
     7
370
    18
100
AcDbLine
 10
460.0923573928
 20
641.6202461804
 30
0.0
 11
457.8556933902
 21
561.1560541601
 31
0.0
  0
LINE
  5
C1
330
1F
100
AcDbEntity
  8
SLD-0
  6
SLD-実線
 62
     7
370
    18
100
AcDbLine
 10
464.6078899448
 20
644.7770764491
 30
0.0
 11
460.5919699426
 21
642.4584858514
 31
0.0
  0
LINE
  5
C2
330
1F
100
AcDbEntity
  8
SLD-0
  6
SLD-実線
 62
     7
370
    18
100
AcDbLine
 10
588.1234180654
 20
641.6202441954
 30
0.0
 11
590.5913220653
 21
552.8369761718
 31
0.0
  0
LINE
  5
C3
330
1F
100
AcDbEntity
  8
SLD-0
  6
SLD-実線
 62
     7
370
    18
100
AcDbLine
 10
585.1078846879
 20
549.0657529422
 30
0.0
 11
590.0917086877
 21
551.9431635399
 31
0.0
  0
LINE
  5
C4
330
1F
100
AcDbEntity
  8
SLD-0
  6
SLD-実線
 62
     7
370
    18
100
AcDbLine
 10
464.8629109986
 20
581.7497975516
 30
0.0
 11
464.5041709972
 21
568.5960975497
 31
0.0
  0
LINE
  5
C5
330
1F
100
AcDbEntity
  8
SLD-0
  6
SLD-実線
 62
     7
370
    18
100
AcDbLine
 10
581.5987974224
 20
646.0657541804
 30
0.0
 11
581.6866774219
 21
642.84344618
 31
0.0
  0
LINE
  5
C6
330
1F
100
AcDbEntity
  8
SLD-0
  6
SLD-実線
 62
     7
370
    18
100
AcDbLine
 10
542.1078894117
 20
554.0657541574
 30
0.0
 11
585.1078894237
 21
554.0657541574
 31
0.0
  0
LINE
  5
C7
330
1F
100
AcDbEntity
  8
SLD-0
  6
SLD-実線
 62
     7
370
    18
100
AcDbLine
 10
549.8078894143
 20
315.589414098
 30
0.0
 11
524.1078894072
 21
315.589414098
 31
0.0
  0
LINE
  5
C8
330
1F
100
AcDbEntity
  8
SLD-0
  6
SLD-実線
 62
     7
370
    18
100
AcDbLine
 10
549.8078894143
 20
315.589414098
 30
0.0
 11
549.8078894143
 21
301.4248060951
 31
0.0
  0
LINE
  5
C9
330
1F
100
AcDbEntity
  8
SLD-0
  6
SLD-実線
 62
     7
370
    18
100
AcDbLine
 10
524.1078894072
 20
322.4248060991
 30
0.0
 11
546.6078894135
 21
322.4248060991
 31
0.0
  0
LINE
  5
CA
330
1F
100
AcDbEntity
  8
SLD-0
  6
SLD-実線
 62
     7
370
    18
100
AcDbLine
 10
557.1078894155
 20
320.4751261008
 30
0.0
 11
524.107889406
 21
320.4751261008
 31
0.0
  0
LINE
  5
CB
330
1F
100
AcDbEntity
  8
SLD-0
  6
SLD-実線
 62
     7
370
    18
100
AcDbLine
 10
498.4078894002
 20
315.589414098
 30
0.0
 11
524.1078894072
 21
315.589414098
 31
0.0
  0
LINE
  5
CC
330
1F
100
AcDbEntity
  8
SLD-0
  6
SLD-実線
 62
     7
370
    18
100
AcDbLine
 10
498.4078894002
 20
315.589414098
 30
0.0
 11
498.4078894002
 21
301.4248060951
 31
0.0
  0
LINE
  5
CD
330
1F
100
AcDbEntity
  8
SLD-0
  6
SLD-実線
 62
     7
370
    18
100
AcDbLine
 10
524.1078894072
 20
322.4248060991
 30
0.0
 11
501.607889401
 21
322.4248060991
 31
0.0
  0
LINE
  5
CE
330
1F
100
AcDbEntity
  8
SLD-0
  6
SLD-実線
 62
     7
370
    18
100
AcDbLine
 10
491.107889399
 20
320.4751261008
 30
0.0
 11
524.107889406
 21
320.4751261008
 31
0.0
  0
LINE
  5
CF
330
1F
100
AcDbEntity
  8
SLD-0
  6
SLD-1点鎖線(中心線)
 62
     7
370
    18
100
AcDbLine
 10
505.5768374041
 20
297.0609580943
 30
0.0
 11
541.9255534111
 21
297.0609580943
 31
0.0
  0
LINE
  5
D0
330
1F
100
AcDbEntity
  8
SLD-0
  6
SLD-1点鎖線(中心線)
 62
     7
370
    18
100
AcDbLine
 10
625.4371134337
 20
214.9248060728
 30
0.0
 11
409.5663213788
 21
214.9248060728
 31
0.0
  0
LINE
  5
D1
330
1F
100
AcDbEntity
  8
SLD-0
  6
SLD-1点鎖線(中心線)
 62
     7
370
    18
100
AcDbLine
 10
595.5549854256
 20
256.1748060847
 30
0.0
 11
586.8947294238
 21
251.1748060822
 31
0.0
  0
LINE
  5
D2
330
1F
100
AcDbEntity
  8
SLD-0
  6
SLD-1点鎖線(中心線)
 62
     7
370
    18
100
AcDbLine
 10
595.5549854256
 20
173.6748060635
 30
0.0
 11
586.8947294238
 21
178.6748060634
 31
0.0
  0
LINE
  5
D3
330
1F
100
AcDbEntity
  8
SLD-0
  6
SLD-1点鎖線(中心線)
 62
     7
370
    18
100
AcDbLine
 10
524.1078894072
 20
132.4248060516
 30
0.0
 11
524.1078894072
 21
142.4248060541
 31
0.0
  0
LINE
  5
D4
330
1F
100
AcDbEntity
  8
SLD-0
  6
SLD-1点鎖線(中心線)
 62
     7
370
    18
100
AcDbLine
 10
452.6607933888
 20
173.6748060635
 30
0.0
 11
461.3210453926
 21
178.6748060634
 31
0.0
  0
LINE
  5
D5
330
1F
100
AcDbEntity
  8
SLD-0
  6
SLD-1点鎖線(中心線)
 62
     7
370
    18
100
AcDbLine
 10
452.6607933888
 20
256.1748060847
 30
0.0
 11
461.3210453926
 21
251.1748060822
 31
0.0
  0
LINE
  5
D6
330
1F
100
AcDbEntity
  8
SLD-0
  6
SLD-1点鎖線(中心線)
 62
     7
370
    18
100
AcDbLine
 10
524.1078894072
 20
297.4248060941
 30
0.0
 11
524.1078894072
 21
287.4248060916
 31
0.0
  0
LINE
  5
D7
330
1F
100
AcDbEntity
  8
SLD-0
  6
SLD-実線
 62
     7
370
    18
100
AcDbLine
 10
614.107889355
 20
214.9248061446
 30
0.0
 11
614.107889355
 21
189.9248061396
 31
0.0
  0
LINE
  5
D8
330
1F
100
AcDbEntity
  8
SLD-0
  6
SLD-実線
 62
     7
370
    18
100
AcDbLine
 10
577.211561422
 20
128.4248061773
 30
0.0
 11
524.1078894076
 21
128.4248061773
 31
0.0
  0
LINE
  5
D9
330
1F
100
AcDbEntity
  8
SLD-0
  6
SLD-実線
 62
     7
370
    18
100
AcDbLine
 10
610.6078893547
 20
189.9248061396
 30
0.0
 11
610.6078893547
 21
161.8211341327
 31
0.0
  0
LINE
  5
DA
330
1F
100
AcDbEntity
  8
SLD-0
  6
SLD-実線
 62
     7
370
    18
100
AcDbLine
 10
614.107889355
 20
189.9248061396
 30
0.0
 11
610.6078893547
 21
189.9248061396
 31
0.0
  0
LINE
  5
DB
330
1F
100
AcDbEntity
  8
SLD-0
  6
SLD-実線
 62
     7
370
    18
100
AcDbLine
 10
610.6078894046
 20
182.4248061052
 30
0.0
 11
605.607889402
 21
182.4248061052
 31
0.0
  0
LINE
  5
DC
330
1F
100
AcDbEntity
  8
SLD-0
  6
SLD-実線
 62
     7
370
    18
100
AcDbLine
 10
605.607889402
 20
182.4248061052
 30
0.0
 11
605.607889402
 21
163.2527661029
 31
0.0
  0
LINE
  5
DD
330
1F
100
AcDbEntity
  8
SLD-0
  6
SLD-実線
 62
     7
370
    18
100
AcDbLine
 10
575.779929395
 20
133.4248060952
 30
0.0
 11
556.6078893901
 21
133.4248060952
 31
0.0
  0
LINE
  5
DE
330
1F
100
AcDbEntity
  8
SLD-0
  6
SLD-実線
 62
     7
370
    18
100
AcDbLine
 10
556.6078893901
 20
133.4248060952
 30
0.0
 11
556.6078893901
 21
128.4248060926
 31
0.0
  0
LINE
  5
DF
330
1F
100
AcDbEntity
  8
SLD-0
  6
SLD-実線
 62
     7
370
    18
100
AcDbLine
 10
614.107889355
 20
214.9248061446
 30
0.0
 11
614.107889355
 21
239.924806162
 31
0.0
  0
LINE
  5
E0
330
1F
100
AcDbEntity
  8
SLD-0
  6
SLD-実線
 62
     7
370
    18
100
AcDbLine
 10
610.6078884994
 20
247.4248055496
 30
0.0
 11
605.6078884969
 21
247.4248055496
 31
0.0
  0
LINE
  5
E1
330
1F
100
AcDbEntity
  8
SLD-0
  6
SLD-実線
 62
     7
370
    18
100
AcDbLine
 10
610.6078894694
 20
239.924806162
 30
0.0
 11
610.6078894694
 21
268.0284781689
 31
0.0
  0
LINE
  5
E2
330
1F
100
AcDbEntity
  8
SLD-0
  6
SLD-実線
 62
     7
370
    18
100
AcDbLine
 10
614.107889355
 20
239.924806162
 30
0.0
 11
610.6078894694
 21
239.924806162
 31
0.0
  0
LINE
  5
E3
330
1F
100
AcDbEntity
  8
SLD-0
  6
SLD-実線
 62
     7
370
    18
100
AcDbLine
 10
605.6078884969
 20
247.4248055496
 30
0.0
 11
605.6078884969
 21
266.5968495549
 31
0.0
  0
LINE
  5
E4
330
1F
100
AcDbEntity
  8
SLD-0
  6
SLD-実線
 62
     7
370
    18
100
AcDbLine
 10
575.7799299688
 20
296.4248070386
 30
0.0
 11
556.607889964
 21
296.4248070386
 31
0.0
  0
LINE
  5
E5
330
1F
100
AcDbEntity
  8
SLD-0
  6
SLD-実線
 62
     7
370
    18
100
AcDbLine
 10
556.607889964
 20
296.4248070386
 30
0.0
 11
556.607889964
 21
301.4248070412
 31
0.0
  0
LINE
  5
E6
330
1F
100
AcDbEntity
  8
SLD-0
  6
SLD-実線
 62
     7
370
    18
100
AcDbLine
 10
577.2115616807
 20
301.4248060519
 30
0.0
 11
524.1078894072
 21
301.4248060519
 31
0.0
  0
LINE
  5
E7
330
1F
100
AcDbEntity
  8
SLD-0
  6
SLD-実線
 62
     7
370
    18
100
AcDbLine
 10
434.1078893172
 20
214.9248060885
 30
0.0
 11
434.1078893172
 21
239.924806096
 31
0.0
  0
LINE
  5
E8
330
1F
100
AcDbEntity
  8
SLD-0
  6
SLD-実線
 62
     7
370
    18
100
AcDbLine
 10
437.60788936
 20
247.4248061227
 30
0.0
 11
442.6078893626
 21
247.4248061227
 31
0.0
  0
LINE
  5
E9
330
1F
100
AcDbEntity
  8
SLD-0
  6
SLD-実線
 62
     7
370
    18
100
AcDbLine
 10
437.607889318
 20
239.924806096
 30
0.0
 11
437.607889318
 21
268.0284781543
 31
0.0
  0
LINE
  5
EA
330
1F
100
AcDbEntity
  8
SLD-0
  6
SLD-実線
 62
     7
370
    18
100
AcDbLine
 10
434.1078893172
 20
239.924806096
 30
0.0
 11
437.607889318
 21
239.924806096
 31
0.0
  0
LINE
  5
EB
330
1F
100
AcDbEntity
  8
SLD-0
  6
SLD-実線
 62
     7
370
    18
100
AcDbLine
 10
442.6078893626
 20
247.4248061227
 30
0.0
 11
442.6078893626
 21
266.5968501281
 31
0.0
  0
LINE
  5
EC
330
1F
100
AcDbEntity
  8
SLD-0
  6
SLD-実線
 62
     7
370
    18
100
AcDbLine
 10
472.4358453698
 20
296.4248061346
 30
0.0
 11
491.6078893726
 21
296.4248061346
 31
0.0
  0
LINE
  5
ED
330
1F
100
AcDbEntity
  8
SLD-0
  6
SLD-実線
 62
     7
370
    18
100
AcDbLine
 10
491.6078893726
 20
296.4248061346
 30
0.0
 11
491.6078893726
 21
301.4248061372
 31
0.0
  0
LINE
  5
EE
330
1F
100
AcDbEntity
  8
SLD-0
  6
SLD-実線
 62
     7
370
    18
100
AcDbLine
 10
471.0042171362
 20
301.4248060519
 30
0.0
 11
524.1078894072
 21
301.4248060519
 31
0.0
  0
LINE
  5
EF
330
1F
100
AcDbEntity
  8
SLD-0
  6
SLD-実線
 62
     7
370
    18
100
AcDbLine
 10
434.1078893172
 20
214.9248060885
 30
0.0
 11
434.1078893172
 21
189.9248060835
 31
0.0
  0
LINE
  5
F0
330
1F
100
AcDbEntity
  8
SLD-0
  6
SLD-実線
 62
     7
370
    18
100
AcDbLine
 10
437.6078884549
 20
182.4248055321
 30
0.0
 11
442.6078884574
 21
182.4248055321
 31
0.0
  0
LINE
  5
F1
330
1F
100
AcDbEntity
  8
SLD-0
  6
SLD-実線
 62
     7
370
    18
100
AcDbLine
 10
437.6078893174
 20
189.9248060835
 30
0.0
 11
437.6078893174
 21
161.8211340766
 31
0.0
  0
LINE
  5
F2
330
1F
100
AcDbEntity
  8
SLD-0
  6
SLD-実線
 62
     7
370
    18
100
AcDbLine
 10
434.1078893172
 20
189.9248060835
 30
0.0
 11
437.6078893174
 21
189.9248060835
 31
0.0
  0
LINE
  5
F3
330
1F
100
AcDbEntity
  8
SLD-0
  6
SLD-実線
 62
     7
370
    18
100
AcDbLine
 10
442.6078884574
 20
182.4248055321
 30
0.0
 11
442.6078884574
 21
163.2527655298
 31
0.0
  0
LINE
  5
F4
330
1F
100
AcDbEntity
  8
SLD-0
  6
SLD-実線
 62
     7
370
    18
100
AcDbLine
 10
472.4358459437
 20
133.4248069992
 30
0.0
 11
491.6078899465
 21
133.4248069992
 31
0.0
  0
LINE
  5
F5
330
1F
100
AcDbEntity
  8
SLD-0
  6
SLD-実線
 62
     7
370
    18
100
AcDbLine
 10
491.6078899465
 20
133.4248069992
 30
0.0
 11
491.6078899465
 21
128.4248069966
 31
0.0
  0
LINE
  5
F6
330
1F
100
AcDbEntity
  8
SLD-0
  6
SLD-実線
 62
     7
370
    18
100
AcDbLine
 10
471.0042171366
 20
128.4248061773
 30
0.0
 11
524.1078894076
 21
128.4248061773
 31
0.0
  0
LINE
  5
F7
330
1F
100
AcDbEntity
  8
SLD-0
  6
SLD-1点鎖線(中心線)
 62
     7
370
    18
100
AcDbLine
 10
594.8185654253
 20
144.2141300548
 30
0.0
 11
580.6764294208
 21
158.3562660593
 31
0.0
  0
LINE
  5
F8
330
1F
100
AcDbEntity
  8
SLD-0
  6
SLD-1点鎖線(中心線)
 62
     7
370
    18
100
AcDbLine
 10
453.3972093912
 20
285.6354860914
 30
0.0
 11
467.5393453944
 21
271.4933500882
 31
0.0
  0
LINE
  5
F9
330
1F
100
AcDbEntity
  8
SLD-0
  6
SLD-破線
 62
     7
370
    18
100
AcDbLine
 10
614.1078894297
 20
231.5493060775
 30
0.0
 11
594.1078894247
 21
231.5493060775
 31
0.0
  0
LINE
  5
FA
330
1F
100
AcDbEntity
  8
SLD-0
  6
SLD-破線
 62
     7
370
    18
100
AcDbLine
 10
614.1078894297
 20
230.0703060764
 30
0.0
 11
594.1078894247
 21
230.0703060764
 31
0.0
  0
LINE
  5
FB
330
1F
100
AcDbEntity
  8
SLD-0
  6
SLD-破線
 62
     7
370
    18
100
AcDbLine
 10
614.1078894297
 20
199.7793060692
 30
0.0
 11
594.1078894247
 21
199.7793060692
 31
0.0
  0
LINE
  5
FC
330
1F
100
AcDbEntity
  8
SLD-0
  6
SLD-破線
 62
     7
370
    18
100
AcDbLine
 10
614.1078894297
 20
198.3003060681
 30
0.0
 11
594.1078894247
 21
198.3003060681
 31
0.0
  0
LINE
  5
FD
330
1F
100
AcDbEntity
  8
SLD-0
  6
SLD-破線
 62
     7
370
    18
100
AcDbLine
 10
434.1078893847
 20
230.0703060764
 30
0.0
 11
454.1078893897
 21
230.0703060764
 31
0.0
  0
LINE
  5
FE
330
1F
100
AcDbEntity
  8
SLD-0
  6
SLD-破線
 62
     7
370
    18
100
AcDbLine
 10
434.1078893847
 20
231.5493060775
 30
0.0
 11
454.1078893897
 21
231.5493060775
 31
0.0
  0
LINE
  5
FF
330
1F
100
AcDbEntity
  8
SLD-0
  6
SLD-破線
 62
     7
370
    18
100
AcDbLine
 10
434.1078893847
 20
199.7793060692
 30
0.0
 11
454.1078893897
 21
199.7793060692
 31
0.0
  0
LINE
  5
100
330
1F
100
AcDbEntity
  8
SLD-0
  6
SLD-破線
 62
     7
370
    18
100
AcDbLine
 10
434.1078893847
 20
198.3003060681
 30
0.0
 11
454.1078893897
 21
198.3003060681
 31
0.0
  0
LINE
  5
101
330
1F
100
AcDbEntity
  8
SLD-0
  6
SLD-実線
 62
     7
370
    18
100
AcDbLine
 10
556.607889416
 20
432.0657541269
 30
0.0
 11
610.6078894295
 21
432.0657541269
 31
0.0
  0
LINE
  5
102
330
1F
100
AcDbEntity
  8
SLD-0
  6
SLD-実線
 62
     7
370
    18
100
AcDbLine
 10
614.1078894297
 20
540.0657541539
 30
0.0
 11
614.1078894297
 21
437.7657541289
 31
0.0
  0
LINE
  5
103
330
1F
100
AcDbEntity
  8
SLD-0
  6
SLD-実線
 62
     7
370
    18
100
AcDbLine
 10
610.6078894295
 20
445.0657541314
 30
0.0
 11
610.6078894295
 21
432.0657541269
 31
0.0
  0
LINE
  5
104
330
1F
100
AcDbEntity
  8
SLD-0
  6
SLD-実線
 62
     7
370
    18
100
AcDbLine
 10
524.1078894072
 20
445.0657541314
 30
0.0
 11
610.6078894295
 21
445.0657541314
 31
0.0
  0
LINE
  5
105
330
1F
100
AcDbEntity
  8
SLD-0
  6
SLD-実線
 62
     7
370
    18
100
AcDbLine
 10
610.6078894295
 20
437.7657541289
 30
0.0
 11
614.1078894297
 21
437.7657541289
 31
0.0
  0
LINE
  5
106
330
1F
100
AcDbEntity
  8
SLD-0
  6
SLD-実線
 62
     7
370
    18
100
AcDbLine
 10
585.1078894237
 20
554.0657541574
 30
0.0
 11
585.1078894237
 21
540.0657541539
 31
0.0
  0
LINE
  5
107
330
1F
100
AcDbEntity
  8
SLD-0
  6
SLD-実線
 62
     7
370
    18
100
AcDbLine
 10
579.7495974225
 20
540.0657541539
 30
0.0
 11
614.1078894297
 21
540.0657541539
 31
0.0
  0
LINE
  5
108
330
1F
100
AcDbEntity
  8
SLD-0
  6
SLD-実線
 62
     7
370
    18
100
AcDbLine
 10
463.1078893932
 20
545.0657541564
 30
0.0
 11
463.1078893932
 21
544.0657541549
 31
0.0
  0
LINE
  5
109
330
1F
100
AcDbEntity
  8
SLD-0
  6
SLD-実線
 62
     7
370
    18
100
AcDbLine
 10
454.2008893891
 20
540.0657541539
 30
0.0
 11
434.1078893847
 21
540.0657541539
 31
0.0
  0
LINE
  5
10A
330
1F
100
AcDbEntity
  8
SLD-0
  6
SLD-実線
 62
     7
370
    18
100
AcDbLine
 10
434.1078893847
 20
540.0657541539
 30
0.0
 11
434.1078893847
 21
437.7657541289
 31
0.0
  0
LINE
  5
10B
330
1F
100
AcDbEntity
  8
SLD-0
  6
SLD-実線
 62
     7
370
    18
100
AcDbLine
 10
437.607889385
 20
437.7657541289
 30
0.0
 11
434.1078893847
 21
437.7657541289
 31
0.0
  0
LINE
  5
10C
330
1F
100
AcDbEntity
  8
SLD-0
  6
SLD-実線
 62
     7
370
    18
100
AcDbLine
 10
437.607889385
 20
445.0657541314
 30
0.0
 11
437.607889385
 21
432.0657541269
 31
0.0
  0
LINE
  5
10D
330
1F
100
AcDbEntity
  8
SLD-0
  6
SLD-実線
 62
     7
370
    18
100
AcDbLine
 10
524.1078894072
 20
445.0657541314
 30
0.0
 11
437.607889385
 21
445.0657541314
 31
0.0
  0
LINE
  5
10E
330
1F
100
AcDbEntity
  8
SLD-0
  6
SLD-実線
 62
     7
370
    18
100
AcDbLine
 10
556.607889416
 20
432.0657541269
 30
0.0
 11
437.607889385
 21
432.0657541269
 31
0.0
  0
LINE
  5
10F
330
1F
100
AcDbEntity
  8
SLD-0
  6
SLD-実線
 62
     7
370
    18
100
AcDbLine
 10
461.0888893926
 20
544.0657541549
 30
0.0
 11
461.0888893926
 21
509.0657541474
 31
0.0
  0
LINE
  5
110
330
1F
100
AcDbEntity
  8
SLD-0
  6
SLD-実線
 62
     7
370
    18
100
AcDbLine
 10
454.2008893891
 20
544.0657541549
 30
0.0
 11
454.2008893891
 21
505.4387581451
 31
0.0
  0
LINE
  5
111
330
1F
100
AcDbEntity
  8
SLD-0
  6
SLD-実線
 62
     7
370
    18
100
AcDbLine
 10
524.1078897623
 20
507.0657537439
 30
0.0
 11
459.0366737454
 21
507.0657537439
 31
0.0
  0
LINE
  5
112
330
1F
100
AcDbEntity
  8
SLD-0
  6
SLD-実線
 62
     7
370
    18
100
AcDbLine
 10
451.1005373882
 20
500.074582145
 30
0.0
 11
444.1078893872
 21
445.0657541314
 31
0.0
  0
LINE
  5
113
330
1F
100
AcDbEntity
  8
SLD-0
  6
SLD-実線
 62
     7
370
    18
100
AcDbLine
 10
524.1078897623
 20
507.0657537439
 30
0.0
 11
585.1203817782
 21
507.0657537439
 31
0.0
  0
LINE
  5
114
330
1F
100
AcDbEntity
  8
SLD-0
  6
SLD-実線
 62
     7
370
    18
100
AcDbLine
 10
593.0555740455
 20
500.0819820449
 30
0.0
 11
600.101290048
 21
445.0657540309
 31
0.0
  0
LINE
  5
115
330
1F
100
AcDbEntity
  8
SLD-0
  6
SLD-実線
 62
     7
370
    18
100
AcDbLine
 10
579.7495974225
 20
540.0657541539
 30
0.0
 11
581.9351894217
 21
507.0657541469
 31
0.0
  0
LINE
  5
116
330
1F
100
AcDbEntity
  8
SLD-0
  6
SLD-破線
 62
     7
370
    18
100
AcDbLine
 10
614.1078894297
 20
532.211254153
 30
0.0
 11
594.1078894247
 21
532.211254153
 31
0.0
  0
LINE
  5
117
330
1F
100
AcDbEntity
  8
SLD-0
  6
SLD-破線
 62
     7
370
    18
100
AcDbLine
 10
614.1078894297
 20
533.6902541541
 30
0.0
 11
594.1078894247
 21
533.6902541541
 31
0.0
  0
LINE
  5
118
330
1F
100
AcDbEntity
  8
SLD-0
  6
SLD-破線
 62
     7
370
    18
100
AcDbLine
 10
614.1078894297
 20
501.9202541458
 30
0.0
 11
594.1078894247
 21
501.9202541458
 31
0.0
  0
LINE
  5
119
330
1F
100
AcDbEntity
  8
SLD-0
  6
SLD-破線
 62
     7
370
    18
100
AcDbLine
 10
614.1078894297
 20
500.4412541447
 30
0.0
 11
594.1078894247
 21
500.4412541447
 31
0.0
  0
LINE
  5
11A
330
1F
100
AcDbEntity
  8
SLD-0
  6
SLD-破線
 62
     7
370
    18
100
AcDbLine
 10
434.1078893847
 20
501.9202541458
 30
0.0
 11
454.1078893897
 21
501.9202541458
 31
0.0
  0
LINE
  5
11B
330
1F
100
AcDbEntity
  8
SLD-0
  6
SLD-破線
 62
     7
370
    18
100
AcDbLine
 10
434.1078893847
 20
500.4412541447
 30
0.0
 11
454.1078893897
 21
500.4412541447
 31
0.0
  0
LINE
  5
11C
330
1F
100
AcDbEntity
  8
SLD-0
  6
SLD-破線
 62
     7
370
    18
100
AcDbLine
 10
434.1078893847
 20
532.211254153
 30
0.0
 11
454.1078893897
 21
532.211254153
 31
0.0
  0
LINE
  5
11D
330
1F
100
AcDbEntity
  8
SLD-0
  6
SLD-破線
 62
     7
370
    18
100
AcDbLine
 10
434.1078893847
 20
533.6902541541
 30
0.0
 11
454.1078893897
 21
533.6902541541
 31
0.0
  0
LINE
  5
11E
330
1F
100
AcDbEntity
  8
SLD-0
  6
SLD-実線
 62
     7
370
    18
100
AcDbLine
 10
585.1078894237
 20
545.0657541564
 30
0.0
 11
454.2005733903
 21
545.0657541564
 31
0.0
  0
LINE
  5
11F
330
1F
100
AcDbEntity
  8
SLD-0
  6
SLD-実線
 62
     7
370
    18
100
AcDbLine
 10
466.1078893927
 20
545.0657541564
 30
0.0
 11
463.1078893932
 21
545.0657541564
 31
0.0
  0
LINE
  5
120
330
1F
100
AcDbEntity
  8
SLD-0
  6
SLD-実線
 62
     7
370
    18
100
AcDbLine
 10
471.8128893949
 20
544.0657541549
 30
0.0
 11
454.2005733903
 21
544.0657541549
 31
0.0
  0
LINE
  5
121
330
1F
100
AcDbEntity
  8
SLD-0
  6
SLD-実線
 62
     7
370
    18
100
AcDbLine
 10
471.8128893949
 20
544.0657541549
 30
0.0
 11
470.228409394
 21
508.9606341468
 31
0.0
  0
LINE
  5
122
330
1F
100
AcDbEntity
  8
SLD-0
  6
SLD-実線
 62
     7
370
    18
100
AcDbLine
 10
594.0148894253
 20
544.0657541549
 30
0.0
 11
594.0148894253
 21
540.0657541539
 31
0.0
  0
LINE
  5
123
330
1F
100
AcDbEntity
  8
SLD-0
  6
SLD-実線
 62
     7
370
    18
100
AcDbLine
 10
585.1078894237
 20
544.0657541549
 30
0.0
 11
594.0152054242
 21
544.0657541549
 31
0.0
  0
LINE
  5
124
330
1F
100
AcDbEntity
  8
SLD-0
  6
SLD-1点鎖線(中心線)
 62
     7
370
    18
100
AcDbLine
 10
430.4071453841
 20
517.0657541494
 30
0.0
 11
455.3888733911
 21
517.0657541494
 31
0.0
  0
LINE
  5
125
330
1F
100
AcDbEntity
  8
SLD-0
  6
SLD-1点鎖線(中心線)
 62
     7
370
    18
100
AcDbLine
 10
515.6724934053
 20
511.0657541479
 30
0.0
 11
534.1122214102
 21
511.0657541479
 31
0.0
  0
LINE
  5
126
330
1F
100
AcDbEntity
  8
SLD-0
  6
SLD-1点鎖線(中心線)
 62
     7
370
    18
100
AcDbLine
 10
587.7117134236
 20
517.0657541494
 30
0.0
 11
618.0614414312
 21
517.0657541494
 31
0.0
  0
ARC
  5
127
330
1F
100
AcDbEntity
  8
SLD-0
  6
SLD-実線
 62
     7
370
    18
100
AcDbCircle
 10
524.1078894072
 20
297.0609580943
 30
0.0
 40
11.00000000275013
100
AcDbArc
 50
23.372884
 51
156.627116
  0
ARC
  5
128
330
1F
100
AcDbEntity
  8
1
  6
SLD-実線
 62
     7
370
    18
100
AcDbCircle
 10
498.6078894002
 20
577.7482101629
 30
0.0
 40
9.700000001789931
100
AcDbArc
 50
180.0
 51
270.0
  0
ARC
  5
129
330
1F
100
AcDbEntity
  8
1
  6
SLD-実線
 62
     7
370
    18
100
AcDbCircle
 10
549.6078894117
 20
577.7482101629
 30
0.0
 40
9.700000001789931
100
AcDbArc
 50
270.0
 51
0.0
  0
ARC
  5
12A
330
1F
100
AcDbEntity
  8
1
  6
SLD-実線
 62
     7
370
    18
100
AcDbCircle
 10
549.6078894104
 20
655.838090183
 30
0.0
 40
9.70000000306004
100
AcDbArc
 50
0.0
 51
89.999999985
  0
ARC
  5
12B
330
1F
100
AcDbEntity
  8
1
  6
SLD-実線
 62
     7
370
    18
100
AcDbCircle
 10
498.6078894015
 20
655.838090183
 30
0.0
 40
9.70000000306004
100
AcDbArc
 50
90.0
 51
180.0
  0
ARC
  5
12C
330
1F
100
AcDbEntity
  8
SLD-0
  6
SLD-実線
 62
     7
370
    18
100
AcDbCircle
 10
504.6078894017
 20
583.2657541647
 30
0.0
 40
5.0000000012501
100
AcDbArc
 50
180.0
 51
270.0
  0
ARC
  5
12D
330
1F
100
AcDbEntity
  8
SLD-0
  6
SLD-実線
 62
     7
370
    18
100
AcDbCircle
 10
543.6078894102
 20
583.2657541647
 30
0.0
 40
5.0000000012501
100
AcDbArc
 50
270.0
 51
0.0
  0
ARC
  5
12E
330
1F
100
AcDbEntity
  8
SLD-0
  6
SLD-実線
 62
     7
370
    18
100
AcDbCircle
 10
543.6078894089
 20
650.3205461813
 30
0.0
 40
5.000000002519982
100
AcDbArc
 50
0.0
 51
89.9999999709
  0
ARC
  5
12F
330
1F
100
AcDbEntity
  8
SLD-0
  6
SLD-実線
 62
     7
370
    18
100
AcDbCircle
 10
504.607889403
 20
650.3205461813
 30
0.0
 40
5.000000002520039
100
AcDbArc
 50
90.0
 51
180.0
  0
ARC
  5
130
330
1F
100
AcDbEntity
  8
SLD-0
  6
SLD-実線
 62
     7
370
    18
100
AcDbCircle
 10
560.607889417
 20
651.0657541822
 30
0.0
 40
5.000000001885063
100
AcDbArc
 50
254.929938
 51
270.0
  0
ARC
  5
131
330
1F
100
AcDbEntity
  8
SLD-0
  6
SLD-実線
 62
     7
370
    18
100
AcDbCircle
 10
567.9778894175
 20
694.9357541931
 30
0.0
 40
1.130000000600035
100
AcDbArc
 50
0.0
 51
90.0
  0
ARC
  5
132
330
1F
100
AcDbEntity
  8
SLD-0
  6
SLD-実線
 62
     7
370
    18
100
AcDbCircle
 10
586.2778894231
 20
679.9357541898
 30
0.0
 40
1.130000000600148
100
AcDbArc
 50
0.0
 51
90.0
  0
ARC
  5
133
330
1F
100
AcDbEntity
  8
SLD-0
  6
SLD-実線
 62
     7
370
    18
100
AcDbCircle
 10
569.6078893445
 20
692.3260341929
 30
0.0
 40
0.4999999264368853
100
AcDbArc
 50
180.0
 51
235.0000190067
  0
ARC
  5
134
330
1F
100
AcDbEntity
  8
SLD-0
  6
SLD-実線
 62
     7
370
    18
100
AcDbCircle
 10
487.6078893975
 20
651.0657541822
 30
0.0
 40
5.000000001885049
100
AcDbArc
 50
270.0
 51
285.070062
  0
ARC
  5
135
330
1F
100
AcDbEntity
  8
SLD-0
  6
SLD-実線
 62
     7
370
    18
100
AcDbCircle
 10
478.6078893959
 20
692.3260341929
 30
0.0
 40
0.4999999997159534
100
AcDbArc
 50
304.9999999953
 51
0.0
  0
ARC
  5
136
330
1F
100
AcDbEntity
  8
SLD-0
  6
SLD-実線
 62
     7
370
    18
100
AcDbCircle
 10
461.9378893914
 20
679.9357541898
 30
0.0
 40
1.130000000600091
100
AcDbArc
 50
90.0
 51
180.0
  0
ARC
  5
137
330
1F
100
AcDbEntity
  8
SLD-0
  6
SLD-実線
 62
     7
370
    18
100
AcDbCircle
 10
480.2378893962
 20
694.9357541931
 30
0.0
 40
1.130000000599978
100
AcDbArc
 50
90.0
 51
180.0
  0
ARC
  5
138
330
1F
100
AcDbEntity
  8
SLD-0
  6
SLD-実線
 62
     7
370
    18
100
AcDbCircle
 10
582.2361792669
 20
641.135623073
 30
0.0
 40
0.9999999999079137
100
AcDbArc
 50
0.0
 51
51.7118970539
  0
ARC
  5
139
330
1F
100
AcDbEntity
  8
SLD-0
  6
SLD-実線
 62
     7
370
    18
100
AcDbCircle
 10
579.9653785611
 20
645.4763101802
 30
0.0
 40
1.000001139821734
100
AcDbArc
 50
180.0
 51
231.712004691
  0
ARC
  5
13A
330
1F
100
AcDbEntity
  8
SLD-0
  6
SLD-実線
 62
     7
370
    18
100
AcDbCircle
 10
576.7828054239
 20
641.1790701808
 30
0.0
 40
0.9999999994979589
100
AcDbArc
 50
0.0
 51
47.6120090002
  0
ARC
  5
13B
330
1F
100
AcDbEntity
  8
SLD-0
  6
SLD-実線
 62
     7
370
    18
100
AcDbCircle
 10
575.0890574207
 20
645.4328621822
 30
0.0
 40
1.000000000435989
100
AcDbArc
 50
180.0
 51
227.6120090984
  0
ARC
  5
13C
330
1F
100
AcDbEntity
  8
SLD-0
  6
SLD-実線
 62
     7
370
    18
100
AcDbCircle
 10
490.2731733989
 20
641.3931781788
 30
0.0
 40
1.000000000249945
100
AcDbArc
 50
154.413842
 51
180.0
  0
ARC
  5
13D
330
1F
100
AcDbEntity
  8
SLD-0
  6
SLD-実線
 62
     7
370
    18
100
AcDbCircle
 10
584.1078888154
 20
645.6431021809
 30
0.0
 40
0.9999993921441046
100
AcDbArc
 50
180.0
 51
239.999959768
  0
ARC
  5
13E
330
1F
100
AcDbEntity
  8
SLD-0
  6
SLD-実線
 62
     7
370
    18
100
AcDbCircle
 10
464.1078899435
 20
645.6431018528
 30
0.0
 40
1.000000000532395
100
AcDbArc
 50
300.0000000653
 51
0.0
  0
ARC
  5
13F
330
1F
100
AcDbEntity
  8
SLD-0
  6
SLD-実線
 62
     7
370
    18
100
AcDbCircle
 10
463.0888728226
 20
556.3023421581
 30
0.0
 40
1.999999429424065
100
AcDbArc
 50
138.2156839724
 51
180.0
  0
ARC
  5
140
330
1F
100
AcDbEntity
  8
SLD-0
  6
SLD-実線
 62
     7
370
    18
100
AcDbCircle
 10
456.2005743103
 20
556.3023421581
 30
0.0
 40
2.000000919981148
100
AcDbArc
 50
138.215760289
 51
180.0
  0
ARC
  5
141
330
1F
100
AcDbEntity
  8
SLD-0
  6
SLD-実線
 62
     7
370
    18
100
AcDbCircle
 10
461.0919697594
 20
641.5924621693
 30
0.0
 40
0.9999984173347927
100
AcDbArc
 50
120.000040232
 51
178.4078860252
  0
ARC
  5
142
330
1F
100
AcDbEntity
  8
SLD-0
  6
SLD-実線
 62
     7
370
    18
100
AcDbCircle
 10
589.5917091461
 20
552.8091881475
 30
0.0
 40
0.9999990812664165
100
AcDbArc
 50
300.0000000653
 51
1.5923429489
  0
ARC
  5
143
330
1F
100
AcDbEntity
  8
SLD-0
  6
SLD-実線
 62
     7
370
    18
100
AcDbCircle
 10
587.1238036957
 20
641.59246024
 30
0.0
 40
1.000000418082049
100
AcDbArc
 50
1.5921076023
 51
59.999959768
  0
ARC
  5
144
330
1F
100
AcDbEntity
  8
SLD-0
  6
SLD-破線
 62
     7
370
    18
100
AcDbCircle
 10
524.1078894072
 20
297.0609580943
 30
0.0
 40
11.00000000275013
100
AcDbArc
 50
156.627116
 51
23.372884
  0
ARC
  5
145
330
1F
100
AcDbEntity
  8
SLD-0
  6
SLD-実線
 62
     7
370
    18
100
AcDbCircle
 10
546.6078894135
 20
319.2248060983
 30
0.0
 40
3.200000000800094
100
AcDbArc
 50
22.999613
 51
90.0
  0
ARC
  5
146
330
1F
100
AcDbEntity
  8
SLD-0
  6
SLD-実線
 62
     7
370
    18
100
AcDbCircle
 10
557.1078894155
 20
318.2751261015
 30
0.0
 40
2.199999999280067
100
AcDbArc
 50
0.0
 51
90.0
  0
ARC
  5
147
330
1F
100
AcDbEntity
  8
SLD-0
  6
SLD-実線
 62
     7
370
    18
100
AcDbCircle
 10
501.607889401
 20
319.2248060983
 30
0.0
 40
3.200000000800348
100
AcDbArc
 50
90.0
 51
157.000387
  0
ARC
  5
148
330
1F
100
AcDbEntity
  8
SLD-0
  6
SLD-実線
 62
     7
370
    18
100
AcDbCircle
 10
491.107889399
 20
318.2751261002
 30
0.0
 40
2.200000000549949
100
AcDbArc
 50
90.0
 51
180.0
  0
ARC
  5
149
330
1F
100
AcDbEntity
  8
SLD-0
  6
SLD-実線
 62
     7
370
    18
100
AcDbCircle
 10
524.1078893817
 20
214.9248061143
 30
0.0
 40
42.50000001062504
100
AcDbArc
 50
153.465735
 51
116.660761
  0
ARC
  5
14A
330
1F
100
AcDbEntity
  8
SLD-0
  6
SLD-実線
 62
     7
370
    18
100
AcDbCircle
 10
524.1078893817
 20
214.9248061143
 30
0.0
 40
52.5000000131253
100
AcDbArc
 50
151.867711
 51
120.769644
  0
CIRCLE
  5
14B
330
1F
100
AcDbEntity
  8
SLD-0
  6
SLD-実線
 62
     7
370
    18
100
AcDbCircle
 10
524.1078893817
 20
214.9248061143
 30
0.0
 40
83.50000002087472
  0
CIRCLE
  5
14C
330
1F
100
AcDbEntity
  8
SLD-0
  6
SLD-実線
 62
     7
370
    18
100
AcDbCircle
 10
524.1078893817
 20
214.9248061143
 30
0.0
 40
12.50000000312483
  0
ARC
  5
14D
330
1F
100
AcDbEntity
  8
SLD-0
  6
SLD-1点鎖線(中心線)
 62
     7
370
    18
100
AcDbCircle
 10
524.1078893817
 20
214.9248061143
 30
0.0
 40
77.500000019375
100
AcDbArc
 50
26.300929
 51
33.699071
  0
CIRCLE
  5
14E
330
1F
100
AcDbEntity
  8
SLD-0
  6
SLD-実線
 62
     7
370
    18
100
AcDbCircle
 10
591.2248574235
 20
253.6748060835
 30
0.0
 40
2.750000000687237
  0
ARC
  5
14F
330
1F
100
AcDbEntity
  8
SLD-0
  6
SLD-1点鎖線(中心線)
 62
     7
370
    18
100
AcDbCircle
 10
524.1078893817
 20
214.9248061143
 30
0.0
 40
77.50000001937501
100
AcDbArc
 50
326.300929
 51
333.699071
  0
CIRCLE
  5
150
330
1F
100
AcDbEntity
  8
SLD-0
  6
SLD-実線
 62
     7
370
    18
100
AcDbCircle
 10
591.2248574235
 20
176.1748060647
 30
0.0
 40
2.750000000687237
  0
ARC
  5
151
330
1F
100
AcDbEntity
  8
SLD-0
  6
SLD-1点鎖線(中心線)
 62
     7
370
    18
100
AcDbCircle
 10
524.1078893817
 20
214.9248061143
 30
0.0
 40
77.50000001937505
100
AcDbArc
 50
266.300929
 51
273.699071
  0
CIRCLE
  5
152
330
1F
100
AcDbEntity
  8
SLD-0
  6
SLD-実線
 62
     7
370
    18
100
AcDbCircle
 10
524.1078894072
 20
137.4248060541
 30
0.0
 40
2.750000000687237
  0
ARC
  5
153
330
1F
100
AcDbEntity
  8
SLD-0
  6
SLD-1点鎖線(中心線)
 62
     7
370
    18
100
AcDbCircle
 10
524.1078893817
 20
214.9248061143
 30
0.0
 40
77.50000001937538
100
AcDbArc
 50
206.300929
 51
213.699071
  0
CIRCLE
  5
154
330
1F
100
AcDbEntity
  8
SLD-0
  6
SLD-実線
 62
     7
370
    18
100
AcDbCircle
 10
456.990921391
 20
176.1748060647
 30
0.0
 40
2.750000000687237
  0
ARC
  5
155
330
1F
100
AcDbEntity
  8
SLD-0
  6
SLD-1点鎖線(中心線)
 62
     7
370
    18
100
AcDbCircle
 10
524.1078893817
 20
214.9248061143
 30
0.0
 40
77.50000001937532
100
AcDbArc
 50
146.300929
 51
153.699071
  0
CIRCLE
  5
156
330
1F
100
AcDbEntity
  8
SLD-0
  6
SLD-実線
 62
     7
370
    18
100
AcDbCircle
 10
456.990921391
 20
253.6748060835
 30
0.0
 40
2.750000000687237
  0
ARC
  5
157
330
1F
100
AcDbEntity
  8
SLD-0
  6
SLD-1点鎖線(中心線)
 62
     7
370
    18
100
AcDbCircle
 10
524.1078893817
 20
214.9248061143
 30
0.0
 40
77.50000001937501
100
AcDbArc
 50
86.300929
 51
93.699071
  0
CIRCLE
  5
158
330
1F
100
AcDbEntity
  8
SLD-0
  6
SLD-実線
 62
     7
370
    18
100
AcDbCircle
 10
524.1078894072
 20
292.4248060916
 30
0.0
 40
2.750000000687237
  0
ARC
  5
159
330
1F
100
AcDbEntity
  8
SLD-0
  6
SLD-実線
 62
     7
370
    18
100
AcDbCircle
 10
524.1078893817
 20
214.9248061143
 30
0.0
 40
101.4999998682865
100
AcDbArc
 50
301.5463999006
 51
328.4536001383
  0
ARC
  5
15A
330
1F
100
AcDbEntity
  8
SLD-0
  6
SLD-実線
 62
     7
370
    18
100
AcDbCircle
 10
524.1078893817
 20
214.9248061143
 30
0.0
 40
96.49999856089867
100
AcDbArc
 50
302.3752188616
 51
327.6247811397
  0
ARC
  5
15B
330
1F
100
AcDbEntity
  8
SLD-0
  6
SLD-実線
 62
     7
370
    18
100
AcDbCircle
 10
524.1078893817
 20
214.9248061143
 30
0.0
 40
101.500000004135
100
AcDbArc
 50
31.546399863
 51
58.4535999751
  0
ARC
  5
15C
330
1F
100
AcDbEntity
  8
SLD-0
  6
SLD-実線
 62
     7
370
    18
100
AcDbCircle
 10
524.1078893817
 20
214.9248061143
 30
0.0
 40
96.49999963263578
100
AcDbArc
 50
32.3752208676
 51
57.6247811384
  0
ARC
  5
15D
330
1F
100
AcDbEntity
  8
SLD-0
  6
SLD-実線
 62
     7
370
    18
100
AcDbCircle
 10
524.1078893817
 20
214.9248061143
 30
0.0
 40
101.4999999761396
100
AcDbArc
 50
121.5463999991
 51
148.453600137
  0
ARC
  5
15E
330
1F
100
AcDbEntity
  8
SLD-0
  6
SLD-実線
 62
     7
370
    18
100
AcDbCircle
 10
524.1078893817
 20
214.9248061143
 30
0.0
 40
96.50000070301282
100
AcDbArc
 50
122.3752208664
 51
147.6247791324
  0
ARC
  5
15F
330
1F
100
AcDbEntity
  8
SLD-0
  6
SLD-実線
 62
     7
370
    18
100
AcDbCircle
 10
524.1078893817
 20
214.9248061143
 30
0.0
 40
101.4999999754752
100
AcDbArc
 50
211.5463998617
 51
238.4536000009
  0
ARC
  5
160
330
1F
100
AcDbEntity
  8
SLD-0
  6
SLD-実線
 62
     7
370
    18
100
AcDbCircle
 10
524.1078893817
 20
214.9248061143
 30
0.0
 40
96.49999963127574
100
AcDbArc
 50
212.3752188603
 51
237.6247791336
  0
ARC
  5
161
330
1F
100
AcDbEntity
  8
SLD-0
  6
SLD-1点鎖線(中心線)
 62
     7
370
    18
100
AcDbCircle
 10
524.1078893817
 20
214.9248061143
 30
0.0
 40
90.00000002250007
100
AcDbArc
 50
308.62063
 51
321.37937
  0
CIRCLE
  5
162
330
1F
100
AcDbEntity
  8
SLD-0
  6
SLD-実線
 62
     7
370
    18
100
AcDbCircle
 10
587.7474974237
 20
151.2851980564
 30
0.0
 40
5.000000001249987
  0
CIRCLE
  5
163
330
1F
100
AcDbEntity
  8
SLD-0
  6
SLD-実線
 62
     7
370
    18
100
AcDbCircle
 10
460.4682773928
 20
278.5644180898
 30
0.0
 40
5.000000001250385
  0
ARC
  5
164
330
1F
100
AcDbEntity
  8
SLD-0
  6
SLD-1点鎖線(中心線)
 62
     7
370
    18
100
AcDbCircle
 10
524.1078893817
 20
214.9248061143
 30
0.0
 40
90.0000000225001
100
AcDbArc
 50
128.62063
 51
141.37937
  0
ARC
  5
165
330
1F
100
AcDbEntity
  8
SLD-0
  6
SLD-実線
 62
     7
370
    18
100
AcDbCircle
 10
459.0888893921
 20
509.0657541474
 30
0.0
 40
2.000000000500052
100
AcDbArc
 50
270.0
 51
0.0
  0
ARC
  5
166
330
1F
100
AcDbEntity
  8
SLD-0
  6
SLD-実線
 62
     7
370
    18
100
AcDbCircle
 10
468.231173625
 20
509.0657541352
 30
0.0
 40
2.000000232247089
100
AcDbArc
 50
270.0
 51
356.9871462291
  0
ARC
  5
167
330
1F
100
AcDbEntity
  8
SLD-0
  6
SLD-実線
 62
     7
370
    18
100
AcDbCircle
 10
585.1203817782
 20
499.0657540103
 30
0.0
 40
7.999999733587686
100
AcDbArc
 50
7.2979147226
 51
90.0
  0
ARC
  5
168
330
1F
100
AcDbEntity
  8
SLD-0
  6
SLD-実線
 62
     7
370
    18
100
AcDbCircle
 10
459.0366737454
 20
499.0657540997
 30
0.0
 40
7.999999644111137
100
AcDbArc
 50
90.0
 51
172.7555133793
  0
CIRCLE
  5
169
330
1F
100
AcDbEntity
  8
SLD-0
  6
SLD-破線
 62
     7
370
    18
100
AcDbCircle
 10
524.1078894072
 20
511.0657541479
 30
0.0
 40
4.000000000999648
  0
ELLIPSE
  5
16A
330
1F
100
AcDbEntity
  8
SLD-0
  6
SLD-実線
 62
     7
370
    18
100
AcDbEllipse
 10
582.3225494217
 20
445.0657541314
 30
0.0
 11
0.0
 21
41.36390430460778
 31
0.0
210
0.0
220
0.0
230
1.0
 40
0.180192
 41
4.712388980384695
 42
7.853981633974483
  0
ELLIPSE
  5
16B
330
1F
100
AcDbEntity
  8
SLD-0
  6
SLD-実線
 62
     7
370
    18
100
AcDbEllipse
 10
465.8932293928
 20
445.0657541314
 30
0.0
 11
0.0
 21
41.36390430460778
 31
0.0
210
0.0
220
0.0
230
1.0
 40
0.180192
 41
4.712388980384695
 42
7.853981633974483
  0
ENDSEC
  0
SECTION
  2
OBJECTS
  0
DICTIONARY
  5
C
330
0
100
AcDbDictionary
281
     1
  3
ACAD_DETAILVIEWSTYLE
350
175
  3
ACAD_GROUP
350
D
  3
ACAD_LAYOUT
350
1A
  3
ACAD_MATERIAL
350
43
  3
ACAD_MLEADERSTYLE
350
6B
  3
ACAD_MLINESTYLE
350
17
  3
ACAD_PLOTSETTINGS
350
19
  3
ACAD_PLOTSTYLENAME
350
E
  3
ACAD_SCALELIST
350
47
  3
ACAD_SECTIONVIEWSTYLE
350
176
  3
ACAD_TABLESTYLE
350
69
  3
ACDB_RECOMPOSE_DATA
350
172
  3
AcDbVariableDictionary
350
16C
  0
DICTIONARY
  5
175
102
{ACAD_REACTORS
330
C
102
}
330
C
100
AcDbDictionary
281
     1
  0
DICTIONARY
  5
D
102
{ACAD_REACTORS
330
C
102
}
330
C
100
AcDbDictionary
281
     1
  0
DICTIONARY
  5
1A
102
{ACAD_REACTORS
330
C
102
}
330
C
100
AcDbDictionary
281
     1
  3
Layout1
350
1E
  3
Layout2
350
26
  3
Model
350
22
  0
DICTIONARY
  5
43
102
{ACAD_REACTORS
330
C
102
}
330
C
100
AcDbDictionary
281
     1
  3
ByBlock
350
45
  3
ByLayer
350
44
  3
Global
350
46
  0
DICTIONARY
  5
6B
102
{ACAD_REACTORS
330
C
102
}
330
C
100
AcDbDictionary
281
     1
  3
Standard
350
6C
  0
DICTIONARY
  5
17
102
{ACAD_REACTORS
330
C
102
}
330
C
100
AcDbDictionary
281
     1
  3
Standard
350
18
  0
DICTIONARY
  5
19
102
{ACAD_REACTORS
330
C
102
}
330
C
100
AcDbDictionary
281
     1
  0
ACDBDICTIONARYWDFLT
  5
E
102
{ACAD_REACTORS
330
C
102
}
330
C
100
AcDbDictionary
281
     1
  3
Normal
350
F
100
AcDbDictionaryWithDefault
340
F
  0
DICTIONARY
  5
47
102
{ACAD_REACTORS
330
C
102
}
330
C
100
AcDbDictionary
281
     1
  3
A0
350
48
  3
A1
350
49
  3
A2
350
4A
  3
A3
350
4B
  3
A4
350
4C
  3
A5
350
4D
  3
A6
350
4E
  3
A7
350
4F
  3
A8
350
50
  3
A9
350
51
  3
B0
350
52
  3
B1
350
53
  3
B2
350
54
  3
B3
350
55
  3
B4
350
56
  3
B5
350
57
  3
B6
350
58
  3
B7
350
59
  3
B8
350
5A
  3
B9
350
5B
  3
C0
350
5C
  3
C1
350
5D
  3
C2
350
5E
  3
C3
350
5F
  3
C4
350
60
  3
C5
350
61
  3
C6
350
62
  3
C7
350
63
  3
C8
350
64
  3
C9
350
65
  3
D0
350
66
  3
D1
350
67
  3
D2
350
68
  0
DICTIONARY
  5
176
102
{ACAD_REACTORS
330
C
102
}
330
C
100
AcDbDictionary
281
     1
  0
DICTIONARY
  5
69
102
{ACAD_REACTORS
330
C
102
}
330
C
100
AcDbDictionary
281
     1
  3
Standard
350
6A
  0
XRECORD
  5
172
102
{ACAD_REACTORS
330
C
102
}
330
C
100
AcDbXrecord
280
     1
 90
        1
330
6A
  0
DICTIONARY
  5
16C
102
{ACAD_REACTORS
330
C
102
}
330
C
100
AcDbDictionary
281
     1
  3
CANNOSCALE
350
16D
  3
CENTEREXE
350
177
  3
CENTERLTYPEFILE
350
178
  3
CMLEADERSTYLE
350
174
  3
CTABLESTYLE
350
173
  0
LAYOUT
  5
1E
102
{ACAD_REACTORS
330
1A
102
}
330
1A
100
AcDbPlotSettings
  1

  2
none_device
  4

  6

 40
0.0
 41
0.0
 42
0.0
 43
0.0
 44
0.0
 45
0.0
 46
0.0
 47
0.0
 48
0.0
 49
0.0
140
0.0
141
0.0
142
1.0
143
1.0
 70
   688
 72
     1
 73
     0
 74
     5
  7

 75
    16
 76
     0
 77
     2
 78
   300
147
1.0
148
0.0
149
0.0
100
AcDbLayout
  1
Layout1
 70
     1
 71
     1
 10
0.0
 20
0.0
 11
420.0
 21
297.0
 12
0.0
 22
0.0
 32
0.0
 14
1.0000000000E+20
 24
1.0000000000E+20
 34
1.0000000000E+20
 15
-1.0000000000E+20
 25
-1.0000000000E+20
 35
-1.0000000000E+20
146
0.0
 13
0.0
 23
0.0
 33
0.0
 16
1.0
 26
0.0
 36
0.0
 17
0.0
 27
1.0
 37
0.0
 76
     0
330
1B
  0
LAYOUT
  5
26
102
{ACAD_REACTORS
330
1A
102
}
330
1A
100
AcDbPlotSettings
  1

  2
none_device
  4

  6

 40
0.0
 41
0.0
 42
0.0
 43
0.0
 44
0.0
 45
0.0
 46
0.0
 47
0.0
 48
0.0
 49
0.0
140
0.0
141
0.0
142
1.0
143
1.0
 70
   688
 72
     1
 73
     0
 74
     5
  7

 75
    16
 76
     0
 77
     2
 78
   300
147
1.0
148
0.0
149
0.0
100
AcDbLayout
  1
Layout2
 70
     1
 71
     2
 10
0.0
 20
0.0
 11
0.0
 21
0.0
 12
0.0
 22
0.0
 32
0.0
 14
0.0
 24
0.0
 34
0.0
 15
0.0
 25
0.0
 35
0.0
146
0.0
 13
0.0
 23
0.0
 33
0.0
 16
1.0
 26
0.0
 36
0.0
 17
0.0
 27
1.0
 37
0.0
 76
     0
330
23
  0
LAYOUT
  5
22
102
{ACAD_REACTORS
330
1A
102
}
330
1A
100
AcDbPlotSettings
  1

  2
none_device
  4
Letter_(8.50_x_11.00_Inches)
  6

 40
6.35
 41
6.35
 42
6.35000508
 43
6.35000508
 44
215.9
 45
279.4
 46
0.0
 47
0.0
 48
0.0
 49
0.0
140
0.0
141
0.0
142
1.0
143
1.0
 70
  1712
 72
     1
 73
     0
 74
     0
  7

 75
     0
 76
     0
 77
     2
 78
   300
147
1.0
148
0.0
149
0.0
100
AcDbLayout
  1
Model
 70
     1
 71
     0
 10
0.0
 20
0.0
 11
1117.6
 21
863.6
 12
0.0
 22
0.0
 32
0.0
 14
0.0
 24
0.0
 34
0.0
 15
1117.6
 25
863.6
 35
0.0
146
0.0
 13
0.0
 23
0.0
 33
0.0
 16
1.0
 26
0.0
 36
0.0
 17
0.0
 27
1.0
 37
0.0
 76
     0
330
1F
331
29
  0
MATERIAL
  5
45
102
{ACAD_REACTORS
330
43
102
}
330
43
100
AcDbMaterial
  1
ByBlock
  0
MATERIAL
  5
44
102
{ACAD_REACTORS
330
43
102
}
330
43
100
AcDbMaterial
  1
ByLayer
  0
MATERIAL
  5
46
102
{ACAD_REACTORS
330
43
102
}
330
43
100
AcDbMaterial
  1
Global
  0
MLEADERSTYLE
  5
6C
102
{ACAD_REACTORS
330
6B
102
}
330
6B
100
AcDbMLeaderStyle
170
     2
171
     1
172
     0
 90
        2
 40
0.0
 41
0.0
173
     1
 91
-1056964608
340
14
 92
       -2
290
     1
 42
2.0
291
     1
 43
8.0
  3
Standard
341
0
 44
4.0
300

342
11
174
     1
178
     6
175
     1
176
     0
 93
-1056964608
 45
4.0
292
     0
297
     0
 46
4.0
343
0
 94
-1056964608
 47
1.0
 49
1.0
140
1.0
293
     1
141
0.0
294
     1
177
     0
142
1.0
295
     0
296
     0
143
3.75
1001
ACAD_MLEADERVER
1070
     2
  0
MLINESTYLE
  5
18
102
{ACAD_REACTORS
330
17
102
}
330
17
100
AcDbMlineStyle
  2
Standard
 70
     0
  3

 62
   256
 51
90.0
 52
90.0
 71
     2
 49
0.5
 62
   256
  6
BYLAYER
 49
-0.5
 62
   256
  6
BYLAYER
  0
ACDBPLACEHOLDER
  5
F
102
{ACAD_REACTORS
330
E
102
}
330
E
  0
SCALE
  5
48
102
{ACAD_REACTORS
330
47
102
}
330
47
100
AcDbScale
 70
     0
300
1:1
140
1.0
141
1.0
290
     1
  0
SCALE
  5
49
102
{ACAD_REACTORS
330
47
102
}
330
47
100
AcDbScale
 70
     0
300
1:2
140
1.0
141
2.0
290
     0
  0
SCALE
  5
4A
102
{ACAD_REACTORS
330
47
102
}
330
47
100
AcDbScale
 70
     0
300
1:4
140
1.0
141
4.0
290
     0
  0
SCALE
  5
4B
102
{ACAD_REACTORS
330
47
102
}
330
47
100
AcDbScale
 70
     0
300
1:5
140
1.0
141
5.0
290
     0
  0
SCALE
  5
4C
102
{ACAD_REACTORS
330
47
102
}
330
47
100
AcDbScale
 70
     0
300
1:8
140
1.0
141
8.0
290
     0
  0
SCALE
  5
4D
102
{ACAD_REACTORS
330
47
102
}
330
47
100
AcDbScale
 70
     0
300
1:10
140
1.0
141
10.0
290
     0
  0
SCALE
  5
4E
102
{ACAD_REACTORS
330
47
102
}
330
47
100
AcDbScale
 70
     0
300
1:16
140
1.0
141
16.0
290
     0
  0
SCALE
  5
4F
102
{ACAD_REACTORS
330
47
102
}
330
47
100
AcDbScale
 70
     0
300
1:20
140
1.0
141
20.0
290
     0
  0
SCALE
  5
50
102
{ACAD_REACTORS
330
47
102
}
330
47
100
AcDbScale
 70
     0
300
1:30
140
1.0
141
30.0
290
     0
  0
SCALE
  5
51
102
{ACAD_REACTORS
330
47
102
}
330
47
100
AcDbScale
 70
     0
300
1:40
140
1.0
141
40.0
290
     0
  0
SCALE
  5
52
102
{ACAD_REACTORS
330
47
102
}
330
47
100
AcDbScale
 70
     0
300
1:50
140
1.0
141
50.0
290
     0
  0
SCALE
  5
53
102
{ACAD_REACTORS
330
47
102
}
330
47
100
AcDbScale
 70
     0
300
1:100
140
1.0
141
100.0
290
     0
  0
SCALE
  5
54
102
{ACAD_REACTORS
330
47
102
}
330
47
100
AcDbScale
 70
     0
300
2:1
140
2.0
141
1.0
290
     0
  0
SCALE
  5
55
102
{ACAD_REACTORS
330
47
102
}
330
47
100
AcDbScale
 70
     0
300
4:1
140
4.0
141
1.0
290
     0
  0
SCALE
  5
56
102
{ACAD_REACTORS
330
47
102
}
330
47
100
AcDbScale
 70
     0
300
8:1
140
8.0
141
1.0
290
     0
  0
SCALE
  5
57
102
{ACAD_REACTORS
330
47
102
}
330
47
100
AcDbScale
 70
     0
300
10:1
140
10.0
141
1.0
290
     0
  0
SCALE
  5
58
102
{ACAD_REACTORS
330
47
102
}
330
47
100
AcDbScale
 70
     0
300
100:1
140
100.0
141
1.0
290
     0
  0
SCALE
  5
59
102
{ACAD_REACTORS
330
47
102
}
330
47
100
AcDbScale
 70
     0
300
1/128" = 1'-0"
140
0.0078125
141
12.0
290
     0
  0
SCALE
  5
5A
102
{ACAD_REACTORS
330
47
102
}
330
47
100
AcDbScale
 70
     0
300
1/64" = 1'-0"
140
0.015625
141
12.0
290
     0
  0
SCALE
  5
5B
102
{ACAD_REACTORS
330
47
102
}
330
47
100
AcDbScale
 70
     0
300
1/32" = 1'-0"
140
0.03125
141
12.0
290
     0
  0
SCALE
  5
5C
102
{ACAD_REACTORS
330
47
102
}
330
47
100
AcDbScale
 70
     0
300
1/16" = 1'-0"
140
0.0625
141
12.0
290
     0
  0
SCALE
  5
5D
102
{ACAD_REACTORS
330
47
102
}
330
47
100
AcDbScale
 70
     0
300
3/32" = 1'-0"
140
0.09375
141
12.0
290
     0
  0
SCALE
  5
5E
102
{ACAD_REACTORS
330
47
102
}
330
47
100
AcDbScale
 70
     0
300
1/8" = 1'-0"
140
0.125
141
12.0
290
     0
  0
SCALE
  5
5F
102
{ACAD_REACTORS
330
47
102
}
330
47
100
AcDbScale
 70
     0
300
3/16" = 1'-0"
140
0.1875
141
12.0
290
     0
  0
SCALE
  5
60
102
{ACAD_REACTORS
330
47
102
}
330
47
100
AcDbScale
 70
     0
300
1/4" = 1'-0"
140
0.25
141
12.0
290
     0
  0
SCALE
  5
61
102
{ACAD_REACTORS
330
47
102
}
330
47
100
AcDbScale
 70
     0
300
3/8" = 1'-0"
140
0.375
141
12.0
290
     0
  0
SCALE
  5
62
102
{ACAD_REACTORS
330
47
102
}
330
47
100
AcDbScale
 70
     0
300
1/2" = 1'-0"
140
0.5
141
12.0
290
     0
  0
SCALE
  5
63
102
{ACAD_REACTORS
330
47
102
}
330
47
100
AcDbScale
 70
     0
300
3/4" = 1'-0"
140
0.75
141
12.0
290
     0
  0
SCALE
  5
64
102
{ACAD_REACTORS
330
47
102
}
330
47
100
AcDbScale
 70
     0
300
1" = 1'-0"
140
1.0
141
12.0
290
     0
  0
SCALE
  5
65
102
{ACAD_REACTORS
330
47
102
}
330
47
100
AcDbScale
 70
     0
300
1-1/2" = 1'-0"
140
1.5
141
12.0
290
     0
  0
SCALE
  5
66
102
{ACAD_REACTORS
330
47
102
}
330
47
100
AcDbScale
 70
     0
300
3" = 1'-0"
140
3.0
141
12.0
290
     0
  0
SCALE
  5
67
102
{ACAD_REACTORS
330
47
102
}
330
47
100
AcDbScale
 70
     0
300
6" = 1'-0"
140
6.0
141
12.0
290
     0
  0
SCALE
  5
68
102
{ACAD_REACTORS
330
47
102
}
330
47
100
AcDbScale
 70
     0
300
1'-0" = 1'-0"
140
12.0
141
12.0
290
     0
  0
TABLESTYLE
  5
6A
102
{ACAD_REACTORS
330
69
102
}
102
{ACAD_XDICTIONARY
360
16E
102
}
330
69
100
AcDbTableStyle
  3
Standard
 70
     0
 71
     0
 40
0.06
 41
0.06
280
     0
281
     0
  7
Standard
140
4.5
170
     2
 62
     0
 63
   257
283
     0
274
    -2
284
     1
 64
     0
275
    -2
285
     1
 65
     0
276
    -2
286
     1
 66
     0
277
    -2
287
     1
 67
     0
278
    -2
288
     1
 68
     0
279
    -2
289
     1
 69
     0
  7
Standard
140
6.0
170
     5
 62
     0
 63
   257
283
     0
274
    -2
284
     1
 64
     0
275
    -2
285
     1
 65
     0
276
    -2
286
     1
 66
     0
277
    -2
287
     1
 67
     0
278
    -2
288
     1
 68
     0
279
    -2
289
     1
 69
     0
  7
Standard
140
4.5
170
     5
 62
     0
 63
   257
283
     0
274
    -2
284
     1
 64
     0
275
    -2
285
     1
 65
     0
276
    -2
286
     1
 66
     0
277
    -2
287
     1
 67
     0
278
    -2
288
     1
 68
     0
279
    -2
289
     1
 69
     0
  0
DICTIONARYVAR
  5
16D
102
{ACAD_REACTORS
330
16C
102
}
330
16C
100
DictionaryVariables
280
     0
  1
1:1
  0
DICTIONARYVAR
  5
177
102
{ACAD_REACTORS
330
16C
102
}
330
16C
100
DictionaryVariables
280
     0
  1
3.500000
  0
DICTIONARYVAR
  5
178
102
{ACAD_REACTORS
330
16C
102
}
330
16C
100
DictionaryVariables
280
     0
  1
acadiso.lin
  0
DICTIONARYVAR
  5
174
102
{ACAD_REACTORS
330
16C
102
}
330
16C
100
DictionaryVariables
280
     0
  1
Standard
  0
DICTIONARYVAR
  5
173
102
{ACAD_REACTORS
330
16C
102
}
330
16C
100
DictionaryVariables
280
     0
  1
Standard
  0
DICTIONARY
  5
16E
330
6A
100
AcDbDictionary
280
     1
281
     1
  3
ACAD_ROUNDTRIP_2008_TABLESTYLE_CELLSTYLEMAP
360
170
  3
ACAD_XREC_ROUNDTRIP
360
16F
  0
CELLSTYLEMAP
  5
170
102
{ACAD_REACTORS
330
16E
102
}
330
16E
100
AcDbCellStyleMap
 90
        3
300
CELLSTYLE
  1
TABLEFORMAT_BEGIN
 90
        5
170
     1
 91
        0
 92
    32768
 62
   257
 93
        1
300
CONTENTFORMAT
  1
CONTENTFORMAT_BEGIN
 90
        0
 91
        0
 92
        4
 93
        0
300

 40
0.0
140
1.0
 94
        5
 62
     0
340
11
144
6.0
309
CONTENTFORMAT_END
171
     1
301
MARGIN
  1
CELLMARGIN_BEGIN
 40
1.5
 40
1.5
 40
1.5
 40
1.5
 40
1.5
 40
1.5
309
CELLMARGIN_END
 94
        6
 95
        1
302
GRIDFORMAT
  1
GRIDFORMAT_BEGIN
 90
        0
 91
        1
 62
     0
 92
       -2
340
14
 93
        0
 40
0.045
309
GRIDFORMAT_END
 95
        2
302
GRIDFORMAT
  1
GRIDFORMAT_BEGIN
 90
        0
 91
        1
 62
     0
 92
       -2
340
14
 93
        0
 40
0.045
309
GRIDFORMAT_END
 95
        4
302
GRIDFORMAT
  1
GRIDFORMAT_BEGIN
 90
        0
 91
        1
 62
     0
 92
       -2
340
14
 93
        0
 40
0.045
309
GRIDFORMAT_END
 95
        8
302
GRIDFORMAT
  1
GRIDFORMAT_BEGIN
 90
        0
 91
        1
 62
     0
 92
       -2
340
14
 93
        0
 40
0.045
309
GRIDFORMAT_END
 95
       16
302
GRIDFORMAT
  1
GRIDFORMAT_BEGIN
 90
        0
 91
        1
 62
     0
 92
       -2
340
14
 93
        0
 40
0.045
309
GRIDFORMAT_END
 95
       32
302
GRIDFORMAT
  1
GRIDFORMAT_BEGIN
 90
        0
 91
        1
 62
     0
 92
       -2
340
14
 93
        0
 40
0.045
309
GRIDFORMAT_END
309
TABLEFORMAT_END
  1
CELLSTYLE_BEGIN
 90
        1
 91
        1
300
_TITLE
309
CELLSTYLE_END
300
CELLSTYLE
  1
TABLEFORMAT_BEGIN
 90
        5
170
     1
 91
        0
 92
        0
 62
   257
 93
        1
300
CONTENTFORMAT
  1
CONTENTFORMAT_BEGIN
 90
        0
 91
        0
 92
        4
 93
        0
300

 40
0.0
140
1.0
 94
        5
 62
     0
340
11
144
4.5
309
CONTENTFORMAT_END
171
     1
301
MARGIN
  1
CELLMARGIN_BEGIN
 40
1.5
 40
1.5
 40
1.5
 40
1.5
 40
1.5
 40
1.5
309
CELLMARGIN_END
 94
        6
 95
        1
302
GRIDFORMAT
  1
GRIDFORMAT_BEGIN
 90
        0
 91
        1
 62
     0
 92
       -2
340
14
 93
        0
 40
0.045
309
GRIDFORMAT_END
 95
        2
302
GRIDFORMAT
  1
GRIDFORMAT_BEGIN
 90
        0
 91
        1
 62
     0
 92
       -2
340
14
 93
        0
 40
0.045
309
GRIDFORMAT_END
 95
        4
302
GRIDFORMAT
  1
GRIDFORMAT_BEGIN
 90
        0
 91
        1
 62
     0
 92
       -2
340
14
 93
        0
 40
0.045
309
GRIDFORMAT_END
 95
        8
302
GRIDFORMAT
  1
GRIDFORMAT_BEGIN
 90
        0
 91
        1
 62
     0
 92
       -2
340
14
 93
        0
 40
0.045
309
GRIDFORMAT_END
 95
       16
302
GRIDFORMAT
  1
GRIDFORMAT_BEGIN
 90
        0
 91
        1
 62
     0
 92
       -2
340
14
 93
        0
 40
0.045
309
GRIDFORMAT_END
 95
       32
302
GRIDFORMAT
  1
GRIDFORMAT_BEGIN
 90
        0
 91
        1
 62
     0
 92
       -2
340
14
 93
        0
 40
0.045
309
GRIDFORMAT_END
309
TABLEFORMAT_END
  1
CELLSTYLE_BEGIN
 90
        2
 91
        1
300
_HEADER
309
CELLSTYLE_END
300
CELLSTYLE
  1
TABLEFORMAT_BEGIN
 90
        5
170
     1
 91
        0
 92
        0
 62
   257
 93
        1
300
CONTENTFORMAT
  1
CONTENTFORMAT_BEGIN
 90
        0
 91
        0
 92
        4
 93
        0
300

 40
0.0
140
1.0
 94
        2
 62
     0
340
11
144
4.5
309
CONTENTFORMAT_END
171
     1
301
MARGIN
  1
CELLMARGIN_BEGIN
 40
1.5
 40
1.5
 40
1.5
 40
1.5
 40
1.5
 40
1.5
309
CELLMARGIN_END
 94
        6
 95
        1
302
GRIDFORMAT
  1
GRIDFORMAT_BEGIN
 90
        0
 91
        1
 62
     0
 92
       -2
340
14
 93
        0
 40
0.045
309
GRIDFORMAT_END
 95
        2
302
GRIDFORMAT
  1
GRIDFORMAT_BEGIN
 90
        0
 91
        1
 62
     0
 92
       -2
340
14
 93
        0
 40
0.045
309
GRIDFORMAT_END
 95
        4
302
GRIDFORMAT
  1
GRIDFORMAT_BEGIN
 90
        0
 91
        1
 62
     0
 92
       -2
340
14
 93
        0
 40
0.045
309
GRIDFORMAT_END
 95
        8
302
GRIDFORMAT
  1
GRIDFORMAT_BEGIN
 90
        0
 91
        1
 62
     0
 92
       -2
340
14
 93
        0
 40
0.045
309
GRIDFORMAT_END
 95
       16
302
GRIDFORMAT
  1
GRIDFORMAT_BEGIN
 90
        0
 91
        1
 62
     0
 92
       -2
340
14
 93
        0
 40
0.045
309
GRIDFORMAT_END
 95
       32
302
GRIDFORMAT
  1
GRIDFORMAT_BEGIN
 90
        0
 91
        1
 62
     0
 92
       -2
340
14
 93
        0
 40
0.045
309
GRIDFORMAT_END
309
TABLEFORMAT_END
  1
CELLSTYLE_BEGIN
 90
        3
 91
        2
300
_DATA
309
CELLSTYLE_END
  0
XRECORD
  5
16F
102
{ACAD_REACTORS
330
16E
102
}
330
16E
100
AcDbXrecord
280
     1
102
ACAD_ROUNDTRIP_PRE2007_TABLESTYLE
 90
        4
 91
        0
  1

 92
        4
 93
        0
  2

 94
        4
 95
        0
  3

  0
ENDSEC
  0
EOF
