  0
SECTION
  2
HEADER
  9
$ACADVER
  1
AC1018
  9
$ACADMAINTVER
 70
     0
  9
$DWGCODEPAGE
  3
DOS932
  9
$INSBASE
 10
0.0
 20
0.0
 30
0.0
  9
$EXTMIN
 10
0.0
 20
0.0
 30
0.0
  9
$EXTMAX
 10
1117.6
 20
863.6
 30
0.0
  9
$LIMMIN
 10
0.0
 20
0.0
  9
$LIMMAX
 10
1117.6
 20
863.6
  9
$ORTHOMODE
 70
     0
  9
$REGENMODE
 70
     1
  9
$FILLMODE
 70
     1
  9
$QTEXTMODE
 70
     0
  9
$MIRRTEXT
 70
     1
  9
$LTSCALE
 40
1.0
  9
$ATTMODE
 70
     1
  9
$TEXTSIZE
 40
3.5
  9
$TRACEWID
 40
1.0
  9
$TEXTSTYLE
  7
Standard
  9
$CLAYER
  8
0
  9
$CELTYPE
  6
ByLayer
  9
$CECOLOR
 62
   256
  9
$CELTSCALE
 40
1.0
  9
$DISPSILH
 70
     0
  9
$DIMSCALE
 40
1.0
  9
$DIMASZ
 40
3.302
  9
$DIMEXO
 40
1.0
  9
$DIMDLI
 40
3.75
  9
$DIMRND
 40
0.0
  9
$DIMDLE
 40
0.0
  9
$DIMEXE
 40
1.0
  9
$DIMTP
 40
0.0
  9
$DIMTM
 40
0.0
  9
$DIMTXT
 40
3.5
  9
$DIMCEN
 40
2.5
  9
$DIMTSZ
 40
0.0
  9
$DIMTOL
 70
     0
  9
$DIMLIM
 70
     0
  9
$DIMTIH
 70
     1
  9
$DIMTOH
 70
     1
  9
$DIMSE1
 70
     0
  9
$DIMSE2
 70
     0
  9
$DIMTAD
 70
     1
  9
$DIMZIN
 70
     1
  9
$DIMBLK
  1

  9
$DIMASO
 70
     1
  9
$DIMSHO
 70
     1
  9
$DIMPOST
  1

  9
$DIMAPOST
  1

  9
$DIMALT
 70
     0
  9
$DIMALTD
 70
     3
  9
$DIMALTF
 40
0.0393700787
  9
$DIMLFAC
 40
1.0
  9
$DIMTOFL
 70
     1
  9
$DIMTVP
 40
0.0
  9
$DIMTIX
 70
     0
  9
$DIMSOXD
 70
     0
  9
$DIMSAH
 70
     0
  9
$DIMBLK1
  1

  9
$DIMBLK2
  1

  9
$DIMSTYLE
  2
ISO-25
  9
$DIMCLRD
 70
     0
  9
$DIMCLRE
 70
     0
  9
$DIMCLRT
 70
     0
  9
$DIMTFAC
 40
1.0
  9
$DIMGAP
 40
1.524
  9
$DIMJUST
 70
     0
  9
$DIMSD1
 70
     0
  9
$DIMSD2
 70
     0
  9
$DIMTOLJ
 70
     0
  9
$DIMTZIN
 70
     1
  9
$DIMALTZ
 70
     0
  9
$DIMALTTZ
 70
     0
  9
$DIMUPT
 70
     0
  9
$DIMDEC
 70
     0
  9
$DIMTDEC
 70
     4
  9
$DIMALTU
 70
     2
  9
$DIMALTTD
 70
     3
  9
$DIMTXSTY
  7
Standard
  9
$DIMAUNIT
 70
     0
  9
$DIMADEC
 70
     0
  9
$DIMALTRND
 40
0.0
  9
$DIMAZIN
 70
     0
  9
$DIMDSEP
 70
    44
  9
$DIMATFIT
 70
     3
  9
$DIMFRAC
 70
     0
  9
$DIMLDRBLK
  1

  9
$DIMLUNIT
 70
     2
  9
$DIMLWD
 70
    -2
  9
$DIMLWE
 70
    -2
  9
$DIMTMOVE
 70
     0
  9
$LUNITS
 70
     2
  9
$LUPREC
 70
     3
  9
$SKETCHINC
 40
1.0
  9
$FILLETRAD
 40
10.0
  9
$AUNITS
 70
     0
  9
$AUPREC
 70
     0
  9
$MENU
  1
.
  9
$ELEVATION
 40
0.0
  9
$PELEVATION
 40
0.0
  9
$THICKNESS
 40
0.0
  9
$LIMCHECK
 70
     0
  9
$CHAMFERA
 40
0.0
  9
$CHAMFERB
 40
0.0
  9
$CHAMFERC
 40
0.0
  9
$CHAMFERD
 40
0.0
  9
$SKPOLY
 70
     0
  9
$TDCREATE
 40
2460409.451885961
  9
$TDUCREATE
 40
2460409.076885961
  9
$TDUPDATE
 40
2460409.451886134
  9
$TDUUPDATE
 40
2460409.076886134
  9
$TDINDWG
 40
0.0000000116
  9
$TDUSRTIMER
 40
0.0000000116
  9
$USRTIMER
 70
     1
  9
$ANGBASE
 50
0.0
  9
$ANGDIR
 70
     0
  9
$PDMODE
 70
     0
  9
$PDSIZE
 40
-1.0
  9
$PLINEWID
 40
0.0
  9
$SPLFRAME
 70
     0
  9
$SPLINETYPE
 70
     6
  9
$SPLINESEGS
 70
     8
  9
$HANDSEED
  5
1C0
  9
$SURFTAB1
 70
     6
  9
$SURFTAB2
 70
     6
  9
$SURFTYPE
 70
     6
  9
$SURFU
 70
     6
  9
$SURFV
 70
     6
  9
$UCSBASE
  2

  9
$UCSNAME
  2

  9
$UCSORG
 10
0.0
 20
0.0
 30
0.0
  9
$UCSXDIR
 10
1.0
 20
0.0
 30
0.0
  9
$UCSYDIR
 10
0.0
 20
1.0
 30
0.0
  9
$UCSORTHOREF
  2

  9
$UCSORTHOVIEW
 70
     0
  9
$UCSORGTOP
 10
0.0
 20
0.0
 30
0.0
  9
$UCSORGBOTTOM
 10
0.0
 20
0.0
 30
0.0
  9
$UCSORGLEFT
 10
0.0
 20
0.0
 30
0.0
  9
$UCSORGRIGHT
 10
0.0
 20
0.0
 30
0.0
  9
$UCSORGFRONT
 10
0.0
 20
0.0
 30
0.0
  9
$UCSORGBACK
 10
0.0
 20
0.0
 30
0.0
  9
$PUCSBASE
  2

  9
$PUCSNAME
  2

  9
$PUCSORG
 10
0.0
 20
0.0
 30
0.0
  9
$PUCSXDIR
 10
1.0
 20
0.0
 30
0.0
  9
$PUCSYDIR
 10
0.0
 20
1.0
 30
0.0
  9
$PUCSORTHOREF
  2

  9
$PUCSORTHOVIEW
 70
     0
  9
$PUCSORGTOP
 10
0.0
 20
0.0
 30
0.0
  9
$PUCSORGBOTTOM
 10
0.0
 20
0.0
 30
0.0
  9
$PUCSORGLEFT
 10
0.0
 20
0.0
 30
0.0
  9
$PUCSORGRIGHT
 10
0.0
 20
0.0
 30
0.0
  9
$PUCSORGFRONT
 10
0.0
 20
0.0
 30
0.0
  9
$PUCSORGBACK
 10
0.0
 20
0.0
 30
0.0
  9
$USERI1
 70
     0
  9
$USERI2
 70
     0
  9
$USERI3
 70
     0
  9
$USERI4
 70
     0
  9
$USERI5
 70
     0
  9
$USERR1
 40
0.0
  9
$USERR2
 40
0.0
  9
$USERR3
 40
0.0
  9
$USERR4
 40
0.0
  9
$USERR5
 40
0.0
  9
$WORLDVIEW
 70
     1
  9
$SHADEDGE
 70
     3
  9
$SHADEDIF
 70
    70
  9
$TILEMODE
 70
     1
  9
$MAXACTVP
 70
    64
  9
$PINSBASE
 10
0.0
 20
0.0
 30
0.0
  9
$PLIMCHECK
 70
     0
  9
$PEXTMIN
 10
1.0000000000E+20
 20
1.0000000000E+20
 30
1.0000000000E+20
  9
$PEXTMAX
 10
-1.0000000000E+20
 20
-1.0000000000E+20
 30
-1.0000000000E+20
  9
$PLIMMIN
 10
0.0
 20
0.0
  9
$PLIMMAX
 10
420.0
 20
297.0
  9
$UNITMODE
 70
     0
  9
$VISRETAIN
 70
     1
  9
$PLINEGEN
 70
     0
  9
$PSLTSCALE
 70
     1
  9
$TREEDEPTH
 70
  3020
  9
$CMLSTYLE
  2
Standard
  9
$CMLJUST
 70
     0
  9
$CMLSCALE
 40
20.0
  9
$PROXYGRAPHICS
 70
     1
  9
$MEASUREMENT
 70
     1
  9
$CELWEIGHT
370
    -1
  9
$ENDCAPS
280
     0
  9
$JOINSTYLE
280
     0
  9
$LWDISPLAY
290
     1
  9
$INSUNITS
 70
     4
  9
$HYPERLINKBASE
  1

  9
$STYLESHEET
  1

  9
$XEDIT
290
     1
  9
$CEPSNTYPE
380
     0
  9
$PSTYLEMODE
290
     1
  9
$FINGERPRINTGUID
  2
{2c28c53c-7398-4826-bb0c-f713efa6c957}
  9
$VERSIONGUID
  2
{FAEB1C32-E019-11D5-929B-00C0DF256EC4}
  9
$EXTNAMES
290
     1
  9
$PSVPSCALE
 40
0.0
  9
$OLESTARTUP
290
     0
  9
$SORTENTS
280
   127
  9
$INDEXCTL
280
     0
  9
$HIDETEXT
280
     1
  9
$XCLIPFRAME
290
     0
  9
$HALOGAP
280
     0
  9
$OBSCOLOR
 70
   257
  9
$OBSLTYPE
280
     0
  9
$INTERSECTIONDISPLAY
280
     0
  9
$INTERSECTIONCOLOR
 70
   257
  9
$DIMASSOC
280
     2
  9
$PROJECTNAME
  1

  0
ENDSEC
  0
SECTION
  2
CLASSES
  0
CLASS
  1
ACDBDICTIONARYWDFLT
  2
AcDbDictionaryWithDefault
  3
ObjectDBX Classes
 90
        0
 91
        3
280
     0
281
     0
  0
CLASS
  1
VISUALSTYLE
  2
AcDbVisualStyle
  3
ObjectDBX Classes
 90
     4095
 91
        3
280
     0
281
     0
  0
CLASS
  1
MATERIAL
  2
AcDbMaterial
  3
ObjectDBX Classes
 90
     1153
 91
        3
280
     0
281
     0
  0
CLASS
  1
SCALE
  2
AcDbScale
  3
ObjectDBX Classes
 90
     1153
 91
        3
280
     0
281
     0
  0
CLASS
  1
TABLESTYLE
  2
AcDbTableStyle
  3
ObjectDBX Classes
 90
     4095
 91
        3
280
     0
281
     0
  0
CLASS
  1
MLEADERSTYLE
  2
AcDbMLeaderStyle
  3
ACDB_MLEADERSTYLE_CLASS
 90
     4095
 91
        3
280
     0
281
     0
  0
CLASS
  1
SUN
  2
AcDbSun
  3
SCENEOE
 90
     1153
 91
        3
280
     0
281
     0
  0
CLASS
  1
DICTIONARYVAR
  2
AcDbDictionaryVar
  3
ObjectDBX Classes
 90
        0
 91
        3
280
     0
281
     0
  0
CLASS
  1
CELLSTYLEMAP
  2
AcDbCellStyleMap
  3
ObjectDBX Classes
 90
     1152
 91
        3
280
     0
281
     0
  0
ENDSEC
  0
SECTION
  2
TABLES
  0
TABLE
  2
VPORT
  5
8
330
0
100
AcDbSymbolTable
 70
     1
  0
VPORT
  5
29
330
8
100
AcDbSymbolTableRecord
100
AcDbViewportTableRecord
  2
*Active
 70
     0
 10
0.0
 20
0.0
 11
1.0
 21
1.0
 12
558.8
 22
431.8
 13
0.0
 23
0.0
 14
10.0
 24
10.0
 15
10.0
 25
10.0
 16
0.0
 26
0.0
 36
1.0
 17
0.0
 27
0.0
 37
0.0
 40
863.6
 41
1.2941176471
 42
50.0
 43
0.0
 44
0.0
 50
0.0
 51
0.0
 71
     0
 72
  2000
 73
     1
 74
     3
 75
     0
 76
     0
 77
     0
 78
     0
281
     0
 65
     1
110
0.0
120
0.0
130
0.0
111
1.0
121
0.0
131
0.0
112
0.0
122
1.0
132
0.0
 79
     0
146
0.0
  0
ENDTAB
  0
TABLE
  2
LTYPE
  5
5
330
0
100
AcDbSymbolTable
 70
     8
  0
LTYPE
  5
14
330
5
100
AcDbSymbolTableRecord
100
AcDbLinetypeTableRecord
  2
ByBlock
 70
     0
  3

 72
    65
 73
     0
 40
0.0
  0
LTYPE
  5
15
330
5
100
AcDbSymbolTableRecord
100
AcDbLinetypeTableRecord
  2
ByLayer
 70
     0
  3

 72
    65
 73
     0
 40
0.0
  0
LTYPE
  5
16
330
5
100
AcDbSymbolTableRecord
100
AcDbLinetypeTableRecord
  2
Continuous
 70
     0
  3
Solid line
 72
    65
 73
     0
 40
0.0
  0
LTYPE
  5
6E
330
5
100
AcDbSymbolTableRecord
100
AcDbLinetypeTableRecord
  2
SLD-実線
 70
     0
  3
SolidWorks Line Style
 72
    65
 73
     0
 40
0.0
  0
LTYPE
  5
6F
330
5
100
AcDbSymbolTableRecord
100
AcDbLinetypeTableRecord
  2
SLD-破線
 70
     0
  3
SolidWorks Line Style
 72
    65
 73
     2
 40
1.905
 49
1.27
 74
     0
 49
-0.635
 74
     0
  0
LTYPE
  5
70
330
5
100
AcDbSymbolTableRecord
100
AcDbLinetypeTableRecord
  2
SLD-2点鎖線
 70
     0
  3
SolidWorks Line Style
 72
    65
 73
     6
 40
12.7
 49
6.35
 74
     0
 49
-1.27
 74
     0
 49
1.27
 74
     0
 49
-1.27
 74
     0
 49
1.27
 74
     0
 49
-1.27
 74
     0
  0
LTYPE
  5
71
330
5
100
AcDbSymbolTableRecord
100
AcDbLinetypeTableRecord
  2
SLD-鎖線
 70
     0
  3
SolidWorks Line Style
 72
    65
 73
     4
 40
10.16
 49
6.35
 74
     0
 49
-1.27
 74
     0
 49
1.27
 74
     0
 49
-1.27
 74
     0
  0
LTYPE
  5
72
330
5
100
AcDbSymbolTableRecord
100
AcDbLinetypeTableRecord
  2
SLD-1点鎖線(中心線)
 70
     0
  3
SolidWorks Line Style
 72
    65
 73
     4
 40
34.29
 49
30.48
 74
     0
 49
-1.27
 74
     0
 49
1.27
 74
     0
 49
-1.27
 74
     0
  0
LTYPE
  5
73
330
5
100
AcDbSymbolTableRecord
100
AcDbLinetypeTableRecord
  2
SLD-点線
 70
     0
  3
SolidWorks Line Style
 72
    65
 73
     2
 40
0.635
 49
0.0
 74
     0
 49
-0.635
 74
     0
  0
LTYPE
  5
74
330
5
100
AcDbSymbolTableRecord
100
AcDbLinetypeTableRecord
  2
SLD-細-太鎖線(切断面)
 70
     0
  3
SolidWorks Line Style
 72
    65
 73
     4
 40
10.16
 49
6.35
 74
     0
 49
-1.27
 74
     0
 49
1.27
 74
     0
 49
-1.27
 74
     0
  0
ENDTAB
  0
TABLE
  2
LAYER
  5
2
330
0
100
AcDbSymbolTable
 70
     5
  0
LAYER
  5
10
330
2
100
AcDbSymbolTableRecord
100
AcDbLayerTableRecord
  2
0
 70
     0
 62
     7
  6
Continuous
370
    -3
390
F
  0
LAYER
  5
75
330
2
100
AcDbSymbolTableRecord
100
AcDbLayerTableRecord
  2
SLD-0_0
 70
     0
 62
     7
  6
Continuous
370
    -1
390
F
  0
LAYER
  5
76
330
2
100
AcDbSymbolTableRecord
100
AcDbLayerTableRecord
  2
SLD-0
 70
     0
 62
   179
  6
SLD-実線
370
    -3
390
F
  0
LAYER
  5
77
330
2
100
AcDbSymbolTableRecord
100
AcDbLayerTableRecord
  2
100
 70
     0
 62
   179
  6
SLD-実線
370
    -3
390
F
  0
LAYER
  5
78
330
2
100
AcDbSymbolTableRecord
100
AcDbLayerTableRecord
  2
1
 70
     0
 62
   179
  6
SLD-実線
370
    -3
390
F
  0
ENDTAB
  0
TABLE
  2
STYLE
  5
3
330
0
100
AcDbSymbolTable
 70
     1
  0
STYLE
  5
11
330
3
100
AcDbSymbolTableRecord
100
AcDbTextStyleTableRecord
  2
Standard
 70
     0
 40
0.0
 41
1.0
 50
0.0
 71
     0
 42
3.5
  3
txt
  4
bigfont
  0
ENDTAB
  0
TABLE
  2
VIEW
  5
6
330
0
100
AcDbSymbolTable
 70
     0
  0
ENDTAB
  0
TABLE
  2
UCS
  5
7
330
0
100
AcDbSymbolTable
 70
     0
  0
ENDTAB
  0
TABLE
  2
APPID
  5
9
330
0
100
AcDbSymbolTable
 70
     2
  0
APPID
  5
12
330
9
100
AcDbSymbolTableRecord
100
AcDbRegAppTableRecord
  2
ACAD
 70
     0
  0
APPID
  5
1B8
330
9
100
AcDbSymbolTableRecord
100
AcDbRegAppTableRecord
  2
ACAD_MLEADERVER
 70
     0
  0
ENDTAB
  0
TABLE
  2
DIMSTYLE
  5
A
330
0
100
AcDbSymbolTable
 70
     1
100
AcDbDimStyleTable
  0
DIMSTYLE
105
27
330
A
100
AcDbSymbolTableRecord
100
AcDbDimStyleTableRecord
  2
ISO-25
 70
     0
 41
2.5
 42
0.625
 43
3.75
 44
1.25
 73
     0
 74
     0
 77
     1
 78
     8
140
2.5
141
2.5
143
0.0393700787
147
0.625
171
     3
172
     1
178
     0
271
     2
272
     2
274
     3
278
    44
283
     0
284
     8
340
11
  0
ENDTAB
  0
TABLE
  2
BLOCK_RECORD
  5
1
330
0
100
AcDbSymbolTable
 70
     1
  0
BLOCK_RECORD
  5
1F
330
1
100
AcDbSymbolTableRecord
100
AcDbBlockTableRecord
  2
*Model_Space
340
22
  0
BLOCK_RECORD
  5
1B
330
1
100
AcDbSymbolTableRecord
100
AcDbBlockTableRecord
  2
*Paper_Space
340
1E
  0
BLOCK_RECORD
  5
23
330
1
100
AcDbSymbolTableRecord
100
AcDbBlockTableRecord
  2
*Paper_Space0
340
26
  0
ENDTAB
  0
ENDSEC
  0
SECTION
  2
BLOCKS
  0
BLOCK
  5
20
330
1F
100
AcDbEntity
  8
0
100
AcDbBlockBegin
  2
*Model_Space
 70
     0
 10
0.0
 20
0.0
 30
0.0
  3
*Model_Space
  1

  0
ENDBLK
  5
21
330
1F
100
AcDbEntity
  8
0
100
AcDbBlockEnd
  0
BLOCK
  5
1C
330
1B
100
AcDbEntity
 67
     1
  8
0
100
AcDbBlockBegin
  2
*Paper_Space
 70
     0
 10
0.0
 20
0.0
 30
0.0
  3
*Paper_Space
  1

  0
ENDBLK
  5
1D
330
1B
100
AcDbEntity
 67
     1
  8
0
100
AcDbBlockEnd
  0
BLOCK
  5
24
330
23
100
AcDbEntity
  8
0
100
AcDbBlockBegin
  2
*Paper_Space0
 70
     0
 10
0.0
 20
0.0
 30
0.0
  3
*Paper_Space0
  1

  0
ENDBLK
  5
25
330
23
100
AcDbEntity
  8
0
100
AcDbBlockEnd
  0
ENDSEC
  0
SECTION
  2
ENTITIES
  0
LINE
  5
79
330
1F
100
AcDbEntity
  8
1
  6
SLD-実線
 62
     7
370
    18
100
AcDbLine
 10
531.2437583079
 20
817.471667756
 30
0.0
 11
582.2437573491
 21
817.471667756
 31
0.0
  0
LINE
  5
7A
330
1F
100
AcDbEntity
  8
1
  6
SLD-実線
 62
     7
370
    18
100
AcDbLine
 10
591.9437571668
 20
729.6817921346
 30
0.0
 11
591.9437571668
 21
807.7716679383
 31
0.0
  0
LINE
  5
7B
330
1F
100
AcDbEntity
  8
1
  6
SLD-実線
 62
     7
370
    18
100
AcDbLine
 10
531.2437583079
 20
719.981792317
 30
0.0
 11
582.2437573491
 21
719.981792317
 31
0.0
  0
LINE
  5
7C
330
1F
100
AcDbEntity
  8
1
  6
SLD-実線
 62
     7
370
    18
100
AcDbLine
 10
521.5437584903
 20
729.6817921346
 30
0.0
 11
521.5437584903
 21
807.7716679383
 31
0.0
  0
LINE
  5
7D
330
1F
100
AcDbEntity
  8
SLD-0
  6
SLD-実線
 62
     7
370
    18
100
AcDbLine
 10
495.7437589753
 20
683.9993339036
 30
0.0
 11
495.7437589753
 21
649.9993345428
 31
0.0
  0
LINE
  5
7E
330
1F
100
AcDbEntity
  8
SLD-0
  6
SLD-実線
 62
     7
370
    18
100
AcDbLine
 10
556.7437578285
 20
696.9993336592
 30
0.0
 11
626.6510701523
 21
696.9993336592
 31
0.0
  0
LINE
  5
7F
330
1F
100
AcDbEntity
  8
SLD-0
  6
SLD-実線
 62
     7
370
    18
100
AcDbLine
 10
574.7437574901
 20
705.99933349
 30
0.0
 11
617.7437566817
 21
705.99933349
 31
0.0
  0
LINE
  5
80
330
1F
100
AcDbEntity
  8
SLD-0
  6
SLD-実線
 62
     7
370
    18
100
AcDbLine
 10
614.2346658386
 20
797.9993317604
 30
0.0
 11
614.3225476567
 21
794.7770272754
 31
0.0
  0
LINE
  5
81
330
1F
100
AcDbEntity
  8
SLD-0
  6
SLD-実線
 62
     7
370
    18
100
AcDbLine
 10
497.4987766992
 20
733.6833785862
 30
0.0
 11
497.1400403428
 21
720.5296788332
 31
0.0
  0
LINE
  5
82
330
1F
100
AcDbEntity
  8
SLD-0
  6
SLD-実線
 62
     7
370
    18
100
AcDbLine
 10
498.7437589189
 20
696.9993336592
 30
0.0
 11
495.7437589753
 21
696.9993336592
 31
0.0
  0
LINE
  5
83
330
1F
100
AcDbEntity
  8
SLD-0
  6
SLD-実線
 62
     7
370
    18
100
AcDbLine
 10
548.2437579883
 20
625.999334994
 30
0.0
 11
556.7437578285
 21
625.999334994
 31
0.0
  0
LINE
  5
84
330
1F
100
AcDbEntity
  8
SLD-0
  6
SLD-実線
 62
     7
370
    18
100
AcDbLine
 10
564.9937576734
 20
625.999334994
 30
0.0
 11
564.9937576734
 21
626.9993349752
 31
0.0
  0
LINE
  5
85
330
1F
100
AcDbEntity
  8
SLD-0
  6
SLD-実線
 62
     7
370
    18
100
AcDbLine
 10
565.2437576687
 20
631.9993348812
 30
0.0
 11
565.2437576687
 21
633.9993348436
 31
0.0
  0
LINE
  5
86
330
1F
100
AcDbEntity
  8
SLD-0
  6
SLD-実線
 62
     7
370
    18
100
AcDbLine
 10
565.2437576687
 20
631.9993348812
 30
0.0
 11
556.7437578285
 21
631.9993348812
 31
0.0
  0
LINE
  5
87
330
1F
100
AcDbEntity
  8
SLD-0
  6
SLD-実線
 62
     7
370
    18
100
AcDbLine
 10
565.2437576687
 20
625.999334994
 30
0.0
 11
556.7437578285
 21
625.999334994
 31
0.0
  0
LINE
  5
88
330
1F
100
AcDbEntity
  8
SLD-0
  6
SLD-実線
 62
     7
370
    18
100
AcDbLine
 10
617.7437578996
 20
700.9993324927
 30
0.0
 11
622.7275805329
 21
703.8767460749
 31
0.0
  0
LINE
  5
89
330
1F
100
AcDbEntity
  8
SLD-0
  6
SLD-実線
 62
     7
370
    18
100
AcDbLine
 10
620.7592881075
 20
793.5538270732
 30
0.0
 11
623.2271926078
 21
704.7705560168
 31
0.0
  0
LINE
  5
8A
330
1F
100
AcDbEntity
  8
SLD-0
  6
SLD-実線
 62
     7
370
    18
100
AcDbLine
 10
568.2437576123
 20
626.9993349752
 30
0.0
 11
568.2437576123
 21
629.4993349282
 31
0.0
  0
LINE
  5
8B
330
1F
100
AcDbEntity
  8
SLD-0
  6
SLD-実線
 62
     7
370
    18
100
AcDbLine
 10
568.2437576123
 20
626.9993349752
 30
0.0
 11
556.7437578285
 21
626.9993349752
 31
0.0
  0
LINE
  5
8C
330
1F
100
AcDbEntity
  8
SLD-0
  6
SLD-実線
 62
     7
370
    18
100
AcDbLine
 10
571.7437575465
 20
629.4993349282
 30
0.0
 11
571.7437575465
 21
630.9993349
 31
0.0
  0
LINE
  5
8D
330
1F
100
AcDbEntity
  8
SLD-0
  6
SLD-実線
 62
     7
370
    18
100
AcDbLine
 10
571.7437575465
 20
629.4993349282
 30
0.0
 11
556.7437578285
 21
629.4993349282
 31
0.0
  0
LINE
  5
8E
330
1F
100
AcDbEntity
  8
SLD-0
  6
SLD-実線
 62
     7
370
    18
100
AcDbLine
 10
571.7437575465
 20
630.9993349
 30
0.0
 11
556.7437578285
 21
630.9993349
 31
0.0
  0
LINE
  5
8F
330
1F
100
AcDbEntity
  8
SLD-0
  6
SLD-実線
 62
     7
370
    18
100
AcDbLine
 10
564.9937576734
 20
630.9993349
 30
0.0
 11
564.9937576734
 21
631.9993348812
 31
0.0
  0
LINE
  5
90
330
1F
100
AcDbEntity
  8
SLD-0
  6
SLD-実線
 62
     7
370
    18
100
AcDbLine
 10
497.2437572089
 20
796.7106555465
 30
0.0
 11
493.2278391041
 21
794.3920646821
 31
0.0
  0
LINE
  5
91
330
1F
100
AcDbEntity
  8
SLD-0
  6
SLD-実線
 62
     7
370
    18
100
AcDbLine
 10
492.7282269622
 20
793.5538271869
 30
0.0
 11
490.4915636199
 21
713.0896333556
 31
0.0
  0
LINE
  5
92
330
1F
100
AcDbEntity
  8
SLD-0
  6
SLD-実線
 62
     7
370
    18
100
AcDbLine
 10
538.7437581669
 20
705.99933349
 30
0.0
 11
504.4480269947
 21
705.99933349
 31
0.0
  0
LINE
  5
93
330
1F
100
AcDbEntity
  8
SLD-0
  6
SLD-実線
 62
     7
370
    18
100
AcDbLine
 10
556.7437578285
 20
696.9993336592
 30
0.0
 11
486.8364409607
 21
696.9993336592
 31
0.0
  0
LINE
  5
94
330
1F
100
AcDbEntity
  8
SLD-0
  6
SLD-実線
 62
     7
370
    18
100
AcDbLine
 10
548.4937579836
 20
630.9993349
 30
0.0
 11
548.4937579836
 21
631.9993348812
 31
0.0
  0
LINE
  5
95
330
1F
100
AcDbEntity
  8
SLD-0
  6
SLD-実線
 62
     7
370
    18
100
AcDbLine
 10
541.7437581105
 20
630.9993349
 30
0.0
 11
556.7437578285
 21
630.9993349
 31
0.0
  0
LINE
  5
96
330
1F
100
AcDbEntity
  8
SLD-0
  6
SLD-実線
 62
     7
370
    18
100
AcDbLine
 10
541.7437581105
 20
629.4993349282
 30
0.0
 11
556.7437578285
 21
629.4993349282
 31
0.0
  0
LINE
  5
97
330
1F
100
AcDbEntity
  8
SLD-0
  6
SLD-実線
 62
     7
370
    18
100
AcDbLine
 10
541.7437581105
 20
629.4993349282
 30
0.0
 11
541.7437581105
 21
630.9993349
 31
0.0
  0
LINE
  5
98
330
1F
100
AcDbEntity
  8
SLD-0
  6
SLD-実線
 62
     7
370
    18
100
AcDbLine
 10
545.2437580447
 20
626.9993349752
 30
0.0
 11
556.7437578285
 21
626.9993349752
 31
0.0
  0
LINE
  5
99
330
1F
100
AcDbEntity
  8
SLD-0
  6
SLD-実線
 62
     7
370
    18
100
AcDbLine
 10
545.2437580447
 20
626.9993349752
 30
0.0
 11
545.2437580447
 21
629.4993349282
 31
0.0
  0
LINE
  5
9A
330
1F
100
AcDbEntity
  8
SLD-0
  6
SLD-実線
 62
     7
370
    18
100
AcDbLine
 10
548.2437579883
 20
631.9993348812
 30
0.0
 11
556.7437578285
 21
631.9993348812
 31
0.0
  0
LINE
  5
9B
330
1F
100
AcDbEntity
  8
SLD-0
  6
SLD-実線
 62
     7
370
    18
100
AcDbLine
 10
548.2437579883
 20
631.9993348812
 30
0.0
 11
548.2437579883
 21
633.9993348436
 31
0.0
  0
LINE
  5
9C
330
1F
100
AcDbEntity
  8
SLD-0
  6
SLD-実線
 62
     7
370
    18
100
AcDbLine
 10
548.4937579836
 20
625.999334994
 30
0.0
 11
548.4937579836
 21
626.9993349752
 31
0.0
  0
LINE
  5
9D
330
1F
100
AcDbEntity
  8
SLD-0
  6
SLD-実線
 62
     7
370
    18
100
AcDbLine
 10
556.7437578285
 20
636.9993347872
 30
0.0
 11
486.7437591445
 21
636.9993347872
 31
0.0
  0
LINE
  5
9E
330
1F
100
AcDbEntity
  8
SLD-0
  6
SLD-実線
 62
     7
370
    18
100
AcDbLine
 10
556.7437578285
 20
633.9993348436
 30
0.0
 11
480.7437592573
 21
633.9993348436
 31
0.0
  0
LINE
  5
9F
330
1F
100
AcDbEntity
  8
SLD-0
  6
SLD-実線
 62
     7
370
    18
100
AcDbLine
 10
556.7437578285
 20
636.9993347872
 30
0.0
 11
474.2437593795
 21
636.9993347872
 31
0.0
  0
LINE
  5
A0
330
1F
100
AcDbEntity
  8
SLD-0
  6
SLD-実線
 62
     7
370
    18
100
AcDbLine
 10
531.7437582985
 20
416.0993389401
 30
0.0
 11
519.2437585335
 21
416.0993389401
 31
0.0
  0
LINE
  5
A1
330
1F
100
AcDbEntity
  8
SLD-0
  6
SLD-実線
 62
     7
370
    18
100
AcDbLine
 10
538.7437581669
 20
404.0993391657
 30
0.0
 11
531.7437582985
 21
404.0993391657
 31
0.0
  0
LINE
  5
A2
330
1F
100
AcDbEntity
  8
SLD-0
  6
SLD-実線
 62
     7
370
    18
100
AcDbLine
 10
539.7437581481
 20
405.0993391469
 30
0.0
 11
539.7437581481
 21
408.0993390905
 31
0.0
  0
LINE
  5
A3
330
1F
100
AcDbEntity
  8
SLD-0
  6
SLD-実線
 62
     7
370
    18
100
AcDbLine
 10
526.7437583925
 20
388.0993394665
 30
0.0
 11
526.7437583925
 21
399.0993392597
 31
0.0
  0
LINE
  5
A4
330
1F
100
AcDbEntity
  8
SLD-0
  6
SLD-実線
 62
     7
370
    18
100
AcDbLine
 10
533.2437582703
 20
388.0993394665
 30
0.0
 11
533.2437582703
 21
390.0993394289
 31
0.0
  0
LINE
  5
A5
330
1F
100
AcDbEntity
  8
SLD-0
  6
SLD-実線
 62
     7
370
    18
100
AcDbLine
 10
538.2437581763
 20
390.0993394289
 30
0.0
 11
533.2437582703
 21
390.0993394289
 31
0.0
  0
LINE
  5
A6
330
1F
100
AcDbEntity
  8
SLD-0
  6
SLD-実線
 62
     7
370
    18
100
AcDbLine
 10
538.2437581763
 20
387.0993394853
 30
0.0
 11
538.2437581763
 21
390.0993394289
 31
0.0
  0
LINE
  5
A7
330
1F
100
AcDbEntity
  8
SLD-0
  6
SLD-実線
 62
     7
370
    18
100
AcDbLine
 10
556.7437578285
 20
364.0993399177
 30
0.0
 11
482.7437592197
 21
364.0993399177
 31
0.0
  0
LINE
  5
A8
330
1F
100
AcDbEntity
  8
SLD-0
  6
SLD-実線
 62
     7
370
    18
100
AcDbLine
 10
556.7437578285
 20
361.799339961
 30
0.0
 11
482.7437592197
 21
361.799339961
 31
0.0
  0
LINE
  5
A9
330
1F
100
AcDbEntity
  8
SLD-0
  6
SLD-実線
 62
     7
370
    18
100
AcDbLine
 10
544.9910671404
 20
357.7993400362
 30
0.0
 11
540.9910672156
 21
361.799339961
 31
0.0
  0
LINE
  5
AA
330
1F
100
AcDbEntity
  8
SLD-0
  6
SLD-実線
 62
     7
370
    18
100
AcDbLine
 10
544.9910671404
 20
357.7993400362
 30
0.0
 11
556.7437578285
 21
357.7993400362
 31
0.0
  0
LINE
  5
AB
330
1F
100
AcDbEntity
  8
SLD-0
  6
SLD-1点鎖線(中心線)
 62
     7
370
    18
100
AcDbLine
 10
556.7437578285
 20
351.0986537982
 30
0.0
 11
556.7437578285
 21
856.0078579402
 31
0.0
  0
LINE
  5
AC
330
1F
100
AcDbEntity
  8
SLD-0
  6
SLD-1点鎖線(中心線)
 62
     7
370
    18
100
AcDbLine
 10
556.7437578285
 20
16.470946451
 30
0.0
 11
556.7437578285
 21
218.8169244659
 31
0.0
  0
LINE
  5
AD
330
1F
100
AcDbEntity
  8
SLD-0
  6
SLD-実線
 62
     7
370
    18
100
AcDbLine
 10
493.8761771936
 20
708.9993334336
 30
0.0
 11
486.9878727762
 21
708.9993334336
 31
0.0
  0
LINE
  5
AE
330
1F
100
AcDbEntity
  8
SLD-0
  6
SLD-実線
 62
     7
370
    18
100
AcDbLine
 10
504.4480269947
 20
729.4487875943
 30
0.0
 11
504.4480269947
 21
683.9993339036
 31
0.0
  0
LINE
  5
AF
330
1F
100
AcDbEntity
  8
SLD-0
  6
SLD-実線
 62
     7
370
    18
100
AcDbLine
 10
493.7247453781
 20
708.2359243559
 30
0.0
 11
493.7247453781
 21
683.9993339036
 31
0.0
  0
LINE
  5
B0
330
1F
100
AcDbEntity
  8
SLD-0
  6
SLD-実線
 62
     7
370
    18
100
AcDbLine
 10
486.8364409607
 20
708.2359243559
 30
0.0
 11
486.8364409607
 21
685.999333866
 31
0.0
  0
LINE
  5
B1
330
1F
100
AcDbEntity
  8
SLD-0
  6
SLD-実線
 62
     7
370
    18
100
AcDbLine
 10
504.4480265717
 20
720.9993333695
 30
0.0
 11
494.2334267622
 21
709.5685790377
 31
0.0
  0
LINE
  5
B2
330
1F
100
AcDbEntity
  8
SLD-0
  6
SLD-実線
 62
     7
370
    18
100
AcDbLine
 10
497.1400403428
 20
720.5296788332
 30
0.0
 11
487.3451223456
 21
709.5685790384
 31
0.0
  0
LINE
  5
B3
330
1F
100
AcDbEntity
  8
SLD-0
  6
SLD-実線
 62
     7
370
    18
100
AcDbLine
 10
626.6510701523
 20
708.9993334336
 30
0.0
 11
626.6510701523
 21
685.999333866
 31
0.0
  0
LINE
  5
B4
330
1F
100
AcDbEntity
  8
SLD-0
  6
SLD-実線
 62
     7
370
    18
100
AcDbLine
 10
626.6510701523
 20
708.9993334336
 30
0.0
 11
622.9913156735
 21
713.2563469897
 31
0.0
  0
LINE
  5
B5
330
1F
100
AcDbEntity
  8
SLD-0
  6
SLD-実線
 62
     7
370
    18
100
AcDbLine
 10
574.7437574901
 20
696.9993336592
 30
0.0
 11
574.7437574901
 21
719.981792317
 31
0.0
  0
LINE
  5
B6
330
1F
100
AcDbEntity
  8
SLD-0
  6
SLD-実線
 62
     7
370
    18
100
AcDbLine
 10
538.7437581669
 20
696.9993336592
 30
0.0
 11
538.7437581669
 21
719.981792317
 31
0.0
  0
LINE
  5
B7
330
1F
100
AcDbEntity
  8
SLD-0
  6
SLD-実線
 62
     7
370
    18
100
AcDbLine
 10
504.4480269947
 20
683.9993339036
 30
0.0
 11
488.8364409231
 21
683.9993339036
 31
0.0
  0
LINE
  5
B8
330
1F
100
AcDbEntity
  8
SLD-0
  6
SLD-実線
 62
     7
370
    18
100
AcDbLine
 10
617.7437566817
 20
683.9993339036
 30
0.0
 11
624.6510701899
 21
683.9993339036
 31
0.0
  0
LINE
  5
B9
330
1F
100
AcDbEntity
  8
SLD-0
  6
SLD-1点鎖線(中心線)
 62
     7
370
    18
100
AcDbLine
 10
487.7437591257
 20
355.1336673589
 30
0.0
 11
487.7437591257
 21
366.2042944226
 31
0.0
  0
LINE
  5
BA
330
1F
100
AcDbEntity
  8
SLD-0
  6
SLD-実線
 62
     7
370
    18
100
AcDbLine
 10
484.2437591915
 20
357.2993400456
 30
0.0
 11
484.2437591915
 21
361.799339961
 31
0.0
  0
LINE
  5
BB
330
1F
100
AcDbEntity
  8
SLD-0
  6
SLD-実線
 62
     7
370
    18
100
AcDbLine
 10
484.2437591915
 20
357.2993400456
 30
0.0
 11
491.2437590599
 21
357.2993400456
 31
0.0
  0
LINE
  5
BC
330
1F
100
AcDbEntity
  8
SLD-0
  6
SLD-実線
 62
     7
370
    18
100
AcDbLine
 10
491.2437590599
 20
357.2993400456
 30
0.0
 11
491.2437590599
 21
361.799339961
 31
0.0
  0
LINE
  5
BD
330
1F
100
AcDbEntity
  8
SLD-0
  6
SLD-実線
 62
     7
370
    18
100
AcDbLine
 10
499.2528493937
 20
797.9993319225
 30
0.0
 11
497.1400403428
 21
720.5296788332
 31
0.0
  0
LINE
  5
BE
330
1F
100
AcDbEntity
  8
SLD-0
  6
SLD-実線
 62
     7
370
    18
100
AcDbLine
 10
497.7437584138
 20
797.5766821025
 30
0.0
 11
497.7437584138
 21
797.9993320954
 31
0.0
  0
LINE
  5
BF
330
1F
100
AcDbEntity
  8
SLD-0
  6
SLD-実線
 62
     7
370
    18
100
AcDbLine
 10
615.7437567193
 20
797.5766817675
 30
0.0
 11
615.7437567193
 21
797.9993317604
 31
0.0
  0
LINE
  5
C0
330
1F
100
AcDbEntity
  8
SLD-0
  6
SLD-実線
 62
     7
370
    18
100
AcDbLine
 10
616.2437579242
 20
796.7106552115
 30
0.0
 11
620.2596760315
 21
794.3920643471
 31
0.0
  0
LINE
  5
C1
330
1F
100
AcDbEntity
  8
SLD-0
  6
SLD-実線
 62
     7
370
    18
100
AcDbLine
 10
586.9447345334
 20
705.99933349
 30
0.0
 11
586.9447345334
 21
721.1970513851
 31
0.0
  0
LINE
  5
C2
330
1F
100
AcDbEntity
  8
SLD-0
  6
SLD-実線
 62
     7
370
    18
100
AcDbLine
 10
591.5784708107
 20
705.99933349
 30
0.0
 11
591.5784708107
 21
727.0449285488
 31
0.0
  0
LINE
  5
C3
330
1F
100
AcDbEntity
  8
SLD-0
  6
SLD-実線
 62
     7
370
    18
100
AcDbLine
 10
581.2110619139
 20
719.981792317
 30
0.0
 11
581.2110619139
 21
705.99933349
 31
0.0
  0
LINE
  5
C4
330
1F
100
AcDbEntity
  8
SLD-0
  6
SLD-実線
 62
     7
370
    18
100
AcDbLine
 10
577.6294756176
 20
719.981792317
 30
0.0
 11
577.6294756176
 21
705.99933349
 31
0.0
  0
LINE
  5
C5
330
1F
100
AcDbEntity
  8
SLD-0
  6
SLD-実線
 62
     7
370
    18
100
AcDbLine
 10
602.3295115184
 20
797.9993317604
 30
0.0
 11
602.3295115184
 21
705.99933349
 31
0.0
  0
LINE
  5
C6
330
1F
100
AcDbEntity
  8
SLD-0
  6
SLD-実線
 62
     7
370
    18
100
AcDbLine
 10
599.5010842974
 20
797.9993317604
 30
0.0
 11
599.5010842974
 21
705.99933349
 31
0.0
  0
LINE
  5
C7
330
1F
100
AcDbEntity
  8
SLD-0
  6
SLD-実線
 62
     7
370
    18
100
AcDbLine
 10
595.6098116431
 20
797.9993317604
 30
0.0
 11
595.6098116431
 21
705.99933349
 31
0.0
  0
LINE
  5
C8
330
1F
100
AcDbEntity
  8
SLD-0
  6
SLD-実線
 62
     7
370
    18
100
AcDbLine
 10
610.4186716863
 20
793.1126505756
 30
0.0
 11
610.4186716863
 21
705.9993340329
 31
0.0
  0
LINE
  5
C9
330
1F
100
AcDbEntity
  8
SLD-0
  6
SLD-実線
 62
     7
370
    18
100
AcDbLine
 10
603.9959796688
 20
797.9993317604
 30
0.0
 11
603.9959796688
 21
705.99933349
 31
0.0
  0
LINE
  5
CA
330
1F
100
AcDbEntity
  8
SLD-0
  6
SLD-実線
 62
     7
370
    18
100
AcDbLine
 10
606.724925072
 20
797.3664408621
 30
0.0
 11
606.724925072
 21
797.9993317604
 31
0.0
  0
LINE
  5
CB
330
1F
100
AcDbEntity
  8
SLD-0
  6
SLD-実線
 62
     7
370
    18
100
AcDbLine
 10
521.9090403023
 20
705.99933349
 30
0.0
 11
521.9090403023
 21
727.0449285488
 31
0.0
  0
LINE
  5
CC
330
1F
100
AcDbEntity
  8
SLD-0
  6
SLD-実線
 62
     7
370
    18
100
AcDbLine
 10
513.9864313596
 20
797.9993317604
 30
0.0
 11
513.9864313596
 21
705.99933349
 31
0.0
  0
LINE
  5
CD
330
1F
100
AcDbEntity
  8
SLD-0
  6
SLD-実線
 62
     7
370
    18
100
AcDbLine
 10
511.1580041412
 20
797.9993317604
 30
0.0
 11
511.1580041412
 21
705.99933349
 31
0.0
  0
LINE
  5
CE
330
1F
100
AcDbEntity
  8
SLD-0
  6
SLD-実線
 62
     7
370
    18
100
AcDbLine
 10
517.8777040139
 20
797.9993317604
 30
0.0
 11
517.8777040139
 21
705.99933349
 31
0.0
  0
LINE
  5
CF
330
1F
100
AcDbEntity
  8
SLD-0
  6
SLD-実線
 62
     7
370
    18
100
AcDbLine
 10
526.5427811237
 20
705.99933349
 30
0.0
 11
526.5427811237
 21
721.1970513851
 31
0.0
  0
LINE
  5
D0
330
1F
100
AcDbEntity
  8
SLD-0
  6
SLD-実線
 62
     7
370
    18
100
AcDbLine
 10
535.8580400395
 20
719.981792317
 30
0.0
 11
535.8580400395
 21
705.99933349
 31
0.0
  0
LINE
  5
D1
330
1F
100
AcDbEntity
  8
SLD-0
  6
SLD-実線
 62
     7
370
    18
100
AcDbLine
 10
532.2764491991
 20
719.981792317
 30
0.0
 11
532.2764491991
 21
705.99933349
 31
0.0
  0
LINE
  5
D2
330
1F
100
AcDbEntity
  8
SLD-0
  6
SLD-実線
 62
     7
370
    18
100
AcDbLine
 10
615.8720497212
 20
705.9993345054
 30
0.0
 11
615.8720497212
 21
793.0692010485
 31
0.0
  0
LINE
  5
D3
330
1F
100
AcDbEntity
  8
SLD-0
  6
SLD-実線
 62
     7
370
    18
100
AcDbLine
 10
609.0141023021
 20
797.9993317604
 30
0.0
 11
609.0141023021
 21
794.8358363653
 31
0.0
  0
LINE
  5
D4
330
1F
100
AcDbEntity
  8
SLD-0
  6
SLD-実線
 62
     7
370
    18
100
AcDbLine
 10
611.6012431603
 20
797.409886315
 30
0.0
 11
611.6012431603
 21
797.9993317604
 31
0.0
  0
LINE
  5
D5
330
1F
100
AcDbEntity
  8
SLD-0
  6
SLD-実線
 62
     7
370
    18
100
AcDbLine
 10
611.9816257144
 20
796.6249821457
 30
0.0
 11
615.4916620116
 21
793.8541094706
 31
0.0
  0
LINE
  5
D6
330
1F
100
AcDbEntity
  8
SLD-0
  6
SLD-実線
 62
     7
370
    18
100
AcDbLine
 10
610.0928210775
 20
793.8512457459
 30
0.0
 11
607.0507756808
 21
796.6278456918
 31
0.0
  0
LINE
  5
D7
330
1F
100
AcDbEntity
  8
SLD-0
  6
SLD-実線
 62
     7
370
    18
100
AcDbLine
 10
520.2437585147
 20
797.9993317604
 30
0.0
 11
493.4437590186
 21
797.9993317604
 31
0.0
  0
LINE
  5
D8
330
1F
100
AcDbEntity
  8
SLD-0
  6
SLD-実線
 62
     7
370
    18
100
AcDbLine
 10
556.7437548677
 20
847.9993323617
 30
0.0
 11
512.873755694
 21
847.9993323617
 31
0.0
  0
LINE
  5
D9
330
1F
100
AcDbEntity
  8
SLD-0
  6
SLD-実線
 62
     7
370
    18
100
AcDbLine
 10
493.4437590186
 20
797.9993317604
 30
0.0
 11
493.4437590186
 21
831.8693311221
 31
0.0
  0
LINE
  5
DA
330
1F
100
AcDbEntity
  8
SLD-0
  6
SLD-実線
 62
     7
370
    18
100
AcDbLine
 10
511.7437557137
 20
844.2596142481
 30
0.0
 11
511.7437557137
 21
846.8693323814
 31
0.0
  0
LINE
  5
DB
330
1F
100
AcDbEntity
  8
SLD-0
  6
SLD-実線
 62
     7
370
    18
100
AcDbLine
 10
511.530545042
 20
843.8500399877
 30
0.0
 11
496.0341316966
 21
832.9993311024
 31
0.0
  0
LINE
  5
DC
330
1F
100
AcDbEntity
  8
SLD-0
  6
SLD-実線
 62
     7
370
    18
100
AcDbLine
 10
556.7437578285
 20
832.9993311024
 30
0.0
 11
494.5737589988
 21
832.9993311024
 31
0.0
  0
LINE
  5
DD
330
1F
100
AcDbEntity
  8
SLD-0
  6
SLD-実線
 62
     7
370
    18
100
AcDbLine
 10
556.7437578285
 20
843.9993308956
 30
0.0
 11
511.6706677666
 21
843.9993308956
 31
0.0
  0
LINE
  5
DE
330
1F
100
AcDbEntity
  8
SLD-0
  6
SLD-実線
 62
     7
370
    18
100
AcDbLine
 10
556.7437578285
 20
832.9993311024
 30
0.0
 11
618.9137566607
 21
832.9993311024
 31
0.0
  0
LINE
  5
DF
330
1F
100
AcDbEntity
  8
SLD-0
  6
SLD-実線
 62
     7
370
    18
100
AcDbLine
 10
620.0437566397
 20
797.9993317617
 30
0.0
 11
620.0437566397
 21
831.8693311234
 31
0.0
  0
LINE
  5
E0
330
1F
100
AcDbEntity
  8
SLD-0
  6
SLD-実線
 62
     7
370
    18
100
AcDbLine
 10
556.7437578285
 20
843.9993308956
 30
0.0
 11
601.8168433464
 21
843.9993308956
 31
0.0
  0
LINE
  5
E1
330
1F
100
AcDbEntity
  8
SLD-0
  6
SLD-実線
 62
     7
370
    18
100
AcDbLine
 10
601.9569622012
 20
843.8500410565
 30
0.0
 11
617.4533800907
 21
832.9993321712
 31
0.0
  0
LINE
  5
E2
330
1F
100
AcDbEntity
  8
SLD-0
  6
SLD-実線
 62
     7
370
    18
100
AcDbLine
 10
601.7437540229
 20
844.2596142493
 30
0.0
 11
601.7437540229
 21
846.8693323827
 31
0.0
  0
LINE
  5
E3
330
1F
100
AcDbEntity
  8
SLD-0
  6
SLD-実線
 62
     7
370
    18
100
AcDbLine
 10
556.7437548677
 20
847.9993323617
 30
0.0
 11
600.6137540439
 21
847.9993323617
 31
0.0
  0
LINE
  5
E4
330
1F
100
AcDbEntity
  8
SLD-0
  6
SLD-実線
 62
     7
370
    18
100
AcDbLine
 10
593.2437571436
 20
797.9993317617
 30
0.0
 11
620.0437566397
 21
797.9993317617
 31
0.0
  0
LINE
  5
E5
330
1F
100
AcDbEntity
  8
SLD-0
  6
SLD-1点鎖線(中心線)
 62
     7
370
    18
100
AcDbLine
 10
617.7654157723
 20
812.4993314878
 30
0.0
 11
623.2272020343
 21
812.4993314878
 31
0.0
  0
LINE
  5
E6
330
1F
100
AcDbEntity
  8
SLD-0
  6
SLD-実線
 62
     7
370
    18
100
AcDbLine
 10
556.7437578285
 20
646.9993345992
 30
0.0
 11
476.2437593419
 21
646.9993345992
 31
0.0
  0
LINE
  5
E7
330
1F
100
AcDbEntity
  8
SLD-0
  6
SLD-実線
 62
     7
370
    18
100
AcDbLine
 10
474.2437593795
 20
636.9993347872
 30
0.0
 11
474.2437593795
 21
644.9993346368
 31
0.0
  0
LINE
  5
E8
330
1F
100
AcDbEntity
  8
SLD-0
  6
SLD-実線
 62
     7
370
    18
100
AcDbLine
 10
480.7437592573
 20
633.9993348436
 30
0.0
 11
480.7437592573
 21
636.9993347872
 31
0.0
  0
LINE
  5
E9
330
1F
100
AcDbEntity
  8
SLD-0
  6
SLD-実線
 62
     7
370
    18
100
AcDbLine
 10
632.7437563997
 20
633.9993348436
 30
0.0
 11
632.7437563997
 21
636.9993347872
 31
0.0
  0
LINE
  5
EA
330
1F
100
AcDbEntity
  8
SLD-0
  6
SLD-実線
 62
     7
370
    18
100
AcDbLine
 10
556.7437578285
 20
633.9993348436
 30
0.0
 11
632.7437563997
 21
633.9993348436
 31
0.0
  0
LINE
  5
EB
330
1F
100
AcDbEntity
  8
SLD-0
  6
SLD-実線
 62
     7
370
    18
100
AcDbLine
 10
556.7437578285
 20
646.9993345992
 30
0.0
 11
637.2437563151
 21
646.9993345992
 31
0.0
  0
LINE
  5
EC
330
1F
100
AcDbEntity
  8
SLD-0
  6
SLD-実線
 62
     7
370
    18
100
AcDbLine
 10
639.2437562775
 20
636.9993347872
 30
0.0
 11
639.2437562775
 21
644.9993346368
 31
0.0
  0
LINE
  5
ED
330
1F
100
AcDbEntity
  8
SLD-0
  6
SLD-実線
 62
     7
370
    18
100
AcDbLine
 10
556.7437578285
 20
636.9993347872
 30
0.0
 11
639.2437562775
 21
636.9993347872
 31
0.0
  0
LINE
  5
EE
330
1F
100
AcDbEntity
  8
SLD-0
  6
SLD-実線
 62
     7
370
    18
100
AcDbLine
 10
617.7437566817
 20
705.99933349
 30
0.0
 11
617.7437566817
 21
649.9993345428
 31
0.0
  0
LINE
  5
EF
330
1F
100
AcDbEntity
  8
SLD-0
  6
SLD-実線
 62
     7
370
    18
100
AcDbLine
 10
472.2437594171
 20
87.7802087471
 30
0.0
 11
458.7437596709
 21
87.7802087471
 31
0.0
  0
LINE
  5
F0
330
1F
100
AcDbEntity
  8
SLD-0
  6
SLD-実線
 62
     7
370
    18
100
AcDbLine
 10
472.2437594171
 20
137.7802078071
 30
0.0
 11
458.7437596709
 21
137.7802078071
 31
0.0
  0
LINE
  5
F1
330
1F
100
AcDbEntity
  8
SLD-0
  6
SLD-実線
 62
     7
370
    18
100
AcDbLine
 10
456.7437597085
 20
89.7802087095
 30
0.0
 11
456.7437597085
 21
135.7802078447
 31
0.0
  0
LINE
  5
F2
330
1F
100
AcDbEntity
  8
SLD-0
  6
SLD-1点鎖線(中心線)
 62
     7
370
    18
100
AcDbLine
 10
674.0197874416
 20
112.7802082771
 30
0.0
 11
448.4474416835
 21
112.7802082771
 31
0.0
  0
LINE
  5
F3
330
1F
100
AcDbEntity
  8
SLD-0
  6
SLD-破線
 62
     7
370
    18
100
AcDbLine
 10
474.2437593795
 20
128.0302079904
 30
0.0
 11
456.7437597085
 21
128.0302079904
 31
0.0
  0
LINE
  5
F4
330
1F
100
AcDbEntity
  8
SLD-0
  6
SLD-破線
 62
     7
370
    18
100
AcDbLine
 10
474.2437593795
 20
129.4047079643
 30
0.0
 11
456.7437597085
 21
129.4047079643
 31
0.0
  0
LINE
  5
F5
330
1F
100
AcDbEntity
  8
SLD-0
  6
SLD-破線
 62
     7
370
    18
100
AcDbLine
 10
474.2437593795
 20
96.1557085899
 30
0.0
 11
456.7437597085
 21
96.1557085899
 31
0.0
  0
LINE
  5
F6
330
1F
100
AcDbEntity
  8
SLD-0
  6
SLD-破線
 62
     7
370
    18
100
AcDbLine
 10
474.2437593795
 20
97.5302085638
 30
0.0
 11
456.7437597085
 21
97.5302085638
 31
0.0
  0
LINE
  5
F7
330
1F
100
AcDbEntity
  8
SLD-0
  6
SLD-実線
 62
     7
370
    18
100
AcDbLine
 10
482.7437592197
 20
361.799339961
 30
0.0
 11
482.7437592197
 21
632.9993348624
 31
0.0
  0
LINE
  5
F8
330
1F
100
AcDbEntity
  8
SLD-0
  6
SLD-実線
 62
     7
370
    18
100
AcDbLine
 10
508.2437587403
 20
392.0993393913
 30
0.0
 11
508.2437587403
 21
424.9993387728
 31
0.0
  0
LINE
  5
F9
330
1F
100
AcDbEntity
  8
SLD-0
  6
SLD-実線
 62
     7
370
    18
100
AcDbLine
 10
605.2437569167
 20
392.0993393913
 30
0.0
 11
605.2437569167
 21
424.9993387728
 31
0.0
  0
LINE
  5
FA
330
1F
100
AcDbEntity
  8
SLD-0
  6
SLD-実線
 62
     7
370
    18
100
AcDbLine
 10
623.7437565689
 20
377.0993396733
 30
0.0
 11
623.7437565689
 21
632.9993348624
 31
0.0
  0
LINE
  5
FB
330
1F
100
AcDbEntity
  8
SLD-0
  6
SLD-実線
 62
     7
370
    18
100
AcDbLine
 10
556.7437578285
 20
387.0993394853
 30
0.0
 11
612.7437567757
 21
387.0993394853
 31
0.0
  0
LINE
  5
FC
330
1F
100
AcDbEntity
  8
SLD-0
  6
SLD-実線
 62
     7
370
    18
100
AcDbLine
 10
556.7437578285
 20
387.0993394853
 30
0.0
 11
490.7437590693
 21
387.0993394853
 31
0.0
  0
LINE
  5
FD
330
1F
100
AcDbEntity
  8
SLD-0
  6
SLD-実線
 62
     7
370
    18
100
AcDbLine
 10
581.7437573585
 20
416.0993389401
 30
0.0
 11
594.2437571235
 21
416.0993389401
 31
0.0
  0
LINE
  5
FE
330
1F
100
AcDbEntity
  8
SLD-0
  6
SLD-実線
 62
     7
370
    18
100
AcDbLine
 10
573.7437575089
 20
405.0993391469
 30
0.0
 11
573.7437575089
 21
408.0993390905
 31
0.0
  0
LINE
  5
FF
330
1F
100
AcDbEntity
  8
SLD-0
  6
SLD-実線
 62
     7
370
    18
100
AcDbLine
 10
574.7437574901
 20
404.0993391657
 30
0.0
 11
581.7437573585
 21
404.0993391657
 31
0.0
  0
LINE
  5
100
330
1F
100
AcDbEntity
  8
SLD-0
  6
SLD-実線
 62
     7
370
    18
100
AcDbLine
 10
586.7437572645
 20
388.0993394665
 30
0.0
 11
586.7437572645
 21
399.0993392597
 31
0.0
  0
LINE
  5
101
330
1F
100
AcDbEntity
  8
SLD-0
  6
SLD-実線
 62
     7
370
    18
100
AcDbLine
 10
575.2437574807
 20
387.0993394853
 30
0.0
 11
575.2437574807
 21
390.0993394289
 31
0.0
  0
LINE
  5
102
330
1F
100
AcDbEntity
  8
SLD-0
  6
SLD-実線
 62
     7
370
    18
100
AcDbLine
 10
575.2437574807
 20
390.0993394289
 30
0.0
 11
580.2437573867
 21
390.0993394289
 31
0.0
  0
LINE
  5
103
330
1F
100
AcDbEntity
  8
SLD-0
  6
SLD-実線
 62
     7
370
    18
100
AcDbLine
 10
580.2437573867
 20
388.0993394665
 30
0.0
 11
580.2437573867
 21
390.0993394289
 31
0.0
  0
LINE
  5
104
330
1F
100
AcDbEntity
  8
SLD-0
  6
SLD-実線
 62
     7
370
    18
100
AcDbLine
 10
556.7437578285
 20
372.0993397673
 30
0.0
 11
484.7437591821
 21
372.0993397673
 31
0.0
  0
LINE
  5
105
330
1F
100
AcDbEntity
  8
SLD-0
  6
SLD-実線
 62
     7
370
    18
100
AcDbLine
 10
506.2437587779
 20
604.9993353888
 30
0.0
 11
506.2437587779
 21
608.9993353136
 31
0.0
  0
LINE
  5
106
330
1F
100
AcDbEntity
  8
SLD-0
  6
SLD-実線
 62
     7
370
    18
100
AcDbLine
 10
508.2437587403
 20
608.9993353136
 30
0.0
 11
506.2437587779
 21
608.9993353136
 31
0.0
  0
LINE
  5
107
330
1F
100
AcDbEntity
  8
SLD-0
  6
SLD-実線
 62
     7
370
    18
100
AcDbLine
 10
508.2437587403
 20
604.9993353888
 30
0.0
 11
506.2437587779
 21
604.9993353888
 31
0.0
  0
LINE
  5
108
330
1F
100
AcDbEntity
  8
SLD-0
  6
SLD-実線
 62
     7
370
    18
100
AcDbLine
 10
508.2437587403
 20
608.9993353136
 30
0.0
 11
508.2437587403
 21
628.9993349376
 31
0.0
  0
LINE
  5
109
330
1F
100
AcDbEntity
  8
SLD-0
  6
SLD-実線
 62
     7
370
    18
100
AcDbLine
 10
605.2437569167
 20
604.9993353888
 30
0.0
 11
607.2437568791
 21
604.9993353888
 31
0.0
  0
LINE
  5
10A
330
1F
100
AcDbEntity
  8
SLD-0
  6
SLD-実線
 62
     7
370
    18
100
AcDbLine
 10
607.2437568791
 20
604.9993353888
 30
0.0
 11
607.2437568791
 21
608.9993353136
 31
0.0
  0
LINE
  5
10B
330
1F
100
AcDbEntity
  8
SLD-0
  6
SLD-実線
 62
     7
370
    18
100
AcDbLine
 10
605.2437569167
 20
608.9993353136
 30
0.0
 11
607.2437568791
 21
608.9993353136
 31
0.0
  0
LINE
  5
10C
330
1F
100
AcDbEntity
  8
SLD-0
  6
SLD-実線
 62
     7
370
    18
100
AcDbLine
 10
605.2437569167
 20
608.9993353136
 30
0.0
 11
605.2437569167
 21
628.9993349376
 31
0.0
  0
LINE
  5
10D
330
1F
100
AcDbEntity
  8
SLD-0
  6
SLD-実線
 62
     7
370
    18
100
AcDbLine
 10
506.2437587779
 20
424.9993387728
 30
0.0
 11
506.2437587779
 21
428.9993386976
 31
0.0
  0
LINE
  5
10E
330
1F
100
AcDbEntity
  8
SLD-0
  6
SLD-実線
 62
     7
370
    18
100
AcDbLine
 10
508.2437587403
 20
428.9993386976
 30
0.0
 11
506.2437587779
 21
428.9993386976
 31
0.0
  0
LINE
  5
10F
330
1F
100
AcDbEntity
  8
SLD-0
  6
SLD-実線
 62
     7
370
    18
100
AcDbLine
 10
508.2437587403
 20
424.9993387728
 30
0.0
 11
506.2437587779
 21
424.9993387728
 31
0.0
  0
LINE
  5
110
330
1F
100
AcDbEntity
  8
SLD-0
  6
SLD-実線
 62
     7
370
    18
100
AcDbLine
 10
508.2437587403
 20
428.9993386976
 30
0.0
 11
508.2437587403
 21
604.9993353888
 31
0.0
  0
LINE
  5
111
330
1F
100
AcDbEntity
  8
SLD-0
  6
SLD-1点鎖線(中心線)
 62
     7
370
    18
100
AcDbLine
 10
510.3075132463
 20
426.9993387352
 30
0.0
 11
504.840526987
 21
426.9993387352
 31
0.0
  0
LINE
  5
112
330
1F
100
AcDbEntity
  8
SLD-0
  6
SLD-1点鎖線(中心線)
 62
     7
370
    18
100
AcDbLine
 10
603.1799978642
 20
426.9993387352
 30
0.0
 11
608.6469886726
 21
426.9993387352
 31
0.0
  0
LINE
  5
113
330
1F
100
AcDbEntity
  8
SLD-0
  6
SLD-実線
 62
     7
370
    18
100
AcDbLine
 10
605.2437569167
 20
424.9993387728
 30
0.0
 11
607.2437568791
 21
424.9993387728
 31
0.0
  0
LINE
  5
114
330
1F
100
AcDbEntity
  8
SLD-0
  6
SLD-実線
 62
     7
370
    18
100
AcDbLine
 10
607.2437568791
 20
424.9993387728
 30
0.0
 11
607.2437568791
 21
428.9993386976
 31
0.0
  0
LINE
  5
115
330
1F
100
AcDbEntity
  8
SLD-0
  6
SLD-実線
 62
     7
370
    18
100
AcDbLine
 10
605.2437569167
 20
428.9993386976
 30
0.0
 11
607.2437568791
 21
428.9993386976
 31
0.0
  0
LINE
  5
116
330
1F
100
AcDbEntity
  8
SLD-0
  6
SLD-実線
 62
     7
370
    18
100
AcDbLine
 10
605.2437569167
 20
428.9993386976
 30
0.0
 11
605.2437569167
 21
604.9993353888
 31
0.0
  0
LINE
  5
117
330
1F
100
AcDbEntity
  8
SLD-0
  6
SLD-実線
 62
     7
370
    18
100
AcDbLine
 10
629.2437564655
 20
357.2993400456
 30
0.0
 11
622.2437565971
 21
357.2993400456
 31
0.0
  0
LINE
  5
118
330
1F
100
AcDbEntity
  8
SLD-0
  6
SLD-実線
 62
     7
370
    18
100
AcDbLine
 10
629.2437564655
 20
357.2993400456
 30
0.0
 11
629.2437564655
 21
361.799339961
 31
0.0
  0
LINE
  5
119
330
1F
100
AcDbEntity
  8
SLD-0
  6
SLD-1点鎖線(中心線)
 62
     7
370
    18
100
AcDbLine
 10
625.7437565313
 20
355.1336673589
 30
0.0
 11
625.7437565313
 21
366.2042944226
 31
0.0
  0
LINE
  5
11A
330
1F
100
AcDbEntity
  8
SLD-0
  6
SLD-実線
 62
     7
370
    18
100
AcDbLine
 10
622.2437565971
 20
357.2993400456
 30
0.0
 11
622.2437565971
 21
361.799339961
 31
0.0
  0
LINE
  5
11B
330
1F
100
AcDbEntity
  8
SLD-0
  6
SLD-実線
 62
     7
370
    18
100
AcDbLine
 10
556.7437578285
 20
361.799339961
 30
0.0
 11
630.7437564373
 21
361.799339961
 31
0.0
  0
LINE
  5
11C
330
1F
100
AcDbEntity
  8
SLD-0
  6
SLD-実線
 62
     7
370
    18
100
AcDbLine
 10
568.4964485166
 20
357.7993400362
 30
0.0
 11
556.7437578285
 21
357.7993400362
 31
0.0
  0
LINE
  5
11D
330
1F
100
AcDbEntity
  8
SLD-0
  6
SLD-実線
 62
     7
370
    18
100
AcDbLine
 10
568.4964485166
 20
357.7993400362
 30
0.0
 11
572.4964484414
 21
361.799339961
 31
0.0
  0
LINE
  5
11E
330
1F
100
AcDbEntity
  8
SLD-0
  6
SLD-実線
 62
     7
370
    18
100
AcDbLine
 10
630.7437564373
 20
361.799339961
 30
0.0
 11
630.7437564373
 21
370.0993398049
 31
0.0
  0
LINE
  5
11F
330
1F
100
AcDbEntity
  8
SLD-0
  6
SLD-実線
 62
     7
370
    18
100
AcDbLine
 10
556.7437578285
 20
372.0993397673
 30
0.0
 11
628.7437564749
 21
372.0993397673
 31
0.0
  0
LINE
  5
120
330
1F
100
AcDbEntity
  8
SLD-0
  6
SLD-実線
 62
     7
370
    18
100
AcDbLine
 10
556.7437578285
 20
364.0993399177
 30
0.0
 11
630.7437564373
 21
364.0993399177
 31
0.0
  0
LINE
  5
121
330
1F
100
AcDbEntity
  8
SLD-0
  6
SLD-1点鎖線(中心線)
 62
     7
370
    18
100
AcDbLine
 10
603.1799978642
 20
606.9993353512
 30
0.0
 11
608.6469886726
 21
606.9993353512
 31
0.0
  0
LINE
  5
122
330
1F
100
AcDbEntity
  8
SLD-0
  6
SLD-1点鎖線(中心線)
 62
     7
370
    18
100
AcDbLine
 10
510.3075132463
 20
606.9993353512
 30
0.0
 11
504.840526987
 21
606.9993353512
 31
0.0
  0
LINE
  5
123
330
1F
100
AcDbEntity
  8
SLD-0
  6
SLD-実線
 62
     7
370
    18
100
AcDbLine
 10
617.7437566817
 20
377.0993396733
 30
0.0
 11
617.7437566817
 21
382.0993395793
 31
0.0
  0
LINE
  5
124
330
1F
100
AcDbEntity
  8
SLD-0
  6
SLD-実線
 62
     7
370
    18
100
AcDbLine
 10
500.2304861639
 20
195.2802067261
 30
0.0
 11
613.2570294931
 21
195.2802067261
 31
0.0
  0
LINE
  5
125
330
1F
100
AcDbEntity
  8
SLD-0
  6
SLD-実線
 62
     7
370
    18
100
AcDbLine
 10
500.2304861639
 20
30.2802098281
 30
0.0
 11
613.2570294931
 21
30.2802098281
 31
0.0
  0
LINE
  5
126
330
1F
100
AcDbEntity
  8
SLD-0
  6
SLD-実線
 62
     7
370
    18
100
AcDbLine
 10
639.2437562775
 20
56.2669366125
 30
0.0
 11
639.2437562775
 21
169.2934799417
 31
0.0
  0
LINE
  5
127
330
1F
100
AcDbEntity
  8
SLD-0
  6
SLD-実線
 62
     7
370
    18
100
AcDbLine
 10
474.2437593795
 20
56.2669366125
 30
0.0
 11
474.2437593795
 21
169.2934799417
 31
0.0
  0
LINE
  5
128
330
1F
100
AcDbEntity
  8
SLD-0
  6
SLD-1点鎖線(中心線)
 62
     7
370
    18
100
AcDbLine
 10
631.2751200634
 20
38.2488414981
 30
0.0
 11
602.5738660589
 21
66.9501000492
 31
0.0
  0
LINE
  5
129
330
1F
100
AcDbEntity
  8
SLD-0
  6
SLD-1点鎖線(中心線)
 62
     7
370
    18
100
AcDbLine
 10
510.2826587037
 20
159.2413074045
 30
0.0
 11
481.764472875
 21
187.7594886865
 31
0.0
  0
LINE
  5
12A
330
1F
100
AcDbEntity
  8
SLD-0
  6
SLD-1点鎖線(中心線)
 62
     7
370
    18
100
AcDbLine
 10
615.2887430929
 20
93.757785908
 30
0.0
 11
631.7808336901
 21
88.3991814639
 31
0.0
  0
LINE
  5
12B
330
1F
100
AcDbEntity
  8
SLD-0
  6
SLD-1点鎖線(中心線)
 62
     7
370
    18
100
AcDbLine
 10
482.1129955968
 20
88.5312041869
 30
0.0
 11
499.75869981
 21
94.2646404442
 31
0.0
  0
LINE
  5
12C
330
1F
100
AcDbEntity
  8
SLD-0
  6
SLD-1点鎖線(中心線)
 62
     7
370
    18
100
AcDbLine
 10
509.1216996337
 20
178.3263434101
 30
0.0
 11
521.9116084836
 21
160.722543741
 31
0.0
  0
LINE
  5
12D
330
1F
100
AcDbEntity
  8
SLD-0
  6
SLD-1点鎖線(中心線)
 62
     7
370
    18
100
AcDbLine
 10
604.5442023849
 20
178.5718752228
 30
0.0
 11
592.4731526129
 21
161.9575028077
 31
0.0
  0
LINE
  5
12E
330
1F
100
AcDbEntity
  8
SLD-0
  6
SLD-実線
 62
     7
370
    18
100
AcDbLine
 10
474.2437593795
 20
641.9993346932
 30
0.0
 11
458.7437596709
 21
641.9993346932
 31
0.0
  0
LINE
  5
12F
330
1F
100
AcDbEntity
  8
SLD-0
  6
SLD-実線
 62
     7
370
    18
100
AcDbLine
 10
486.8364409607
 20
691.9993337532
 30
0.0
 11
458.7437596709
 21
691.9993337532
 31
0.0
  0
LINE
  5
130
330
1F
100
AcDbEntity
  8
SLD-0
  6
SLD-破線
 62
     7
370
    18
100
AcDbLine
 10
474.2437593795
 20
650.3748345335
 30
0.0
 11
456.7437597085
 21
650.3748345335
 31
0.0
  0
LINE
  5
131
330
1F
100
AcDbEntity
  8
SLD-0
  6
SLD-破線
 62
     7
370
    18
100
AcDbLine
 10
474.2437593795
 20
651.7493345099
 30
0.0
 11
456.7437597085
 21
651.7493345099
 31
0.0
  0
LINE
  5
132
330
1F
100
AcDbEntity
  8
SLD-0
  6
SLD-破線
 62
     7
370
    18
100
AcDbLine
 10
474.2437593795
 20
683.6238339104
 30
0.0
 11
456.7437597085
 21
683.6238339104
 31
0.0
  0
LINE
  5
133
330
1F
100
AcDbEntity
  8
SLD-0
  6
SLD-破線
 62
     7
370
    18
100
AcDbLine
 10
474.2437593795
 20
682.2493339365
 30
0.0
 11
456.7437597085
 21
682.2493339365
 31
0.0
  0
LINE
  5
134
330
1F
100
AcDbEntity
  8
SLD-0
  6
SLD-実線
 62
     7
370
    18
100
AcDbLine
 10
456.7437597085
 20
643.9993346556
 30
0.0
 11
456.7437597085
 21
689.9993337908
 31
0.0
  0
LINE
  5
135
330
1F
100
AcDbEntity
  8
SLD-0
  6
SLD-1点鎖線(中心線)
 62
     7
370
    18
100
AcDbLine
 10
479.6572047324
 20
666.9993342232
 30
0.0
 11
450.9283779992
 21
666.9993342232
 31
0.0
  0
LINE
  5
136
330
1F
100
AcDbEntity
  8
SLD-0
  6
SLD-実線
 62
     7
370
    18
100
AcDbLine
 10
597.2437570671
 20
392.0993393913
 30
0.0
 11
597.2437570671
 21
628.9993349376
 31
0.0
  0
LINE
  5
137
330
1F
100
AcDbEntity
  8
SLD-0
  6
SLD-実線
 62
     7
370
    18
100
AcDbLine
 10
516.2437585899
 20
392.0993393913
 30
0.0
 11
516.2437585899
 21
628.9993349376
 31
0.0
  0
LINE
  5
138
330
1F
100
AcDbEntity
  8
SLD-0
  6
SLD-実線
 62
     7
370
    18
100
AcDbLine
 10
548.2437579883
 20
387.0993394853
 30
0.0
 11
548.2437579883
 21
625.999334994
 31
0.0
  0
LINE
  5
139
330
1F
100
AcDbEntity
  8
SLD-0
  6
SLD-実線
 62
     7
370
    18
100
AcDbLine
 10
565.2437576687
 20
387.0993394853
 30
0.0
 11
565.2437576687
 21
625.999334994
 31
0.0
  0
LINE
  5
13A
330
1F
100
AcDbEntity
  8
SLD-0
  6
SLD-実線
 62
     7
370
    18
100
AcDbLine
 10
539.1437581594
 20
408.6993390792
 30
0.0
 11
531.7437582985
 21
416.0993389401
 31
0.0
  0
LINE
  5
13B
330
1F
100
AcDbEntity
  8
SLD-0
  6
SLD-実線
 62
     7
370
    18
100
AcDbLine
 10
573.7437575089
 20
408.0993390905
 30
0.0
 11
581.7437573585
 21
416.0993389401
 31
0.0
  0
LINE
  5
13C
330
1F
100
AcDbEntity
  8
SLD-0
  6
SLD-1点鎖線(中心線)
 62
     7
370
    18
100
AcDbLine
 10
548.2760488966
 20
654.9993344488
 30
0.0
 11
566.1686440155
 21
654.9993344488
 31
0.0
  0
LINE
  5
13D
330
1F
100
AcDbEntity
  8
SLD-0
  6
SLD-実線
 62
     7
370
    18
100
AcDbLine
 10
582.4437573454
 20
213.4448154768
 30
0.0
 11
582.4437573454
 21
195.2802067261
 31
0.0
  0
LINE
  5
13E
330
1F
100
AcDbEntity
  8
SLD-0
  6
SLD-実線
 62
     7
370
    18
100
AcDbLine
 10
591.9437571668
 20
195.2802067261
 30
0.0
 11
591.9437571668
 21
216.1305245174
 31
0.0
  0
LINE
  5
13F
330
1F
100
AcDbEntity
  8
SLD-0
  6
SLD-実線
 62
     7
370
    18
100
AcDbLine
 10
582.4437573454
 20
213.4448154768
 30
0.0
 11
556.7437578285
 21
213.4448154768
 31
0.0
  0
LINE
  5
140
330
1F
100
AcDbEntity
  8
SLD-0
  6
SLD-実線
 62
     7
370
    18
100
AcDbLine
 10
589.7437572081
 20
218.330524476
 30
0.0
 11
556.7437578285
 21
218.330524476
 31
0.0
  0
LINE
  5
141
330
1F
100
AcDbEntity
  8
SLD-0
  6
SLD-実線
 62
     7
370
    18
100
AcDbLine
 10
556.7437578285
 20
220.2802062561
 30
0.0
 11
579.2437574055
 21
220.2802062561
 31
0.0
  0
LINE
  5
142
330
1F
100
AcDbEntity
  8
SLD-0
  6
SLD-実線
 62
     7
370
    18
100
AcDbLine
 10
531.0437583117
 20
213.4448154768
 30
0.0
 11
556.7437578285
 21
213.4448154768
 31
0.0
  0
LINE
  5
143
330
1F
100
AcDbEntity
  8
SLD-0
  6
SLD-実線
 62
     7
370
    18
100
AcDbLine
 10
531.0437583117
 20
213.4448154768
 30
0.0
 11
531.0437583117
 21
195.2802067261
 31
0.0
  0
LINE
  5
144
330
1F
100
AcDbEntity
  8
SLD-0
  6
SLD-実線
 62
     7
370
    18
100
AcDbLine
 10
556.7437578285
 20
220.2802062561
 30
0.0
 11
534.2437582515
 21
220.2802062561
 31
0.0
  0
LINE
  5
145
330
1F
100
AcDbEntity
  8
SLD-0
  6
SLD-実線
 62
     7
370
    18
100
AcDbLine
 10
523.7437584489
 20
218.330524476
 30
0.0
 11
556.7437578285
 21
218.330524476
 31
0.0
  0
LINE
  5
146
330
1F
100
AcDbEntity
  8
SLD-0
  6
SLD-実線
 62
     7
370
    18
100
AcDbLine
 10
521.5437584903
 20
195.2802067261
 30
0.0
 11
521.5437584903
 21
216.1305245174
 31
0.0
  0
LINE
  5
147
330
1F
100
AcDbEntity
  8
SLD-0
  6
SLD-1点鎖線(中心線)
 62
     7
370
    18
100
AcDbLine
 10
538.2127081775
 20
194.9163567324
 30
0.0
 11
574.5614211314
 21
194.9163567324
 31
0.0
  0
LINE
  5
148
330
1F
100
AcDbEntity
  8
SLD-0
  6
SLD-1点鎖線(中心線)
 62
     7
370
    18
100
AcDbLine
 10
533.3714764502
 20
809.6033588139
 30
0.0
 11
526.4941993057
 21
809.6033588139
 31
0.0
  0
LINE
  5
149
330
1F
100
AcDbEntity
  8
SLD-0
  6
SLD-1点鎖線(中心線)
 62
     7
370
    18
100
AcDbLine
 10
529.7437583361
 20
805.6698770695
 30
0.0
 11
529.7437583361
 21
813.310186018
 31
0.0
  0
LINE
  5
14A
330
1F
100
AcDbEntity
  8
SLD-0
  6
SLD-実線
 62
     7
370
    18
100
AcDbLine
 10
576.2437574619
 20
807.2541270405
 30
0.0
 11
537.2437581951
 21
807.2541270405
 31
0.0
  0
LINE
  5
14B
330
1F
100
AcDbEntity
  8
SLD-0
  6
SLD-実線
 62
     7
370
    18
100
AcDbLine
 10
532.2437582891
 20
735.199332941
 30
0.0
 11
532.2437582891
 21
802.2541271345
 31
0.0
  0
LINE
  5
14C
330
1F
100
AcDbEntity
  8
SLD-0
  6
SLD-1点鎖線(中心線)
 62
     7
370
    18
100
AcDbLine
 10
587.371475435
 20
809.6033588139
 30
0.0
 11
580.4941982905
 21
809.6033588139
 31
0.0
  0
LINE
  5
14D
330
1F
100
AcDbEntity
  8
SLD-0
  6
SLD-1点鎖線(中心線)
 62
     7
370
    18
100
AcDbLine
 10
583.7437573209
 20
805.6698770695
 30
0.0
 11
583.7437573209
 21
813.310186018
 31
0.0
  0
LINE
  5
14E
330
1F
100
AcDbEntity
  8
SLD-0
  6
SLD-実線
 62
     7
370
    18
100
AcDbLine
 10
581.2437573679
 20
735.199332941
 30
0.0
 11
581.2437573679
 21
802.2541271345
 31
0.0
  0
LINE
  5
14F
330
1F
100
AcDbEntity
  8
SLD-0
  6
SLD-1点鎖線(中心線)
 62
     7
370
    18
100
AcDbLine
 10
583.7437573209
 20
723.4467740688
 30
0.0
 11
583.7437573209
 21
731.0870830172
 31
0.0
  0
LINE
  5
150
330
1F
100
AcDbEntity
  8
SLD-0
  6
SLD-1点鎖線(中心線)
 62
     7
370
    18
100
AcDbLine
 10
587.371475435
 20
727.3802558132
 30
0.0
 11
580.4941982905
 21
727.3802558132
 31
0.0
  0
LINE
  5
151
330
1F
100
AcDbEntity
  8
SLD-0
  6
SLD-実線
 62
     7
370
    18
100
AcDbLine
 10
537.2437581951
 20
730.199333035
 30
0.0
 11
576.2437574619
 21
730.199333035
 31
0.0
  0
LINE
  5
152
330
1F
100
AcDbEntity
  8
SLD-0
  6
SLD-1点鎖線(中心線)
 62
     7
370
    18
100
AcDbLine
 10
529.7437583361
 20
723.4467740688
 30
0.0
 11
529.7437583361
 21
731.0870830172
 31
0.0
  0
LINE
  5
153
330
1F
100
AcDbEntity
  8
SLD-0
  6
SLD-1点鎖線(中心線)
 62
     7
370
    18
100
AcDbLine
 10
533.3714764502
 20
727.3802558132
 30
0.0
 11
526.4941993057
 21
727.3802558132
 31
0.0
  0
ARC
  5
154
330
1F
100
AcDbEntity
  8
1
  6
SLD-実線
 62
     7
370
    18
100
AcDbCircle
 10
531.2437583079
 20
807.7716679383
 30
0.0
 40
9.699999817640219
100
AcDbArc
 50
90.0
 51
180.0
  0
ARC
  5
155
330
1F
100
AcDbEntity
  8
1
  6
SLD-実線
 62
     7
370
    18
100
AcDbCircle
 10
582.2437573491
 20
807.7716679383
 30
0.0
 40
9.699999817640219
100
AcDbArc
 50
0.0
 51
90.0
  0
ARC
  5
156
330
1F
100
AcDbEntity
  8
1
  6
SLD-実線
 62
     7
370
    18
100
AcDbCircle
 10
582.2437573491
 20
729.6817921346
 30
0.0
 40
9.699999817639991
100
AcDbArc
 50
270.0
 51
0.0
  0
ARC
  5
157
330
1F
100
AcDbEntity
  8
1
  6
SLD-実線
 62
     7
370
    18
100
AcDbCircle
 10
531.2437583079
 20
729.6817921346
 30
0.0
 40
9.699999817639991
100
AcDbArc
 50
180.0
 51
270.0
  0
ARC
  5
158
330
1F
100
AcDbEntity
  8
SLD-0
  6
SLD-実線
 62
     7
370
    18
100
AcDbCircle
 10
619.7596755241
 20
793.5260407389
 30
0.0
 40
0.9999986986648779
100
AcDbArc
 50
1.5922466909
 51
59.9999233798
  0
ARC
  5
159
330
1F
100
AcDbEntity
  8
SLD-0
  6
SLD-実線
 62
     7
370
    18
100
AcDbCircle
 10
622.2275800242
 20
704.7427696826
 30
0.0
 40
0.9999986988344223
100
AcDbArc
 50
300.000076693
 51
1.5922466869
  0
ARC
  5
15A
330
1F
100
AcDbEntity
  8
SLD-0
  6
SLD-実線
 62
     7
370
    18
100
AcDbCircle
 10
493.7278396742
 20
793.5260409653
 30
0.0
 40
0.999998824098361
100
AcDbArc
 50
120.0000766202
 51
178.4077599689
  0
ARC
  5
15B
330
1F
100
AcDbEntity
  8
SLD-0
  6
SLD-実線
 62
     7
370
    18
100
AcDbCircle
 10
531.7437582985
 20
399.0993392597
 30
0.0
 40
4.999999906000028
100
AcDbArc
 50
90.0
 51
180.0
  0
ARC
  5
15C
330
1F
100
AcDbEntity
  8
SLD-0
  6
SLD-実線
 62
     7
370
    18
100
AcDbCircle
 10
538.7437581669
 20
405.0993391469
 30
0.0
 40
0.9999999812000624
100
AcDbArc
 50
270.0
 51
0.0
  0
ARC
  5
15D
330
1F
100
AcDbEntity
  8
SLD-0
  6
SLD-実線
 62
     7
370
    18
100
AcDbCircle
 10
532.2437582891
 20
388.0993394665
 30
0.0
 40
0.9999999812002898
100
AcDbArc
 50
270.0
 51
0.0
  0
ARC
  5
15E
330
1F
100
AcDbEntity
  8
SLD-0
  6
SLD-実線
 62
     7
370
    18
100
AcDbCircle
 10
527.7437583737
 20
388.0993394665
 30
0.0
 40
0.9999999812000624
100
AcDbArc
 50
180.0
 51
270.0
  0
CIRCLE
  5
15F
330
1F
100
AcDbEntity
  8
SLD-0
  6
SLD-実線
 62
     7
370
    18
100
AcDbCircle
 10
556.7437578285
 20
112.7802082771
 30
0.0
 40
12.49999976499987
  0
ARC
  5
160
330
1F
100
AcDbEntity
  8
SLD-0
  6
SLD-実線
 62
     7
370
    18
100
AcDbCircle
 10
488.8364409231
 20
685.999333866
 30
0.0
 40
1.999999962400011
100
AcDbArc
 50
180.0
 51
270.0
  0
ARC
  5
161
330
1F
100
AcDbEntity
  8
SLD-0
  6
SLD-実線
 62
     7
370
    18
100
AcDbCircle
 10
488.8364406798
 20
708.2359243559
 30
0.0
 40
1.999999719115989
100
AcDbArc
 50
138.2157566725
 51
180.0
  0
ARC
  5
162
330
1F
100
AcDbEntity
  8
SLD-0
  6
SLD-実線
 62
     7
370
    18
100
AcDbCircle
 10
495.7247450982
 20
708.2359243559
 30
0.0
 40
1.999999720062931
100
AcDbArc
 50
138.215756721
 51
180.0
  0
ARC
  5
163
330
1F
100
AcDbEntity
  8
SLD-0
  6
SLD-実線
 62
     7
370
    18
100
AcDbCircle
 10
624.6510701899
 20
685.999333866
 30
0.0
 40
1.999999962400011
100
AcDbArc
 50
270.0
 51
0.0
  0
ARC
  5
164
330
1F
100
AcDbEntity
  8
SLD-0
  6
SLD-実線
 62
     7
370
    18
100
AcDbCircle
 10
496.743757623
 20
797.5766821025
 30
0.0
 40
1.000000790724724
100
AcDbArc
 50
299.9999464424
 51
0.0
  0
ARC
  5
165
330
1F
100
AcDbEntity
  8
SLD-0
  6
SLD-実線
 62
     7
370
    18
100
AcDbCircle
 10
616.74375751
 20
797.5766817675
 30
0.0
 40
1.000000790724738
100
AcDbArc
 50
180.0
 51
240.0000535576
  0
ARC
  5
166
330
1F
100
AcDbEntity
  8
SLD-0
  6
SLD-実線
 62
     7
370
    18
100
AcDbCircle
 10
607.7249254207
 20
797.3664408621
 30
0.0
 40
1.000000348746994
100
AcDbArc
 50
180.0
 51
227.6118608494
  0
ARC
  5
167
330
1F
100
AcDbEntity
  8
SLD-0
  6
SLD-実線
 62
     7
370
    18
100
AcDbCircle
 10
609.4186713375
 20
793.1126505756
 30
0.0
 40
1.000000348746994
100
AcDbArc
 50
0.0
 51
47.6118608494
  0
ARC
  5
168
330
1F
100
AcDbEntity
  8
SLD-0
  6
SLD-実線
 62
     7
370
    18
100
AcDbCircle
 10
612.6012435995
 20
797.409886315
 30
0.0
 40
1.000000439229098
100
AcDbArc
 50
180.0
 51
231.7117840776
  0
ARC
  5
169
330
1F
100
AcDbEntity
  8
SLD-0
  6
SLD-実線
 62
     7
370
    18
100
AcDbCircle
 10
614.8720489044
 20
793.0692010485
 30
0.0
 40
1.000000816768096
100
AcDbArc
 50
0.0
 51
51.7121499322
  0
ARC
  5
16A
330
1F
100
AcDbEntity
  8
SLD-0
  6
SLD-実線
 62
     7
370
    18
100
AcDbCircle
 10
512.873755694
 20
846.8693323814
 30
0.0
 40
1.129999980280104
100
AcDbArc
 50
90.0
 51
180.0
  0
ARC
  5
16B
330
1F
100
AcDbEntity
  8
SLD-0
  6
SLD-実線
 62
     7
370
    18
100
AcDbCircle
 10
494.5737589988
 20
831.8693311221
 30
0.0
 40
1.129999980280104
100
AcDbArc
 50
90.0
 51
180.0
  0
ARC
  5
16C
330
1F
100
AcDbEntity
  8
SLD-0
  6
SLD-実線
 62
     7
370
    18
100
AcDbCircle
 10
511.2437576047
 20
844.2596142481
 30
0.0
 40
0.4999981089962647
100
AcDbArc
 50
305.0000424995
 51
0.0
  0
ARC
  5
16D
330
1F
100
AcDbEntity
  8
SLD-0
  6
SLD-実線
 62
     7
370
    18
100
AcDbCircle
 10
520.2437585147
 20
802.9993316664
 30
0.0
 40
4.999999906000212
100
AcDbArc
 50
270.0
 51
285.070062
  0
ARC
  5
16E
330
1F
100
AcDbEntity
  8
SLD-0
  6
SLD-実線
 62
     7
370
    18
100
AcDbCircle
 10
602.2437534351
 20
844.2596142493
 30
0.0
 40
0.4999994121876625
100
AcDbArc
 50
180.0
 51
234.9995309583
  0
ARC
  5
16F
330
1F
100
AcDbEntity
  8
SLD-0
  6
SLD-実線
 62
     7
370
    18
100
AcDbCircle
 10
618.9137566607
 20
831.8693311234
 30
0.0
 40
1.129999979009995
100
AcDbArc
 50
0.0
 51
90.0
  0
ARC
  5
170
330
1F
100
AcDbEntity
  8
SLD-0
  6
SLD-実線
 62
     7
370
    18
100
AcDbCircle
 10
600.6137540439
 20
846.8693323827
 30
0.0
 40
1.129999979010108
100
AcDbArc
 50
0.0
 51
90.0
  0
ARC
  5
171
330
1F
100
AcDbEntity
  8
SLD-0
  6
SLD-実線
 62
     7
370
    18
100
AcDbCircle
 10
593.2437571436
 20
802.9993316677
 30
0.0
 40
4.999999905999971
100
AcDbArc
 50
254.929938
 51
270.0
  0
ARC
  5
172
330
1F
100
AcDbEntity
  8
SLD-0
  6
SLD-実線
 62
     7
370
    18
100
AcDbCircle
 10
492.7437590317
 20
649.9993345428
 30
0.0
 40
2.999999943600187
100
AcDbArc
 50
270.0
 51
0.0
  0
ARC
  5
173
330
1F
100
AcDbEntity
  8
SLD-0
  6
SLD-実線
 62
     7
370
    18
100
AcDbCircle
 10
476.2437593419
 20
644.9993346368
 30
0.0
 40
1.999999962400011
100
AcDbArc
 50
90.0
 51
180.0
  0
ARC
  5
174
330
1F
100
AcDbEntity
  8
SLD-0
  6
SLD-実線
 62
     7
370
    18
100
AcDbCircle
 10
637.2437563151
 20
644.9993346368
 30
0.0
 40
1.999999962400011
100
AcDbArc
 50
0.0
 51
90.0
  0
ARC
  5
175
330
1F
100
AcDbEntity
  8
SLD-0
  6
SLD-実線
 62
     7
370
    18
100
AcDbCircle
 10
620.7437566253
 20
649.9993345428
 30
0.0
 40
2.999999943600187
100
AcDbArc
 50
180.0
 51
270.0
  0
ARC
  5
176
330
1F
100
AcDbEntity
  8
SLD-0
  6
SLD-実線
 62
     7
370
    18
100
AcDbCircle
 10
458.7437596709
 20
135.7802078447
 30
0.0
 40
1.999999962400125
100
AcDbArc
 50
90.0
 51
180.0
  0
ARC
  5
177
330
1F
100
AcDbEntity
  8
SLD-0
  6
SLD-実線
 62
     7
370
    18
100
AcDbCircle
 10
458.7437596709
 20
89.7802087095
 30
0.0
 40
1.999999962400125
100
AcDbArc
 50
180.0
 51
270.0
  0
ARC
  5
178
330
1F
100
AcDbEntity
  8
SLD-0
  6
SLD-実線
 62
     7
370
    18
100
AcDbCircle
 10
481.7437592385
 20
632.9993348624
 30
0.0
 40
0.9999999812000624
100
AcDbArc
 50
0.0
 51
90.0
  0
ARC
  5
179
330
1F
100
AcDbEntity
  8
SLD-0
  6
SLD-実線
 62
     7
370
    18
100
AcDbCircle
 10
521.2437584959
 20
628.9993349376
 30
0.0
 40
4.999999906000085
100
AcDbArc
 50
90.0
 51
180.0
  0
ARC
  5
17A
330
1F
100
AcDbEntity
  8
SLD-0
  6
SLD-実線
 62
     7
370
    18
100
AcDbCircle
 10
503.2437588343
 20
628.9993349376
 30
0.0
 40
4.999999906000312
100
AcDbArc
 50
0.0
 51
90.0
  0
ARC
  5
17B
330
1F
100
AcDbEntity
  8
SLD-0
  6
SLD-実線
 62
     7
370
    18
100
AcDbCircle
 10
610.2437568227
 20
628.9993349376
 30
0.0
 40
4.999999905999971
100
AcDbArc
 50
90.0
 51
180.0
  0
ARC
  5
17C
330
1F
100
AcDbEntity
  8
SLD-0
  6
SLD-実線
 62
     7
370
    18
100
AcDbCircle
 10
592.2437571611
 20
628.9993349376
 30
0.0
 40
4.999999906000312
100
AcDbArc
 50
0.0
 51
90.0
  0
ARC
  5
17D
330
1F
100
AcDbEntity
  8
SLD-0
  6
SLD-実線
 62
     7
370
    18
100
AcDbCircle
 10
624.7437565501
 20
632.9993348624
 30
0.0
 40
0.9999999812004035
100
AcDbArc
 50
90.0
 51
180.0
  0
ARC
  5
17E
330
1F
100
AcDbEntity
  8
SLD-0
  6
SLD-実線
 62
     7
370
    18
100
AcDbCircle
 10
519.2437585335
 20
419.0993388837
 30
0.0
 40
2.99999994359996
100
AcDbArc
 50
180.0
 51
270.0
  0
ARC
  5
17F
330
1F
100
AcDbEntity
  8
SLD-0
  6
SLD-実線
 62
     7
370
    18
100
AcDbCircle
 10
594.2437571235
 20
419.0993388837
 30
0.0
 40
2.999999943600301
100
AcDbArc
 50
270.0
 51
0.0
  0
ARC
  5
180
330
1F
100
AcDbEntity
  8
SLD-0
  6
SLD-実線
 62
     7
370
    18
100
AcDbCircle
 10
574.7437574901
 20
405.0993391469
 30
0.0
 40
0.9999999812000624
100
AcDbArc
 50
180.0
 51
270.0
  0
ARC
  5
181
330
1F
100
AcDbEntity
  8
SLD-0
  6
SLD-実線
 62
     7
370
    18
100
AcDbCircle
 10
581.7437573585
 20
399.0993392597
 30
0.0
 40
4.999999906000028
100
AcDbArc
 50
0.0
 51
90.0
  0
ARC
  5
182
330
1F
100
AcDbEntity
  8
SLD-0
  6
SLD-実線
 62
     7
370
    18
100
AcDbCircle
 10
585.7437572833
 20
388.0993394665
 30
0.0
 40
0.9999999812000624
100
AcDbArc
 50
270.0
 51
0.0
  0
ARC
  5
183
330
1F
100
AcDbEntity
  8
SLD-0
  6
SLD-実線
 62
     7
370
    18
100
AcDbCircle
 10
581.2437573679
 20
388.0993394665
 30
0.0
 40
0.9999999812000624
100
AcDbArc
 50
180.0
 51
270.0
  0
ARC
  5
184
330
1F
100
AcDbEntity
  8
SLD-0
  6
SLD-実線
 62
     7
370
    18
100
AcDbCircle
 10
490.7437590693
 20
379.0993396357
 30
0.0
 40
7.999999849600101
100
AcDbArc
 50
90.0
 51
180.0
  0
ARC
  5
185
330
1F
100
AcDbEntity
  8
SLD-0
  6
SLD-実線
 62
     7
370
    18
100
AcDbCircle
 10
484.7437591821
 20
370.0993398049
 30
0.0
 40
1.999999962400068
100
AcDbArc
 50
90.0
 51
180.0
  0
ARC
  5
186
330
1F
100
AcDbEntity
  8
SLD-0
  6
SLD-実線
 62
     7
370
    18
100
AcDbCircle
 10
521.2437584959
 20
392.0993393913
 30
0.0
 40
4.999999906000085
100
AcDbArc
 50
180.0
 51
270.0
  0
ARC
  5
187
330
1F
100
AcDbEntity
  8
SLD-0
  6
SLD-実線
 62
     7
370
    18
100
AcDbCircle
 10
503.2437588343
 20
392.0993393913
 30
0.0
 40
4.999999906000198
100
AcDbArc
 50
270.0
 51
0.0
  0
ARC
  5
188
330
1F
100
AcDbEntity
  8
SLD-0
  6
SLD-実線
 62
     7
370
    18
100
AcDbCircle
 10
592.2437571611
 20
392.0993393913
 30
0.0
 40
4.999999906000198
100
AcDbArc
 50
270.0
 51
0.0
  0
ARC
  5
189
330
1F
100
AcDbEntity
  8
SLD-0
  6
SLD-実線
 62
     7
370
    18
100
AcDbCircle
 10
610.2437568227
 20
392.0993393913
 30
0.0
 40
4.999999905999971
100
AcDbArc
 50
180.0
 51
270.0
  0
ARC
  5
18A
330
1F
100
AcDbEntity
  8
SLD-0
  6
SLD-実線
 62
     7
370
    18
100
AcDbCircle
 10
628.7437564749
 20
370.0993398049
 30
0.0
 40
1.999999962400068
100
AcDbArc
 50
0.0
 51
90.0
  0
ARC
  5
18B
330
1F
100
AcDbEntity
  8
SLD-0
  6
SLD-実線
 62
     7
370
    18
100
AcDbCircle
 10
622.7437565877
 20
377.0993396733
 30
0.0
 40
4.999999906000141
100
AcDbArc
 50
180.0
 51
270.0
  0
ARC
  5
18C
330
1F
100
AcDbEntity
  8
SLD-0
  6
SLD-実線
 62
     7
370
    18
100
AcDbCircle
 10
612.7437567757
 20
382.0993395793
 30
0.0
 40
4.999999905999971
100
AcDbArc
 50
0.0
 51
90.0
  0
ARC
  5
18D
330
1F
100
AcDbEntity
  8
SLD-0
  6
SLD-実線
 62
     7
370
    18
100
AcDbCircle
 10
628.7437564749
 20
377.0993396733
 30
0.0
 40
4.999999905999971
100
AcDbArc
 50
180.0
 51
270.0
  0
ARC
  5
18E
330
1F
100
AcDbEntity
  8
SLD-0
  6
SLD-実線
 62
     7
370
    18
100
AcDbCircle
 10
556.7437578285
 20
112.7802082771
 30
0.0
 40
99.99999809162072
100
AcDbArc
 50
34.411508646
 51
55.588491354
  0
ARC
  5
18F
330
1F
100
AcDbEntity
  8
SLD-0
  6
SLD-実線
 62
     7
370
    18
100
AcDbCircle
 10
556.7437578285
 20
112.7802082771
 30
0.0
 40
99.99999809162072
100
AcDbArc
 50
304.411508646
 51
325.588491354
  0
ARC
  5
190
330
1F
100
AcDbEntity
  8
SLD-0
  6
SLD-実線
 62
     7
370
    18
100
AcDbCircle
 10
556.7437578285
 20
112.7802082771
 30
0.0
 40
99.9999980916207
100
AcDbArc
 50
214.411508646
 51
235.588491354
  0
ARC
  5
191
330
1F
100
AcDbEntity
  8
SLD-0
  6
SLD-実線
 62
     7
370
    18
100
AcDbCircle
 10
556.7437578285
 20
112.7802082771
 30
0.0
 40
99.99999809162072
100
AcDbArc
 50
124.411508646
 51
145.588491354
  0
ARC
  5
192
330
1F
100
AcDbEntity
  8
SLD-0
  6
SLD-実線
 62
     7
370
    18
100
AcDbCircle
 10
472.2437594171
 20
139.7802077695
 30
0.0
 40
1.999999962400352
100
AcDbArc
 50
270.0
 51
0.0
  0
ARC
  5
193
330
1F
100
AcDbEntity
  8
SLD-0
  6
SLD-実線
 62
     7
370
    18
100
AcDbCircle
 10
472.2437594171
 20
85.7802087847
 30
0.0
 40
1.999999962400352
100
AcDbArc
 50
0.0
 51
90.0
  0
ARC
  5
194
330
1F
100
AcDbEntity
  8
SLD-0
  6
SLD-1点鎖線(中心線)
 62
     7
370
    18
100
AcDbCircle
 10
556.7437578285
 20
112.7802082771
 30
0.0
 40
68.9999987028003
100
AcDbArc
 50
44.406876
 51
63.365277
  0
CIRCLE
  5
195
330
1F
100
AcDbEntity
  8
SLD-0
  6
SLD-実線
 62
     7
370
    18
100
AcDbCircle
 10
556.7437578285
 20
112.7802082771
 30
0.0
 40
73.99999860879984
  0
ARC
  5
196
330
1F
100
AcDbEntity
  8
SLD-0
  6
SLD-1点鎖線(中心線)
 62
     7
370
    18
100
AcDbCircle
 10
556.7437578285
 20
112.7802082771
 30
0.0
 40
89.99999830800051
100
AcDbArc
 50
122.905688
 51
148.042479
  0
ARC
  5
197
330
1F
100
AcDbEntity
  8
SLD-0
  6
SLD-1点鎖線(中心線)
 62
     7
370
    18
100
AcDbCircle
 10
556.7437578285
 20
112.7802082771
 30
0.0
 40
89.99999830799975
100
AcDbArc
 50
302.377519
 51
327.217906
  0
CIRCLE
  5
198
330
1F
100
AcDbEntity
  8
SLD-0
  6
SLD-実線
 62
     7
370
    18
100
AcDbCircle
 10
620.383365723
 20
49.1405958385
 30
0.0
 40
4.999999905999971
  0
CIRCLE
  5
199
330
1F
100
AcDbEntity
  8
SLD-0
  6
SLD-実線
 62
     7
370
    18
100
AcDbCircle
 10
493.104149934
 20
176.4198161716
 30
0.0
 40
4.999999906000198
  0
ARC
  5
19A
330
1F
100
AcDbEntity
  8
SLD-0
  6
SLD-実線
 62
     7
370
    18
100
AcDbCircle
 10
556.7437578285
 20
112.7802082771
 30
0.0
 40
37.49999929500021
100
AcDbArc
 50
84.301807
 51
104.456615
  0
ARC
  5
19B
330
1F
100
AcDbEntity
  8
SLD-0
  6
SLD-実線
 62
     7
370
    18
100
AcDbCircle
 10
556.7437578285
 20
112.7802082771
 30
0.0
 40
49.99999906000035
100
AcDbArc
 50
83.610772
 51
114.299132
  0
CIRCLE
  5
19C
330
1F
100
AcDbEntity
  8
SLD-0
  6
SLD-実線
 62
     7
370
    18
100
AcDbCircle
 10
622.3666565952
 20
91.4580359507
 30
0.0
 40
4.79999990975989
  0
CIRCLE
  5
19D
330
1F
100
AcDbEntity
  8
SLD-0
  6
SLD-実線
 62
     7
370
    18
100
AcDbCircle
 10
556.7437578285
 20
43.7802095743
 30
0.0
 40
4.79999990975989
  0
CIRCLE
  5
19E
330
1F
100
AcDbEntity
  8
SLD-0
  6
SLD-実線
 62
     7
370
    18
100
AcDbCircle
 10
491.1208590619
 20
91.4580359507
 30
0.0
 40
4.79999990975989
  0
CIRCLE
  5
19F
330
1F
100
AcDbEntity
  8
SLD-0
  6
SLD-実線
 62
     7
370
    18
100
AcDbCircle
 10
516.1865767739
 20
168.6023799548
 30
0.0
 40
4.79999990975989
  0
CIRCLE
  5
1A0
330
1F
100
AcDbEntity
  8
SLD-0
  6
SLD-実線
 62
     7
370
    18
100
AcDbCircle
 10
597.3009388857
 20
168.6023799548
 30
0.0
 40
4.799999909760118
  0
ARC
  5
1A1
330
1F
100
AcDbEntity
  8
SLD-0
  6
SLD-1点鎖線(中心線)
 62
     7
370
    18
100
AcDbCircle
 10
556.7437578285
 20
112.7802082771
 30
0.0
 40
68.99999870280054
100
AcDbArc
 50
115.660454
 51
136.310785
  0
ARC
  5
1A2
330
1F
100
AcDbEntity
  8
SLD-0
  6
SLD-1点鎖線(中心線)
 62
     7
370
    18
100
AcDbCircle
 10
556.7437578285
 20
112.7802082771
 30
0.0
 40
68.99999870280021
100
AcDbArc
 50
187.316284
 51
207.370691
  0
ARC
  5
1A3
330
1F
100
AcDbEntity
  8
SLD-0
  6
SLD-1点鎖線(中心線)
 62
     7
370
    18
100
AcDbCircle
 10
556.7437578285
 20
112.7802082771
 30
0.0
 40
68.99999870279996
100
AcDbArc
 50
260.168066
 51
278.827267
  0
ARC
  5
1A4
330
1F
100
AcDbEntity
  8
SLD-0
  6
SLD-1点鎖線(中心線)
 62
     7
370
    18
100
AcDbCircle
 10
556.7437578285
 20
112.7802082771
 30
0.0
 40
68.99999870279969
100
AcDbArc
 50
332.548233
 51
352.074654
  0
ARC
  5
1A5
330
1F
100
AcDbEntity
  8
SLD-0
  6
SLD-実線
 62
     7
370
    18
100
AcDbCircle
 10
556.7437578285
 20
112.7802082771
 30
0.0
 40
37.49999929499999
100
AcDbArc
 50
155.13534
 51
31.252849
  0
ARC
  5
1A6
330
1F
100
AcDbEntity
  8
SLD-0
  6
SLD-実線
 62
     7
370
    18
100
AcDbCircle
 10
556.7437578285
 20
112.7802082771
 30
0.0
 40
49.99999906000017
100
AcDbArc
 50
153.925155
 51
37.175879
  0
ARC
  5
1A7
330
1F
100
AcDbEntity
  8
SLD-0
  6
SLD-実線
 62
     7
370
    18
100
AcDbCircle
 10
458.7437596709
 20
643.9993346556
 30
0.0
 40
1.999999962400125
100
AcDbArc
 50
180.0
 51
270.0
  0
ARC
  5
1A8
330
1F
100
AcDbEntity
  8
SLD-0
  6
SLD-実線
 62
     7
370
    18
100
AcDbCircle
 10
458.7437596709
 20
689.9993337908
 30
0.0
 40
1.999999962400125
100
AcDbArc
 50
90.0
 51
180.0
  0
CIRCLE
  5
1A9
330
1F
100
AcDbEntity
  8
SLD-0
  6
SLD-破線
 62
     7
370
    18
100
AcDbCircle
 10
556.7437578285
 20
654.9993344488
 30
0.0
 40
3.999999924799909
  0
ARC
  5
1AA
330
1F
100
AcDbEntity
  8
SLD-0
  6
SLD-実線
 62
     7
370
    18
100
AcDbCircle
 10
579.2437574055
 20
217.0802063162
 30
0.0
 40
3.199999939840322
100
AcDbArc
 50
22.999613
 51
90.0
  0
ARC
  5
1AB
330
1F
100
AcDbEntity
  8
SLD-0
  6
SLD-実線
 62
     7
370
    18
100
AcDbCircle
 10
589.7437572081
 20
216.1305245174
 30
0.0
 40
2.199999958639978
100
AcDbArc
 50
0.0
 51
90.0
  0
ARC
  5
1AC
330
1F
100
AcDbEntity
  8
SLD-0
  6
SLD-実線
 62
     7
370
    18
100
AcDbCircle
 10
534.2437582515
 20
217.0802063162
 30
0.0
 40
3.199999939840218
100
AcDbArc
 50
90.0
 51
157.000387
  0
ARC
  5
1AD
330
1F
100
AcDbEntity
  8
SLD-0
  6
SLD-実線
 62
     7
370
    18
100
AcDbCircle
 10
523.7437584489
 20
216.1305245174
 30
0.0
 40
2.199999958639978
100
AcDbArc
 50
90.0
 51
180.0
  0
ARC
  5
1AE
330
1F
100
AcDbEntity
  8
SLD-0
  6
SLD-実線
 62
     7
370
    18
100
AcDbCircle
 10
556.7437578285
 20
194.9163567324
 30
0.0
 40
10.99999979320002
100
AcDbArc
 50
1.895526
 51
178.104474
  0
ARC
  5
1AF
330
1F
100
AcDbEntity
  8
SLD-0
  6
SLD-実線
 62
     7
370
    18
100
AcDbCircle
 10
537.2437581951
 20
802.2541271345
 30
0.0
 40
4.999999905999971
100
AcDbArc
 50
90.0
 51
180.0
  0
ARC
  5
1B0
330
1F
100
AcDbEntity
  8
SLD-0
  6
SLD-実線
 62
     7
370
    18
100
AcDbCircle
 10
576.2437574619
 20
802.2541271345
 30
0.0
 40
4.999999906000085
100
AcDbArc
 50
0.0
 51
90.0
  0
ARC
  5
1B1
330
1F
100
AcDbEntity
  8
SLD-0
  6
SLD-実線
 62
     7
370
    18
100
AcDbCircle
 10
576.2437574619
 20
735.199332941
 30
0.0
 40
4.999999906000085
100
AcDbArc
 50
270.0
 51
0.0
  0
ARC
  5
1B2
330
1F
100
AcDbEntity
  8
SLD-0
  6
SLD-実線
 62
     7
370
    18
100
AcDbCircle
 10
537.2437581951
 20
735.199332941
 30
0.0
 40
4.999999905999971
100
AcDbArc
 50
180.0
 51
270.0
  0
ENDSEC
  0
SECTION
  2
OBJECTS
  0
DICTIONARY
  5
C
330
0
100
AcDbDictionary
281
     1
  3
ACAD_DETAILVIEWSTYLE
350
1BC
  3
ACAD_GROUP
350
D
  3
ACAD_LAYOUT
350
1A
  3
ACAD_MATERIAL
350
43
  3
ACAD_MLEADERSTYLE
350
6B
  3
ACAD_MLINESTYLE
350
17
  3
ACAD_PLOTSETTINGS
350
19
  3
ACAD_PLOTSTYLENAME
350
E
  3
ACAD_SCALELIST
350
47
  3
ACAD_SECTIONVIEWSTYLE
350
1BD
  3
ACAD_TABLESTYLE
350
69
  3
ACDB_RECOMPOSE_DATA
350
1B9
  3
AcDbVariableDictionary
350
1B3
  0
DICTIONARY
  5
1BC
102
{ACAD_REACTORS
330
C
102
}
330
C
100
AcDbDictionary
281
     1
  0
DICTIONARY
  5
D
102
{ACAD_REACTORS
330
C
102
}
330
C
100
AcDbDictionary
281
     1
  0
DICTIONARY
  5
1A
102
{ACAD_REACTORS
330
C
102
}
330
C
100
AcDbDictionary
281
     1
  3
Layout1
350
1E
  3
Layout2
350
26
  3
Model
350
22
  0
DICTIONARY
  5
43
102
{ACAD_REACTORS
330
C
102
}
330
C
100
AcDbDictionary
281
     1
  3
ByBlock
350
45
  3
ByLayer
350
44
  3
Global
350
46
  0
DICTIONARY
  5
6B
102
{ACAD_REACTORS
330
C
102
}
330
C
100
AcDbDictionary
281
     1
  3
Standard
350
6C
  0
DICTIONARY
  5
17
102
{ACAD_REACTORS
330
C
102
}
330
C
100
AcDbDictionary
281
     1
  3
Standard
350
18
  0
DICTIONARY
  5
19
102
{ACAD_REACTORS
330
C
102
}
330
C
100
AcDbDictionary
281
     1
  0
ACDBDICTIONARYWDFLT
  5
E
102
{ACAD_REACTORS
330
C
102
}
330
C
100
AcDbDictionary
281
     1
  3
Normal
350
F
100
AcDbDictionaryWithDefault
340
F
  0
DICTIONARY
  5
47
102
{ACAD_REACTORS
330
C
102
}
330
C
100
AcDbDictionary
281
     1
  3
A0
350
48
  3
A1
350
49
  3
A2
350
4A
  3
A3
350
4B
  3
A4
350
4C
  3
A5
350
4D
  3
A6
350
4E
  3
A7
350
4F
  3
A8
350
50
  3
A9
350
51
  3
B0
350
52
  3
B1
350
53
  3
B2
350
54
  3
B3
350
55
  3
B4
350
56
  3
B5
350
57
  3
B6
350
58
  3
B7
350
59
  3
B8
350
5A
  3
B9
350
5B
  3
C0
350
5C
  3
C1
350
5D
  3
C2
350
5E
  3
C3
350
5F
  3
C4
350
60
  3
C5
350
61
  3
C6
350
62
  3
C7
350
63
  3
C8
350
64
  3
C9
350
65
  3
D0
350
66
  3
D1
350
67
  3
D2
350
68
  0
DICTIONARY
  5
1BD
102
{ACAD_REACTORS
330
C
102
}
330
C
100
AcDbDictionary
281
     1
  0
DICTIONARY
  5
69
102
{ACAD_REACTORS
330
C
102
}
330
C
100
AcDbDictionary
281
     1
  3
Standard
350
6A
  0
XRECORD
  5
1B9
102
{ACAD_REACTORS
330
C
102
}
330
C
100
AcDbXrecord
280
     1
 90
        1
330
6A
  0
DICTIONARY
  5
1B3
102
{ACAD_REACTORS
330
C
102
}
330
C
100
AcDbDictionary
281
     1
  3
CANNOSCALE
350
1B4
  3
CENTEREXE
350
1BE
  3
CENTERLTYPEFILE
350
1BF
  3
CMLEADERSTYLE
350
1BB
  3
CTABLESTYLE
350
1BA
  0
LAYOUT
  5
1E
102
{ACAD_REACTORS
330
1A
102
}
330
1A
100
AcDbPlotSettings
  1

  2
none_device
  4

  6

 40
0.0
 41
0.0
 42
0.0
 43
0.0
 44
0.0
 45
0.0
 46
0.0
 47
0.0
 48
0.0
 49
0.0
140
0.0
141
0.0
142
1.0
143
1.0
 70
   688
 72
     1
 73
     0
 74
     5
  7

 75
    16
 76
     0
 77
     2
 78
   300
147
1.0
148
0.0
149
0.0
100
AcDbLayout
  1
Layout1
 70
     1
 71
     1
 10
0.0
 20
0.0
 11
420.0
 21
297.0
 12
0.0
 22
0.0
 32
0.0
 14
1.0000000000E+20
 24
1.0000000000E+20
 34
1.0000000000E+20
 15
-1.0000000000E+20
 25
-1.0000000000E+20
 35
-1.0000000000E+20
146
0.0
 13
0.0
 23
0.0
 33
0.0
 16
1.0
 26
0.0
 36
0.0
 17
0.0
 27
1.0
 37
0.0
 76
     0
330
1B
  0
LAYOUT
  5
26
102
{ACAD_REACTORS
330
1A
102
}
330
1A
100
AcDbPlotSettings
  1

  2
none_device
  4

  6

 40
0.0
 41
0.0
 42
0.0
 43
0.0
 44
0.0
 45
0.0
 46
0.0
 47
0.0
 48
0.0
 49
0.0
140
0.0
141
0.0
142
1.0
143
1.0
 70
   688
 72
     1
 73
     0
 74
     5
  7

 75
    16
 76
     0
 77
     2
 78
   300
147
1.0
148
0.0
149
0.0
100
AcDbLayout
  1
Layout2
 70
     1
 71
     2
 10
0.0
 20
0.0
 11
0.0
 21
0.0
 12
0.0
 22
0.0
 32
0.0
 14
0.0
 24
0.0
 34
0.0
 15
0.0
 25
0.0
 35
0.0
146
0.0
 13
0.0
 23
0.0
 33
0.0
 16
1.0
 26
0.0
 36
0.0
 17
0.0
 27
1.0
 37
0.0
 76
     0
330
23
  0
LAYOUT
  5
22
102
{ACAD_REACTORS
330
1A
102
}
330
1A
100
AcDbPlotSettings
  1

  2
none_device
  4
Letter_(8.50_x_11.00_Inches)
  6

 40
6.35
 41
6.35
 42
6.35000508
 43
6.35000508
 44
215.9
 45
279.4
 46
0.0
 47
0.0
 48
0.0
 49
0.0
140
0.0
141
0.0
142
1.0
143
1.0
 70
  1712
 72
     1
 73
     0
 74
     0
  7

 75
     0
 76
     0
 77
     2
 78
   300
147
1.0
148
0.0
149
0.0
100
AcDbLayout
  1
Model
 70
     1
 71
     0
 10
0.0
 20
0.0
 11
1117.6
 21
863.6
 12
0.0
 22
0.0
 32
0.0
 14
0.0
 24
0.0
 34
0.0
 15
1117.6
 25
863.6
 35
0.0
146
0.0
 13
0.0
 23
0.0
 33
0.0
 16
1.0
 26
0.0
 36
0.0
 17
0.0
 27
1.0
 37
0.0
 76
     0
330
1F
331
29
  0
MATERIAL
  5
45
102
{ACAD_REACTORS
330
43
102
}
330
43
100
AcDbMaterial
  1
ByBlock
  0
MATERIAL
  5
44
102
{ACAD_REACTORS
330
43
102
}
330
43
100
AcDbMaterial
  1
ByLayer
  0
MATERIAL
  5
46
102
{ACAD_REACTORS
330
43
102
}
330
43
100
AcDbMaterial
  1
Global
  0
MLEADERSTYLE
  5
6C
102
{ACAD_REACTORS
330
6B
102
}
330
6B
100
AcDbMLeaderStyle
170
     2
171
     1
172
     0
 90
        2
 40
0.0
 41
0.0
173
     1
 91
-1056964608
340
14
 92
       -2
290
     1
 42
2.0
291
     1
 43
8.0
  3
Standard
341
0
 44
4.0
300

342
11
174
     1
178
     6
175
     1
176
     0
 93
-1056964608
 45
4.0
292
     0
297
     0
 46
4.0
343
0
 94
-1056964608
 47
1.0
 49
1.0
140
1.0
293
     1
141
0.0
294
     1
177
     0
142
1.0
295
     0
296
     0
143
3.75
1001
ACAD_MLEADERVER
1070
     2
  0
MLINESTYLE
  5
18
102
{ACAD_REACTORS
330
17
102
}
330
17
100
AcDbMlineStyle
  2
Standard
 70
     0
  3

 62
   256
 51
90.0
 52
90.0
 71
     2
 49
0.5
 62
   256
  6
BYLAYER
 49
-0.5
 62
   256
  6
BYLAYER
  0
ACDBPLACEHOLDER
  5
F
102
{ACAD_REACTORS
330
E
102
}
330
E
  0
SCALE
  5
48
102
{ACAD_REACTORS
330
47
102
}
330
47
100
AcDbScale
 70
     0
300
1:1
140
1.0
141
1.0
290
     1
  0
SCALE
  5
49
102
{ACAD_REACTORS
330
47
102
}
330
47
100
AcDbScale
 70
     0
300
1:2
140
1.0
141
2.0
290
     0
  0
SCALE
  5
4A
102
{ACAD_REACTORS
330
47
102
}
330
47
100
AcDbScale
 70
     0
300
1:4
140
1.0
141
4.0
290
     0
  0
SCALE
  5
4B
102
{ACAD_REACTORS
330
47
102
}
330
47
100
AcDbScale
 70
     0
300
1:5
140
1.0
141
5.0
290
     0
  0
SCALE
  5
4C
102
{ACAD_REACTORS
330
47
102
}
330
47
100
AcDbScale
 70
     0
300
1:8
140
1.0
141
8.0
290
     0
  0
SCALE
  5
4D
102
{ACAD_REACTORS
330
47
102
}
330
47
100
AcDbScale
 70
     0
300
1:10
140
1.0
141
10.0
290
     0
  0
SCALE
  5
4E
102
{ACAD_REACTORS
330
47
102
}
330
47
100
AcDbScale
 70
     0
300
1:16
140
1.0
141
16.0
290
     0
  0
SCALE
  5
4F
102
{ACAD_REACTORS
330
47
102
}
330
47
100
AcDbScale
 70
     0
300
1:20
140
1.0
141
20.0
290
     0
  0
SCALE
  5
50
102
{ACAD_REACTORS
330
47
102
}
330
47
100
AcDbScale
 70
     0
300
1:30
140
1.0
141
30.0
290
     0
  0
SCALE
  5
51
102
{ACAD_REACTORS
330
47
102
}
330
47
100
AcDbScale
 70
     0
300
1:40
140
1.0
141
40.0
290
     0
  0
SCALE
  5
52
102
{ACAD_REACTORS
330
47
102
}
330
47
100
AcDbScale
 70
     0
300
1:50
140
1.0
141
50.0
290
     0
  0
SCALE
  5
53
102
{ACAD_REACTORS
330
47
102
}
330
47
100
AcDbScale
 70
     0
300
1:100
140
1.0
141
100.0
290
     0
  0
SCALE
  5
54
102
{ACAD_REACTORS
330
47
102
}
330
47
100
AcDbScale
 70
     0
300
2:1
140
2.0
141
1.0
290
     0
  0
SCALE
  5
55
102
{ACAD_REACTORS
330
47
102
}
330
47
100
AcDbScale
 70
     0
300
4:1
140
4.0
141
1.0
290
     0
  0
SCALE
  5
56
102
{ACAD_REACTORS
330
47
102
}
330
47
100
AcDbScale
 70
     0
300
8:1
140
8.0
141
1.0
290
     0
  0
SCALE
  5
57
102
{ACAD_REACTORS
330
47
102
}
330
47
100
AcDbScale
 70
     0
300
10:1
140
10.0
141
1.0
290
     0
  0
SCALE
  5
58
102
{ACAD_REACTORS
330
47
102
}
330
47
100
AcDbScale
 70
     0
300
100:1
140
100.0
141
1.0
290
     0
  0
SCALE
  5
59
102
{ACAD_REACTORS
330
47
102
}
330
47
100
AcDbScale
 70
     0
300
1/128" = 1'-0"
140
0.0078125
141
12.0
290
     0
  0
SCALE
  5
5A
102
{ACAD_REACTORS
330
47
102
}
330
47
100
AcDbScale
 70
     0
300
1/64" = 1'-0"
140
0.015625
141
12.0
290
     0
  0
SCALE
  5
5B
102
{ACAD_REACTORS
330
47
102
}
330
47
100
AcDbScale
 70
     0
300
1/32" = 1'-0"
140
0.03125
141
12.0
290
     0
  0
SCALE
  5
5C
102
{ACAD_REACTORS
330
47
102
}
330
47
100
AcDbScale
 70
     0
300
1/16" = 1'-0"
140
0.0625
141
12.0
290
     0
  0
SCALE
  5
5D
102
{ACAD_REACTORS
330
47
102
}
330
47
100
AcDbScale
 70
     0
300
3/32" = 1'-0"
140
0.09375
141
12.0
290
     0
  0
SCALE
  5
5E
102
{ACAD_REACTORS
330
47
102
}
330
47
100
AcDbScale
 70
     0
300
1/8" = 1'-0"
140
0.125
141
12.0
290
     0
  0
SCALE
  5
5F
102
{ACAD_REACTORS
330
47
102
}
330
47
100
AcDbScale
 70
     0
300
3/16" = 1'-0"
140
0.1875
141
12.0
290
     0
  0
SCALE
  5
60
102
{ACAD_REACTORS
330
47
102
}
330
47
100
AcDbScale
 70
     0
300
1/4" = 1'-0"
140
0.25
141
12.0
290
     0
  0
SCALE
  5
61
102
{ACAD_REACTORS
330
47
102
}
330
47
100
AcDbScale
 70
     0
300
3/8" = 1'-0"
140
0.375
141
12.0
290
     0
  0
SCALE
  5
62
102
{ACAD_REACTORS
330
47
102
}
330
47
100
AcDbScale
 70
     0
300
1/2" = 1'-0"
140
0.5
141
12.0
290
     0
  0
SCALE
  5
63
102
{ACAD_REACTORS
330
47
102
}
330
47
100
AcDbScale
 70
     0
300
3/4" = 1'-0"
140
0.75
141
12.0
290
     0
  0
SCALE
  5
64
102
{ACAD_REACTORS
330
47
102
}
330
47
100
AcDbScale
 70
     0
300
1" = 1'-0"
140
1.0
141
12.0
290
     0
  0
SCALE
  5
65
102
{ACAD_REACTORS
330
47
102
}
330
47
100
AcDbScale
 70
     0
300
1-1/2" = 1'-0"
140
1.5
141
12.0
290
     0
  0
SCALE
  5
66
102
{ACAD_REACTORS
330
47
102
}
330
47
100
AcDbScale
 70
     0
300
3" = 1'-0"
140
3.0
141
12.0
290
     0
  0
SCALE
  5
67
102
{ACAD_REACTORS
330
47
102
}
330
47
100
AcDbScale
 70
     0
300
6" = 1'-0"
140
6.0
141
12.0
290
     0
  0
SCALE
  5
68
102
{ACAD_REACTORS
330
47
102
}
330
47
100
AcDbScale
 70
     0
300
1'-0" = 1'-0"
140
12.0
141
12.0
290
     0
  0
TABLESTYLE
  5
6A
102
{ACAD_REACTORS
330
69
102
}
102
{ACAD_XDICTIONARY
360
1B5
102
}
330
69
100
AcDbTableStyle
  3
Standard
 70
     0
 71
     0
 40
0.06
 41
0.06
280
     0
281
     0
  7
Standard
140
4.5
170
     2
 62
     0
 63
   257
283
     0
274
    -2
284
     1
 64
     0
275
    -2
285
     1
 65
     0
276
    -2
286
     1
 66
     0
277
    -2
287
     1
 67
     0
278
    -2
288
     1
 68
     0
279
    -2
289
     1
 69
     0
  7
Standard
140
6.0
170
     5
 62
     0
 63
   257
283
     0
274
    -2
284
     1
 64
     0
275
    -2
285
     1
 65
     0
276
    -2
286
     1
 66
     0
277
    -2
287
     1
 67
     0
278
    -2
288
     1
 68
     0
279
    -2
289
     1
 69
     0
  7
Standard
140
4.5
170
     5
 62
     0
 63
   257
283
     0
274
    -2
284
     1
 64
     0
275
    -2
285
     1
 65
     0
276
    -2
286
     1
 66
     0
277
    -2
287
     1
 67
     0
278
    -2
288
     1
 68
     0
279
    -2
289
     1
 69
     0
  0
DICTIONARYVAR
  5
1B4
102
{ACAD_REACTORS
330
1B3
102
}
330
1B3
100
DictionaryVariables
280
     0
  1
1:1
  0
DICTIONARYVAR
  5
1BE
102
{ACAD_REACTORS
330
1B3
102
}
330
1B3
100
DictionaryVariables
280
     0
  1
3.500000
  0
DICTIONARYVAR
  5
1BF
102
{ACAD_REACTORS
330
1B3
102
}
330
1B3
100
DictionaryVariables
280
     0
  1
acadiso.lin
  0
DICTIONARYVAR
  5
1BB
102
{ACAD_REACTORS
330
1B3
102
}
330
1B3
100
DictionaryVariables
280
     0
  1
Standard
  0
DICTIONARYVAR
  5
1BA
102
{ACAD_REACTORS
330
1B3
102
}
330
1B3
100
DictionaryVariables
280
     0
  1
Standard
  0
DICTIONARY
  5
1B5
330
6A
100
AcDbDictionary
280
     1
281
     1
  3
ACAD_ROUNDTRIP_2008_TABLESTYLE_CELLSTYLEMAP
360
1B7
  3
ACAD_XREC_ROUNDTRIP
360
1B6
  0
CELLSTYLEMAP
  5
1B7
102
{ACAD_REACTORS
330
1B5
102
}
330
1B5
100
AcDbCellStyleMap
 90
        3
300
CELLSTYLE
  1
TABLEFORMAT_BEGIN
 90
        5
170
     1
 91
        0
 92
    32768
 62
   257
 93
        1
300
CONTENTFORMAT
  1
CONTENTFORMAT_BEGIN
 90
        0
 91
        0
 92
        4
 93
        0
300

 40
0.0
140
1.0
 94
        5
 62
     0
340
11
144
6.0
309
CONTENTFORMAT_END
171
     1
301
MARGIN
  1
CELLMARGIN_BEGIN
 40
1.5
 40
1.5
 40
1.5
 40
1.5
 40
1.5
 40
1.5
309
CELLMARGIN_END
 94
        6
 95
        1
302
GRIDFORMAT
  1
GRIDFORMAT_BEGIN
 90
        0
 91
        1
 62
     0
 92
       -2
340
14
 93
        0
 40
0.045
309
GRIDFORMAT_END
 95
        2
302
GRIDFORMAT
  1
GRIDFORMAT_BEGIN
 90
        0
 91
        1
 62
     0
 92
       -2
340
14
 93
        0
 40
0.045
309
GRIDFORMAT_END
 95
        4
302
GRIDFORMAT
  1
GRIDFORMAT_BEGIN
 90
        0
 91
        1
 62
     0
 92
       -2
340
14
 93
        0
 40
0.045
309
GRIDFORMAT_END
 95
        8
302
GRIDFORMAT
  1
GRIDFORMAT_BEGIN
 90
        0
 91
        1
 62
     0
 92
       -2
340
14
 93
        0
 40
0.045
309
GRIDFORMAT_END
 95
       16
302
GRIDFORMAT
  1
GRIDFORMAT_BEGIN
 90
        0
 91
        1
 62
     0
 92
       -2
340
14
 93
        0
 40
0.045
309
GRIDFORMAT_END
 95
       32
302
GRIDFORMAT
  1
GRIDFORMAT_BEGIN
 90
        0
 91
        1
 62
     0
 92
       -2
340
14
 93
        0
 40
0.045
309
GRIDFORMAT_END
309
TABLEFORMAT_END
  1
CELLSTYLE_BEGIN
 90
        1
 91
        1
300
_TITLE
309
CELLSTYLE_END
300
CELLSTYLE
  1
TABLEFORMAT_BEGIN
 90
        5
170
     1
 91
        0
 92
        0
 62
   257
 93
        1
300
CONTENTFORMAT
  1
CONTENTFORMAT_BEGIN
 90
        0
 91
        0
 92
        4
 93
        0
300

 40
0.0
140
1.0
 94
        5
 62
     0
340
11
144
4.5
309
CONTENTFORMAT_END
171
     1
301
MARGIN
  1
CELLMARGIN_BEGIN
 40
1.5
 40
1.5
 40
1.5
 40
1.5
 40
1.5
 40
1.5
309
CELLMARGIN_END
 94
        6
 95
        1
302
GRIDFORMAT
  1
GRIDFORMAT_BEGIN
 90
        0
 91
        1
 62
     0
 92
       -2
340
14
 93
        0
 40
0.045
309
GRIDFORMAT_END
 95
        2
302
GRIDFORMAT
  1
GRIDFORMAT_BEGIN
 90
        0
 91
        1
 62
     0
 92
       -2
340
14
 93
        0
 40
0.045
309
GRIDFORMAT_END
 95
        4
302
GRIDFORMAT
  1
GRIDFORMAT_BEGIN
 90
        0
 91
        1
 62
     0
 92
       -2
340
14
 93
        0
 40
0.045
309
GRIDFORMAT_END
 95
        8
302
GRIDFORMAT
  1
GRIDFORMAT_BEGIN
 90
        0
 91
        1
 62
     0
 92
       -2
340
14
 93
        0
 40
0.045
309
GRIDFORMAT_END
 95
       16
302
GRIDFORMAT
  1
GRIDFORMAT_BEGIN
 90
        0
 91
        1
 62
     0
 92
       -2
340
14
 93
        0
 40
0.045
309
GRIDFORMAT_END
 95
       32
302
GRIDFORMAT
  1
GRIDFORMAT_BEGIN
 90
        0
 91
        1
 62
     0
 92
       -2
340
14
 93
        0
 40
0.045
309
GRIDFORMAT_END
309
TABLEFORMAT_END
  1
CELLSTYLE_BEGIN
 90
        2
 91
        1
300
_HEADER
309
CELLSTYLE_END
300
CELLSTYLE
  1
TABLEFORMAT_BEGIN
 90
        5
170
     1
 91
        0
 92
        0
 62
   257
 93
        1
300
CONTENTFORMAT
  1
CONTENTFORMAT_BEGIN
 90
        0
 91
        0
 92
        4
 93
        0
300

 40
0.0
140
1.0
 94
        2
 62
     0
340
11
144
4.5
309
CONTENTFORMAT_END
171
     1
301
MARGIN
  1
CELLMARGIN_BEGIN
 40
1.5
 40
1.5
 40
1.5
 40
1.5
 40
1.5
 40
1.5
309
CELLMARGIN_END
 94
        6
 95
        1
302
GRIDFORMAT
  1
GRIDFORMAT_BEGIN
 90
        0
 91
        1
 62
     0
 92
       -2
340
14
 93
        0
 40
0.045
309
GRIDFORMAT_END
 95
        2
302
GRIDFORMAT
  1
GRIDFORMAT_BEGIN
 90
        0
 91
        1
 62
     0
 92
       -2
340
14
 93
        0
 40
0.045
309
GRIDFORMAT_END
 95
        4
302
GRIDFORMAT
  1
GRIDFORMAT_BEGIN
 90
        0
 91
        1
 62
     0
 92
       -2
340
14
 93
        0
 40
0.045
309
GRIDFORMAT_END
 95
        8
302
GRIDFORMAT
  1
GRIDFORMAT_BEGIN
 90
        0
 91
        1
 62
     0
 92
       -2
340
14
 93
        0
 40
0.045
309
GRIDFORMAT_END
 95
       16
302
GRIDFORMAT
  1
GRIDFORMAT_BEGIN
 90
        0
 91
        1
 62
     0
 92
       -2
340
14
 93
        0
 40
0.045
309
GRIDFORMAT_END
 95
       32
302
GRIDFORMAT
  1
GRIDFORMAT_BEGIN
 90
        0
 91
        1
 62
     0
 92
       -2
340
14
 93
        0
 40
0.045
309
GRIDFORMAT_END
309
TABLEFORMAT_END
  1
CELLSTYLE_BEGIN
 90
        3
 91
        2
300
_DATA
309
CELLSTYLE_END
  0
XRECORD
  5
1B6
102
{ACAD_REACTORS
330
1B5
102
}
330
1B5
100
AcDbXrecord
280
     1
102
ACAD_ROUNDTRIP_PRE2007_TABLESTYLE
 90
        4
 91
        0
  1

 92
        4
 93
        0
  2

 94
        4
 95
        0
  3

  0
ENDSEC
  0
EOF
