  0
SECTION
  2
HEADER
  9
$ACADVER
  1
AC1015
  9
$ACADMAINTVER
 70
     6
  9
$DWGCODEPAGE
  3
DOS932
  9
$INSBASE
 10
0.0
 20
0.0
 30
0.0
  9
$EXTMIN
 10
0.0
 20
0.0
 30
0.0
  9
$EXTMAX
 10
420.0
 20
297.0
 30
0.0
  9
$LIMMIN
 10
0.0
 20
0.0
  9
$LIMMAX
 10
420.0
 20
297.0
  9
$ORTHOMODE
 70
     0
  9
$REGENMODE
 70
     1
  9
$FILLMODE
 70
     1
  9
$QTEXTMODE
 70
     0
  9
$MIRRTEXT
 70
     1
  9
$LTSCALE
 40
1.0
  9
$ATTMODE
 70
     1
  9
$TEXTSIZE
 40
3.5
  9
$TRACEWID
 40
1.0
  9
$TEXTSTYLE
  7
Standard
  9
$CLAYER
  8
0
  9
$CELTYPE
  6
ByLayer
  9
$CECOLOR
 62
   256
  9
$CELTSCALE
 40
1.0
  9
$DISPSILH
 70
     0
  9
$DIMSCALE
 40
1.0
  9
$DIMASZ
 40
2.0
  9
$DIMEXO
 40
1.0
  9
$DIMDLI
 40
3.75
  9
$DIMRND
 40
0.0
  9
$DIMDLE
 40
0.0
  9
$DIMEXE
 40
1.0
  9
$DIMTP
 40
0.0
  9
$DIMTM
 40
0.0
  9
$DIMTXT
 40
2.7999999523
  9
$DIMCEN
 40
2.5
  9
$DIMTSZ
 40
0.0
  9
$DIMTOL
 70
     0
  9
$DIMLIM
 70
     0
  9
$DIMTIH
 70
     1
  9
$DIMTOH
 70
     1
  9
$DIMSE1
 70
     0
  9
$DIMSE2
 70
     0
  9
$DIMTAD
 70
     1
  9
$DIMZIN
 70
     1
  9
$DIMBLK
  1

  9
$DIMASO
 70
     1
  9
$DIMSHO
 70
     1
  9
$DIMPOST
  1

  9
$DIMAPOST
  1

  9
$DIMALT
 70
     0
  9
$DIMALTD
 70
     3
  9
$DIMALTF
 40
0.0393700787
  9
$DIMLFAC
 40
10.0
  9
$DIMTOFL
 70
     1
  9
$DIMTVP
 40
0.0
  9
$DIMTIX
 70
     0
  9
$DIMSOXD
 70
     0
  9
$DIMSAH
 70
     0
  9
$DIMBLK1
  1

  9
$DIMBLK2
  1

  9
$DIMSTYLE
  2
ISO-25
  9
$DIMCLRD
 70
     0
  9
$DIMCLRE
 70
     0
  9
$DIMCLRT
 70
     0
  9
$DIMTFAC
 40
1.0
  9
$DIMGAP
 40
1.524
  9
$DIMJUST
 70
     0
  9
$DIMSD1
 70
     0
  9
$DIMSD2
 70
     0
  9
$DIMTOLJ
 70
     0
  9
$DIMTZIN
 70
     1
  9
$DIMALTZ
 70
     0
  9
$DIMALTTZ
 70
     0
  9
$DIMUPT
 70
     0
  9
$DIMDEC
 70
     3
  9
$DIMTDEC
 70
     3
  9
$DIMALTU
 70
     2
  9
$DIMALTTD
 70
     3
  9
$DIMTXSTY
  7
Standard
  9
$DIMAUNIT
 70
     0
  9
$DIMADEC
 70
     0
  9
$DIMALTRND
 40
0.0
  9
$DIMAZIN
 70
     0
  9
$DIMDSEP
 70
    44
  9
$DIMATFIT
 70
     3
  9
$DIMFRAC
 70
     0
  9
$DIMLDRBLK
  1

  9
$DIMLUNIT
 70
     2
  9
$DIMLWD
 70
    -2
  9
$DIMLWE
 70
    -2
  9
$DIMTMOVE
 70
     0
  9
$LUNITS
 70
     2
  9
$LUPREC
 70
     3
  9
$SKETCHINC
 40
1.0
  9
$FILLETRAD
 40
10.0
  9
$AUNITS
 70
     0
  9
$AUPREC
 70
     0
  9
$MENU
  1
.
  9
$ELEVATION
 40
0.0
  9
$PELEVATION
 40
0.0
  9
$THICKNESS
 40
0.0
  9
$LIMCHECK
 70
     0
  9
$CHAMFERA
 40
10.0
  9
$CHAMFERB
 40
10.0
  9
$CHAMFERC
 40
20.0
  9
$CHAMFERD
 40
0.0
  9
$SKPOLY
 70
     0
  9
$TDCREATE
 40
2456339.42758228
  9
$TDUCREATE
 40
2456339.05258228
  9
$TDUPDATE
 40
2456339.427582292
  9
$TDUUPDATE
 40
2456339.052582292
  9
$TDINDWG
 40
0.0000000116
  9
$TDUSRTIMER
 40
0.0000000116
  9
$USRTIMER
 70
     1
  9
$ANGBASE
 50
0.0
  9
$ANGDIR
 70
     0
  9
$PDMODE
 70
     0
  9
$PDSIZE
 40
-1.0
  9
$PLINEWID
 40
0.0
  9
$SPLFRAME
 70
     0
  9
$SPLINETYPE
 70
     6
  9
$SPLINESEGS
 70
     8
  9
$HANDSEED
  5
1D6
  9
$SURFTAB1
 70
     6
  9
$SURFTAB2
 70
     6
  9
$SURFTYPE
 70
     6
  9
$SURFU
 70
     6
  9
$SURFV
 70
     6
  9
$UCSBASE
  2

  9
$UCSNAME
  2

  9
$UCSORG
 10
0.0
 20
0.0
 30
0.0
  9
$UCSXDIR
 10
1.0
 20
0.0
 30
0.0
  9
$UCSYDIR
 10
0.0
 20
1.0
 30
0.0
  9
$UCSORTHOREF
  2

  9
$UCSORTHOVIEW
 70
     0
  9
$UCSORGTOP
 10
0.0
 20
0.0
 30
0.0
  9
$UCSORGBOTTOM
 10
0.0
 20
0.0
 30
0.0
  9
$UCSORGLEFT
 10
0.0
 20
0.0
 30
0.0
  9
$UCSORGRIGHT
 10
0.0
 20
0.0
 30
0.0
  9
$UCSORGFRONT
 10
0.0
 20
0.0
 30
0.0
  9
$UCSORGBACK
 10
0.0
 20
0.0
 30
0.0
  9
$PUCSBASE
  2

  9
$PUCSNAME
  2

  9
$PUCSORG
 10
0.0
 20
0.0
 30
0.0
  9
$PUCSXDIR
 10
1.0
 20
0.0
 30
0.0
  9
$PUCSYDIR
 10
0.0
 20
1.0
 30
0.0
  9
$PUCSORTHOREF
  2

  9
$PUCSORTHOVIEW
 70
     0
  9
$PUCSORGTOP
 10
0.0
 20
0.0
 30
0.0
  9
$PUCSORGBOTTOM
 10
0.0
 20
0.0
 30
0.0
  9
$PUCSORGLEFT
 10
0.0
 20
0.0
 30
0.0
  9
$PUCSORGRIGHT
 10
0.0
 20
0.0
 30
0.0
  9
$PUCSORGFRONT
 10
0.0
 20
0.0
 30
0.0
  9
$PUCSORGBACK
 10
0.0
 20
0.0
 30
0.0
  9
$USERI1
 70
     0
  9
$USERI2
 70
     0
  9
$USERI3
 70
     0
  9
$USERI4
 70
     0
  9
$USERI5
 70
     0
  9
$USERR1
 40
0.0
  9
$USERR2
 40
0.0
  9
$USERR3
 40
0.0
  9
$USERR4
 40
0.0
  9
$USERR5
 40
0.0
  9
$WORLDVIEW
 70
     1
  9
$SHADEDGE
 70
     3
  9
$SHADEDIF
 70
    70
  9
$TILEMODE
 70
     1
  9
$MAXACTVP
 70
    64
  9
$PINSBASE
 10
0.0
 20
0.0
 30
0.0
  9
$PLIMCHECK
 70
     0
  9
$PEXTMIN
 10
1.0000000000E+20
 20
1.0000000000E+20
 30
1.0000000000E+20
  9
$PEXTMAX
 10
-1.0000000000E+20
 20
-1.0000000000E+20
 30
-1.0000000000E+20
  9
$PLIMMIN
 10
0.0
 20
0.0
  9
$PLIMMAX
 10
420.0
 20
297.0
  9
$UNITMODE
 70
     0
  9
$VISRETAIN
 70
     1
  9
$PLINEGEN
 70
     0
  9
$PSLTSCALE
 70
     1
  9
$TREEDEPTH
 70
  3020
  9
$CMLSTYLE
  2
Standard
  9
$CMLJUST
 70
     0
  9
$CMLSCALE
 40
20.0
  9
$PROXYGRAPHICS
 70
     1
  9
$MEASUREMENT
 70
     1
  9
$CELWEIGHT
370
    -1
  9
$ENDCAPS
280
     0
  9
$JOINSTYLE
280
     0
  9
$LWDISPLAY
290
     1
  9
$INSUNITS
 70
     4
  9
$HYPERLINKBASE
  1

  9
$STYLESHEET
  1

  9
$XEDIT
290
     1
  9
$CEPSNTYPE
380
     0
  9
$PSTYLEMODE
290
     1
  9
$FINGERPRINTGUID
  2
{6FB3A434-CDAA-4599-9BC8-0DBA35AB6D02}
  9
$VERSIONGUID
  2
{FAEB1C32-E019-11D5-929B-00C0DF256EC4}
  9
$EXTNAMES
290
     1
  9
$PSVPSCALE
 40
0.0
  9
$OLESTARTUP
290
     0
  0
ENDSEC
  0
SECTION
  2
CLASSES
  0
CLASS
  1
ACDBDICTIONARYWDFLT
  2
AcDbDictionaryWithDefault
  3
ObjectDBX Classes
 90
        0
280
     0
281
     0
  0
CLASS
  1
VISUALSTYLE
  2
AcDbVisualStyle
  3
ObjectDBX Classes
 90
     4095
280
     0
281
     0
  0
CLASS
  1
MATERIAL
  2
AcDbMaterial
  3
ObjectDBX Classes
 90
     1153
280
     0
281
     0
  0
CLASS
  1
ACDBPLACEHOLDER
  2
AcDbPlaceHolder
  3
ObjectDBX Classes
 90
        0
280
     0
281
     0
  0
CLASS
  1
LAYOUT
  2
AcDbLayout
  3
ObjectDBX Classes
 90
        0
280
     0
281
     0
  0
ENDSEC
  0
SECTION
  2
TABLES
  0
TABLE
  2
VPORT
  5
8
330
0
100
AcDbSymbolTable
 70
     1
  0
VPORT
  5
29
330
8
100
AcDbSymbolTableRecord
100
AcDbViewportTableRecord
  2
*Active
 70
     0
 10
0.0
 20
0.0
 11
1.0
 21
1.0
 12
210.0
 22
148.5
 13
0.0
 23
0.0
 14
10.0
 24
10.0
 15
10.0
 25
10.0
 16
0.0
 26
0.0
 36
1.0
 17
0.0
 27
0.0
 37
0.0
 40
297.0
 41
1.4141414141
 42
50.0
 43
0.0
 44
0.0
 50
0.0
 51
0.0
 71
     0
 72
  2000
 73
     1
 74
     3
 75
     0
 76
     0
 77
     0
 78
     0
281
     0
 65
     1
110
0.0
120
0.0
130
0.0
111
1.0
121
0.0
131
0.0
112
0.0
122
1.0
132
0.0
 79
     0
146
0.0
  0
ENDTAB
  0
TABLE
  2
LTYPE
  5
5
330
0
100
AcDbSymbolTable
 70
     6
  0
LTYPE
  5
14
330
5
100
AcDbSymbolTableRecord
100
AcDbLinetypeTableRecord
  2
ByBlock
 70
     0
  3

 72
    65
 73
     0
 40
0.0
  0
LTYPE
  5
15
330
5
100
AcDbSymbolTableRecord
100
AcDbLinetypeTableRecord
  2
ByLayer
 70
     0
  3

 72
    65
 73
     0
 40
0.0
  0
LTYPE
  5
16
330
5
100
AcDbSymbolTableRecord
100
AcDbLinetypeTableRecord
  2
Continuous
 70
     0
  3
Solid line
 72
    65
 73
     0
 40
0.0
  0
LTYPE
  5
3F
330
5
100
AcDbSymbolTableRecord
100
AcDbLinetypeTableRecord
  2
HIDDEN
 70
     0
  3
Hidden __ __ __ __ __ __ __ __ __ __ __ __ __ __
 72
    65
 73
     2
 40
1.905
 49
1.27
 74
     0
 49
-0.635
 74
     0
  0
LTYPE
  5
40
330
5
100
AcDbSymbolTableRecord
100
AcDbLinetypeTableRecord
  2
PHANTOM
 70
     0
  3
Phantom ______  __  __  ______  __  __  ______
 72
    65
 73
     6
 40
12.7
 49
6.35
 74
     0
 49
-1.27
 74
     0
 49
1.27
 74
     0
 49
-1.27
 74
     0
 49
1.27
 74
     0
 49
-1.27
 74
     0
  0
LTYPE
  5
41
330
5
100
AcDbSymbolTableRecord
100
AcDbLinetypeTableRecord
  2
CENTER
 70
     0
  3
Center ____ _ ____ _ ____ _ ____ _ ____ _ ____
 72
    65
 73
     4
 40
10.16
 49
6.35
 74
     0
 49
-1.27
 74
     0
 49
1.27
 74
     0
 49
-1.27
 74
     0
  0
LTYPE
  5
42
330
5
100
AcDbSymbolTableRecord
100
AcDbLinetypeTableRecord
  2
CENTERX2
 70
     0
  3
Center (2x) ________  __  ________  __  _____
 72
    65
 73
     4
 40
20.32
 49
12.7
 74
     0
 49
-2.54
 74
     0
 49
2.54
 74
     0
 49
-2.54
 74
     0
  0
LTYPE
  5
43
330
5
100
AcDbSymbolTableRecord
100
AcDbLinetypeTableRecord
  2
DOT2
 70
     0
  3
Dot (.5x) ........................................
 72
    65
 73
     2
 40
0.635
 49
0.0
 74
     0
 49
-0.635
 74
     0
  0
ENDTAB
  0
TABLE
  2
LAYER
  5
2
330
0
100
AcDbSymbolTable
 70
     2
  0
LAYER
  5
10
330
2
100
AcDbSymbolTableRecord
100
AcDbLayerTableRecord
  2
0
 70
     0
 62
     7
  6
Continuous
370
    -3
390
F
  0
LAYER
  5
44
330
2
100
AcDbSymbolTableRecord
100
AcDbLayerTableRecord
  2
SLD-0
 70
     0
 62
     3
  6
Continuous
370
    -3
390
F
  0
ENDTAB
  0
TABLE
  2
STYLE
  5
3
330
0
100
AcDbSymbolTable
 70
     1
  0
STYLE
  5
11
330
3
100
AcDbSymbolTableRecord
100
AcDbTextStyleTableRecord
  2
Standard
 70
     0
 40
0.0
 41
1.0
 50
0.0
 71
     0
 42
2.5
  3
txt
  4
bigfont
  0
ENDTAB
  0
TABLE
  2
VIEW
  5
6
330
0
100
AcDbSymbolTable
 70
     0
  0
ENDTAB
  0
TABLE
  2
UCS
  5
7
330
0
100
AcDbSymbolTable
 70
     0
  0
ENDTAB
  0
TABLE
  2
APPID
  5
9
330
0
100
AcDbSymbolTable
 70
     1
  0
APPID
  5
12
330
9
100
AcDbSymbolTableRecord
100
AcDbRegAppTableRecord
  2
ACAD
 70
     0
  0
ENDTAB
  0
TABLE
  2
DIMSTYLE
  5
A
330
0
100
AcDbSymbolTable
 70
     1
100
AcDbDimStyleTable
  0
DIMSTYLE
105
27
330
A
100
AcDbSymbolTableRecord
100
AcDbDimStyleTableRecord
  2
ISO-25
 70
     0
 41
2.5
 42
0.625
 43
3.75
 44
1.25
 73
     0
 74
     0
 77
     1
 78
     8
140
2.5
141
2.5
143
0.0393700787
147
0.625
171
     3
172
     1
178
     0
271
     2
272
     2
274
     3
278
    44
283
     0
284
     8
340
11
  0
ENDTAB
  0
TABLE
  2
BLOCK_RECORD
  5
1
330
0
100
AcDbSymbolTable
 70
     1
  0
BLOCK_RECORD
  5
1F
330
1
100
AcDbSymbolTableRecord
100
AcDbBlockTableRecord
  2
*Model_Space
340
22
  0
BLOCK_RECORD
  5
1B
330
1
100
AcDbSymbolTableRecord
100
AcDbBlockTableRecord
  2
*Paper_Space
340
1E
  0
BLOCK_RECORD
  5
23
330
1
100
AcDbSymbolTableRecord
100
AcDbBlockTableRecord
  2
*Paper_Space0
340
26
  0
ENDTAB
  0
ENDSEC
  0
SECTION
  2
BLOCKS
  0
BLOCK
  5
20
330
1F
100
AcDbEntity
  8
0
100
AcDbBlockBegin
  2
*Model_Space
 70
     0
 10
0.0
 20
0.0
 30
0.0
  3
*Model_Space
  1

  0
ENDBLK
  5
21
330
1F
100
AcDbEntity
  8
0
100
AcDbBlockEnd
  0
BLOCK
  5
1C
330
1B
100
AcDbEntity
 67
     1
  8
0
100
AcDbBlockBegin
  2
*Paper_Space
 70
     0
 10
0.0
 20
0.0
 30
0.0
  3
*Paper_Space
  1

  0
ENDBLK
  5
1D
330
1B
100
AcDbEntity
 67
     1
  8
0
100
AcDbBlockEnd
  0
BLOCK
  5
24
330
23
100
AcDbEntity
  8
0
100
AcDbBlockBegin
  2
*Paper_Space0
 70
     0
 10
0.0
 20
0.0
 30
0.0
  3
*Paper_Space0
  1

  0
ENDBLK
  5
25
330
23
100
AcDbEntity
  8
0
100
AcDbBlockEnd
  0
ENDSEC
  0
SECTION
  2
ENTITIES
  0
LINE
  5
45
330
1F
100
AcDbEntity
  8
0
  6
Continuous
 62
     7
370
    15
100
AcDbLine
 10
527.4992313936
 20
688.0165788686
 30
0.0
 11
498.1992420509
 21
688.0165788686
 31
0.0
  0
LINE
  5
46
330
1F
100
AcDbEntity
  8
0
  6
Continuous
 62
     7
370
    15
100
AcDbLine
 10
498.1992420509
 20
661.2666103398
 30
0.0
 11
527.4992313936
 21
661.2666103398
 31
0.0
  0
LINE
  5
47
330
1F
100
AcDbEntity
  8
0
  6
Continuous
 62
     7
370
    15
100
AcDbLine
 10
498.499232228
 20
610.1415607488
 30
0.0
 11
498.1992420509
 21
610.1415607488
 31
0.0
  0
LINE
  5
48
330
1F
100
AcDbEntity
  8
0
  6
Continuous
 62
     7
370
    15
100
AcDbLine
 10
498.1992420509
 20
569.141581968
 30
0.0
 11
498.499232228
 21
569.141581968
 31
0.0
  0
ARC
  5
49
330
1F
100
AcDbEntity
  8
0
  6
Continuous
 62
     7
370
    15
100
AcDbCircle
 10
291.4992378309
 20
730.3415876424
 30
0.0
 40
0.50000000000005
100
AcDbArc
 50
145.3989456161
 51
270.0
  0
ARC
  5
4A
330
1F
100
AcDbEntity
  8
0
  6
Continuous
 62
     7
370
    15
100
AcDbCircle
 10
299.4992378309
 20
730.3415876424
 30
0.0
 40
0.5000000000000032
100
AcDbArc
 50
270.0
 51
34.6010543839
  0
ARC
  5
4B
330
1F
100
AcDbEntity
  8
0
  6
Continuous
 62
     7
370
    15
100
AcDbCircle
 10
295.4992378309
 20
727.5820638329
 30
0.0
 40
5.359523809523828
100
AcDbArc
 50
117.8047097182
 51
145.3989456161
  0
ARC
  5
4C
330
1F
100
AcDbEntity
  8
0
  6
Continuous
 62
     7
370
    15
100
AcDbCircle
 10
295.4992378309
 20
727.5820638329
 30
0.0
 40
5.359523809523734
100
AcDbArc
 50
34.6010543839
 51
62.1952902818
  0
ARC
  5
4D
330
1F
100
AcDbEntity
  8
0
  6
Continuous
 62
     7
370
    15
100
AcDbCircle
 10
430.4992378309
 20
730.3415876424
 30
0.0
 40
0.50000000000005
100
AcDbArc
 50
145.3989456161
 51
270.0
  0
ARC
  5
4E
330
1F
100
AcDbEntity
  8
0
  6
Continuous
 62
     7
370
    15
100
AcDbCircle
 10
438.4992378309
 20
730.3415876424
 30
0.0
 40
0.50000000000005
100
AcDbArc
 50
270.0
 51
34.6010543839
  0
ARC
  5
4F
330
1F
100
AcDbEntity
  8
0
  6
Continuous
 62
     7
370
    15
100
AcDbCircle
 10
434.4992378309
 20
727.5820638329
 30
0.0
 40
5.359523809523781
100
AcDbArc
 50
117.8047097182
 51
145.3989456161
  0
ARC
  5
50
330
1F
100
AcDbEntity
  8
0
  6
Continuous
 62
     7
370
    15
100
AcDbCircle
 10
434.4992378309
 20
727.5820638329
 30
0.0
 40
5.359523809523781
100
AcDbArc
 50
34.6010543839
 51
62.1952902818
  0
ARC
  5
51
330
1F
100
AcDbEntity
  8
0
  6
Continuous
 62
     7
370
    15
100
AcDbCircle
 10
209.9992378309
 20
729.1415876424
 30
0.0
 40
2.5
100
AcDbArc
 50
0.0
 51
90.0
  0
ARC
  5
52
330
1F
100
AcDbEntity
  8
0
  6
Continuous
 62
     7
370
    15
100
AcDbCircle
 10
146.9992378309
 20
729.1415876424
 30
0.0
 40
2.5
100
AcDbArc
 50
90.0
 51
180.0
  0
LINE
  5
53
330
1F
100
AcDbEntity
  8
0
  6
Continuous
 62
     7
370
    15
100
AcDbLine
 10
144.4992449834
 20
729.1415783917
 30
0.0
 11
144.4992449834
 21
725.6415936505
 31
0.0
  0
LINE
  5
54
330
1F
100
AcDbEntity
  8
0
  6
Continuous
 62
     7
370
    15
100
AcDbLine
 10
212.4992412283
 20
725.6415936505
 30
0.0
 11
212.4992412283
 21
729.1415783917
 31
0.0
  0
LINE
  5
55
330
1F
100
AcDbEntity
  8
0
  6
Continuous
 62
     7
370
    15
100
AcDbLine
 10
499.9992427184
 20
161.4896211183
 30
0.0
 11
498.1992420509
 21
161.4896211183
 31
0.0
  0
LINE
  5
56
330
1F
100
AcDbEntity
  8
0
  6
Continuous
 62
     7
370
    15
100
AcDbLine
 10
498.1992420509
 20
145.489622221
 30
0.0
 11
499.9992427184
 21
145.489622221
 31
0.0
  0
LINE
  5
57
330
1F
100
AcDbEntity
  8
0
  6
Continuous
 62
     7
370
    15
100
AcDbLine
 10
528.4992483213
 20
572.6671967065
 30
0.0
 11
528.4992483213
 21
529.1415903127
 31
0.0
  0
LINE
  5
58
330
1F
100
AcDbEntity
  8
0
  6
Continuous
 62
     7
370
    15
100
AcDbLine
 10
570.4992440297
 20
529.1415903127
 30
0.0
 11
570.4992440297
 21
573.1415900743
 31
0.0
  0
LINE
  5
59
330
1F
100
AcDbEntity
  8
0
  6
Continuous
 62
     7
370
    15
100
AcDbLine
 10
570.4992440297
 20
573.1415900743
 30
0.0
 11
566.4992359235
 21
577.1415981805
 31
0.0
  0
LINE
  5
5A
330
1F
100
AcDbEntity
  8
0
  6
Continuous
 62
     7
370
    15
100
AcDbLine
 10
508.4992375924
 20
572.6415965116
 30
0.0
 11
528.5199609353
 21
572.6415965116
 31
0.0
  0
LINE
  5
5B
330
1F
100
AcDbEntity
  8
0
  6
Continuous
 62
     7
370
    15
100
AcDbLine
 10
549.4992461755
 20
606.6415760076
 30
0.0
 11
508.4992375924
 21
606.6415760076
 31
0.0
  0
LINE
  5
5C
330
1F
100
AcDbEntity
  8
0
  6
Continuous
 62
     7
370
    15
100
AcDbLine
 10
566.4992359235
 20
577.1415981805
 30
0.0
 11
566.4992359235
 21
589.6416160619
 31
0.0
  0
ARC
  5
5D
330
1F
100
AcDbEntity
  8
0
  6
Continuous
 62
     7
370
    15
100
AcDbCircle
 10
549.4992378309
 20
589.6415876424
 30
0.0
 40
17.00000000000011
100
AcDbArc
 50
0.0
 51
90.0
  0
LINE
  5
5E
330
1F
100
AcDbEntity
  8
0
  6
Continuous
 62
     7
370
    15
100
AcDbLine
 10
498.1992420509
 20
135.941587702
 30
0.0
 11
508.5992392852
 21
135.941587702
 31
0.0
  0
LINE
  5
5F
330
1F
100
AcDbEntity
  8
0
  6
Continuous
 62
     7
370
    15
100
AcDbLine
 10
508.5992392852
 20
170.9415841257
 30
0.0
 11
498.1992420509
 21
170.9415841257
 31
0.0
  0
ARC
  5
60
330
1F
100
AcDbEntity
  8
0
  6
Continuous
 62
     7
370
    15
100
AcDbCircle
 10
508.5992378309
 20
169.9415876424
 30
0.0
 40
1.000000000000114
100
AcDbArc
 50
0.0
 51
90.0
  0
ARC
  5
61
330
1F
100
AcDbEntity
  8
0
  6
Continuous
 62
     7
370
    15
100
AcDbCircle
 10
508.5992378309
 20
136.9415876424
 30
0.0
 40
1.000000000000114
100
AcDbArc
 50
270.0
 51
0.0
  0
LINE
  5
62
330
1F
100
AcDbEntity
  8
0
  6
Continuous
 62
     7
370
    15
100
AcDbLine
 10
498.1992420509
 20
347.141579107
 30
0.0
 11
504.4992443874
 21
347.141579107
 31
0.0
  0
LINE
  5
63
330
1F
100
AcDbEntity
  8
0
  6
Continuous
 62
     7
370
    15
100
AcDbLine
 10
504.4992443874
 20
380.1416012799
 30
0.0
 11
498.1992420509
 21
380.1416012799
 31
0.0
  0
LINE
  5
64
330
1F
100
AcDbEntity
  8
0
  6
Continuous
 62
     7
370
    15
100
AcDbLine
 10
506.4992335393
 20
377.1415802991
 30
0.0
 11
504.4992443874
 21
377.1415802991
 31
0.0
  0
LINE
  5
65
330
1F
100
AcDbEntity
  8
0
  6
Continuous
 62
     7
370
    15
100
AcDbLine
 10
504.4992443874
 20
350.1416000878
 30
0.0
 11
506.4992335393
 21
350.1416000878
 31
0.0
  0
LINE
  5
66
330
1F
100
AcDbEntity
  8
0
  6
Continuous
 62
     7
370
    15
100
AcDbLine
 10
443.9134475543
 20
725.7273647344
 30
0.0
 11
443.7992450549
 21
725.8415672338
 31
0.0
  0
LINE
  5
67
330
1F
100
AcDbEntity
  8
0
  6
Continuous
 62
     7
370
    15
100
AcDbLine
 10
286.199238035
 20
725.8415672338
 30
0.0
 11
286.0850243597
 21
725.7273647344
 31
0.0
  0
SPLINE
  5
68
330
1F
100
AcDbEntity
  8
0
  6
Continuous
 62
     7
370
    15
100
AcDbSpline
210
0.0
220
0.0
230
1.0
 70
     8
 71
     3
 72
     9
 73
     5
 74
     0
 42
0.00000001
 43
0.00000001
 40
0.0
 40
0.0
 40
0.0
 40
0.0
 40
0.4976422534013525
 40
1.0
 40
1.0
 40
1.0
 40
1.0
 10
445.2798095299967
 20
725.1415702855178
 30
0.0
 10
445.034441938646
 20
725.1693173115261
 30
0.0
 10
444.541381733903
 20
725.2250742851722
 30
0.0
 10
444.123415919171
 20
725.5594090668416
 30
0.0
 10
443.9134475543269
 20
725.7273647343703
 30
0.0
  0
SPLINE
  5
69
330
1F
100
AcDbEntity
  8
0
  6
Continuous
 62
     7
370
    15
100
AcDbSpline
210
0.0
220
0.0
230
1.0
 70
     8
 71
     3
 72
     9
 73
     5
 74
     0
 42
0.00000001
 43
0.00000001
 40
0.0
 40
0.0
 40
0.0
 40
0.0
 40
0.5100994867451356
 40
1.0
 40
1.0
 40
1.0
 40
1.0
 10
286.0850243597396
 20
725.7273647343703
 30
0.0
 10
285.9314371404698
 20
725.5969186000011
 30
0.0
 10
285.6303444649019
 20
725.3411917511048
 30
0.0
 10
285.2598219909617
 20
725.2294518855158
 30
0.0
 10
285.0783028408059
 20
725.1747104680129
 30
0.0
  0
ARC
  5
6A
330
1F
100
AcDbEntity
  8
0
  6
Continuous
 62
     7
370
    15
100
AcDbCircle
 10
143.4992378309
 20
727.1415876424
 30
0.0
 40
2.000000000000114
100
AcDbArc
 50
270.0
 51
311.4096221093
  0
ARC
  5
6B
330
1F
100
AcDbEntity
  8
0
  6
Continuous
 62
     7
370
    15
100
AcDbCircle
 10
213.4992378309
 20
727.1415876424
 30
0.0
 40
2.000000000000114
100
AcDbArc
 50
228.5903778907
 51
270.0
  0
LINE
  5
6C
330
1F
100
AcDbEntity
  8
0
  6
Continuous
 62
     7
370
    15
100
AcDbLine
 10
475.4992452218
 20
696.6416093862
 30
0.0
 11
475.4992452218
 21
698.5322091138
 31
0.0
  0
LINE
  5
6D
330
1F
100
AcDbEntity
  8
0
  6
Continuous
 62
     7
370
    15
100
AcDbLine
 10
475.4992452218
 20
696.6416093862
 30
0.0
 11
475.4992452218
 21
346.6415855443
 31
0.0
  0
LINE
  5
6E
330
1F
100
AcDbEntity
  8
0
  6
Continuous
 62
     7
370
    15
100
AcDbLine
 10
475.4992452218
 20
344.7509858167
 30
0.0
 11
475.4992452218
 21
346.6415855443
 31
0.0
  0
LINE
  5
6F
330
1F
100
AcDbEntity
  8
0
  6
Continuous
 62
     7
370
    15
100
AcDbLine
 10
527.4992313936
 20
688.0165788686
 30
0.0
 11
527.4992313936
 21
661.2666103398
 31
0.0
  0
LINE
  5
70
330
1F
100
AcDbEntity
  8
0
  6
Continuous
 62
     7
370
    15
100
AcDbLine
 10
498.499232228
 20
569.9907097375
 30
0.0
 11
498.499232228
 21
574.6800753629
 31
0.0
  0
LINE
  5
71
330
1F
100
AcDbEntity
  8
0
  6
Continuous
 62
     7
370
    15
100
AcDbLine
 10
498.499232228
 20
585.1415845906
 30
0.0
 11
498.499232228
 21
594.1415879285
 31
0.0
  0
LINE
  5
72
330
1F
100
AcDbEntity
  8
0
  6
Continuous
 62
     7
370
    15
100
AcDbLine
 10
498.499232228
 20
604.6030971562
 30
0.0
 11
498.499232228
 21
609.2924925839
 31
0.0
  0
LINE
  5
73
330
1F
100
AcDbEntity
  8
0
  6
Continuous
 62
     7
370
    15
100
AcDbLine
 10
297.9992375477
 20
732.3227974927
 30
0.0
 11
297.9992375477
 21
732.2963330304
 31
0.0
  0
LINE
  5
74
330
1F
100
AcDbEntity
  8
0
  6
Continuous
 62
     7
370
    15
100
AcDbLine
 10
292.9992385908
 20
732.2963330304
 30
0.0
 11
292.9992385908
 21
732.3227974927
 31
0.0
  0
ARC
  5
75
330
1F
100
AcDbEntity
  8
0
  6
Continuous
 62
     7
370
    15
100
AcDbCircle
 10
295.4992378309
 20
727.5820638329
 30
0.0
 40
5.336149872787735
100
AcDbArc
 50
100.801150174
 51
117.937139802
  0
SPLINE
  5
76
330
1F
100
AcDbEntity
  8
0
  6
Continuous
 62
     7
370
    15
100
AcDbSpline
210
0.0
220
0.0
230
1.0
 70
     8
 71
     3
 72
    12
 73
     8
 74
     0
 42
0.00000001
 43
0.00000001
 40
0.0
 40
0.0
 40
0.0
 40
0.0
 40
0.2118467123959905
 40
0.4238787780815396
 40
0.63191911536131
 40
0.8381443502416683
 40
1.0
 40
1.0
 40
1.0
 40
1.0
 10
294.9992370559939
 20
732.8236553227492
 30
0.0
 10
294.9939795886126
 20
732.8331229813949
 30
0.0
 10
294.9834600538783
 20
732.8520665823253
 30
0.0
 10
294.8999606208686
 20
732.8644689084383
 30
0.0
 10
294.7772092488114
 20
732.862441533372
 30
0.0
 10
294.6364595556135
 20
732.8478808411347
 30
0.0
 10
294.5411487718904
 20
732.831054391816
 30
0.0
 10
294.4992379053601
 20
732.8236553227492
 30
0.0
  0
LINE
  5
77
330
1F
100
AcDbEntity
  8
0
  6
Continuous
 62
     7
370
    15
100
AcDbLine
 10
294.999237056
 20
732.2963330304
 30
0.0
 11
294.999237056
 21
732.8236553227
 31
0.0
  0
ARC
  5
78
330
1F
100
AcDbEntity
  8
0
  6
Continuous
 62
     7
370
    15
100
AcDbCircle
 10
295.4992378309
 20
727.5820638329
 30
0.0
 40
4.740727313910001
100
AcDbArc
 50
83.9458088723
 51
96.0541911277
  0
LINE
  5
79
330
1F
100
AcDbEntity
  8
0
  6
Continuous
 62
     7
370
    15
100
AcDbLine
 10
295.9992372199
 20
732.8236553227
 30
0.0
 11
295.9992372199
 21
732.2963330304
 31
0.0
  0
SPLINE
  5
7A
330
1F
100
AcDbEntity
  8
0
  6
Continuous
 62
     7
370
    15
100
AcDbSpline
210
0.0
220
0.0
230
1.0
 70
     8
 71
     3
 72
    12
 73
     8
 74
     0
 42
0.00000001
 43
0.00000001
 40
0.0
 40
0.0
 40
0.0
 40
0.0
 40
0.2118444226600233
 40
0.4238797054125349
 40
0.6319133721809153
 40
0.8381417275893296
 40
1.0
 40
1.0
 40
1.0
 40
1.0
 10
296.4992382331856
 20
732.8236553227492
 30
0.0
 10
296.444205032975
 20
732.8331229987106
 30
0.0
 10
296.3340890506882
 20
732.8520668804848
 30
0.0
 10
296.1855625683036
 20
732.8644687636885
 30
0.0
 10
296.0732383805847
 20
732.8624413383695
 30
0.0
 10
296.0093446074545
 20
732.8478808183827
 30
0.0
 10
296.0023242659116
 20
732.8310543879537
 30
0.0
 10
295.9992372199067
 20
732.8236553227492
 30
0.0
  0
ARC
  5
7B
330
1F
100
AcDbEntity
  8
0
  6
Continuous
 62
     7
370
    15
100
AcDbCircle
 10
295.4992378309
 20
727.5820638329
 30
0.0
 40
5.336149872787682
100
AcDbArc
 50
62.062860198
 51
79.198849826
  0
LINE
  5
7C
330
1F
100
AcDbEntity
  8
0
  6
Continuous
 62
     7
370
    15
100
AcDbLine
 10
436.9992342546
 20
732.3227974927
 30
0.0
 11
436.9992342546
 21
732.2963330304
 31
0.0
  0
LINE
  5
7D
330
1F
100
AcDbEntity
  8
0
  6
Continuous
 62
     7
370
    15
100
AcDbLine
 10
431.9992390229
 20
732.2963330304
 30
0.0
 11
431.9992390229
 21
732.3227974927
 31
0.0
  0
ARC
  5
7E
330
1F
100
AcDbEntity
  8
0
  6
Continuous
 62
     7
370
    15
100
AcDbCircle
 10
434.4992378309
 20
727.5820638329
 30
0.0
 40
5.336149872787709
100
AcDbArc
 50
100.801150174
 51
117.937139802
  0
SPLINE
  5
7F
330
1F
100
AcDbEntity
  8
0
  6
Continuous
 62
     7
370
    15
100
AcDbSpline
210
0.0
220
0.0
230
1.0
 70
     8
 71
     3
 72
    12
 73
     8
 74
     0
 42
0.00000001
 43
0.00000001
 40
0.0
 40
0.0
 40
0.0
 40
0.0
 40
0.2118453102611149
 40
0.4238816102851343
 40
0.6319170788316437
 40
0.8381431049826162
 40
0.9999999999999999
 40
0.9999999999999999
 40
0.9999999999999999
 40
0.9999999999999999
 10
433.999243076063
 20
732.8236553227492
 30
0.0
 10
433.993986420249
 20
732.8331230019976
 30
0.0
 10
433.9834683694676
 20
732.8520668961082
 30
0.0
 10
433.8999556401725
 20
732.8644687462294
 30
0.0
 10
433.7772098666982
 20
732.8624414519229
 30
0.0
 10
433.6364577833867
 20
732.8478807835621
 30
0.0
 10
433.5411460061651
 20
732.8310543853364
 30
0.0
 10
433.4992346122035
 20
732.8236553227492
 30
0.0
  0
LINE
  5
80
330
1F
100
AcDbEntity
  8
0
  6
Continuous
 62
     7
370
    15
100
AcDbLine
 10
433.9992430761
 20
732.2963330304
 30
0.0
 11
433.9992430761
 21
732.8236553227
 31
0.0
  0
ARC
  5
81
330
1F
100
AcDbEntity
  8
0
  6
Continuous
 62
     7
370
    15
100
AcDbCircle
 10
434.4992378309
 20
727.5820638329
 30
0.0
 40
4.740727313909995
100
AcDbArc
 50
83.9458088723
 51
96.0541911277
  0
LINE
  5
82
330
1F
100
AcDbEntity
  8
0
  6
Continuous
 62
     7
370
    15
100
AcDbLine
 10
434.9992451026
 20
732.8236553227
 30
0.0
 11
434.9992451026
 21
732.2963330304
 31
0.0
  0
SPLINE
  5
83
330
1F
100
AcDbEntity
  8
0
  6
Continuous
 62
     7
370
    15
100
AcDbSpline
210
0.0
220
0.0
230
1.0
 70
     8
 71
     3
 72
    12
 73
     8
 74
     0
 42
0.00000001
 43
0.00000001
 40
0.0
 40
0.0
 40
0.0
 40
0.0
 40
0.2118472164004165
 40
0.4238892060235018
 40
0.6319137668993596
 40
0.8381416486285036
 40
1.0
 40
1.0
 40
1.0
 40
1.0
 10
435.4992386653193
 20
732.8236553227492
 30
0.0
 10
435.4442051840894
 20
732.8331230070293
 30
0.0
 10
435.3340876236151
 20
732.8520670802186
 30
0.0
 10
435.1855562277291
 20
732.8644685373536
 30
0.0
 10
435.0732433318346
 20
732.8624412035502
 30
0.0
 10
435.0093499792374
 20
732.8478807695624
 30
0.0
 10
435.0023313850699
 20
732.831054381061
 30
0.0
 10
434.9992451026209
 20
732.8236553227492
 30
0.0
  0
ARC
  5
84
330
1F
100
AcDbEntity
  8
0
  6
Continuous
 62
     7
370
    15
100
AcDbCircle
 10
434.4992378309
 20
727.5820638329
 30
0.0
 40
5.336149872787709
100
AcDbArc
 50
62.062860198
 51
79.198849826
  0
ARC
  5
85
330
1F
100
AcDbEntity
  8
0
  6
Continuous
 62
     7
370
    15
100
AcDbCircle
 10
286.2992378309
 20
727.8415876424
 30
0.0
 40
2.0
100
AcDbArc
 50
90.0
 51
180.0
  0
LINE
  5
86
330
1F
100
AcDbEntity
  8
0
  6
Continuous
 62
     7
370
    15
100
AcDbLine
 10
286.2992378651
 20
729.84157534
 30
0.0
 11
286.2992378651
 21
727.8416010892
 31
0.0
  0
LINE
  5
87
330
1F
100
AcDbEntity
  8
0
  6
Continuous
 62
     7
370
    15
100
AcDbLine
 10
284.299238003
 20
727.8416010892
 30
0.0
 11
286.2992378651
 21
727.8416010892
 31
0.0
  0
LINE
  5
88
330
1F
100
AcDbEntity
  8
0
  6
Continuous
 62
     7
370
    15
100
AcDbLine
 10
284.299238003
 20
725.8415672338
 30
0.0
 11
284.299238003
 21
727.8416010892
 31
0.0
  0
LINE
  5
89
330
1F
100
AcDbEntity
  8
0
  6
Continuous
 62
     7
370
    15
100
AcDbLine
 10
286.2992378651
 20
727.8416010892
 30
0.0
 11
286.2992378651
 21
725.8415672338
 31
0.0
  0
LINE
  5
8A
330
1F
100
AcDbEntity
  8
0
  6
Continuous
 62
     7
370
    15
100
AcDbLine
 10
286.2992378651
 20
725.8415672338
 30
0.0
 11
284.299238003
 21
725.8415672338
 31
0.0
  0
LINE
  5
8B
330
1F
100
AcDbEntity
  8
0
  6
Continuous
 62
     7
370
    15
100
AcDbLine
 10
286.2992378651
 20
729.84157534
 30
0.0
 11
443.6992433622
 21
729.84157534
 31
0.0
  0
LINE
  5
8C
330
1F
100
AcDbEntity
  8
0
  6
Continuous
 62
     7
370
    15
100
AcDbLine
 10
443.6992433622
 20
727.8416010892
 30
0.0
 11
443.6992433622
 21
729.84157534
 31
0.0
  0
LINE
  5
8D
330
1F
100
AcDbEntity
  8
0
  6
Continuous
 62
     7
370
    15
100
AcDbLine
 10
443.6992433622
 20
727.8416010892
 30
0.0
 11
286.2992378651
 21
727.8416010892
 31
0.0
  0
LINE
  5
8E
330
1F
100
AcDbEntity
  8
0
  6
Continuous
 62
     7
370
    15
100
AcDbLine
 10
443.6992433622
 20
725.8415672338
 30
0.0
 11
443.6992433622
 21
727.8416010892
 31
0.0
  0
LINE
  5
8F
330
1F
100
AcDbEntity
  8
0
  6
Continuous
 62
     7
370
    15
100
AcDbLine
 10
443.6992433622
 20
725.8415672338
 30
0.0
 11
286.2992378651
 21
725.8415672338
 31
0.0
  0
ARC
  5
90
330
1F
100
AcDbEntity
  8
0
  6
Continuous
 62
     7
370
    15
100
AcDbCircle
 10
443.6992378309
 20
727.8415876424
 30
0.0
 40
2.0
100
AcDbArc
 50
0.0
 51
90.0
  0
LINE
  5
91
330
1F
100
AcDbEntity
  8
0
  6
Continuous
 62
     7
370
    15
100
AcDbLine
 10
443.6992433622
 20
727.8416010892
 30
0.0
 11
445.6992325141
 21
727.8416010892
 31
0.0
  0
LINE
  5
92
330
1F
100
AcDbEntity
  8
0
  6
Continuous
 62
     7
370
    15
100
AcDbLine
 10
445.6992325141
 20
727.8416010892
 30
0.0
 11
445.6992325141
 21
725.8415672338
 31
0.0
  0
LINE
  5
93
330
1F
100
AcDbEntity
  8
0
  6
Continuous
 62
     7
370
    15
100
AcDbLine
 10
445.6992325141
 20
725.8415672338
 30
0.0
 11
443.6992433622
 21
725.8415672338
 31
0.0
  0
LINE
  5
94
330
1F
100
AcDbEntity
  8
0
  6
Continuous
 62
     7
370
    15
100
AcDbLine
 10
178.4992393806
 20
731.6415760076
 30
0.0
 11
209.9992361619
 21
731.6415760076
 31
0.0
  0
LINE
  5
95
330
1F
100
AcDbEntity
  8
0
  6
Continuous
 62
     7
370
    15
100
AcDbLine
 10
146.9992425992
 20
731.6415760076
 30
0.0
 11
178.4992393806
 21
731.6415760076
 31
0.0
  0
LINE
  5
96
330
1F
100
AcDbEntity
  8
0
  6
Continuous
 62
     7
370
    15
100
AcDbLine
 10
178.4992393806
 20
725.6415936505
 30
0.0
 11
144.4992449834
 21
725.6415936505
 31
0.0
  0
LINE
  5
97
330
1F
100
AcDbEntity
  8
0
  6
Continuous
 62
     7
370
    15
100
AcDbLine
 10
212.4992412283
 20
725.6415936505
 30
0.0
 11
178.4992393806
 21
725.6415936505
 31
0.0
  0
LINE
  5
98
330
1F
100
AcDbEntity
  8
0
  6
Continuous
 62
     7
370
    15
100
AcDbLine
 10
499.9992427184
 20
157.4896204626
 30
0.0
 11
499.9992427184
 21
161.4896211183
 31
0.0
  0
LINE
  5
99
330
1F
100
AcDbEntity
  8
0
  6
Continuous
 62
     7
370
    15
100
AcDbLine
 10
499.9992427184
 20
145.489622221
 30
0.0
 11
499.9992427184
 21
157.4896204626
 31
0.0
  0
LINE
  5
9A
330
1F
100
AcDbEntity
  8
0
  6
Continuous
 62
     7
370
    15
100
AcDbLine
 10
506.9992420032
 20
153.4415859139
 30
0.0
 11
499.9992427184
 21
153.4415859139
 31
0.0
  0
LINE
  5
9B
330
1F
100
AcDbEntity
  8
0
  6
Continuous
 62
     7
370
    15
100
AcDbLine
 10
506.9992420032
 20
153.4415859139
 30
0.0
 11
506.9992420032
 21
146.9415876424
 31
0.0
  0
LINE
  5
9C
330
1F
100
AcDbEntity
  8
0
  6
Continuous
 62
     7
370
    15
100
AcDbLine
 10
506.9992420032
 20
146.9415876424
 30
0.0
 11
499.9992427184
 21
146.9415876424
 31
0.0
  0
LINE
  5
9D
330
1F
100
AcDbEntity
  8
0
  6
Continuous
 62
     7
370
    15
100
AcDbLine
 10
506.9992420032
 20
159.9415841853
 30
0.0
 11
499.9992427184
 21
159.9415841853
 31
0.0
  0
LINE
  5
9E
330
1F
100
AcDbEntity
  8
0
  6
Continuous
 62
     7
370
    15
100
AcDbLine
 10
506.9992420032
 20
159.9415841853
 30
0.0
 11
506.9992420032
 21
153.4415859139
 31
0.0
  0
SPLINE
  5
9F
330
1F
100
AcDbEntity
  8
0
  6
Continuous
 62
     7
370
    15
100
AcDbSpline
210
0.0
220
0.0
230
1.0
 70
     8
 71
     3
 72
     9
 73
     5
 74
     0
 42
0.00000001
 43
0.00000001
 40
0.0
 40
0.0
 40
0.0
 40
0.0
 40
0.5489083681193179
 40
1.0
 40
1.0
 40
1.0
 40
1.0
 10
528.901907499052
 20
573.1415900742599
 30
0.0
 10
528.7732838943374
 20
572.9816505607141
 30
0.0
 10
528.5389577077004
 20
572.6902731235408
 30
0.0
 10
528.5258663412064
 20
572.6743703255772
 30
0.0
 10
528.5199609353313
 20
572.6671967064925
 30
0.0
  0
LINE
  5
A0
330
1F
100
AcDbEntity
  8
0
  6
Continuous
 62
     7
370
    15
100
AcDbLine
 10
528.9019074991
 20
573.1415900743
 30
0.0
 11
570.4992440297
 21
573.1415900743
 31
0.0
  0
LINE
  5
A1
330
1F
100
AcDbEntity
  8
0
  6
Continuous
 62
     7
370
    15
100
AcDbLine
 10
528.4992483213
 20
529.1415903127
 30
0.0
 11
570.4992440297
 21
529.1415903127
 31
0.0
  0
LINE
  5
A2
330
1F
100
AcDbEntity
  8
0
  6
Continuous
 62
     7
370
    15
100
AcDbLine
 10
536.9992282941
 20
577.1415981805
 30
0.0
 11
566.4992359235
 21
577.1415981805
 31
0.0
  0
SPLINE
  5
A3
330
1F
100
AcDbEntity
  8
0
  6
Continuous
 62
     7
370
    15
100
AcDbSpline
210
0.0
220
0.0
230
1.0
 70
     8
 71
     3
 72
    11
 73
     7
 74
     0
 42
0.00000001
 43
0.00000001
 40
0.0
 40
0.0
 40
0.0
 40
0.0
 40
0.1936322114725109
 40
0.3943041728900698
 40
0.6925098307635704
 40
1.0
 40
1.0
 40
1.0
 40
1.0
 10
528.901907499052
 20
573.1415900742599
 30
0.0
 10
529.2499174299685
 20
573.3319808485809
 30
0.0
 10
529.9585896437704
 20
573.7196843005199
 30
0.0
 10
531.679889913804
 20
574.629940483081
 30
0.0
 10
533.9893435241938
 20
575.8068486023192
 30
0.0
 10
535.985732707246
 20
576.6921581153541
 30
0.0
 10
536.9992282941112
 20
577.1415981804915
 30
0.0
  0
LINE
  5
A4
330
1F
100
AcDbEntity
  8
0
  6
Continuous
 62
     7
370
    15
100
AcDbLine
 10
508.4992375924
 20
578.1133327043
 30
0.0
 11
498.499232228
 21
578.1133327043
 31
0.0
  0
LINE
  5
A5
330
1F
100
AcDbEntity
  8
0
  6
Continuous
 62
     7
370
    15
100
AcDbLine
 10
508.4992375924
 20
578.1133327043
 30
0.0
 11
508.4992375924
 21
566.6415843522
 31
0.0
  0
LINE
  5
A6
330
1F
100
AcDbEntity
  8
0
  6
Continuous
 62
     7
370
    15
100
AcDbLine
 10
508.4992375924
 20
566.6415843522
 30
0.0
 11
498.499232228
 21
566.6415843522
 31
0.0
  0
LINE
  5
A7
330
1F
100
AcDbEntity
  8
0
  6
Continuous
 62
     7
370
    15
100
AcDbLine
 10
498.499232228
 20
578.1133327043
 30
0.0
 11
498.499232228
 21
574.6800753629
 31
0.0
  0
LINE
  5
A8
330
1F
100
AcDbEntity
  8
0
  6
Continuous
 62
     7
370
    15
100
AcDbLine
 10
498.499232228
 20
569.9907097375
 30
0.0
 11
498.499232228
 21
566.6415843522
 31
0.0
  0
LINE
  5
A9
330
1F
100
AcDbEntity
  8
0
  6
Continuous
 62
     7
370
    15
100
AcDbLine
 10
508.4992375924
 20
601.1698100125
 30
0.0
 11
498.499232228
 21
601.1698100125
 31
0.0
  0
LINE
  5
AA
330
1F
100
AcDbEntity
  8
0
  6
Continuous
 62
     7
370
    15
100
AcDbLine
 10
508.4992375924
 20
601.1698100125
 30
0.0
 11
508.4992375924
 21
578.1133327043
 31
0.0
  0
LINE
  5
AB
330
1F
100
AcDbEntity
  8
0
  6
Continuous
 62
     7
370
    15
100
AcDbLine
 10
498.499232228
 20
601.1698100125
 30
0.0
 11
498.499232228
 21
594.1415879285
 31
0.0
  0
LINE
  5
AC
330
1F
100
AcDbEntity
  8
0
  6
Continuous
 62
     7
370
    15
100
AcDbLine
 10
498.499232228
 20
585.1415845906
 30
0.0
 11
498.499232228
 21
578.1133327043
 31
0.0
  0
LINE
  5
AD
330
1F
100
AcDbEntity
  8
0
  6
Continuous
 62
     7
370
    15
100
AcDbLine
 10
508.4992375924
 20
612.6415583646
 30
0.0
 11
498.499232228
 21
612.6415583646
 31
0.0
  0
LINE
  5
AE
330
1F
100
AcDbEntity
  8
0
  6
Continuous
 62
     7
370
    15
100
AcDbLine
 10
508.4992375924
 20
612.6415583646
 30
0.0
 11
508.4992375924
 21
601.1698100125
 31
0.0
  0
LINE
  5
AF
330
1F
100
AcDbEntity
  8
0
  6
Continuous
 62
     7
370
    15
100
AcDbLine
 10
498.499232228
 20
612.6415583646
 30
0.0
 11
498.499232228
 21
609.2924925839
 31
0.0
  0
LINE
  5
B0
330
1F
100
AcDbEntity
  8
0
  6
Continuous
 62
     7
370
    15
100
AcDbLine
 10
498.499232228
 20
604.6030971562
 30
0.0
 11
498.499232228
 21
601.1698100125
 31
0.0
  0
LWPOLYLINE
  5
B1
330
1F
100
AcDbEntity
  8
0
  6
Continuous
 62
     7
370
    15
100
AcDbPolyline
 90
        7
 70
   128
 43
0.0
 10
549.4992461755
 20
589.6416160619
 10
547.1660223558
 20
587.3083326375
 10
544.8769357755
 20
585.0192758596
 10
542.6753488137
 20
582.8176888978
 10
540.6029251172
 20
580.7452652013
 10
538.6988845422
 20
578.8412246263
 10
536.9992282941
 20
577.1415981805
  0
LINE
  5
B2
330
1F
100
AcDbEntity
  8
0
  6
Continuous
 62
     7
370
    15
100
AcDbLine
 10
509.5992413118
 20
169.9415895497
 30
0.0
 11
509.5992413118
 21
136.9415860033
 31
0.0
  0
LINE
  5
B3
330
1F
100
AcDbEntity
  8
0
  6
Continuous
 62
     7
370
    15
100
AcDbLine
 10
504.4992443874
 20
380.1416012799
 30
0.0
 11
504.4992443874
 21
347.141579107
 31
0.0
  0
LINE
  5
B4
330
1F
100
AcDbEntity
  8
0
  6
Continuous
 62
     7
370
    15
100
AcDbLine
 10
506.4992335393
 20
377.1415802991
 30
0.0
 11
506.4992335393
 21
350.1416000878
 31
0.0
  0
ARC
  5
B5
330
1F
100
AcDbEntity
  8
0
  6
Continuous
 62
     7
370
    15
100
AcDbCircle
 10
57.4992378309
 20
723.1415876424
 30
0.0
 40
2.0
100
AcDbArc
 50
90.0
 51
180.0
  0
LINE
  5
B6
330
1F
100
AcDbEntity
  8
0
  6
Continuous
 62
     7
370
    15
100
AcDbLine
 10
57.4992325856
 20
725.1415702855
 30
0.0
 11
60.4992386653
 21
725.1415702855
 31
0.0
  0
LINE
  5
B7
330
1F
100
AcDbEntity
  8
0
  6
Continuous
 62
     7
370
    15
100
AcDbLine
 10
55.4992434337
 20
709.1415974652
 30
0.0
 11
55.4992434337
 21
723.1415960347
 31
0.0
  0
LINE
  5
B8
330
1F
100
AcDbEntity
  8
0
  6
Continuous
 62
     7
370
    15
100
AcDbLine
 10
60.4992386653
 20
723.1415960347
 30
0.0
 11
60.4992386653
 21
709.1415974652
 31
0.0
  0
LINE
  5
B9
330
1F
100
AcDbEntity
  8
0
  6
Continuous
 62
     7
370
    15
100
AcDbLine
 10
60.4992386653
 20
709.1415974652
 30
0.0
 11
58.793368633
 21
709.1415974652
 31
0.0
  0
LINE
  5
BA
330
1F
100
AcDbEntity
  8
0
  6
Continuous
 62
     7
370
    15
100
AcDbLine
 10
55.7992336108
 20
709.1415974652
 30
0.0
 11
55.4992434337
 21
709.1415974652
 31
0.0
  0
LINE
  5
BB
330
1F
100
AcDbEntity
  8
0
  6
Continuous
 62
     7
370
    15
100
AcDbLine
 10
493.4992369964
 20
723.1415960347
 30
0.0
 11
60.4992386653
 21
723.1415960347
 31
0.0
  0
LINE
  5
BC
330
1F
100
AcDbEntity
  8
0
  6
Continuous
 62
     7
370
    15
100
AcDbLine
 10
493.4992369964
 20
709.1415974652
 30
0.0
 11
493.4992369964
 21
723.1415960347
 31
0.0
  0
LINE
  5
BD
330
1F
100
AcDbEntity
  8
0
  6
Continuous
 62
     7
370
    15
100
AcDbLine
 10
469.4992330625
 20
719.1415879285
 30
0.0
 11
473.4992411687
 21
719.1415879285
 31
0.0
  0
ARC
  5
BE
330
1F
100
AcDbEntity
  8
0
  6
Continuous
 62
     7
370
    15
100
AcDbCircle
 10
469.4992378309
 20
716.1415876424
 30
0.0
 40
3.000000000000114
100
AcDbArc
 50
90.0
 51
270.0
  0
LINE
  5
BF
330
1F
100
AcDbEntity
  8
0
  6
Continuous
 62
     7
370
    15
100
AcDbLine
 10
473.4992411687
 20
713.1416055715
 30
0.0
 11
469.4992330625
 21
713.1416055715
 31
0.0
  0
ARC
  5
C0
330
1F
100
AcDbEntity
  8
0
  6
Continuous
 62
     7
370
    15
100
AcDbCircle
 10
473.4992378309
 20
716.1415876424
 30
0.0
 40
3.000000000000114
100
AcDbArc
 50
270.0
 51
90.0
  0
LINE
  5
C1
330
1F
100
AcDbEntity
  8
0
  6
Continuous
 62
     7
370
    15
100
AcDbLine
 10
84.4992425992
 20
713.1416055715
 30
0.0
 11
80.499234493
 21
713.1416055715
 31
0.0
  0
ARC
  5
C2
330
1F
100
AcDbEntity
  8
0
  6
Continuous
 62
     7
370
    15
100
AcDbCircle
 10
84.4992378309
 20
716.1415876424
 30
0.0
 40
3.000000000000114
100
AcDbArc
 50
270.0
 51
90.0
  0
LINE
  5
C3
330
1F
100
AcDbEntity
  8
0
  6
Continuous
 62
     7
370
    15
100
AcDbLine
 10
80.499234493
 20
719.1415879285
 30
0.0
 11
84.4992425992
 21
719.1415879285
 31
0.0
  0
ARC
  5
C4
330
1F
100
AcDbEntity
  8
0
  6
Continuous
 62
     7
370
    15
100
AcDbCircle
 10
80.4992378309
 20
716.1415876424
 30
0.0
 40
3.000000000000114
100
AcDbArc
 50
90.0
 51
270.0
  0
LINE
  5
C5
330
1F
100
AcDbEntity
  8
0
  6
Continuous
 62
     7
370
    15
100
AcDbLine
 10
60.4992386653
 20
709.1415974652
 30
0.0
 11
493.4992369964
 21
709.1415974652
 31
0.0
  0
LINE
  5
C6
330
1F
100
AcDbEntity
  8
0
  6
Continuous
 62
     7
370
    15
100
AcDbLine
 10
60.4992386653
 20
725.1415702855
 30
0.0
 11
493.4992369964
 21
725.1415702855
 31
0.0
  0
LINE
  5
C7
330
1F
100
AcDbEntity
  8
0
  6
Continuous
 62
     7
370
    15
100
AcDbLine
 10
493.4992369964
 20
725.1415702855
 30
0.0
 11
496.4992430761
 21
725.1415702855
 31
0.0
  0
ARC
  5
C8
330
1F
100
AcDbEntity
  8
0
  6
Continuous
 62
     7
370
    15
100
AcDbCircle
 10
496.4992378309
 20
723.1415876424
 30
0.0
 40
2.0
100
AcDbArc
 50
0.0
 51
90.0
  0
LINE
  5
C9
330
1F
100
AcDbEntity
  8
0
  6
Continuous
 62
     7
370
    15
100
AcDbLine
 10
498.499232228
 20
723.1415960347
 30
0.0
 11
498.499232228
 21
709.1415974652
 31
0.0
  0
LINE
  5
CA
330
1F
100
AcDbEntity
  8
0
  6
Continuous
 62
     7
370
    15
100
AcDbLine
 10
498.499232228
 20
709.1415974652
 30
0.0
 11
498.1992420509
 21
709.1415974652
 31
0.0
  0
LINE
  5
CB
330
1F
100
AcDbEntity
  8
0
  6
Continuous
 62
     7
370
    15
100
AcDbLine
 10
495.2051070287
 20
709.1415974652
 30
0.0
 11
493.4992369964
 21
709.1415974652
 31
0.0
  0
SPLINE
  5
CC
330
1F
100
AcDbEntity
  8
0
  6
Continuous
 62
     7
370
    15
100
AcDbSpline
210
0.0
220
0.0
230
1.0
 70
     8
 71
     3
 72
     9
 73
     5
 74
     0
 42
0.00000001
 43
0.00000001
 40
0.0
 40
0.0
 40
0.0
 40
0.0
 40
0.9999008796411075
 40
1.0
 40
1.0
 40
1.0
 40
1.0
 10
289.4992380171188
 20
725.6501767193862
 30
0.0
 10
289.6965871683216
 20
725.6887694514888
 30
0.0
 10
289.8939558827822
 20
725.727366009296
 30
0.0
 10
290.0850051471965
 20
725.7273647344969
 30
0.0
 10
290.0850240840682
 20
725.7273647343704
 30
0.0
  0
LINE
  5
CD
330
1F
100
AcDbEntity
  8
0
  6
Continuous
 62
     7
370
    15
100
AcDbLine
 10
290.0850240841
 20
725.7273647344
 30
0.0
 11
439.9134543493
 21
725.7273647344
 31
0.0
  0
SPLINE
  5
CE
330
1F
100
AcDbEntity
  8
0
  6
Continuous
 62
     7
370
    15
100
AcDbSpline
210
0.0
220
0.0
230
1.0
 70
     8
 71
     3
 72
     9
 73
     5
 74
     0
 42
0.00000001
 43
0.00000001
 40
0.0
 40
0.0
 40
0.0
 40
0.0
 40
0.0001036893801328
 40
1.0
 40
1.0
 40
1.0
 40
1.0
 10
439.9134543492564
 20
725.7273647343703
 30
0.0
 10
439.9134742174517
 20
725.7273647345086
 30
0.0
 10
440.1050868522403
 20
725.7273660688612
 30
0.0
 10
440.3021705923395
 20
725.6887693930911
 30
0.0
 10
440.4992338969477
 20
725.6501767193862
 30
0.0
  0
ARC
  5
CF
330
1F
100
AcDbEntity
  8
0
  6
Continuous
 62
     7
370
    15
100
AcDbCircle
 10
441.2112491482
 20
725.6050937345
 30
0.0
 40
0.7134410932166012
100
AcDbArc
 50
176.3770142345
 51
220.5190684009
  0
ARC
  5
D0
330
1F
100
AcDbEntity
  8
0
  6
Continuous
 62
     7
370
    15
100
AcDbCircle
 10
288.7871804514
 20
725.6050969249
 30
0.0
 40
0.7134831215953883
100
AcDbArc
 50
319.4834790436
 51
3.6225153499
  0
SPLINE
  5
D1
330
1F
100
AcDbEntity
  8
0
  6
Continuous
 62
     7
370
    15
100
AcDbSpline
210
0.0
220
0.0
230
1.0
 70
     8
 71
     3
 72
    13
 73
     9
 74
     0
 42
0.00000001
 43
0.00000001
 40
0.0
 40
0.0
 40
0.0
 40
0.0
 40
0.2367140387403281
 40
0.4092853192681946
 40
0.4864201179146086
 40
0.6984734225530518
 40
0.7435909516010987
 40
1.0
 40
1.0
 40
1.0
 40
1.0
 10
440.4992338969477
 20
725.6501767193862
 30
0.0
 10
440.929426416893
 20
725.6097497531866
 30
0.0
 10
441.6732415442491
 20
725.5398503764696
 30
0.0
 10
442.4583296107951
 20
725.5136927331642
 30
0.0
 10
443.0996599080775
 20
725.5052289110469
 30
0.0
 10
443.4663067918652
 20
725.5158862891955
 30
0.0
 10
443.8572752958775
 20
725.5547968410143
 30
0.0
 10
443.9117676719604
 20
725.6063432326598
 30
0.0
 10
443.9581063344248
 20
725.6501767193862
 30
0.0
  0
ARC
  5
D2
330
1F
100
AcDbEntity
  8
0
  6
Continuous
 62
     7
370
    15
100
AcDbCircle
 10
445.2810489413
 20
727.1164333386
 30
0.0
 40
1.974863441973205
100
AcDbArc
 50
227.9413722855
 51
269.9640415427
  0
SPLINE
  5
D3
330
1F
100
AcDbEntity
  8
0
  6
Continuous
 62
     7
370
    15
100
AcDbSpline
210
0.0
220
0.0
230
1.0
 70
     8
 71
     3
 72
    13
 73
     9
 74
     0
 42
0.00000001
 43
0.00000001
 40
0.0
 40
0.0
 40
0.0
 40
0.0
 40
0.2367154028463695
 40
0.4092848329299502
 40
0.4864190346110077
 40
0.6984733317388672
 40
0.7435906417210347
 40
1.0
 40
1.0
 40
1.0
 40
1.0
 10
286.0403711675771
 20
725.6501767193862
 30
0.0
 10
286.0819780193802
 20
725.6097498173198
 30
0.0
 10
286.1539169518882
 20
725.5398510373534
 30
0.0
 10
286.5973864643902
 20
725.513692655641
 30
0.0
 10
287.1346680972374
 20
725.5052289388606
 30
0.0
 10
287.6360667608415
 20
725.5158861105131
 30
0.0
 10
288.4819478972401
 20
725.5547969978493
 30
0.0
 10
289.0317243696507
 20
725.6063432832414
 30
0.0
 10
289.4992380171188
 20
725.6501767193862
 30
0.0
  0
ARC
  5
D4
330
1F
100
AcDbEntity
  8
0
  6
Continuous
 62
     7
370
    15
100
AcDbCircle
 10
284.7174277747
 20
727.1164353766
 30
0.0
 40
1.974865481655652
100
AcDbArc
 50
270.0360352641
 51
312.0586050361
  0
SPLINE
  5
D5
330
1F
100
AcDbEntity
  8
0
  6
Continuous
 62
     7
370
    15
100
AcDbSpline
210
0.0
220
0.0
230
1.0
 70
     8
 71
     3
 72
     9
 73
     5
 74
     0
 42
0.00000001
 43
0.00000001
 40
0.0
 40
0.0
 40
0.0
 40
0.0
 40
0.0001018129427895
 40
0.9999999999999999
 40
0.9999999999999999
 40
0.9999999999999999
 40
0.9999999999999999
 10
286.0850243597396
 20
725.7273647343703
 30
0.0
 10
286.0850212552502
 20
725.7273647345037
 30
0.0
 10
286.0545291646095
 20
725.7273660444605
 30
0.0
 10
286.0474498057082
 20
725.6887694171055
 30
0.0
 10
286.0403711675771
 20
725.6501767193862
 30
0.0
  0
LWPOLYLINE
  5
D6
330
1F
100
AcDbEntity
  8
0
  6
Continuous
 62
     7
370
    15
100
AcDbPolyline
 90
        2
 70
   128
 43
0.0
 10
443.9134475543
 20
725.7273647344
 10
443.9134475543
 20
725.7273647344
  0
SPLINE
  5
D7
330
1F
100
AcDbEntity
  8
0
  6
Continuous
 62
     7
370
    15
100
AcDbSpline
210
0.0
220
0.0
230
1.0
 70
     8
 71
     3
 72
     9
 73
     5
 74
     0
 42
0.00000001
 43
0.00000001
 40
0.0
 40
0.0
 40
0.0
 40
0.0
 40
0.9998963119088097
 40
0.9999999999999999
 40
0.9999999999999999
 40
0.9999999999999999
 40
0.9999999999999999
 10
443.9581063344248
 20
725.6501767193862
 30
0.0
 10
443.9597321003093
 20
725.6887693926153
 30
0.0
 10
443.9613580347839
 20
725.7273660678602
 30
0.0
 10
443.9134525215582
 20
725.7273647345088
 30
0.0
 10
443.9134475543269
 20
725.7273647343704
 30
0.0
  0
ARC
  5
D8
330
1F
100
AcDbEntity
  8
0
  6
Continuous
 62
     7
370
    15
100
AcDbCircle
 10
82.1992378309
 20
717.4415876424
 30
0.0
 40
3.00000000000005
100
AcDbArc
 50
180.0
 51
34.3992900663
  0
LWPOLYLINE
  5
D9
330
1F
100
AcDbEntity
  8
0
  6
Continuous
 62
     7
370
    15
100
AcDbPolyline
 90
        3
 70
   128
 43
0.0
 10
79.6467539623
 20
719.0179082906
 10
79.3801572873
 20
718.46763821
 10
79.1992422893
 20
717.4416038549
  0
ARC
  5
DA
330
1F
100
AcDbEntity
  8
0
  6
Continuous
 62
     7
370
    15
100
AcDbCircle
 10
471.1992378309
 20
717.4415876424
 30
0.0
 40
3.000000000000051
100
AcDbArc
 50
180.0
 51
34.399287474
  0
LWPOLYLINE
  5
DB
330
1F
100
AcDbEntity
  8
0
  6
Continuous
 62
     7
370
    15
100
AcDbPolyline
 90
        3
 70
   128
 43
0.0
 10
468.6467525317
 20
719.0179082906
 10
468.3801558568
 20
718.46763821
 10
468.1992408588
 20
717.4416038549
  0
LINE
  5
DC
330
1F
100
AcDbEntity
  8
0
  6
Continuous
 62
     7
370
    15
100
AcDbLine
 10
477.6992377593
 20
709.1415974652
 30
0.0
 11
477.6992377593
 21
708.4594223058
 31
0.0
  0
LINE
  5
DD
330
1F
100
AcDbEntity
  8
0
  6
Continuous
 62
     7
370
    15
100
AcDbLine
 10
477.6992377593
 20
708.4594223058
 30
0.0
 11
477.6992377593
 21
707.7876779592
 31
0.0
  0
CIRCLE
  5
DE
330
1F
100
AcDbEntity
  8
0
  6
Continuous
 62
     7
370
    15
100
AcDbCircle
 10
82.6992378309
 20
397.4415876424
 30
0.0
 40
3.0
  0
CIRCLE
  5
DF
330
1F
100
AcDbEntity
  8
0
  6
Continuous
 62
     7
370
    15
100
AcDbCircle
 10
471.6992378309
 20
397.4415876424
 30
0.0
 40
3.0
  0
LINE
  5
E0
330
1F
100
AcDbEntity
  8
0
  6
Continuous
 62
     7
370
    15
100
AcDbLine
 10
477.6992377593
 20
83.2415875854
 30
0.0
 11
477.6992377593
 21
344.7509858167
 31
0.0
  0
LINE
  5
E1
330
1F
100
AcDbEntity
  8
0
  6
Continuous
 62
     7
370
    15
100
AcDbLine
 10
477.6992377593
 20
698.5322091138
 30
0.0
 11
477.6992377593
 21
707.7876779592
 31
0.0
  0
LINE
  5
E2
330
1F
100
AcDbEntity
  8
0
  6
Continuous
 62
     7
370
    15
100
AcDbLine
 10
75.7992443397
 20
724.4415733373
 30
0.0
 11
75.7992443397
 21
724.1951677358
 31
0.0
  0
LINE
  5
E3
330
1F
100
AcDbEntity
  8
0
  6
Continuous
 62
     7
370
    15
100
AcDbLine
 10
75.7992443397
 20
709.1415974652
 30
0.0
 11
75.7992443397
 21
70.4415872103
 31
0.0
  0
LINE
  5
E4
330
1F
100
AcDbEntity
  8
0
  6
Continuous
 62
     7
370
    15
100
AcDbLine
 10
55.7992336108
 20
70.4415872103
 30
0.0
 11
75.7992443397
 21
70.4415872103
 31
0.0
  0
LINE
  5
E5
330
1F
100
AcDbEntity
  8
0
  6
Continuous
 62
     7
370
    15
100
AcDbLine
 10
57.799237664
 20
724.4415733373
 30
0.0
 11
57.799237664
 21
710.4415747678
 31
0.0
  0
LINE
  5
E6
330
1F
100
AcDbEntity
  8
0
  6
Continuous
 62
     7
370
    15
100
AcDbLine
 10
55.7992336108
 20
70.4415872103
 30
0.0
 11
55.7992336108
 21
710.4415747678
 31
0.0
  0
LINE
  5
E7
330
1F
100
AcDbEntity
  8
0
  6
Continuous
 62
     7
370
    15
100
AcDbLine
 10
57.799237664
 20
724.4415733373
 30
0.0
 11
75.7992443397
 21
724.4415733373
 31
0.0
  0
LINE
  5
E8
330
1F
100
AcDbEntity
  8
0
  6
Continuous
 62
     7
370
    15
100
AcDbLine
 10
57.799237664
 20
710.4415747678
 30
0.0
 11
55.7992336108
 21
710.4415747678
 31
0.0
  0
ARC
  5
E9
330
1F
100
AcDbEntity
  8
0
  6
Continuous
 62
     7
370
    15
100
AcDbCircle
 10
82.7992378309
 20
717.4415876424
 30
0.0
 40
1.999999999999919
100
AcDbArc
 50
121.7883306171
 51
58.2116693829
  0
CIRCLE
  5
EA
330
1F
100
AcDbEntity
  8
0
  6
Continuous
 62
     7
370
    15
100
AcDbCircle
 10
82.7992378309
 20
397.4415876424
 30
0.0
 40
2.0
  0
LINE
  5
EB
330
1F
100
AcDbEntity
  8
0
  6
Continuous
 62
     7
370
    15
100
AcDbLine
 10
498.1992420509
 20
70.4415872103
 30
0.0
 11
478.199231322
 21
70.4415872103
 31
0.0
  0
LINE
  5
EC
330
1F
100
AcDbEntity
  8
0
  6
Continuous
 62
     7
370
    15
100
AcDbLine
 10
478.199231322
 20
724.4415733373
 30
0.0
 11
478.199231322
 21
724.1951677358
 31
0.0
  0
LINE
  5
ED
330
1F
100
AcDbEntity
  8
0
  6
Continuous
 62
     7
370
    15
100
AcDbLine
 10
478.199231322
 20
709.1415974652
 30
0.0
 11
478.199231322
 21
70.4415872103
 31
0.0
  0
LINE
  5
EE
330
1F
100
AcDbEntity
  8
0
  6
Continuous
 62
     7
370
    15
100
AcDbLine
 10
496.1992379977
 20
724.4415733373
 30
0.0
 11
478.199231322
 21
724.4415733373
 31
0.0
  0
LINE
  5
EF
330
1F
100
AcDbEntity
  8
0
  6
Continuous
 62
     7
370
    15
100
AcDbLine
 10
496.1992379977
 20
724.4415733373
 30
0.0
 11
496.1992379977
 21
710.4415747678
 31
0.0
  0
LINE
  5
F0
330
1F
100
AcDbEntity
  8
0
  6
Continuous
 62
     7
370
    15
100
AcDbLine
 10
496.1992379977
 20
710.4415747678
 30
0.0
 11
498.1992420509
 21
710.4415747678
 31
0.0
  0
LINE
  5
F1
330
1F
100
AcDbEntity
  8
0
  6
Continuous
 62
     7
370
    15
100
AcDbLine
 10
498.1992420509
 20
710.4415747678
 30
0.0
 11
498.1992420509
 21
70.4415872103
 31
0.0
  0
ARC
  5
F2
330
1F
100
AcDbEntity
  8
0
  6
Continuous
 62
     7
370
    15
100
AcDbCircle
 10
471.1992378309
 20
717.4415876424
 30
0.0
 40
2.0
100
AcDbArc
 50
270.0
 51
58.2116693828
  0
ARC
  5
F3
330
1F
100
AcDbEntity
  8
0
  6
Continuous
 62
     7
370
    15
100
AcDbCircle
 10
471.1992378309
 20
717.4415876424
 30
0.0
 40
2.0
100
AcDbArc
 50
121.7883306172
 51
270.0
  0
CIRCLE
  5
F4
330
1F
100
AcDbEntity
  8
0
  6
Continuous
 62
     7
370
    15
100
AcDbCircle
 10
471.1992378309
 20
397.4415876424
 30
0.0
 40
2.000000000000057
  0
LINE
  5
F5
330
1F
100
AcDbEntity
  8
0
  6
Continuous
 62
     7
370
    15
100
AcDbLine
 10
477.6992377593
 20
85.4415876899
 30
0.0
 11
478.199231322
 21
85.4415876899
 31
0.0
  0
LINE
  5
F6
330
1F
100
AcDbEntity
  8
0
  6
Continuous
 62
     7
370
    15
100
AcDbLine
 10
399.499240215
 20
52.6415857827
 30
0.0
 11
399.499240215
 21
49.4415874934
 31
0.0
  0
LINE
  5
F7
330
1F
100
AcDbEntity
  8
0
  6
Continuous
 62
     7
370
    15
100
AcDbLine
 10
424.4992312743
 20
52.6415857827
 30
0.0
 11
399.499240215
 21
52.6415857827
 31
0.0
  0
ARC
  5
F8
330
1F
100
AcDbEntity
  8
0
  6
Continuous
 62
     7
370
    15
100
AcDbCircle
 10
424.4992378309
 20
53.6415876424
 30
0.0
 40
1.0
100
AcDbArc
 50
270.0
 51
0.0
  0
LINE
  5
F9
330
1F
100
AcDbEntity
  8
0
  6
Continuous
 62
     7
370
    15
100
AcDbLine
 10
425.4992333009
 20
70.4415872103
 30
0.0
 11
425.4992333009
 21
53.6415878093
 31
0.0
  0
LINE
  5
FA
330
1F
100
AcDbEntity
  8
0
  6
Continuous
 62
     7
370
    15
100
AcDbLine
 10
428.6992427661
 20
53.6415878093
 30
0.0
 11
428.6992427661
 21
70.4415872103
 31
0.0
  0
ARC
  5
FB
330
1F
100
AcDbEntity
  8
0
  6
Continuous
 62
     7
370
    15
100
AcDbCircle
 10
424.4992378309
 20
53.6415876424
 30
0.0
 40
4.199999999999989
100
AcDbArc
 50
270.0
 51
0.0
  0
LINE
  5
FC
330
1F
100
AcDbEntity
  8
0
  6
Continuous
 62
     7
370
    15
100
AcDbLine
 10
399.499240215
 20
49.4415874934
 30
0.0
 11
424.4992312743
 21
49.4415874934
 31
0.0
  0
LINE
  5
FD
330
1F
100
AcDbEntity
  8
0
  6
Continuous
 62
     7
370
    15
100
AcDbLine
 10
128.4992423608
 20
70.4415872103
 30
0.0
 11
128.4992423608
 21
53.6415878093
 31
0.0
  0
ARC
  5
FE
330
1F
100
AcDbEntity
  8
0
  6
Continuous
 62
     7
370
    15
100
AcDbCircle
 10
129.4992378309
 20
53.6415876424
 30
0.0
 40
1.0
100
AcDbArc
 50
180.0
 51
270.0
  0
LINE
  5
FF
330
1F
100
AcDbEntity
  8
0
  6
Continuous
 62
     7
370
    15
100
AcDbLine
 10
129.4992443874
 20
52.6415857827
 30
0.0
 11
154.4992354467
 21
52.6415857827
 31
0.0
  0
LINE
  5
100
330
1F
100
AcDbEntity
  8
0
  6
Continuous
 62
     7
370
    15
100
AcDbLine
 10
154.4992354467
 20
52.6415857827
 30
0.0
 11
154.4992354467
 21
49.4415874934
 31
0.0
  0
LINE
  5
101
330
1F
100
AcDbEntity
  8
0
  6
Continuous
 62
     7
370
    15
100
AcDbLine
 10
154.4992354467
 20
49.4415874934
 30
0.0
 11
129.4992443874
 21
49.4415874934
 31
0.0
  0
ARC
  5
102
330
1F
100
AcDbEntity
  8
0
  6
Continuous
 62
     7
370
    15
100
AcDbCircle
 10
129.4992378309
 20
53.6415876424
 30
0.0
 40
4.200000000000045
100
AcDbArc
 50
180.0
 51
270.0
  0
LINE
  5
103
330
1F
100
AcDbEntity
  8
0
  6
Continuous
 62
     7
370
    15
100
AcDbLine
 10
125.2992328956
 20
53.6415878093
 30
0.0
 11
125.2992328956
 21
70.4415872103
 31
0.0
  0
LINE
  5
104
330
1F
100
AcDbEntity
  8
0
  6
Continuous
 62
     7
370
    15
100
AcDbLine
 10
75.7992443397
 20
70.4415872103
 30
0.0
 11
478.199231322
 21
70.4415872103
 31
0.0
  0
LINE
  5
105
330
1F
100
AcDbEntity
  8
0
  6
Continuous
 62
     7
370
    15
100
AcDbLine
 10
477.6992377593
 20
84.4415876424
 30
0.0
 11
478.199231322
 21
84.4415876424
 31
0.0
  0
LINE
  5
106
330
1F
100
AcDbEntity
  8
0
  6
Continuous
 62
     8
370
    15
100
AcDbLine
 10
478.199231322
 20
696.6416093862
 30
0.0
 11
475.4992452218
 21
696.6416093862
 31
0.0
  0
LINE
  5
107
330
1F
100
AcDbEntity
  8
0
  6
Continuous
 62
     8
370
    15
100
AcDbLine
 10
475.4992452218
 20
346.6415855443
 30
0.0
 11
478.199231322
 21
346.6415855443
 31
0.0
  0
LINE
  5
108
330
1F
100
AcDbEntity
  8
0
  6
Continuous
 62
     8
370
    15
100
AcDbLine
 10
295.4992380693
 20
730.6254956281
 30
0.0
 11
299.9108013465
 21
730.6254956281
 31
0.0
  0
LINE
  5
109
330
1F
100
AcDbEntity
  8
0
  6
Continuous
 62
     8
370
    15
100
AcDbLine
 10
291.087674792
 20
730.6254956281
 30
0.0
 11
295.4992380693
 21
730.6254956281
 31
0.0
  0
LINE
  5
10A
330
1F
100
AcDbEntity
  8
0
  6
Continuous
 62
     8
370
    15
100
AcDbLine
 10
434.4992366388
 20
730.6254956281
 30
0.0
 11
438.910799916
 21
730.6254956281
 31
0.0
  0
LINE
  5
10B
330
1F
100
AcDbEntity
  8
0
  6
Continuous
 62
     8
370
    15
100
AcDbLine
 10
430.0876733615
 20
730.6254956281
 30
0.0
 11
434.4992366388
 21
730.6254956281
 31
0.0
  0
LINE
  5
10C
330
1F
100
AcDbEntity
  8
0
  6
Continuous
 62
     8
370
    15
100
AcDbLine
 10
178.4992393806
 20
729.1415783917
 30
0.0
 11
144.4992449834
 21
729.1415783917
 31
0.0
  0
LINE
  5
10D
330
1F
100
AcDbEntity
  8
0
  6
Continuous
 62
     8
370
    15
100
AcDbLine
 10
212.4992412283
 20
729.1415783917
 30
0.0
 11
178.4992393806
 21
729.1415783917
 31
0.0
  0
LINE
  5
10E
330
1F
100
AcDbEntity
  8
0
  6
Continuous
 62
     8
370
    15
100
AcDbLine
 10
549.4992461755
 20
606.6415760076
 30
0.0
 11
549.4992461755
 21
589.6416160619
 31
0.0
  0
LINE
  5
10F
330
1F
100
AcDbEntity
  8
0
  6
Continuous
 62
     8
370
    15
100
AcDbLine
 10
549.4992461755
 20
589.6416160619
 30
0.0
 11
566.4992359235
 21
589.6416160619
 31
0.0
  0
SPLINE
  5
110
330
1F
100
AcDbEntity
  8
0
  6
Continuous
 62
     8
370
    15
100
AcDbSpline
210
0.0
220
0.0
230
1.0
 70
     8
 71
     3
 72
    10
 73
     6
 74
     0
 42
0.00000001
 43
0.00000001
 40
0.0
 40
0.0
 40
0.0
 40
0.0
 40
0.2649425006697717
 40
0.9951570158587485
 40
1.0
 40
1.0
 40
1.0
 40
1.0
 10
498.1992420508631
 20
144.1394391810485
 30
0.0
 10
498.2554240750811
 20
143.9809555763822
 30
0.0
 10
498.4664507522821
 20
143.3856714272423
 30
0.0
 10
498.7822445892346
 20
142.6853405578213
 30
0.0
 10
498.9978203539977
 20
142.1672233582709
 30
0.0
 10
498.9992406918772
 20
142.1638097023555
 30
0.0
  0
SPLINE
  5
111
330
1F
100
AcDbEntity
  8
0
  6
Continuous
 62
     8
370
    15
100
AcDbSpline
210
0.0
220
0.0
230
1.0
 70
     8
 71
     3
 72
    10
 73
     6
 74
     0
 42
0.00000001
 43
0.00000001
 40
0.0
 40
0.0
 40
0.0
 40
0.0
 40
0.00484204594524
 40
0.7350560674165657
 40
1.0
 40
1.0
 40
1.0
 40
1.0
 10
498.9992406918772
 20
164.7193658506461
 30
0.0
 10
498.9978203528098
 20
164.7159534388185
 30
0.0
 10
498.7822030577419
 20
164.197925719382
 30
0.0
 10
498.4664551850864
 20
163.4974983431794
 30
0.0
 10
498.2554252050745
 20
162.902216377224
 30
0.0
 10
498.1992420508631
 20
162.7437326466628
 30
0.0
  0
LINE
  5
112
330
1F
100
AcDbEntity
  8
0
  6
Continuous
 62
     8
370
    15
100
AcDbLine
 10
498.9992406919
 20
164.7193658506
 30
0.0
 11
498.9992406919
 21
161.4896211183
 31
0.0
  0
LINE
  5
113
330
1F
100
AcDbEntity
  8
0
  6
Continuous
 62
     8
370
    15
100
AcDbLine
 10
498.9992406919
 20
145.489622221
 30
0.0
 11
498.9992406919
 21
142.1638097024
 31
0.0
  0
LINE
  5
114
330
1F
100
AcDbEntity
  8
0
  6
Continuous
 62
     8
370
    15
100
AcDbLine
 10
498.9992406919
 20
142.1638097024
 30
0.0
 11
498.1992420509
 21
142.1638097024
 31
0.0
  0
LINE
  5
115
330
1F
100
AcDbEntity
  8
0
  6
Continuous
 62
     8
370
    15
100
AcDbLine
 10
498.1992420509
 20
164.7193658506
 30
0.0
 11
498.9992406919
 21
164.7193658506
 31
0.0
  0
LINE
  5
116
330
1F
100
AcDbEntity
  8
0
  6
Continuous
 62
     8
370
    15
100
AcDbLine
 10
508.5992392852
 20
135.941587702
 30
0.0
 11
508.5992392852
 21
170.9415841257
 31
0.0
  0
SPLINE
  5
117
330
1F
100
AcDbEntity
  8
0
  6
Continuous
 62
     8
370
    15
100
AcDbSpline
210
0.0
220
0.0
230
1.0
 70
     8
 71
     3
 72
     9
 73
     5
 74
     0
 42
0.00000001
 43
0.00000001
 40
0.0
 40
0.0
 40
0.0
 40
0.0
 40
0.0089248492348375
 40
1.0
 40
1.0
 40
1.0
 40
1.0
 10
498.9992406918772
 20
142.1638097023555
 30
0.0
 10
498.9967616880897
 20
142.1661493107672
 30
0.0
 10
498.7189974679599
 20
142.4282947375557
 30
0.0
 10
498.4579548765253
 20
142.6389216218839
 30
0.0
 10
498.1992420508631
 20
142.8476686930247
 30
0.0
  0
SPLINE
  5
118
330
1F
100
AcDbEntity
  8
0
  6
Continuous
 62
     8
370
    15
100
AcDbSpline
210
0.0
220
0.0
230
1.0
 70
     8
 71
     3
 72
     9
 73
     5
 74
     0
 42
0.00000001
 43
0.00000001
 40
0.0
 40
0.0
 40
0.0
 40
0.0
 40
0.9910768196802028
 40
1.0
 40
1.0
 40
1.0
 40
1.0
 10
498.1992420508632
 20
164.0355068599769
 30
0.0
 10
498.4579291283819
 20
164.2442998226
 30
0.0
 10
498.7189453002687
 20
164.4549726569121
 30
0.0
 10
498.99676168617
 20
164.7170274881334
 30
0.0
 10
498.9992406918772
 20
164.7193658506461
 30
0.0
  0
LINE
  5
119
330
1F
100
AcDbEntity
  8
0
  6
Continuous
 62
     8
370
    15
100
AcDbLine
 10
60.4992386653
 20
723.1415960347
 30
0.0
 11
58.793368633
 21
723.1415960347
 31
0.0
  0
LINE
  5
11A
330
1F
100
AcDbEntity
  8
0
  6
Continuous
 62
     8
370
    15
100
AcDbLine
 10
57.799237664
 20
723.1415960347
 30
0.0
 11
55.4992434337
 21
723.1415960347
 31
0.0
  0
LINE
  5
11B
330
1F
100
AcDbEntity
  8
0
  6
Continuous
 62
     8
370
    15
100
AcDbLine
 10
60.4992386653
 20
723.1415960347
 30
0.0
 11
60.4992386653
 21
724.1951677358
 31
0.0
  0
LINE
  5
11C
330
1F
100
AcDbEntity
  8
0
  6
Continuous
 62
     8
370
    15
100
AcDbLine
 10
60.4992386653
 20
724.4415733373
 30
0.0
 11
60.4992386653
 21
725.1415702855
 31
0.0
  0
LINE
  5
11D
330
1F
100
AcDbEntity
  8
0
  6
Continuous
 62
     8
370
    15
100
AcDbLine
 10
493.4992369964
 20
723.1415960347
 30
0.0
 11
493.4992369964
 21
724.1951677358
 31
0.0
  0
LINE
  5
11E
330
1F
100
AcDbEntity
  8
0
  6
Continuous
 62
     8
370
    15
100
AcDbLine
 10
493.4992369964
 20
724.4415733373
 30
0.0
 11
493.4992369964
 21
725.1415702855
 31
0.0
  0
LINE
  5
11F
330
1F
100
AcDbEntity
  8
0
  6
Continuous
 62
     8
370
    15
100
AcDbLine
 10
498.499232228
 20
723.1415960347
 30
0.0
 11
496.1992379977
 21
723.1415960347
 31
0.0
  0
LINE
  5
120
330
1F
100
AcDbEntity
  8
0
  6
Continuous
 62
     8
370
    15
100
AcDbLine
 10
495.2051070287
 20
723.1415960347
 30
0.0
 11
493.4992369964
 21
723.1415960347
 31
0.0
  0
LWPOLYLINE
  5
121
330
1F
100
AcDbEntity
  8
0
  6
Continuous
 62
     8
370
    15
100
AcDbPolyline
 90
        2
 70
   128
 43
0.0
 10
286.0850243597
 20
725.7273647344
 10
286.0850243597
 20
725.7273647344
  0
LINE
  5
122
330
1F
100
AcDbEntity
  8
0
  6
Continuous
 62
     8
370
    15
100
AcDbLine
 10
477.6992377593
 20
708.4594223058
 30
0.0
 11
75.7992443397
 21
708.4594223058
 31
0.0
  0
LINE
  5
123
330
1F
100
AcDbEntity
  8
0
  6
Continuous
 62
     8
370
    15
100
AcDbLine
 10
477.6992377593
 20
707.7876779592
 30
0.0
 11
75.7992443397
 21
707.7876779592
 31
0.0
  0
LINE
  5
124
330
1F
100
AcDbEntity
  8
0
  6
Continuous
 62
     8
370
    15
100
AcDbLine
 10
478.199231322
 20
81.4415876163
 30
0.0
 11
75.7992443397
 21
81.4415876163
 31
0.0
  0
LINE
  5
125
330
1F
100
AcDbEntity
  8
SLD-0
 62
     5
370
     0
100
AcDbLine
 10
527.4992378309
 20
674.6415876424
 30
0.0
 11
515.9224875211
 21
674.6415876424
 31
0.0
  0
LINE
  5
126
330
1F
100
AcDbEntity
  8
SLD-0
 62
     5
370
     0
100
AcDbLine
 10
508.4992378309
 20
589.6415876424
 30
0.0
 11
513.8215189425
 21
589.6415876424
 31
0.0
  0
LINE
  5
127
330
1F
100
AcDbEntity
  8
SLD-0
 62
     5
370
     0
100
AcDbLine
 10
509.5992378309
 20
153.4415876424
 30
0.0
 11
513.8215189425
 21
153.4415876424
 31
0.0
  0
LINE
  5
128
330
1F
100
AcDbEntity
  8
0
  6
Continuous
 62
     7
370
    15
100
AcDbLine
 10
527.4992313936
 20
1054.8094537041
 30
0.0
 11
498.499232228
 21
1054.8094537041
 31
0.0
  0
LINE
  5
129
330
1F
100
AcDbEntity
  8
0
  6
Continuous
 62
     7
370
    15
100
AcDbLine
 10
498.499232228
 20
1028.0594535104
 30
0.0
 11
527.4992313936
 21
1028.0594535104
 31
0.0
  0
CIRCLE
  5
12A
330
1F
100
AcDbEntity
  8
0
  6
Continuous
 62
     7
370
    15
100
AcDbCircle
 10
295.4992378309
 20
1067.9344530783
 30
0.0
 40
4.500000000000057
  0
CIRCLE
  5
12B
330
1F
100
AcDbEntity
  8
0
  6
Continuous
 62
     7
370
    15
100
AcDbCircle
 10
434.4992378309
 20
928.9344530783
 30
0.0
 40
4.5
  0
LINE
  5
12C
330
1F
100
AcDbEntity
  8
0
  6
Continuous
 62
     7
370
    15
100
AcDbLine
 10
498.499232228
 20
966.9481951675
 30
0.0
 11
499.9992427184
 21
966.9481951675
 31
0.0
  0
LINE
  5
12D
330
1F
100
AcDbEntity
  8
0
  6
Continuous
 62
     7
370
    15
100
AcDbLine
 10
498.499232228
 20
1026.969182112
 30
0.0
 11
499.9992427184
 21
1026.969182112
 31
0.0
  0
LINE
  5
12E
330
1F
100
AcDbEntity
  8
0
  6
Continuous
 62
     7
370
    15
100
AcDbLine
 10
508.4992375924
 20
929.4344548068
 30
0.0
 11
549.4992461755
 21
929.4344548068
 31
0.0
  0
LINE
  5
12F
330
1F
100
AcDbEntity
  8
0
  6
Continuous
 62
     7
370
    15
100
AcDbLine
 10
549.4992461755
 20
963.4344529292
 30
0.0
 11
508.4992375924
 21
963.4344529292
 31
0.0
  0
ARC
  5
130
330
1F
100
AcDbEntity
  8
0
  6
Continuous
 62
     7
370
    15
100
AcDbCircle
 10
508.5992378309
 20
1021.4344530783
 30
0.0
 40
1.0
100
AcDbArc
 50
0.0
 51
90.0
  0
ARC
  5
131
330
1F
100
AcDbEntity
  8
0
  6
Continuous
 62
     7
370
    15
100
AcDbCircle
 10
508.5992378309
 20
988.4344530783
 30
0.0
 40
1.0
100
AcDbArc
 50
270.0
 51
0.0
  0
LINE
  5
132
330
1F
100
AcDbEntity
  8
0
  6
Continuous
 62
     7
370
    15
100
AcDbLine
 10
506.4992335393
 20
987.4344531379
 30
0.0
 11
508.5992392852
 21
987.4344531379
 31
0.0
  0
LINE
  5
133
330
1F
100
AcDbEntity
  8
0
  6
Continuous
 62
     7
370
    15
100
AcDbLine
 10
508.5992392852
 20
1022.4344532869
 30
0.0
 11
498.9992406919
 21
1022.4344532869
 31
0.0
  0
ARC
  5
134
330
1F
100
AcDbEntity
  8
0
  6
Continuous
 62
     7
370
    15
100
AcDbCircle
 10
498.9992378309
 20
1023.4344530783
 30
0.0
 40
1.000000000000114
100
AcDbArc
 50
239.9999999999
 51
270.0
  0
LINE
  5
135
330
1F
100
AcDbEntity
  8
0
  6
Continuous
 62
     7
370
    15
100
AcDbLine
 10
498.499232228
 20
981.9344531677
 30
0.0
 11
504.4992443874
 21
981.9344531677
 31
0.0
  0
LINE
  5
136
330
1F
100
AcDbEntity
  8
0
  6
Continuous
 62
     7
370
    15
100
AcDbLine
 10
504.4992443874
 20
1014.9344529888
 30
0.0
 11
498.499232228
 21
1014.9344529888
 31
0.0
  0
LINE
  5
137
330
1F
100
AcDbEntity
  8
0
  6
Continuous
 62
     7
370
    15
100
AcDbLine
 10
506.4992335393
 20
1011.9344534284
 30
0.0
 11
504.4992443874
 21
1011.9344534284
 31
0.0
  0
LINE
  5
138
330
1F
100
AcDbEntity
  8
0
  6
Continuous
 62
     7
370
    15
100
AcDbLine
 10
504.4992443874
 20
984.9344527281
 30
0.0
 11
506.4992335393
 21
984.9344527281
 31
0.0
  0
LINE
  5
139
330
1F
100
AcDbEntity
  8
0
  6
Continuous
 62
     7
370
    15
100
AcDbLine
 10
527.4992313936
 20
1042.4327801845
 30
0.0
 11
527.4992313936
 21
1028.0594535104
 31
0.0
  0
LINE
  5
13A
330
1F
100
AcDbEntity
  8
0
  6
Continuous
 62
     7
370
    15
100
AcDbLine
 10
527.4992313936
 20
1054.8094537041
 30
0.0
 11
527.4992313936
 21
1042.4327801845
 31
0.0
  0
CIRCLE
  5
13B
330
1F
100
AcDbEntity
  8
0
  6
Continuous
 62
     7
370
    15
100
AcDbCircle
 10
295.4992378309
 20
1067.9344530783
 30
0.0
 40
4.411562959333651
  0
LINE
  5
13C
330
1F
100
AcDbEntity
  8
0
  6
Continuous
 62
     7
370
    15
100
AcDbLine
 10
297.9992375477
 20
1068.4344533763
 30
0.0
 11
297.9992375477
 21
1067.4344513497
 31
0.0
  0
LINE
  5
13D
330
1F
100
AcDbEntity
  8
0
  6
Continuous
 62
     7
370
    15
100
AcDbLine
 10
296.4992382332
 20
1068.4344533763
 30
0.0
 11
297.9992375477
 21
1068.4344533763
 31
0.0
  0
SPLINE
  5
13E
330
1F
100
AcDbEntity
  8
0
  6
Continuous
 62
     7
370
    15
100
AcDbSpline
210
0.0
220
0.0
230
1.0
 70
     8
 71
     3
 72
    12
 73
     8
 74
     0
 42
0.00000001
 43
0.00000001
 40
0.0
 40
0.0
 40
0.0
 40
0.0
 40
0.2118470159703072
 40
0.4238789999871119
 40
0.6319192571356385
 40
0.838144412583879
 40
1.0
 40
1.0
 40
1.0
 40
1.0
 10
295.9992372199066
 20
1068.934454389555
 30
0.0
 10
296.0044954600897
 20
1068.879420578643
 30
0.0
 10
296.0150165315349
 20
1068.769304905652
 30
0.0
 10
296.0985153869764
 20
1068.620776636915
 30
0.0
 10
296.2212669242494
 20
1068.508452022232
 30
0.0
 10
296.3620165764563
 20
1068.444558631251
 30
0.0
 10
296.4573273646773
 20
1068.437539769653
 30
0.0
 10
296.4992382331856
 20
1068.434453376276
 30
0.0
  0
LINE
  5
13F
330
1F
100
AcDbEntity
  8
0
  6
Continuous
 62
     7
370
    15
100
AcDbLine
 10
295.9992372199
 20
1070.4344499788
 30
0.0
 11
295.9992372199
 21
1068.9344543896
 31
0.0
  0
LINE
  5
140
330
1F
100
AcDbEntity
  8
0
  6
Continuous
 62
     7
370
    15
100
AcDbLine
 10
294.999237056
 20
1070.4344499788
 30
0.0
 11
295.9992372199
 21
1070.4344499788
 31
0.0
  0
LINE
  5
141
330
1F
100
AcDbEntity
  8
0
  6
Continuous
 62
     7
370
    15
100
AcDbLine
 10
294.999237056
 20
1068.9344543896
 30
0.0
 11
294.999237056
 21
1070.4344499788
 31
0.0
  0
LINE
  5
142
330
1F
100
AcDbEntity
  8
0
  6
Continuous
 62
     7
370
    15
100
AcDbLine
 10
292.9992385908
 20
1068.4344533763
 30
0.0
 11
294.4992379054
 21
1068.4344533763
 31
0.0
  0
LINE
  5
143
330
1F
100
AcDbEntity
  8
0
  6
Continuous
 62
     7
370
    15
100
AcDbLine
 10
292.9992385908
 20
1067.4344513497
 30
0.0
 11
292.9992385908
 21
1068.4344533763
 31
0.0
  0
LINE
  5
144
330
1F
100
AcDbEntity
  8
0
  6
Continuous
 62
     7
370
    15
100
AcDbLine
 10
294.4992379054
 20
1067.4344513497
 30
0.0
 11
292.9992385908
 21
1067.4344513497
 31
0.0
  0
LINE
  5
145
330
1F
100
AcDbEntity
  8
0
  6
Continuous
 62
     7
370
    15
100
AcDbLine
 10
294.999237056
 20
1065.4344547472
 30
0.0
 11
294.999237056
 21
1066.9344503364
 31
0.0
  0
LINE
  5
146
330
1F
100
AcDbEntity
  8
0
  6
Continuous
 62
     7
370
    15
100
AcDbLine
 10
295.9992372199
 20
1065.4344547472
 30
0.0
 11
294.999237056
 21
1065.4344547472
 31
0.0
  0
LINE
  5
147
330
1F
100
AcDbEntity
  8
0
  6
Continuous
 62
     7
370
    15
100
AcDbLine
 10
295.9992372199
 20
1066.9344503364
 30
0.0
 11
295.9992372199
 21
1065.4344547472
 31
0.0
  0
SPLINE
  5
148
330
1F
100
AcDbEntity
  8
0
  6
Continuous
 62
     7
370
    15
100
AcDbSpline
210
0.0
220
0.0
230
1.0
 70
     8
 71
     3
 72
    12
 73
     8
 74
     0
 42
0.00000001
 43
0.00000001
 40
0.0
 40
0.0
 40
0.0
 40
0.0
 40
0.2118444226600233
 40
0.4238797054125349
 40
0.6319133721809153
 40
0.8381417275893296
 40
1.0
 40
1.0
 40
1.0
 40
1.0
 10
296.4992382331856
 20
1067.434451349718
 30
0.0
 10
296.444205032975
 20
1067.429193820599
 30
0.0
 10
296.3340890506881
 20
1067.418674025618
 30
0.0
 10
296.1855625683035
 20
1067.335174488905
 30
0.0
 10
296.0732383805846
 20
1067.212423138188
 30
0.0
 10
296.0093446074544
 20
1067.071674004544
 30
0.0
 10
296.0023242659116
 20
1066.976361836755
 30
0.0
 10
295.9992372199066
 20
1066.934450336439
 30
0.0
  0
LINE
  5
149
330
1F
100
AcDbEntity
  8
0
  6
Continuous
 62
     7
370
    15
100
AcDbLine
 10
297.9992375477
 20
1067.4344513497
 30
0.0
 11
296.4992382332
 21
1067.4344513497
 31
0.0
  0
SPLINE
  5
14A
330
1F
100
AcDbEntity
  8
0
  6
Continuous
 62
     7
370
    15
100
AcDbSpline
210
0.0
220
0.0
230
1.0
 70
     8
 71
     3
 72
    12
 73
     8
 74
     0
 42
0.00000001
 43
0.00000001
 40
0.0
 40
0.0
 40
0.0
 40
0.0
 40
0.2118467123959905
 40
0.4238787780815396
 40
0.63191911536131
 40
0.8381443502416683
 40
1.0
 40
1.0
 40
1.0
 40
1.0
 10
294.9992370559938
 20
1066.934450336439
 30
0.0
 10
294.9939795886125
 20
1066.98948417142
 30
0.0
 10
294.9834600538783
 20
1067.099599992717
 30
0.0
 10
294.8999606208685
 20
1067.248128067588
 30
0.0
 10
294.7772092488113
 20
1067.360452709437
 30
0.0
 10
294.6364595556134
 20
1067.424346093678
 30
0.0
 10
294.5411487718904
 20
1067.431364956016
 30
0.0
 10
294.49923790536
 20
1067.434451349718
 30
0.0
  0
SPLINE
  5
14B
330
1F
100
AcDbEntity
  8
0
  6
Continuous
 62
     7
370
    15
100
AcDbSpline
210
0.0
220
0.0
230
1.0
 70
     8
 71
     3
 72
    12
 73
     8
 74
     0
 42
0.00000001
 43
0.00000001
 40
0.0
 40
0.0
 40
0.0
 40
0.0
 40
0.2118446235290015
 40
0.423880107331463
 40
0.631913971355497
 40
0.8381415741167699
 40
0.9999999999999999
 40
0.9999999999999999
 40
0.9999999999999999
 40
0.9999999999999999
 10
294.49923790536
 20
1068.434453376276
 30
0.0
 10
294.5542711194965
 20
1068.439710899278
 30
0.0
 10
294.6643871296477
 20
1068.45023068202
 30
0.0
 10
294.8129134042216
 20
1068.533730310009
 30
0.0
 10
294.9252381951303
 20
1068.656481135256
 30
0.0
 10
294.9891293037149
 20
1068.79723113734
 30
0.0
 10
294.9961498930674
 20
1068.892542941273
 30
0.0
 10
294.9992370559938
 20
1068.934454389555
 30
0.0
  0
CIRCLE
  5
14C
330
1F
100
AcDbEntity
  8
0
  6
Continuous
 62
     7
370
    15
100
AcDbCircle
 10
434.4992378309
 20
928.9344530783
 30
0.0
 40
4.411562959333651
  0
LINE
  5
14D
330
1F
100
AcDbEntity
  8
0
  6
Continuous
 62
     7
370
    15
100
AcDbLine
 10
436.9992342546
 20
929.4344548068
 30
0.0
 11
436.9992342546
 21
928.4344527802
 31
0.0
  0
LINE
  5
14E
330
1F
100
AcDbEntity
  8
0
  6
Continuous
 62
     7
370
    15
100
AcDbLine
 10
435.4992386653
 20
929.4344548068
 30
0.0
 11
436.9992342546
 21
929.4344548068
 31
0.0
  0
SPLINE
  5
14F
330
1F
100
AcDbEntity
  8
0
  6
Continuous
 62
     7
370
    15
100
AcDbSpline
210
0.0
220
0.0
230
1.0
 70
     8
 71
     3
 72
    12
 73
     8
 74
     0
 42
0.00000001
 43
0.00000001
 40
0.0
 40
0.0
 40
0.0
 40
0.0
 40
0.2118472211389747
 40
0.4238764136070763
 40
0.6319137586660768
 40
0.8381416450080867
 40
1.0
 40
1.0
 40
1.0
 40
1.0
 10
434.9992451026209
 20
929.9344558200663
 30
0.0
 10
435.0045029780365
 20
929.8794221820975
 30
0.0
 10
435.015023245248
 20
929.7693076336766
 30
0.0
 10
435.0985151400639
 20
929.6207781099741
 30
0.0
 10
435.2212645371754
 20
929.508451959615
 30
0.0
 10
435.3620152828027
 20
929.4445601512872
 30
0.0
 10
435.4573272068111
 20
929.4375412321396
 30
0.0
 10
435.4992386653192
 20
929.4344548067874
 30
0.0
  0
LINE
  5
150
330
1F
100
AcDbEntity
  8
0
  6
Continuous
 62
     7
370
    15
100
AcDbLine
 10
434.9992451026
 20
931.4344514093
 30
0.0
 11
434.9992451026
 21
929.9344558201
 31
0.0
  0
LINE
  5
151
330
1F
100
AcDbEntity
  8
0
  6
Continuous
 62
     7
370
    15
100
AcDbLine
 10
433.9992430761
 20
931.4344514093
 30
0.0
 11
434.9992451026
 21
931.4344514093
 31
0.0
  0
LINE
  5
152
330
1F
100
AcDbEntity
  8
0
  6
Continuous
 62
     7
370
    15
100
AcDbLine
 10
433.9992430761
 20
929.9344558201
 30
0.0
 11
433.9992430761
 21
931.4344514093
 31
0.0
  0
LINE
  5
153
330
1F
100
AcDbEntity
  8
0
  6
Continuous
 62
     7
370
    15
100
AcDbLine
 10
431.9992390229
 20
929.4344548068
 30
0.0
 11
433.4992346122
 21
929.4344548068
 31
0.0
  0
LINE
  5
154
330
1F
100
AcDbEntity
  8
0
  6
Continuous
 62
     7
370
    15
100
AcDbLine
 10
431.9992390229
 20
928.4344527802
 30
0.0
 11
431.9992390229
 21
929.4344548068
 31
0.0
  0
LINE
  5
155
330
1F
100
AcDbEntity
  8
0
  6
Continuous
 62
     7
370
    15
100
AcDbLine
 10
433.4992346122
 20
928.4344527802
 30
0.0
 11
431.9992390229
 21
928.4344527802
 31
0.0
  0
LINE
  5
156
330
1F
100
AcDbEntity
  8
0
  6
Continuous
 62
     7
370
    15
100
AcDbLine
 10
433.9992430761
 20
926.4344561777
 30
0.0
 11
433.9992430761
 21
927.934451767
 31
0.0
  0
LINE
  5
157
330
1F
100
AcDbEntity
  8
0
  6
Continuous
 62
     7
370
    15
100
AcDbLine
 10
434.9992451026
 20
926.4344561777
 30
0.0
 11
433.9992430761
 21
926.4344561777
 31
0.0
  0
LINE
  5
158
330
1F
100
AcDbEntity
  8
0
  6
Continuous
 62
     7
370
    15
100
AcDbLine
 10
434.9992451026
 20
927.934451767
 30
0.0
 11
434.9992451026
 21
926.4344561777
 31
0.0
  0
SPLINE
  5
159
330
1F
100
AcDbEntity
  8
0
  6
Continuous
 62
     7
370
    15
100
AcDbSpline
210
0.0
220
0.0
230
1.0
 70
     8
 71
     3
 72
    12
 73
     8
 74
     0
 42
0.00000001
 43
0.00000001
 40
0.0
 40
0.0
 40
0.0
 40
0.0
 40
0.2118472164004165
 40
0.4238892060235018
 40
0.6319137668993596
 40
0.8381416486285036
 40
1.0
 40
1.0
 40
1.0
 40
1.0
 10
435.4992386653192
 20
928.4344527802294
 30
0.0
 10
435.4442051840894
 20
928.4291948298153
 30
0.0
 10
435.3340876236151
 20
928.4186740948054
 30
0.0
 10
435.185556227729
 20
928.3351812682621
 30
0.0
 10
435.0732433318346
 20
928.2124206179027
 30
0.0
 10
435.0093499792373
 20
928.071675553826
 30
0.0
 10
435.0023313850699
 20
927.9763633489599
 30
0.0
 10
434.9992451026209
 20
927.9344517669505
 30
0.0
  0
LINE
  5
15A
330
1F
100
AcDbEntity
  8
0
  6
Continuous
 62
     7
370
    15
100
AcDbLine
 10
436.9992342546
 20
928.4344527802
 30
0.0
 11
435.4992386653
 21
928.4344527802
 31
0.0
  0
SPLINE
  5
15B
330
1F
100
AcDbEntity
  8
0
  6
Continuous
 62
     7
370
    15
100
AcDbSpline
210
0.0
220
0.0
230
1.0
 70
     8
 71
     3
 72
    12
 73
     8
 74
     0
 42
0.00000001
 43
0.00000001
 40
0.0
 40
0.0
 40
0.0
 40
0.0
 40
0.2118456093021815
 40
0.423885990349459
 40
0.6319089731262022
 40
0.8381428765052501
 40
1.0
 40
1.0
 40
1.0
 40
1.0
 10
433.4992346122035
 20
929.4344548067872
 30
0.0
 10
433.5542679820315
 20
929.4397128061362
 30
0.0
 10
433.6643853195995
 20
929.4502336390611
 30
0.0
 10
433.8129183778921
 20
929.5337257353674
 30
0.0
 10
433.9252264488047
 20
929.6564905897335
 30
0.0
 10
433.9891411171602
 20
929.7972287058154
 30
0.0
 10
433.9961577289238
 20
929.8925438217648
 30
0.0
 10
433.999243076063
 20
929.9344558200663
 30
0.0
  0
SPLINE
  5
15C
330
1F
100
AcDbEntity
  8
0
  6
Continuous
 62
     7
370
    15
100
AcDbSpline
210
0.0
220
0.0
230
1.0
 70
     8
 71
     3
 72
    12
 73
     8
 74
     0
 42
0.00000001
 43
0.00000001
 40
0.0
 40
0.0
 40
0.0
 40
0.0
 40
0.2118453102611149
 40
0.4238816102851343
 40
0.6319170788316437
 40
0.8381431049826162
 40
0.9999999999999999
 40
0.9999999999999999
 40
0.9999999999999999
 40
0.9999999999999999
 10
433.999243076063
 20
927.9344517669505
 30
0.0
 10
433.993986420249
 20
927.9894860824722
 30
0.0
 10
433.9834683694676
 20
928.099604329865
 30
0.0
 10
433.8999556401725
 20
928.2481255302478
 30
0.0
 10
433.7772098666981
 20
928.3604562424526
 30
0.0
 10
433.6364577833866
 20
928.4243473203295
 30
0.0
 10
433.5411460061651
 20
928.431366319631
 30
0.0
 10
433.4992346122034
 20
928.4344527802294
 30
0.0
  0
ARC
  5
15D
330
1F
100
AcDbEntity
  8
0
  6
Continuous
 62
     7
370
    15
100
AcDbCircle
 10
440.4992378309
 20
1077.4344530783
 30
0.0
 40
4.0
100
AcDbArc
 50
24.3642909168
 51
90.0
  0
LINE
  5
15E
330
1F
100
AcDbEntity
  8
0
  6
Continuous
 62
     7
370
    15
100
AcDbLine
 10
443.6992433622
 20
919.7344545207
 30
0.0
 11
443.6992433622
 21
1077.1344516358
 31
0.0
  0
LINE
  5
15F
330
1F
100
AcDbEntity
  8
0
  6
Continuous
 62
     7
370
    15
100
AcDbLine
 10
286.2992378651
 20
919.7344545207
 30
0.0
 11
443.6992433622
 21
919.7344545207
 31
0.0
  0
LINE
  5
160
330
1F
100
AcDbEntity
  8
0
  6
Continuous
 62
     7
370
    15
100
AcDbLine
 10
286.2992378651
 20
1077.1344516358
 30
0.0
 11
286.2992378651
 21
919.7344545207
 31
0.0
  0
LINE
  5
161
330
1F
100
AcDbEntity
  8
0
  6
Continuous
 62
     7
370
    15
100
AcDbLine
 10
443.6992433622
 20
1077.1344516358
 30
0.0
 11
286.2992378651
 21
1077.1344516358
 31
0.0
  0
LINE
  5
162
330
1F
100
AcDbEntity
  8
0
  6
Continuous
 62
     7
370
    15
100
AcDbLine
 10
443.6992433622
 20
919.7344545207
 30
0.0
 11
445.6992325141
 21
919.7344545207
 31
0.0
  0
LINE
  5
163
330
1F
100
AcDbEntity
  8
0
  6
Continuous
 62
     7
370
    15
100
AcDbLine
 10
445.6992325141
 20
1077.1344516358
 30
0.0
 11
443.6992433622
 21
1077.1344516358
 31
0.0
  0
LINE
  5
164
330
1F
100
AcDbEntity
  8
0
  6
Continuous
 62
     7
370
    15
100
AcDbLine
 10
445.6992325141
 20
1077.1344516358
 30
0.0
 11
445.6992325141
 21
919.7344545207
 31
0.0
  0
ARC
  5
165
330
1F
100
AcDbEntity
  8
0
  6
Continuous
 62
     7
370
    15
100
AcDbCircle
 10
443.6992378309
 20
1077.1344530783
 30
0.0
 40
2.0
100
AcDbArc
 50
0.0
 51
90.0
  0
LINE
  5
166
330
1F
100
AcDbEntity
  8
0
  6
Continuous
 62
     7
370
    15
100
AcDbLine
 10
443.6992433622
 20
1077.1344516358
 30
0.0
 11
443.6992433622
 21
1079.1344556889
 31
0.0
  0
LINE
  5
167
330
1F
100
AcDbEntity
  8
0
  6
Continuous
 62
     7
370
    15
100
AcDbLine
 10
286.2992378651
 20
1079.1344556889
 30
0.0
 11
286.2992378651
 21
1077.1344516358
 31
0.0
  0
LINE
  5
168
330
1F
100
AcDbEntity
  8
0
  6
Continuous
 62
     7
370
    15
100
AcDbLine
 10
286.2992378651
 20
1079.1344556889
 30
0.0
 11
443.6992433622
 21
1079.1344556889
 31
0.0
  0
LINE
  5
169
330
1F
100
AcDbEntity
  8
0
  6
Continuous
 62
     7
370
    15
100
AcDbLine
 10
443.6992433622
 20
917.7344504676
 30
0.0
 11
443.6992433622
 21
919.7344545207
 31
0.0
  0
ARC
  5
16A
330
1F
100
AcDbEntity
  8
0
  6
Continuous
 62
     7
370
    15
100
AcDbCircle
 10
443.6992378309
 20
919.7344530783
 30
0.0
 40
2.0
100
AcDbArc
 50
270.0
 51
0.0
  0
LINE
  5
16B
330
1F
100
AcDbEntity
  8
0
  6
Continuous
 62
     7
370
    15
100
AcDbLine
 10
286.2992378651
 20
919.7344545207
 30
0.0
 11
286.2992378651
 21
917.7344504676
 31
0.0
  0
LINE
  5
16C
330
1F
100
AcDbEntity
  8
0
  6
Continuous
 62
     7
370
    15
100
AcDbLine
 10
443.6992433622
 20
917.7344504676
 30
0.0
 11
286.2992378651
 21
917.7344504676
 31
0.0
  0
ARC
  5
16D
330
1F
100
AcDbEntity
  8
0
  6
Continuous
 62
     7
370
    15
100
AcDbCircle
 10
286.2992378309
 20
1077.1344530783
 30
0.0
 40
2.0
100
AcDbArc
 50
90.0
 51
180.0
  0
LINE
  5
16E
330
1F
100
AcDbEntity
  8
0
  6
Continuous
 62
     7
370
    15
100
AcDbLine
 10
286.2992378651
 20
1077.1344516358
 30
0.0
 11
284.299238003
 21
1077.1344516358
 31
0.0
  0
LINE
  5
16F
330
1F
100
AcDbEntity
  8
0
  6
Continuous
 62
     7
370
    15
100
AcDbLine
 10
284.299238003
 20
919.7344545207
 30
0.0
 11
286.2992378651
 21
919.7344545207
 31
0.0
  0
LINE
  5
170
330
1F
100
AcDbEntity
  8
0
  6
Continuous
 62
     7
370
    15
100
AcDbLine
 10
284.299238003
 20
919.7344545207
 30
0.0
 11
284.299238003
 21
1077.1344516358
 31
0.0
  0
ARC
  5
171
330
1F
100
AcDbEntity
  8
0
  6
Continuous
 62
     7
370
    15
100
AcDbCircle
 10
286.2992378309
 20
919.7344530783
 30
0.0
 40
2.0
100
AcDbArc
 50
180.0
 51
270.0
  0
CIRCLE
  5
172
330
1F
100
AcDbEntity
  8
0
  6
Continuous
 62
     7
370
    15
100
AcDbCircle
 10
178.4992378309
 20
1043.4344530783
 30
0.0
 40
31.50000000000023
  0
CIRCLE
  5
173
330
1F
100
AcDbEntity
  8
0
  6
Continuous
 62
     7
370
    15
100
AcDbCircle
 10
178.4992378309
 20
1043.4344530783
 30
0.0
 40
34.00000000000011
  0
LINE
  5
174
330
1F
100
AcDbEntity
  8
0
  6
Continuous
 62
     7
370
    15
100
AcDbLine
 10
499.9992427184
 20
968.0199909887
 30
0.0
 11
499.9992427184
 21
981.9344531677
 31
0.0
  0
LINE
  5
175
330
1F
100
AcDbEntity
  8
0
  6
Continuous
 62
     7
370
    15
100
AcDbLine
 10
499.9992427184
 20
966.9481951675
 30
0.0
 11
499.9992427184
 21
968.0199909887
 31
0.0
  0
LINE
  5
176
330
1F
100
AcDbEntity
  8
0
  6
Continuous
 62
     7
370
    15
100
AcDbLine
 10
506.9992420032
 20
978.6872293732
 30
0.0
 11
499.9992427184
 21
978.6872293732
 31
0.0
  0
LINE
  5
177
330
1F
100
AcDbEntity
  8
0
  6
Continuous
 62
     7
370
    15
100
AcDbLine
 10
506.9992420032
 20
978.6872293732
 30
0.0
 11
506.9992420032
 21
971.18167653
 31
0.0
  0
LINE
  5
178
330
1F
100
AcDbEntity
  8
0
  6
Continuous
 62
     7
370
    15
100
AcDbLine
 10
506.9992420032
 20
971.18167653
 30
0.0
 11
499.9992427184
 21
971.18167653
 31
0.0
  0
LINE
  5
179
330
1F
100
AcDbEntity
  8
0
  6
Continuous
 62
     7
370
    15
100
AcDbLine
 10
506.9992420032
 20
982.4400067261
 30
0.0
 11
504.4992443874
 21
982.4400067261
 31
0.0
  0
LINE
  5
17A
330
1F
100
AcDbEntity
  8
0
  6
Continuous
 62
     7
370
    15
100
AcDbLine
 10
506.9992420032
 20
982.4400067261
 30
0.0
 11
506.9992420032
 21
978.6872293732
 31
0.0
  0
LINE
  5
17B
330
1F
100
AcDbEntity
  8
0
  6
Continuous
 62
     7
370
    15
100
AcDbLine
 10
506.9992420032
 20
967.4288991771
 30
0.0
 11
499.9992427184
 21
967.4288991771
 31
0.0
  0
LINE
  5
17C
330
1F
100
AcDbEntity
  8
0
  6
Continuous
 62
     7
370
    15
100
AcDbLine
 10
506.9992420032
 20
971.18167653
 30
0.0
 11
506.9992420032
 21
967.4288991771
 31
0.0
  0
LINE
  5
17D
330
1F
100
AcDbEntity
  8
0
  6
Continuous
 62
     7
370
    15
100
AcDbLine
 10
499.9992427184
 20
1026.969182112
 30
0.0
 11
499.9992427184
 21
1028.0594535104
 31
0.0
  0
LINE
  5
17E
330
1F
100
AcDbEntity
  8
0
  6
Continuous
 62
     7
370
    15
100
AcDbLine
 10
506.9992420032
 20
1027.4288996986
 30
0.0
 11
499.9992427184
 21
1027.4288996986
 31
0.0
  0
LINE
  5
17F
330
1F
100
AcDbEntity
  8
0
  6
Continuous
 62
     7
370
    15
100
AcDbLine
 10
506.9992420032
 20
1028.0594535104
 30
0.0
 11
506.9992420032
 21
1027.4288996986
 31
0.0
  0
LINE
  5
180
330
1F
100
AcDbEntity
  8
0
  6
Continuous
 62
     7
370
    15
100
AcDbLine
 10
508.4992375924
 20
966.4344515583
 30
0.0
 11
498.499232228
 21
966.4344515583
 31
0.0
  0
LINE
  5
181
330
1F
100
AcDbEntity
  8
0
  6
Continuous
 62
     7
370
    15
100
AcDbLine
 10
508.4992375924
 20
946.4344520054
 30
0.0
 11
498.499232228
 21
946.4344520054
 31
0.0
  0
LINE
  5
182
330
1F
100
AcDbEntity
  8
0
  6
Continuous
 62
     7
370
    15
100
AcDbLine
 10
508.4992375924
 20
966.4344515583
 30
0.0
 11
508.4992375924
 21
946.4344520054
 31
0.0
  0
LINE
  5
183
330
1F
100
AcDbEntity
  8
0
  6
Continuous
 62
     7
370
    15
100
AcDbLine
 10
508.4992375924
 20
926.4344561777
 30
0.0
 11
498.499232228
 21
926.4344561777
 31
0.0
  0
LINE
  5
184
330
1F
100
AcDbEntity
  8
0
  6
Continuous
 62
     7
370
    15
100
AcDbLine
 10
508.4992375924
 20
946.4344520054
 30
0.0
 11
508.4992375924
 21
926.4344561777
 31
0.0
  0
ARC
  5
185
330
1F
100
AcDbEntity
  8
0
  6
Continuous
 62
     7
370
    15
100
AcDbCircle
 10
549.4992378309
 20
946.4344530783
 30
0.0
 40
17.0
100
AcDbArc
 50
270.0
 51
90.0
  0
LINE
  5
186
330
1F
100
AcDbEntity
  8
0
  6
Continuous
 62
     7
370
    15
100
AcDbLine
 10
549.4992461755
 20
963.4344529292
 30
0.0
 11
549.4992461755
 21
929.4344548068
 31
0.0
  0
ARC
  5
187
330
1F
100
AcDbEntity
  8
0
  6
Continuous
 62
     7
370
    15
100
AcDbCircle
 10
549.4992378309
 20
946.4344530783
 30
0.0
 40
21.00000000000004
100
AcDbArc
 50
234.0494323804
 51
125.9505676196
  0
LINE
  5
188
330
1F
100
AcDbEntity
  8
0
  6
Continuous
 62
     7
370
    15
100
AcDbLine
 10
509.5992413118
 20
1021.434453123
 30
0.0
 11
509.5992413118
 21
988.4344533018
 31
0.0
  0
LINE
  5
189
330
1F
100
AcDbEntity
  8
0
  6
Continuous
 62
     7
370
    15
100
AcDbLine
 10
504.4992443874
 20
1014.9344529888
 30
0.0
 11
504.4992443874
 21
981.9344531677
 31
0.0
  0
LINE
  5
18A
330
1F
100
AcDbEntity
  8
0
  6
Continuous
 62
     7
370
    15
100
AcDbLine
 10
506.4992335393
 20
1011.9344534284
 30
0.0
 11
506.4992335393
 21
984.9344527281
 31
0.0
  0
SPLINE
  5
18B
330
1F
100
AcDbEntity
  8
0
  6
Continuous
 62
     7
370
    15
100
AcDbSpline
210
0.0
220
0.0
230
1.0
 70
     8
 71
     3
 72
     9
 73
     5
 74
     0
 42
0.00000001
 43
0.00000001
 40
0.0
 40
0.0
 40
0.0
 40
0.0
 40
0.0001021641332328
 40
1.0
 40
1.0
 40
1.0
 40
1.0
 10
290.0850240840681
 20
1080.848662920934
 30
0.0
 10
290.085004526314
 20
1080.848667888164
 30
0.0
 10
289.893569886069
 20
1080.89728798248
 30
0.0
 10
289.696393879436
 20
1080.895304740448
 30
0.0
 10
289.4992380171187
 20
1080.893321701032
 30
0.0
  0
LINE
  5
18C
330
1F
100
AcDbEntity
  8
0
  6
Continuous
 62
     7
370
    15
100
AcDbLine
 10
439.9134543493
 20
1080.8486629209
 30
0.0
 11
290.0850240841
 21
1080.8486629209
 31
0.0
  0
SPLINE
  5
18D
330
1F
100
AcDbEntity
  8
0
  6
Continuous
 62
     7
370
    15
100
AcDbSpline
210
0.0
220
0.0
230
1.0
 70
     8
 71
     3
 72
     9
 73
     5
 74
     0
 42
0.00000001
 43
0.00000001
 40
0.0
 40
0.0
 40
0.0
 40
0.0
 40
0.9998963106198673
 40
1.0
 40
1.0
 40
1.0
 40
1.0
 10
440.4992338969477
 20
1080.893321701032
 30
0.0
 10
440.3021705922687
 20
1080.894947169271
 30
0.0
 10
440.1050868520987
 20
1080.89657280607
 30
0.0
 10
439.9134742174517
 20
1080.848667888166
 30
0.0
 10
439.9134543492563
 20
1080.848662920934
 30
0.0
  0
CIRCLE
  5
18E
330
1F
100
AcDbEntity
  8
0
  6
Continuous
 62
     7
370
    15
100
AcDbCircle
 10
178.4992378309
 20
1043.4344530783
 30
0.0
 40
34.99999999999977
  0
LWPOLYLINE
  5
18F
330
1F
100
AcDbEntity
  8
0
  6
Continuous
 62
     7
370
    15
100
AcDbPolyline
 90
        9
 70
   128
 43
0.0
 10
289.3295836403
 20
1082.2150248966
 10
289.3527614652
 20
1082.0344526253
 10
289.3757465064
 20
1081.8553853712
 10
289.3983487739
 20
1081.6793057999
 10
289.4203792094
 20
1081.5076742253
 10
289.441656205
 20
1081.3419137082
 10
289.4620028093
 20
1081.183402606
 10
289.4812495216
 20
1081.0334596715
 10
289.4992380171
 20
1080.893321701
  0
LWPOLYLINE
  5
190
330
1F
100
AcDbEntity
  8
0
  6
Continuous
 62
     7
370
    15
100
AcDbPolyline
 90
        9
 70
   128
 43
0.0
 10
440.6688985183
 20
1082.2150248966
 10
440.6457123115
 20
1082.0344526253
 10
440.6227347209
 20
1081.8553853712
 10
440.6001296594
 20
1081.6793057999
 10
440.578090842
 20
1081.5076742253
 10
440.556826885
 20
1081.3419137082
 10
440.5364718988
 20
1081.183402606
 10
440.5172195985
 20
1081.0334596715
 10
440.4992338969
 20
1080.893321701
  0
SPLINE
  5
191
330
1F
100
AcDbEntity
  8
0
  6
Continuous
 62
     7
370
    15
100
AcDbSpline
210
0.0
220
0.0
230
1.0
 70
     8
 71
     3
 72
    17
 73
    13
 74
     0
 42
0.00000001
 43
0.00000001
 40
0.0
 40
0.0
 40
0.0
 40
0.0
 40
0.0216506885020969
 40
0.0433794769733725
 40
0.0867764029450592
 40
0.3105937733850721
 40
0.655130136673105
 40
0.7241407558093074
 40
0.7932813036507963
 40
0.8623524984349482
 40
0.9312192739783701
 40
0.9999999999999999
 40
0.9999999999999999
 40
0.9999999999999999
 40
0.9999999999999999
 10
289.3295836403139
 20
1082.215024896604
 30
0.0
 10
290.4212163492779
 20
1082.277150248943
 30
0.0
 10
292.608419585669
 20
1082.401625056798
 30
0.0
 10
296.9865621537201
 20
1082.184954959139
 30
0.0
 10
311.5689593566609
 20
1082.412961819048
 30
0.0
 10
342.439279810804
 20
1082.226397375299
 30
0.0
 10
374.604819487073
 20
1082.029614671297
 30
0.0
 10
398.9622802390381
 20
1082.415892919082
 30
0.0
 10
409.4092970345891
 20
1082.910053234009
 30
0.0
 10
419.852336647098
 20
1083.244251782199
 30
0.0
 10
430.2962003138266
 20
1083.240603995049
 30
0.0
 10
437.2127737351366
 20
1082.556742092011
 30
0.0
 10
440.6688985183008
 20
1082.215024896604
 30
0.0
  0
LINE
  5
192
330
1F
100
AcDbEntity
  8
0
  6
Continuous
 62
     7
370
    15
100
AcDbLine
 10
493.4992369964
 20
1136.4344496212
 30
0.0
 11
60.4992386653
 21
1136.4344496212
 31
0.0
  0
LINE
  5
193
330
1F
100
AcDbEntity
  8
0
  6
Continuous
 62
     7
370
    15
100
AcDbLine
 10
75.7992443397
 20
1138.4344536743
 30
0.0
 11
478.199231322
 21
1138.4344536743
 31
0.0
  0
LINE
  5
194
330
1F
100
AcDbEntity
  8
0
  6
Continuous
 62
     7
370
    15
100
AcDbLine
 10
496.4992430761
 20
863.4344477138
 30
0.0
 11
496.4992430761
 21
1133.4344584427
 31
0.0
  0
LINE
  5
195
330
1F
100
AcDbEntity
  8
0
  6
Continuous
 62
     7
370
    15
100
AcDbLine
 10
496.4992430761
 20
1133.4344584427
 30
0.0
 11
498.499232228
 21
1133.4344584427
 31
0.0
  0
LINE
  5
196
330
1F
100
AcDbEntity
  8
0
  6
Continuous
 62
     7
370
    15
100
AcDbLine
 10
498.499232228
 20
1133.4344584427
 30
0.0
 11
498.499232228
 21
863.4344477138
 31
0.0
  0
LINE
  5
197
330
1F
100
AcDbEntity
  8
0
  6
Continuous
 62
     7
370
    15
100
AcDbLine
 10
496.4992430761
 20
863.4344477138
 30
0.0
 11
498.499232228
 21
863.4344477138
 31
0.0
  0
ARC
  5
198
330
1F
100
AcDbEntity
  8
0
  6
Continuous
 62
     7
370
    15
100
AcDbCircle
 10
493.4992378309
 20
1133.4344530783
 30
0.0
 40
3.0
100
AcDbArc
 50
0.0
 51
90.0
  0
ARC
  5
199
330
1F
100
AcDbEntity
  8
0
  6
Continuous
 62
     7
370
    15
100
AcDbCircle
 10
493.4992378309
 20
863.4344530783
 30
0.0
 40
3.0
100
AcDbArc
 50
270.0
 51
0.0
  0
LINE
  5
19A
330
1F
100
AcDbEntity
  8
0
  6
Continuous
 62
     7
370
    15
100
AcDbLine
 10
60.4992386653
 20
860.4344565353
 30
0.0
 11
493.4992369964
 21
860.4344565353
 31
0.0
  0
ARC
  5
19B
330
1F
100
AcDbEntity
  8
0
  6
Continuous
 62
     7
370
    15
100
AcDbCircle
 10
60.4992378309
 20
863.4344530783
 30
0.0
 40
3.0
100
AcDbArc
 50
180.0
 51
270.0
  0
LINE
  5
19C
330
1F
100
AcDbEntity
  8
0
  6
Continuous
 62
     7
370
    15
100
AcDbLine
 10
57.4992325856
 20
1133.4344584427
 30
0.0
 11
57.4992325856
 21
863.4344477138
 31
0.0
  0
ARC
  5
19D
330
1F
100
AcDbEntity
  8
0
  6
Continuous
 62
     7
370
    15
100
AcDbCircle
 10
60.4992378309
 20
1133.4344530783
 30
0.0
 40
3.0
100
AcDbArc
 50
90.0
 51
180.0
  0
ARC
  5
19E
330
1F
100
AcDbEntity
  8
0
  6
Continuous
 62
     7
370
    15
100
AcDbCircle
 10
493.4992378309
 20
1133.4344530783
 30
0.0
 40
5.000000000000197
100
AcDbArc
 50
0.0
 51
57.3163611537
  0
ARC
  5
19F
330
1F
100
AcDbEntity
  8
0
  6
Continuous
 62
     7
370
    15
100
AcDbCircle
 10
493.4992378309
 20
863.4344530783
 30
0.0
 40
5.000000000000102
100
AcDbArc
 50
302.6836388463
 51
0.0
  0
LWPOLYLINE
  5
1A0
330
1F
100
AcDbEntity
  8
0
  6
Continuous
 62
     7
370
    15
100
AcDbPolyline
 90
        3
 70
   128
 43
0.0
 10
495.2051070287
 20
858.7344575605
 10
494.4746968105
 20
858.5305202684
 10
493.4992369964
 20
858.4344524822
  0
LINE
  5
1A1
330
1F
100
AcDbEntity
  8
0
  6
Continuous
 62
     7
370
    15
100
AcDbLine
 10
493.4992369964
 20
858.4344524822
 30
0.0
 11
60.4992386653
 21
858.4344524822
 31
0.0
  0
LINE
  5
1A2
330
1F
100
AcDbEntity
  8
0
  6
Continuous
 62
     7
370
    15
100
AcDbLine
 10
55.4992434337
 20
1133.4344584427
 30
0.0
 11
57.4992325856
 21
1133.4344584427
 31
0.0
  0
ARC
  5
1A3
330
1F
100
AcDbEntity
  8
0
  6
Continuous
 62
     7
370
    15
100
AcDbCircle
 10
60.4992378309
 20
1133.4344530783
 30
0.0
 40
5.000000000000183
100
AcDbArc
 50
122.6836388463
 51
180.0
  0
LINE
  5
1A4
330
1F
100
AcDbEntity
  8
0
  6
Continuous
 62
     7
370
    15
100
AcDbLine
 10
55.4992434337
 20
863.4344477138
 30
0.0
 11
55.4992434337
 21
1133.4344584427
 31
0.0
  0
LINE
  5
1A5
330
1F
100
AcDbEntity
  8
0
  6
Continuous
 62
     7
370
    15
100
AcDbLine
 10
55.4992434337
 20
863.4344477138
 30
0.0
 11
57.4992325856
 21
863.4344477138
 31
0.0
  0
LWPOLYLINE
  5
1A6
330
1F
100
AcDbEntity
  8
0
  6
Continuous
 62
     7
370
    15
100
AcDbPolyline
 90
        3
 70
   128
 43
0.0
 10
60.4992386653
 20
858.4344524822
 10
59.5237788512
 20
858.5305202684
 10
58.793368633
 20
858.7344575605
  0
ARC
  5
1A7
330
1F
100
AcDbEntity
  8
0
  6
Continuous
 62
     7
370
    15
100
AcDbCircle
 10
60.4992378309
 20
863.4344530783
 30
0.0
 40
5.0
100
AcDbArc
 50
180.0
 51
237.3163611537
  0
LINE
  5
1A8
330
1F
100
AcDbEntity
  8
0
  6
Continuous
 62
     7
370
    15
100
AcDbLine
 10
75.7992443397
 20
858.7344575605
 30
0.0
 11
75.7992443397
 21
858.914582797
 31
0.0
  0
LINE
  5
1A9
330
1F
100
AcDbEntity
  8
0
  6
Continuous
 62
     7
370
    15
100
AcDbLine
 10
57.799237664
 20
858.7344575605
 30
0.0
 11
75.7992443397
 21
858.7344575605
 31
0.0
  0
LINE
  5
1AA
330
1F
100
AcDbEntity
  8
0
  6
Continuous
 62
     7
370
    15
100
AcDbLine
 10
57.799237664
 20
858.7344575605
 30
0.0
 11
57.799237664
 21
859.8096508465
 31
0.0
  0
LINE
  5
1AB
330
1F
100
AcDbEntity
  8
0
  6
Continuous
 62
     7
370
    15
100
AcDbLine
 10
57.799237664
 20
1137.05925531
 30
0.0
 11
57.799237664
 21
1138.7344587526
 31
0.0
  0
LINE
  5
1AC
330
1F
100
AcDbEntity
  8
0
  6
Continuous
 62
     7
370
    15
100
AcDbLine
 10
57.799237664
 20
1138.7344587526
 30
0.0
 11
75.7992443397
 21
1138.7344587526
 31
0.0
  0
LINE
  5
1AD
330
1F
100
AcDbEntity
  8
0
  6
Continuous
 62
     7
370
    15
100
AcDbLine
 10
75.7992443397
 20
1137.9543233595
 30
0.0
 11
75.7992443397
 21
1138.7344587526
 31
0.0
  0
LINE
  5
1AE
330
1F
100
AcDbEntity
  8
0
  6
Continuous
 62
     7
370
    15
100
AcDbLine
 10
75.0992324903
 20
1137.9543233595
 30
0.0
 11
75.0992324903
 21
1138.0344469032
 31
0.0
  0
LINE
  5
1AF
330
1F
100
AcDbEntity
  8
0
  6
Continuous
 62
     7
370
    15
100
AcDbLine
 10
58.4992346122
 20
1138.0344469032
 30
0.0
 11
75.0992324903
 21
1138.0344469032
 31
0.0
  0
LINE
  5
1B0
330
1F
100
AcDbEntity
  8
0
  6
Continuous
 62
     7
370
    15
100
AcDbLine
 10
58.4992346122
 20
1137.4877531013
 30
0.0
 11
58.4992346122
 21
1138.0344469032
 31
0.0
  0
LINE
  5
1B1
330
1F
100
AcDbEntity
  8
0
  6
Continuous
 62
     7
370
    15
100
AcDbLine
 10
55.7992336108
 20
858.7344575605
 30
0.0
 11
55.7992336108
 21
861.7285776815
 31
0.0
  0
LINE
  5
1B2
330
1F
100
AcDbEntity
  8
0
  6
Continuous
 62
     7
370
    15
100
AcDbLine
 10
55.7992336108
 20
1135.140328475
 30
0.0
 11
55.7992336108
 21
1138.7344587526
 31
0.0
  0
LINE
  5
1B3
330
1F
100
AcDbEntity
  8
0
  6
Continuous
 62
     7
370
    15
100
AcDbLine
 10
57.799237664
 20
858.7344575605
 30
0.0
 11
55.7992336108
 21
858.7344575605
 31
0.0
  0
LINE
  5
1B4
330
1F
100
AcDbEntity
  8
0
  6
Continuous
 62
     7
370
    15
100
AcDbLine
 10
57.799237664
 20
1138.7344587526
 30
0.0
 11
55.7992336108
 21
1138.7344587526
 31
0.0
  0
LINE
  5
1B5
330
1F
100
AcDbEntity
  8
0
  6
Continuous
 62
     7
370
    15
100
AcDbLine
 10
478.199231322
 20
1138.7344587526
 30
0.0
 11
478.199231322
 21
1137.9543233595
 31
0.0
  0
LINE
  5
1B6
330
1F
100
AcDbEntity
  8
0
  6
Continuous
 62
     7
370
    15
100
AcDbLine
 10
496.1992379977
 20
1138.7344587526
 30
0.0
 11
478.199231322
 21
1138.7344587526
 31
0.0
  0
LINE
  5
1B7
330
1F
100
AcDbEntity
  8
0
  6
Continuous
 62
     7
370
    15
100
AcDbLine
 10
496.1992379977
 20
858.7344575605
 30
0.0
 11
478.199231322
 21
858.7344575605
 31
0.0
  0
LINE
  5
1B8
330
1F
100
AcDbEntity
  8
0
  6
Continuous
 62
     7
370
    15
100
AcDbLine
 10
478.199231322
 20
858.914582797
 30
0.0
 11
478.199231322
 21
858.7344575605
 31
0.0
  0
LINE
  5
1B9
330
1F
100
AcDbEntity
  8
0
  6
Continuous
 62
     7
370
    15
100
AcDbLine
 10
495.4992410495
 20
1138.0344469032
 30
0.0
 11
478.8992431714
 21
1138.0344469032
 31
0.0
  0
LINE
  5
1BA
330
1F
100
AcDbEntity
  8
0
  6
Continuous
 62
     7
370
    15
100
AcDbLine
 10
478.8992431714
 20
1138.0344469032
 30
0.0
 11
478.8992431714
 21
1137.9543233595
 31
0.0
  0
LINE
  5
1BB
330
1F
100
AcDbEntity
  8
0
  6
Continuous
 62
     7
370
    15
100
AcDbLine
 10
496.1992379977
 20
1138.7344587526
 30
0.0
 11
496.1992379977
 21
1137.05925531
 31
0.0
  0
LINE
  5
1BC
330
1F
100
AcDbEntity
  8
0
  6
Continuous
 62
     7
370
    15
100
AcDbLine
 10
496.1992379977
 20
859.8096508465
 30
0.0
 11
496.1992379977
 21
858.7344575605
 31
0.0
  0
LINE
  5
1BD
330
1F
100
AcDbEntity
  8
0
  6
Continuous
 62
     7
370
    15
100
AcDbLine
 10
495.4992410495
 20
1138.0344469032
 30
0.0
 11
495.4992410495
 21
1137.4877531013
 31
0.0
  0
LINE
  5
1BE
330
1F
100
AcDbEntity
  8
0
  6
Continuous
 62
     7
370
    15
100
AcDbLine
 10
498.1992420509
 20
1138.7344587526
 30
0.0
 11
498.1992420509
 21
1135.140328475
 31
0.0
  0
LINE
  5
1BF
330
1F
100
AcDbEntity
  8
0
  6
Continuous
 62
     7
370
    15
100
AcDbLine
 10
498.1992420509
 20
861.7285776815
 30
0.0
 11
498.1992420509
 21
858.7344575605
 31
0.0
  0
LINE
  5
1C0
330
1F
100
AcDbEntity
  8
0
  6
Continuous
 62
     7
370
    15
100
AcDbLine
 10
496.1992379977
 20
1138.7344587526
 30
0.0
 11
498.1992420509
 21
1138.7344587526
 31
0.0
  0
LINE
  5
1C1
330
1F
100
AcDbEntity
  8
0
  6
Continuous
 62
     7
370
    15
100
AcDbLine
 10
496.1992379977
 20
858.7344575605
 30
0.0
 11
498.1992420509
 21
858.7344575605
 31
0.0
  0
LINE
  5
1C2
330
1F
100
AcDbEntity
  8
0
  6
Continuous
 62
     8
370
    15
100
AcDbLine
 10
508.5992392852
 20
987.4344531379
 30
0.0
 11
508.5992392852
 21
1022.4344532869
 31
0.0
  0
LINE
  5
1C3
330
1F
100
AcDbEntity
  8
0
  6
Continuous
 62
     8
370
    15
100
AcDbLine
 10
498.9992406919
 20
1022.4344532869
 30
0.0
 11
498.9992406919
 21
1018.3158487013
 31
0.0
  0
LINE
  5
1C4
330
1F
100
AcDbEntity
  8
0
  6
Continuous
 62
     8
370
    15
100
AcDbLine
 10
498.9992406919
 20
1018.3158487013
 30
0.0
 11
498.499232228
 21
1018.3158487013
 31
0.0
  0
SPLINE
  5
1C5
330
1F
100
AcDbEntity
  8
0
  6
Continuous
 62
     8
370
    15
100
AcDbSpline
210
0.0
220
0.0
230
1.0
 70
     8
 71
     3
 72
     9
 73
     5
 74
     0
 42
0.00000001
 43
0.00000001
 40
0.0
 40
0.0
 40
0.0
 40
0.0
 40
0.9917768627120612
 40
1.0
 40
1.0
 40
1.0
 40
1.0
 10
498.4992322280176
 20
1019.42963785742
 30
0.0
 10
498.6614640497396
 20
1019.050727780833
 30
0.0
 10
498.8250409870744
 20
1018.668676040333
 30
0.0
 10
498.9978199070974
 20
1018.318726385397
 30
0.0
 10
498.9992406918772
 20
1018.31584870134
 30
0.0
  0
SPLINE
  5
1C6
330
1F
100
AcDbEntity
  8
0
  6
Continuous
 62
     8
370
    15
100
AcDbSpline
210
0.0
220
0.0
230
1.0
 70
     8
 71
     3
 72
     9
 73
     5
 74
     0
 42
0.00000001
 43
0.00000001
 40
0.0
 40
0.0
 40
0.0
 40
0.0
 40
0.0142801345959722
 40
1.0
 40
1.0
 40
1.0
 40
1.0
 10
498.9992406918772
 20
1018.31584870134
 30
0.0
 10
498.9967614186011
 20
1018.31781950604
 30
0.0
 10
498.8231444782663
 20
1018.455829738845
 30
0.0
 10
498.6600236595183
 20
1018.637654854322
 30
0.0
 10
498.4992322280176
 20
1018.816883482677
 30
0.0
  0
SPLINE
  5
1C7
330
1F
100
AcDbEntity
  8
0
  6
Continuous
 62
     8
370
    15
100
AcDbSpline
210
0.0
220
0.0
230
1.0
 70
     8
 71
     3
 72
    11
 73
     7
 74
     0
 42
0.00000001
 43
0.00000001
 40
0.0
 40
0.0
 40
0.0
 40
0.0
 40
0.3519117161327902
 40
0.6084637977808116
 40
0.723134755420359
 40
0.9999999999999999
 40
0.9999999999999999
 40
0.9999999999999999
 40
0.9999999999999999
 10
289.4992380171187
 20
1080.893321701032
 30
0.0
 10
289.0686236209906
 20
1080.851946911614
 30
0.0
 10
288.3240810018174
 20
1080.780408908336
 30
0.0
 10
287.5426194675205
 20
1080.334946319257
 30
0.0
 10
286.9287780617761
 20
1079.832324406326
 30
0.0
 10
286.6723871497838
 20
1079.423526866221
 30
0.0
 10
286.4910865902074
 20
1079.134455688936
 30
0.0
  0
SPLINE
  5
1C8
330
1F
100
AcDbEntity
  8
0
  6
Continuous
 62
     8
370
    15
100
AcDbSpline
210
0.0
220
0.0
230
1.0
 70
     8
 71
     3
 72
    12
 73
     8
 74
     0
 42
0.00000001
 43
0.00000001
 40
0.0
 40
0.0
 40
0.0
 40
0.0
 40
0.1436553125038957
 40
0.2554731769012342
 40
0.5628828256619913
 40
0.6282877756551831
 40
1.0
 40
1.0
 40
1.0
 40
1.0
 10
443.5415741755731
 20
1079.047827788336
 30
0.0
 10
443.4634390674113
 20
1079.210508526654
 30
0.0
 10
443.3244854571221
 20
1079.499816066449
 30
0.0
 10
442.8571453563285
 20
1080.031702906387
 30
0.0
 10
442.3628276124098
 20
1080.401728957785
 30
0.0
 10
441.5162165370921
 20
1080.792323269778
 30
0.0
 10
440.9666067198245
 20
1080.846906039586
 30
0.0
 10
440.4992338969477
 20
1080.893321701032
 30
0.0
  0
SPLINE
  5
1C9
330
1F
100
AcDbEntity
  8
0
  6
Continuous
 62
     8
370
    15
100
AcDbSpline
210
0.0
220
0.0
230
1.0
 70
     8
 71
     3
 72
    11
 73
     7
 74
     0
 42
0.00000001
 43
0.00000001
 40
0.0
 40
0.0
 40
0.0
 40
0.0
 40
0.1211980452593245
 40
0.4252360951458906
 40
0.7200099948965543
 40
1.0
 40
1.0
 40
1.0
 40
1.0
 10
285.0266107126243
 20
1078.638351329309
 30
0.0
 10
285.0854987973449
 20
1078.871521425542
 30
0.0
 10
285.2921138392264
 20
1079.689623244056
 30
0.0
 10
286.2280359493965
 20
1080.830287848976
 30
0.0
 10
287.6624412654892
 20
1081.859463952098
 30
0.0
 10
288.783481193051
 20
1082.098554518982
 30
0.0
 10
289.3295836403139
 20
1082.215024896604
 30
0.0
  0
SPLINE
  5
1CA
330
1F
100
AcDbEntity
  8
0
  6
Continuous
 62
     8
370
    15
100
AcDbSpline
210
0.0
220
0.0
230
1.0
 70
     8
 71
     3
 72
    11
 73
     7
 74
     0
 42
0.00000001
 43
0.00000001
 40
0.0
 40
0.0
 40
0.0
 40
0.0
 40
0.3032001484400123
 40
0.6069919940364269
 40
0.9015245802004551
 40
1.0
 40
1.0
 40
1.0
 40
1.0
 10
440.6688985183009
 20
1082.215024896604
 30
0.0
 10
441.2608647665604
 20
1082.084487574672
 30
0.0
 10
442.4459524892478
 20
1081.823158186334
 30
0.0
 10
443.8852975345526
 20
1080.714084410196
 30
0.0
 10
444.7533673639273
 20
1079.584062028398
 30
0.0
 10
444.9399039062614
 20
1078.827247571971
 30
0.0
 10
444.9866440846689
 20
1078.63761372183
 30
0.0
  0
SPLINE
  5
1CB
330
1F
100
AcDbEntity
  8
0
  6
Continuous
 62
     8
370
    15
100
AcDbSpline
210
0.0
220
0.0
230
1.0
 70
     8
 71
     3
 72
    11
 73
     7
 74
     0
 42
0.00000001
 43
0.00000001
 40
0.0
 40
0.0
 40
0.0
 40
0.0
 40
0.1941986753242889
 40
0.5159606702907156
 40
0.8367708541952368
 40
1.0
 40
1.0
 40
1.0
 40
1.0
 10
445.6992325141199
 20
963.8266701183146
 30
0.0
 10
445.784733516227
 20
961.7245434477876
 30
0.0
 10
446.0118985794493
 20
956.1394657733393
 30
0.0
 10
446.2955898769191
 20
947.0823795445416
 30
0.0
 10
446.3538133605175
 20
938.3394827182208
 30
0.0
 10
445.864305704704
 20
933.1168911428617
 30
0.0
 10
445.6992325141199
 20
931.3557136735743
 30
0.0
  0
SPLINE
  5
1CC
330
1F
100
AcDbEntity
  8
0
  6
Continuous
 62
     8
370
    15
100
AcDbSpline
210
0.0
220
0.0
230
1.0
 70
     8
 71
     3
 72
    11
 73
     7
 74
     0
 42
0.00000001
 43
0.00000001
 40
0.0
 40
0.0
 40
0.0
 40
0.0
 40
0.1941985836932799
 40
0.5159606166151263
 40
0.8367707242289243
 40
1.0
 40
1.0
 40
1.0
 40
1.0
 10
284.2992380029626
 20
1040.042239048225
 30
0.0
 10
284.2137370284831
 20
1042.144364475276
 30
0.0
 10
283.9865719551099
 20
1047.729440900223
 30
0.0
 10
283.7028797692041
 20
1056.786524696442
 30
0.0
 10
283.6446598723811
 20
1065.529421347067
 30
0.0
 10
284.1341654126572
 20
1070.752013048789
 30
0.0
 10
284.2992380029626
 20
1072.513191767675
 30
0.0
  0
LINE
  5
1CD
330
1F
100
AcDbEntity
  8
0
  6
Continuous
 62
     8
370
    15
100
AcDbLine
 10
60.4992386653
 20
1136.4344496212
 30
0.0
 11
60.4992386653
 21
1138.0344469032
 31
0.0
  0
LINE
  5
1CE
330
1F
100
AcDbEntity
  8
0
  6
Continuous
 62
     8
370
    15
100
AcDbLine
 10
493.4992369964
 20
1136.4344496212
 30
0.0
 11
493.4992369964
 21
1138.0344469032
 31
0.0
  0
LINE
  5
1CF
330
1F
100
AcDbEntity
  8
0
  6
Continuous
 62
     8
370
    15
100
AcDbLine
 10
493.4992369964
 20
858.4344524822
 30
0.0
 11
493.4992369964
 21
858.7344575605
 31
0.0
  0
LINE
  5
1D0
330
1F
100
AcDbEntity
  8
0
  6
Continuous
 62
     8
370
    15
100
AcDbLine
 10
493.4992369964
 20
858.914582797
 30
0.0
 11
493.4992369964
 21
860.4344565353
 31
0.0
  0
LINE
  5
1D1
330
1F
100
AcDbEntity
  8
0
  6
Continuous
 62
     8
370
    15
100
AcDbLine
 10
60.4992386653
 20
858.4344524822
 30
0.0
 11
60.4992386653
 21
858.7344575605
 31
0.0
  0
LINE
  5
1D2
330
1F
100
AcDbEntity
  8
0
  6
Continuous
 62
     8
370
    15
100
AcDbLine
 10
60.4992386653
 20
858.914582797
 30
0.0
 11
60.4992386653
 21
860.4344565353
 31
0.0
  0
LINE
  5
1D3
330
1F
100
AcDbEntity
  8
SLD-0
 62
     5
370
     0
100
AcDbLine
 10
527.4992378309
 20
1041.4344530783
 30
0.0
 11
521.7051941483
 21
1041.4344530783
 31
0.0
  0
LINE
  5
1D4
330
1F
100
AcDbEntity
  8
SLD-0
 62
     5
370
     0
100
AcDbLine
 10
549.4992378309
 20
946.4344530783
 30
0.0
 11
541.8037416841
 21
946.4344530783
 31
0.0
  0
LINE
  5
1D5
330
1F
100
AcDbEntity
  8
SLD-0
 62
     5
370
     0
100
AcDbLine
 10
506.4992378309
 20
998.4344530783
 30
0.0
 11
501.0044310518
 21
998.4344530783
 31
0.0
  0
ENDSEC
  0
SECTION
  2
OBJECTS
  0
DICTIONARY
  5
C
330
0
100
AcDbDictionary
281
     1
  3
ACAD_GROUP
350
D
  3
ACAD_LAYOUT
350
1A
  3
ACAD_MLINESTYLE
350
17
  3
ACAD_PLOTSETTINGS
350
19
  3
ACAD_PLOTSTYLENAME
350
E
  0
DICTIONARY
  5
D
102
{ACAD_REACTORS
330
C
102
}
330
C
100
AcDbDictionary
281
     1
  0
DICTIONARY
  5
1A
102
{ACAD_REACTORS
330
C
102
}
330
C
100
AcDbDictionary
281
     1
  3
Layout1
350
1E
  3
Layout2
350
26
  3
Model
350
22
  0
DICTIONARY
  5
17
102
{ACAD_REACTORS
330
C
102
}
330
C
100
AcDbDictionary
281
     1
  3
Standard
350
18
  0
DICTIONARY
  5
19
102
{ACAD_REACTORS
330
C
102
}
330
C
100
AcDbDictionary
281
     1
  0
ACDBDICTIONARYWDFLT
  5
E
102
{ACAD_REACTORS
330
C
102
}
330
C
100
AcDbDictionary
281
     1
  3
Normal
350
F
100
AcDbDictionaryWithDefault
340
F
  0
LAYOUT
  5
1E
102
{ACAD_REACTORS
330
1A
102
}
330
1A
100
AcDbPlotSettings
  1

  2
none_device
  4

  6

 40
0.0
 41
0.0
 42
0.0
 43
0.0
 44
0.0
 45
0.0
 46
0.0
 47
0.0
 48
0.0
 49
0.0
140
0.0
141
0.0
142
1.0
143
1.0
 70
   688
 72
     0
 73
     0
 74
     5
  7

 75
    16
147
1.0
148
0.0
149
0.0
100
AcDbLayout
  1
Layout1
 70
     1
 71
     1
 10
0.0
 20
0.0
 11
420.0
 21
297.0
 12
0.0
 22
0.0
 32
0.0
 14
1.0000000000E+20
 24
1.0000000000E+20
 34
1.0000000000E+20
 15
-1.0000000000E+20
 25
-1.0000000000E+20
 35
-1.0000000000E+20
146
0.0
 13
0.0
 23
0.0
 33
0.0
 16
1.0
 26
0.0
 36
0.0
 17
0.0
 27
1.0
 37
0.0
 76
     0
330
1B
  0
LAYOUT
  5
26
102
{ACAD_REACTORS
330
1A
102
}
330
1A
100
AcDbPlotSettings
  1

  2
none_device
  4

  6

 40
0.0
 41
0.0
 42
0.0
 43
0.0
 44
0.0
 45
0.0
 46
0.0
 47
0.0
 48
0.0
 49
0.0
140
0.0
141
0.0
142
1.0
143
1.0
 70
   688
 72
     0
 73
     0
 74
     5
  7

 75
    16
147
1.0
148
0.0
149
0.0
100
AcDbLayout
  1
Layout2
 70
     1
 71
     2
 10
0.0
 20
0.0
 11
0.0
 21
0.0
 12
0.0
 22
0.0
 32
0.0
 14
0.0
 24
0.0
 34
0.0
 15
0.0
 25
0.0
 35
0.0
146
0.0
 13
0.0
 23
0.0
 33
0.0
 16
1.0
 26
0.0
 36
0.0
 17
0.0
 27
1.0
 37
0.0
 76
     0
330
23
  0
LAYOUT
  5
22
102
{ACAD_REACTORS
330
1A
102
}
330
1A
100
AcDbPlotSettings
  1

  2
none_device
  4

  6

 40
0.0
 41
0.0
 42
0.0
 43
0.0
 44
0.0
 45
0.0
 46
0.0
 47
0.0
 48
0.0
 49
0.0
140
0.0
141
0.0
142
1.0
143
1.0
 70
  1712
 72
     0
 73
     0
 74
     0
  7

 75
     0
147
1.0
148
0.0
149
0.0
100
AcDbLayout
  1
Model
 70
     1
 71
     0
 10
0.0
 20
0.0
 11
420.0
 21
297.0
 12
0.0
 22
0.0
 32
0.0
 14
0.0
 24
0.0
 34
0.0
 15
420.0
 25
297.0
 35
0.0
146
0.0
 13
0.0
 23
0.0
 33
0.0
 16
1.0
 26
0.0
 36
0.0
 17
0.0
 27
1.0
 37
0.0
 76
     0
330
1F
331
29
  0
MLINESTYLE
  5
18
102
{ACAD_REACTORS
330
17
102
}
330
17
100
AcDbMlineStyle
  2
Standard
 70
     0
  3

 62
   256
 51
90.0
 52
90.0
 71
     2
 49
0.5
 62
   256
  6
BYLAYER
 49
-0.5
 62
   256
  6
BYLAYER
  0
ACDBPLACEHOLDER
  5
F
102
{ACAD_REACTORS
330
E
102
}
330
E
  0
ENDSEC
  0
EOF
