  0
SECTION
  2
HEADER
  9
$ACADVER
  1
AC1015
  9
$ACADMAINTVER
 70
     6
  9
$DWGCODEPAGE
  3
DOS932
  9
$INSBASE
 10
0.0
 20
0.0
 30
0.0
  9
$EXTMIN
 10
0.0
 20
0.0
 30
0.0
  9
$EXTMAX
 10
420.0
 20
297.0
 30
0.0
  9
$LIMMIN
 10
0.0
 20
0.0
  9
$LIMMAX
 10
420.0
 20
297.0
  9
$ORTHOMODE
 70
     0
  9
$REGENMODE
 70
     1
  9
$FILLMODE
 70
     1
  9
$QTEXTMODE
 70
     0
  9
$MIRRTEXT
 70
     1
  9
$LTSCALE
 40
1.0
  9
$ATTMODE
 70
     1
  9
$TEXTSIZE
 40
3.5
  9
$TRACEWID
 40
1.0
  9
$TEXTSTYLE
  7
Standard
  9
$CLAYER
  8
0
  9
$CELTYPE
  6
ByLayer
  9
$CECOLOR
 62
   256
  9
$CELTSCALE
 40
1.0
  9
$DISPSILH
 70
     0
  9
$DIMSCALE
 40
1.0
  9
$DIMASZ
 40
2.0
  9
$DIMEXO
 40
1.0
  9
$DIMDLI
 40
3.75
  9
$DIMRND
 40
0.0
  9
$DIMDLE
 40
0.0
  9
$DIMEXE
 40
1.0
  9
$DIMTP
 40
0.0
  9
$DIMTM
 40
0.0
  9
$DIMTXT
 40
4.2333333333
  9
$DIMCEN
 40
2.5
  9
$DIMTSZ
 40
0.0
  9
$DIMTOL
 70
     0
  9
$DIMLIM
 70
     0
  9
$DIMTIH
 70
     1
  9
$DIMTOH
 70
     1
  9
$DIMSE1
 70
     0
  9
$DIMSE2
 70
     0
  9
$DIMTAD
 70
     1
  9
$DIMZIN
 70
     0
  9
$DIMBLK
  1

  9
$DIMASO
 70
     1
  9
$DIMSHO
 70
     1
  9
$DIMPOST
  1

  9
$DIMAPOST
  1

  9
$DIMALT
 70
     0
  9
$DIMALTD
 70
     3
  9
$DIMALTF
 40
0.0393700787
  9
$DIMLFAC
 40
1.0
  9
$DIMTOFL
 70
     1
  9
$DIMTVP
 40
0.0
  9
$DIMTIX
 70
     0
  9
$DIMSOXD
 70
     0
  9
$DIMSAH
 70
     0
  9
$DIMBLK1
  1

  9
$DIMBLK2
  1

  9
$DIMSTYLE
  2
ISO-25
  9
$DIMCLRD
 70
     0
  9
$DIMCLRE
 70
     0
  9
$DIMCLRT
 70
     0
  9
$DIMTFAC
 40
1.0
  9
$DIMGAP
 40
1.524
  9
$DIMJUST
 70
     0
  9
$DIMSD1
 70
     0
  9
$DIMSD2
 70
     0
  9
$DIMTOLJ
 70
     0
  9
$DIMTZIN
 70
     0
  9
$DIMALTZ
 70
     0
  9
$DIMALTTZ
 70
     0
  9
$DIMUPT
 70
     0
  9
$DIMDEC
 70
     3
  9
$DIMTDEC
 70
     3
  9
$DIMALTU
 70
     2
  9
$DIMALTTD
 70
     3
  9
$DIMTXSTY
  7
Standard
  9
$DIMAUNIT
 70
     0
  9
$DIMADEC
 70
     0
  9
$DIMALTRND
 40
0.0
  9
$DIMAZIN
 70
     0
  9
$DIMDSEP
 70
    44
  9
$DIMATFIT
 70
     3
  9
$DIMFRAC
 70
     0
  9
$DIMLDRBLK
  1

  9
$DIMLUNIT
 70
     2
  9
$DIMLWD
 70
    -2
  9
$DIMLWE
 70
    -2
  9
$DIMTMOVE
 70
     0
  9
$LUNITS
 70
     2
  9
$LUPREC
 70
     3
  9
$SKETCHINC
 40
1.0
  9
$FILLETRAD
 40
10.0
  9
$AUNITS
 70
     0
  9
$AUPREC
 70
     0
  9
$MENU
  1
.
  9
$ELEVATION
 40
0.0
  9
$PELEVATION
 40
0.0
  9
$THICKNESS
 40
0.0
  9
$LIMCHECK
 70
     0
  9
$CHAMFERA
 40
0.0
  9
$CHAMFERB
 40
0.0
  9
$CHAMFERC
 40
0.0
  9
$CHAMFERD
 40
0.0
  9
$SKPOLY
 70
     0
  9
$TDCREATE
 40
2460847.407239537
  9
$TDUCREATE
 40
2460847.032239537
  9
$TDUPDATE
 40
2460847.407240081
  9
$TDUUPDATE
 40
2460847.032240081
  9
$TDINDWG
 40
0.0000000116
  9
$TDUSRTIMER
 40
0.0000000116
  9
$USRTIMER
 70
     1
  9
$ANGBASE
 50
0.0
  9
$ANGDIR
 70
     0
  9
$PDMODE
 70
     0
  9
$PDSIZE
 40
-1.0
  9
$PLINEWID
 40
0.0
  9
$SPLFRAME
 70
     0
  9
$SPLINETYPE
 70
     6
  9
$SPLINESEGS
 70
     8
  9
$HANDSEED
  5
237
  9
$SURFTAB1
 70
     6
  9
$SURFTAB2
 70
     6
  9
$SURFTYPE
 70
     6
  9
$SURFU
 70
     6
  9
$SURFV
 70
     6
  9
$UCSBASE
  2

  9
$UCSNAME
  2

  9
$UCSORG
 10
0.0
 20
0.0
 30
0.0
  9
$UCSXDIR
 10
1.0
 20
0.0
 30
0.0
  9
$UCSYDIR
 10
0.0
 20
1.0
 30
0.0
  9
$UCSORTHOREF
  2

  9
$UCSORTHOVIEW
 70
     0
  9
$UCSORGTOP
 10
0.0
 20
0.0
 30
0.0
  9
$UCSORGBOTTOM
 10
0.0
 20
0.0
 30
0.0
  9
$UCSORGLEFT
 10
0.0
 20
0.0
 30
0.0
  9
$UCSORGRIGHT
 10
0.0
 20
0.0
 30
0.0
  9
$UCSORGFRONT
 10
0.0
 20
0.0
 30
0.0
  9
$UCSORGBACK
 10
0.0
 20
0.0
 30
0.0
  9
$PUCSBASE
  2

  9
$PUCSNAME
  2

  9
$PUCSORG
 10
0.0
 20
0.0
 30
0.0
  9
$PUCSXDIR
 10
1.0
 20
0.0
 30
0.0
  9
$PUCSYDIR
 10
0.0
 20
1.0
 30
0.0
  9
$PUCSORTHOREF
  2

  9
$PUCSORTHOVIEW
 70
     0
  9
$PUCSORGTOP
 10
0.0
 20
0.0
 30
0.0
  9
$PUCSORGBOTTOM
 10
0.0
 20
0.0
 30
0.0
  9
$PUCSORGLEFT
 10
0.0
 20
0.0
 30
0.0
  9
$PUCSORGRIGHT
 10
0.0
 20
0.0
 30
0.0
  9
$PUCSORGFRONT
 10
0.0
 20
0.0
 30
0.0
  9
$PUCSORGBACK
 10
0.0
 20
0.0
 30
0.0
  9
$USERI1
 70
     0
  9
$USERI2
 70
     0
  9
$USERI3
 70
     0
  9
$USERI4
 70
     0
  9
$USERI5
 70
     0
  9
$USERR1
 40
0.0
  9
$USERR2
 40
0.0
  9
$USERR3
 40
0.0
  9
$USERR4
 40
0.0
  9
$USERR5
 40
0.0
  9
$WORLDVIEW
 70
     1
  9
$SHADEDGE
 70
     3
  9
$SHADEDIF
 70
    70
  9
$TILEMODE
 70
     1
  9
$MAXACTVP
 70
    64
  9
$PINSBASE
 10
0.0
 20
0.0
 30
0.0
  9
$PLIMCHECK
 70
     0
  9
$PEXTMIN
 10
1.0000000000E+20
 20
1.0000000000E+20
 30
1.0000000000E+20
  9
$PEXTMAX
 10
-1.0000000000E+20
 20
-1.0000000000E+20
 30
-1.0000000000E+20
  9
$PLIMMIN
 10
0.0
 20
0.0
  9
$PLIMMAX
 10
420.0
 20
297.0
  9
$UNITMODE
 70
     0
  9
$VISRETAIN
 70
     1
  9
$PLINEGEN
 70
     0
  9
$PSLTSCALE
 70
     1
  9
$TREEDEPTH
 70
  3020
  9
$CMLSTYLE
  2
Standard
  9
$CMLJUST
 70
     0
  9
$CMLSCALE
 40
20.0
  9
$PROXYGRAPHICS
 70
     1
  9
$MEASUREMENT
 70
     1
  9
$CELWEIGHT
370
    -1
  9
$ENDCAPS
280
     0
  9
$JOINSTYLE
280
     0
  9
$LWDISPLAY
290
     1
  9
$INSUNITS
 70
     4
  9
$HYPERLINKBASE
  1

  9
$STYLESHEET
  1

  9
$XEDIT
290
     1
  9
$CEPSNTYPE
380
     0
  9
$PSTYLEMODE
290
     1
  9
$FINGERPRINTGUID
  2
{e951171b-dc6b-430e-8344-3f84bf914c73}
  9
$VERSIONGUID
  2
{FAEB1C32-E019-11D5-929B-00C0DF256EC4}
  9
$EXTNAMES
290
     1
  9
$PSVPSCALE
 40
0.0
  9
$OLESTARTUP
290
     0
  0
ENDSEC
  0
SECTION
  2
CLASSES
  0
CLASS
  1
ACDBDICTIONARYWDFLT
  2
AcDbDictionaryWithDefault
  3
ObjectDBX Classes
 90
        0
280
     0
281
     0
  0
CLASS
  1
VISUALSTYLE
  2
AcDbVisualStyle
  3
ObjectDBX Classes
 90
     4095
280
     0
281
     0
  0
CLASS
  1
MATERIAL
  2
AcDbMaterial
  3
ObjectDBX Classes
 90
     1153
280
     0
281
     0
  0
CLASS
  1
SCALE
  2
AcDbScale
  3
ObjectDBX Classes
 90
     1153
280
     0
281
     0
  0
CLASS
  1
TABLESTYLE
  2
AcDbTableStyle
  3
ObjectDBX Classes
 90
     4095
280
     0
281
     0
  0
CLASS
  1
MLEADERSTYLE
  2
AcDbMLeaderStyle
  3
ACDB_MLEADERSTYLE_CLASS
 90
     4095
280
     0
281
     0
  0
CLASS
  1
SUN
  2
AcDbSun
  3
SCENEOE
 90
     1153
280
     0
281
     0
  0
CLASS
  1
ACDBPLACEHOLDER
  2
AcDbPlaceHolder
  3
ObjectDBX Classes
 90
        0
280
     0
281
     0
  0
CLASS
  1
LAYOUT
  2
AcDbLayout
  3
ObjectDBX Classes
 90
        0
280
     0
281
     0
  0
ENDSEC
  0
SECTION
  2
TABLES
  0
TABLE
  2
VPORT
  5
8
330
0
100
AcDbSymbolTable
 70
     1
  0
VPORT
  5
29
330
8
100
AcDbSymbolTableRecord
100
AcDbViewportTableRecord
  2
*Active
 70
     0
 10
0.0
 20
0.0
 11
1.0
 21
1.0
 12
210.0
 22
148.5
 13
0.0
 23
0.0
 14
10.0
 24
10.0
 15
10.0
 25
10.0
 16
0.0
 26
0.0
 36
1.0
 17
0.0
 27
0.0
 37
0.0
 40
297.0
 41
1.4141414141
 42
50.0
 43
0.0
 44
0.0
 50
0.0
 51
0.0
 71
     0
 72
  2000
 73
     1
 74
     3
 75
     0
 76
     0
 77
     0
 78
     0
281
     0
 65
     1
110
0.0
120
0.0
130
0.0
111
1.0
121
0.0
131
0.0
112
0.0
122
1.0
132
0.0
 79
     0
146
0.0
  0
ENDTAB
  0
TABLE
  2
LTYPE
  5
5
330
0
100
AcDbSymbolTable
 70
     6
  0
LTYPE
  5
14
330
5
100
AcDbSymbolTableRecord
100
AcDbLinetypeTableRecord
  2
ByBlock
 70
     0
  3

 72
    65
 73
     0
 40
0.0
  0
LTYPE
  5
15
330
5
100
AcDbSymbolTableRecord
100
AcDbLinetypeTableRecord
  2
ByLayer
 70
     0
  3

 72
    65
 73
     0
 40
0.0
  0
LTYPE
  5
16
330
5
100
AcDbSymbolTableRecord
100
AcDbLinetypeTableRecord
  2
Continuous
 70
     0
  3
Solid line
 72
    65
 73
     0
 40
0.0
  0
LTYPE
  5
6E
330
5
100
AcDbSymbolTableRecord
100
AcDbLinetypeTableRecord
  2
HIDDEN
 70
     0
  3
Hidden __ __ __ __ __ __ __ __ __ __ __ __ __ __
 72
    65
 73
     2
 40
1.905
 49
1.27
 74
     0
 49
-0.635
 74
     0
  0
LTYPE
  5
6F
330
5
100
AcDbSymbolTableRecord
100
AcDbLinetypeTableRecord
  2
PHANTOM
 70
     0
  3
Phantom ______  __  __  ______  __  __  ______
 72
    65
 73
     6
 40
12.7
 49
6.35
 74
     0
 49
-1.27
 74
     0
 49
1.27
 74
     0
 49
-1.27
 74
     0
 49
1.27
 74
     0
 49
-1.27
 74
     0
  0
LTYPE
  5
70
330
5
100
AcDbSymbolTableRecord
100
AcDbLinetypeTableRecord
  2
CENTER
 70
     0
  3
Center ____ _ ____ _ ____ _ ____ _ ____ _ ____
 72
    65
 73
     4
 40
10.16
 49
6.35
 74
     0
 49
-1.27
 74
     0
 49
1.27
 74
     0
 49
-1.27
 74
     0
  0
LTYPE
  5
71
330
5
100
AcDbSymbolTableRecord
100
AcDbLinetypeTableRecord
  2
CENTERX2
 70
     0
  3
Center (2x) ________  __  ________  __  _____
 72
    65
 73
     4
 40
20.32
 49
12.7
 74
     0
 49
-2.54
 74
     0
 49
2.54
 74
     0
 49
-2.54
 74
     0
  0
LTYPE
  5
72
330
5
100
AcDbSymbolTableRecord
100
AcDbLinetypeTableRecord
  2
DOT2
 70
     0
  3
Dot (.5x) ........................................
 72
    65
 73
     2
 40
0.635
 49
0.0
 74
     0
 49
-0.635
 74
     0
  0
ENDTAB
  0
TABLE
  2
LAYER
  5
2
330
0
100
AcDbSymbolTable
 70
     1
  0
LAYER
  5
10
330
2
100
AcDbSymbolTableRecord
100
AcDbLayerTableRecord
  2
0
 70
     0
 62
     7
  6
Continuous
370
    -3
390
F
  0
ENDTAB
  0
TABLE
  2
STYLE
  5
3
330
0
100
AcDbSymbolTable
 70
     1
  0
STYLE
  5
11
330
3
100
AcDbSymbolTableRecord
100
AcDbTextStyleTableRecord
  2
Standard
 70
     0
 40
0.0
 41
1.0
 50
0.0
 71
     0
 42
3.5
  3
txt
  4
bigfont
  0
ENDTAB
  0
TABLE
  2
VIEW
  5
6
330
0
100
AcDbSymbolTable
 70
     0
  0
ENDTAB
  0
TABLE
  2
UCS
  5
7
330
0
100
AcDbSymbolTable
 70
     0
  0
ENDTAB
  0
TABLE
  2
APPID
  5
9
330
0
100
AcDbSymbolTable
 70
     1
  0
APPID
  5
12
330
9
100
AcDbSymbolTableRecord
100
AcDbRegAppTableRecord
  2
ACAD
 70
     0
  0
ENDTAB
  0
TABLE
  2
DIMSTYLE
  5
A
330
0
100
AcDbSymbolTable
 70
     1
100
AcDbDimStyleTable
  0
DIMSTYLE
105
27
330
A
100
AcDbSymbolTableRecord
100
AcDbDimStyleTableRecord
  2
ISO-25
 70
     0
 41
2.5
 42
0.625
 43
3.75
 44
1.25
 73
     0
 74
     0
 77
     1
 78
     8
140
2.5
141
2.5
143
0.0393700787
147
0.625
171
     3
172
     1
178
     0
271
     2
272
     2
274
     3
278
    44
283
     0
284
     8
340
11
  0
ENDTAB
  0
TABLE
  2
BLOCK_RECORD
  5
1
330
0
100
AcDbSymbolTable
 70
     2
  0
BLOCK_RECORD
  5
1F
330
1
100
AcDbSymbolTableRecord
100
AcDbBlockTableRecord
  2
*Model_Space
340
22
  0
BLOCK_RECORD
  5
1B
330
1
100
AcDbSymbolTableRecord
100
AcDbBlockTableRecord
  2
*Paper_Space
340
1E
  0
BLOCK_RECORD
  5
23
330
1
100
AcDbSymbolTableRecord
100
AcDbBlockTableRecord
  2
*Paper_Space0
340
26
  0
BLOCK_RECORD
  5
22B
330
1
100
AcDbSymbolTableRecord
100
AcDbBlockTableRecord
  2
SW_CENTERMARKSYMBOL_0
340
0
102
{BLKREFS
331
236
102
}
  0
ENDTAB
  0
ENDSEC
  0
SECTION
  2
BLOCKS
  0
BLOCK
  5
20
330
1F
100
AcDbEntity
  8
0
100
AcDbBlockBegin
  2
*Model_Space
 70
     0
 10
0.0
 20
0.0
 30
0.0
  3
*Model_Space
  1

  0
ENDBLK
  5
21
330
1F
100
AcDbEntity
  8
0
100
AcDbBlockEnd
  0
BLOCK
  5
1C
330
1B
100
AcDbEntity
 67
     1
  8
0
100
AcDbBlockBegin
  2
*Paper_Space
 70
     0
 10
0.0
 20
0.0
 30
0.0
  3
*Paper_Space
  1

  0
ENDBLK
  5
1D
330
1B
100
AcDbEntity
 67
     1
  8
0
100
AcDbBlockEnd
  0
BLOCK
  5
24
330
23
100
AcDbEntity
  8
0
100
AcDbBlockBegin
  2
*Paper_Space0
 70
     0
 10
0.0
 20
0.0
 30
0.0
  3
*Paper_Space0
  1

  0
ENDBLK
  5
25
330
23
100
AcDbEntity
  8
0
100
AcDbBlockEnd
  0
BLOCK
  5
22C
330
22B
100
AcDbEntity
  8
0
100
AcDbBlockBegin
  2
SW_CENTERMARKSYMBOL_0
 70
     0
 10
0.0
 20
0.0
 30
0.0
  3
SW_CENTERMARKSYMBOL_0
  1

  0
LINE
  5
22E
330
22B
100
AcDbEntity
  8
0
  6
Continuous
 62
     0
370
    18
100
AcDbLine
 10
0.0
 20
0.0
 30
0.0
 11
0.0
 21
2.5
 31
0.0
  0
LINE
  5
22F
330
22B
100
AcDbEntity
  8
0
  6
Continuous
 62
     0
370
    18
100
AcDbLine
 10
0.0
 20
0.0
 30
0.0
 11
-2.5
 21
0.0
 31
0.0
  0
LINE
  5
230
330
22B
100
AcDbEntity
  8
0
  6
Continuous
 62
     0
370
    18
100
AcDbLine
 10
0.0
 20
0.0
 30
0.0
 11
0.0
 21
-2.5
 31
0.0
  0
LINE
  5
231
330
22B
100
AcDbEntity
  8
0
  6
Continuous
 62
     0
370
    18
100
AcDbLine
 10
0.0
 20
0.0
 30
0.0
 11
2.5
 21
0.0
 31
0.0
  0
LINE
  5
232
330
22B
100
AcDbEntity
  8
0
  6
Continuous
 62
     0
370
    18
100
AcDbLine
 10
0.0
 20
5.0
 30
0.0
 11
0.0
 21
181.85
 31
0.0
  0
LINE
  5
233
330
22B
100
AcDbEntity
  8
0
  6
Continuous
 62
     0
370
    18
100
AcDbLine
 10
-5.0
 20
0.0
 30
0.0
 11
-181.85
 21
0.0
 31
0.0
  0
LINE
  5
234
330
22B
100
AcDbEntity
  8
0
  6
Continuous
 62
     0
370
    18
100
AcDbLine
 10
0.0
 20
-5.0
 30
0.0
 11
0.0
 21
-181.85
 31
0.0
  0
LINE
  5
235
330
22B
100
AcDbEntity
  8
0
  6
Continuous
 62
     0
370
    18
100
AcDbLine
 10
5.0
 20
0.0
 30
0.0
 11
181.85
 21
0.0
 31
0.0
  0
ENDBLK
  5
22D
330
22B
100
AcDbEntity
  8
0
100
AcDbBlockEnd
  0
ENDSEC
  0
SECTION
  2
ENTITIES
  0
LINE
  5
73
330
1F
100
AcDbEntity
  8
0
  6
Continuous
 62
     7
370
    25
100
AcDbLine
 10
11.7266383525
 20
-33.3858370647
 30
0.0
 11
11.7266383525
 21
-161.8858370647
 31
0.0
  0
LINE
  5
74
330
1F
100
AcDbEntity
  8
0
  6
Continuous
 62
     7
370
    25
100
AcDbLine
 10
330.9266383525
 20
-67.8864254033
 30
0.0
 11
330.9266383525
 21
-33.3858370647
 31
0.0
  0
LINE
  5
75
330
1F
100
AcDbEntity
  8
0
  6
Continuous
 62
     7
370
    25
100
AcDbLine
 10
330.9266383525
 20
-161.8858370647
 30
0.0
 11
330.9266383525
 21
-117.8852487262
 31
0.0
  0
LINE
  5
76
330
1F
100
AcDbEntity
  8
0
  6
Continuous
 62
     7
370
    25
100
AcDbLine
 10
43.590076783
 20
25.0708188653
 30
0.0
 11
40.4473799777
 21
24.5739148703
 31
0.0
  0
LINE
  5
77
330
1F
100
AcDbEntity
  8
0
  6
Continuous
 62
     7
370
    25
100
AcDbLine
 10
40.4473799777
 20
11.6544110003
 30
0.0
 11
43.590076783
 21
11.1575070053
 31
0.0
  0
LINE
  5
78
330
1F
100
AcDbEntity
  8
0
  6
Continuous
 62
     7
370
    25
100
AcDbLine
 10
-8.0233616475
 20
4.6141629353
 30
0.0
 11
-7.9186312579
 21
-1.3858370647
 31
0.0
  0
LINE
  5
79
330
1F
100
AcDbEntity
  8
0
  6
Continuous
 62
     7
370
    25
100
AcDbLine
 10
350.5719079629
 20
-1.3858370647
 30
0.0
 11
350.6766383525
 21
4.6141629353
 31
0.0
  0
ARC
  5
7A
330
1F
100
AcDbEntity
  8
0
  6
Continuous
 62
     7
370
    25
100
AcDbCircle
 10
-23.9135656918
 20
-13.3925881834
 30
0.0
 40
20.00000000000002
100
AcDbArc
 50
1.0
 51
36.8940771377
  0
ARC
  5
7B
330
1F
100
AcDbEntity
  8
0
  6
Continuous
 62
     7
370
    25
100
AcDbCircle
 10
366.5668423968
 20
-13.3925881834
 30
0.0
 40
20.0
100
AcDbArc
 50
143.1059228623
 51
179.0
  0
LINE
  5
7C
330
1F
100
AcDbEntity
  8
0
  6
Continuous
 62
     7
370
    25
100
AcDbLine
 10
-3.9166117887
 20
-13.0435400547
 30
0.0
 11
-3.8748129436
 21
-15.438194284
 31
0.0
  0
LINE
  5
7D
330
1F
100
AcDbEntity
  8
0
  6
Continuous
 62
     7
370
    25
100
AcDbLine
 10
346.5280896486
 20
-15.438194284
 30
0.0
 11
346.5698884937
 21
-13.0435400547
 31
0.0
  0
ARC
  5
7E
330
1F
100
AcDbEntity
  8
0
  6
Continuous
 62
     7
370
    25
100
AcDbCircle
 10
343.5285465631
 20
-15.3858370647
 30
0.0
 40
3.00000000000004
100
AcDbArc
 50
326.0634873555
 51
359.0
  0
ARC
  5
7F
330
1F
100
AcDbEntity
  8
0
  6
Continuous
 62
     7
370
    25
100
AcDbCircle
 10
-0.8752698582
 20
-15.3858370647
 30
0.0
 40
3.000000000000018
100
AcDbArc
 50
181.0
 51
213.9365126445
  0
LINE
  5
80
330
1F
100
AcDbEntity
  8
0
  6
Continuous
 62
     7
370
    25
100
AcDbLine
 10
-3.3642399122
 20
-17.0606588673
 30
0.0
 11
7.3236958014
 21
-32.9441109989
 31
0.0
  0
LINE
  5
81
330
1F
100
AcDbEntity
  8
0
  6
Continuous
 62
     7
370
    25
100
AcDbLine
 10
335.3295809036
 20
-32.9441109989
 30
0.0
 11
346.0175166171
 21
-17.0606588673
 31
0.0
  0
ARC
  5
82
330
1F
100
AcDbEntity
  8
0
  6
Continuous
 62
     7
370
    25
100
AcDbCircle
 10
8.1533524861
 20
-32.3858370647
 30
0.0
 40
1.000000000000002
100
AcDbArc
 50
213.9365126444
 51
269.9999999999
  0
ARC
  5
83
330
1F
100
AcDbEntity
  8
0
  6
Continuous
 62
     7
370
    25
100
AcDbCircle
 10
334.4999242189
 20
-32.3858370647
 30
0.0
 40
1.000000000000028
100
AcDbArc
 50
270.0000000001
 51
326.0634873556
  0
LINE
  5
84
330
1F
100
AcDbEntity
  8
0
  6
Continuous
 62
     7
370
    25
100
AcDbLine
 10
329.9266383525
 20
-113.8863200589
 30
0.0
 11
335.5266383525
 21
-113.8863200589
 31
0.0
  0
LINE
  5
85
330
1F
100
AcDbEntity
  8
0
  6
Continuous
 62
     7
370
    25
100
AcDbLine
 10
335.5266383525
 20
-71.8853540706
 30
0.0
 11
329.9266383525
 21
-71.8853540706
 31
0.0
  0
SPLINE
  5
86
330
1F
100
AcDbEntity
  8
0
  6
Continuous
 62
     7
370
    25
100
AcDbSpline
210
0.0
220
0.0
230
1.0
 70
     8
 71
     3
 72
    16
 73
    12
 74
     0
 42
0.000000001
 43
0.00000001
 40
0.0
 40
0.0
 40
0.0
 40
0.0
 40
0.0719267904652352
 40
0.2369317650039967
 40
0.3777250113088693
 40
0.4866348632810471
 40
0.5743985953398981
 40
0.6567886864594412
 40
0.7666046407492919
 40
0.9276359070443166
 40
1.0
 40
1.0
 40
1.0
 40
1.0
 10
339.3820673771428
 20
-83.3299481751936
 30
0.0
 10
339.3681437472895
 20
-83.32239358190547
 30
0.0
 10
339.3222783586762
 20
-83.29750823515133
 30
0.0
 10
339.243925674532
 20
-83.26939585027708
 30
0.0
 10
339.1571676375844
 20
-83.2452002417335
 30
0.0
 10
339.0878945922148
 20
-83.23227729012513
 30
0.0
 10
339.0389044722923
 20
-83.22594565270887
 30
0.0
 10
339.004102318583
 20
-83.22275845626544
 30
0.0
 10
338.9758710060204
 20
-83.22091925206978
 30
0.0
 10
338.9569405996764
 20
-83.21998656476994
 30
0.0
 10
338.9454842826128
 20
-83.21962756938105
 30
0.0
 10
338.94193225829
 20
-83.21951626307323
 30
0.0
  0
ARC
  5
87
330
1F
100
AcDbEntity
  8
0
  6
Continuous
 62
     7
370
    25
100
AcDbCircle
 10
335.5266383525
 20
-112.8863200589
 30
0.0
 40
1.0
100
AcDbArc
 50
270.0
 51
360.0
  0
ARC
  5
88
330
1F
100
AcDbEntity
  8
0
  6
Continuous
 62
     7
370
    25
100
AcDbCircle
 10
335.5266383525
 20
-72.8853540706
 30
0.0
 40
1.0
100
AcDbArc
 50
0.0
 51
90.0
  0
LINE
  5
89
330
1F
100
AcDbEntity
  8
0
  6
Continuous
 62
     7
370
    25
100
AcDbLine
 10
329.5266383525
 20
-112.8858370647
 30
0.0
 11
329.9266383525
 21
-112.8858370647
 31
0.0
  0
LINE
  5
8A
330
1F
100
AcDbEntity
  8
0
  6
Continuous
 62
     7
370
    25
100
AcDbLine
 10
329.9266383525
 20
-72.8858370647
 30
0.0
 11
329.5266383525
 21
-72.8858370647
 31
0.0
  0
ARC
  5
8B
330
1F
100
AcDbEntity
  8
0
  6
Continuous
 62
     7
370
    25
100
AcDbCircle
 10
350.5266383525
 20
-76.3858370647
 30
0.0
 40
1.0
100
AcDbArc
 50
0.0
 51
90.0
  0
ARC
  5
8C
330
1F
100
AcDbEntity
  8
0
  6
Continuous
 62
     7
370
    25
100
AcDbCircle
 10
350.5266383525
 20
-109.3858370647
 30
0.0
 40
1.0
100
AcDbArc
 50
270.0
 51
360.0
  0
LINE
  5
8D
330
1F
100
AcDbEntity
  8
0
  6
Continuous
 62
     7
370
    25
100
AcDbLine
 10
337.5266383525
 20
-110.3858370647
 30
0.0
 11
350.5266383525
 21
-110.3858370647
 31
0.0
  0
LINE
  5
8E
330
1F
100
AcDbEntity
  8
0
  6
Continuous
 62
     7
370
    25
100
AcDbLine
 10
350.5266383525
 20
-75.3858370647
 30
0.0
 11
337.5266383525
 21
-75.3858370647
 31
0.0
  0
ARC
  5
8F
330
1F
100
AcDbEntity
  8
0
  6
Continuous
 62
     7
370
    25
100
AcDbCircle
 10
337.5266383525
 20
-111.3858370647
 30
0.0
 40
1.0
100
AcDbArc
 50
90.0
 51
180.0
  0
ARC
  5
90
330
1F
100
AcDbEntity
  8
0
  6
Continuous
 62
     7
370
    25
100
AcDbCircle
 10
337.5266383525
 20
-74.3858370647
 30
0.0
 40
1.000000000000014
100
AcDbArc
 50
180.0
 51
270.0
  0
LINE
  5
91
330
1F
100
AcDbEntity
  8
0
  6
Continuous
 62
     7
370
    25
100
AcDbLine
 10
114.1020256755
 20
-119.4595016403
 30
0.0
 11
119.1740445722
 21
-131.4065537337
 31
0.0
  0
ARC
  5
92
330
1F
100
AcDbEntity
  8
0
  6
Continuous
 62
     7
370
    25
100
AcDbCircle
 10
121.8220156722
 20
-132.1795747083
 30
0.0
 40
1.0
100
AcDbArc
 50
232.6083392013
 51
270.0
  0
LINE
  5
93
330
1F
100
AcDbEntity
  8
0
  6
Continuous
 62
     7
370
    25
100
AcDbLine
 10
119.1888241046
 20
-131.4256034187
 30
0.0
 11
121.2147554632
 21
-132.9740777218
 31
0.0
  0
LINE
  5
94
330
1F
100
AcDbEntity
  8
0
  6
Continuous
 62
     7
370
    25
100
AcDbLine
 10
121.8220156722
 20
-133.1795747083
 30
0.0
 11
122.8480761022
 21
-133.1795747083
 31
0.0
  0
ARC
  5
95
330
1F
100
AcDbEntity
  8
0
  6
Continuous
 62
     7
370
    25
100
AcDbCircle
 10
114.1020768644
 20
-143.6179133258
 30
0.0
 40
1.000000000000014
100
AcDbArc
 50
263.9504995542
 51
270.0
  0
LINE
  5
96
330
1F
100
AcDbEntity
  8
0
  6
Continuous
 62
     7
370
    25
100
AcDbLine
 10
101.921628688
 20
-118.2089934485
 30
0.0
 11
114.1199600847
 21
-119.5017458284
 31
0.0
  0
LINE
  5
97
330
1F
100
AcDbEntity
  8
0
  6
Continuous
 62
     7
370
    25
100
AcDbLine
 10
98.880571168
 20
-143.0103715388
 30
0.0
 11
113.9966892272
 21
-144.6123445431
 31
0.0
  0
LINE
  5
98
330
1F
100
AcDbEntity
  8
0
  6
Continuous
 62
     7
370
    25
100
AcDbLine
 10
114.1020768644
 20
-144.6179133258
 30
0.0
 11
120.6004595876
 21
-144.6179133258
 31
0.0
  0
LINE
  5
99
330
1F
100
AcDbEntity
  8
0
  6
Continuous
 62
     7
370
    25
100
AcDbLine
 10
91.8110989026
 20
-127.6746471645
 30
0.0
 11
98.0654760157
 21
-142.4067234255
 31
0.0
  0
LINE
  5
9A
330
1F
100
AcDbEntity
  8
0
  6
Continuous
 62
     7
370
    25
100
AcDbLine
 10
99.8442602908
 20
-116.6400284565
 30
0.0
 11
101.8701916494
 21
-118.1885027596
 31
0.0
  0
ARC
  5
9B
330
1F
100
AcDbEntity
  8
0
  6
Continuous
 62
     7
370
    25
100
AcDbCircle
 10
101.5933226381
 20
-114.1537608037
 30
0.0
 40
1.000000000000008
100
AcDbArc
 50
90.0
 51
145.9838840339
  0
LINE
  5
9C
330
1F
100
AcDbEntity
  8
0
  6
Continuous
 62
     7
370
    25
100
AcDbLine
 10
100.7644423863
 20
-113.5943347334
 30
0.0
 11
99.622640248
 21
-115.2860993726
 31
0.0
  0
ARC
  5
9D
330
1F
100
AcDbEntity
  8
0
  6
Continuous
 62
     7
370
    25
100
AcDbCircle
 10
100.4515204998
 20
-115.8455254429
 30
0.0
 40
0.9999999999999996
100
AcDbArc
 50
145.9838840339
 51
232.6083392013
  0
ARC
  5
9E
330
1F
100
AcDbEntity
  8
0
  6
Continuous
 62
     7
370
    25
100
AcDbCircle
 10
98.9859588051
 20
-142.0159403215
 30
0.0
 40
1.000000000000001
100
AcDbArc
 50
203.003235201
 51
263.9504995542
  0
LINE
  5
9F
330
1F
100
AcDbEntity
  8
0
  6
Continuous
 62
     7
370
    25
100
AcDbLine
 10
108.0917053613
 20
-113.1537608037
 30
0.0
 11
101.5933226381
 21
-113.1537608037
 31
0.0
  0
ARC
  5
A0
330
1F
100
AcDbEntity
  8
0
  6
Continuous
 62
     7
370
    25
100
AcDbCircle
 10
93.8733838303
 20
-125.5920994212
 30
0.0
 40
0.9999999999999574
100
AcDbArc
 50
90.0
 51
145.9838840339
  0
LINE
  5
A1
330
1F
100
AcDbEntity
  8
0
  6
Continuous
 62
     7
370
    25
100
AcDbLine
 10
93.0445035784
 20
-125.0326733509
 30
0.0
 11
91.9027014401
 21
-126.7244379901
 31
0.0
  0
ARC
  5
A2
330
1F
100
AcDbEntity
  8
0
  6
Continuous
 62
     7
370
    25
100
AcDbCircle
 10
92.731581692
 20
-127.2838640604
 30
0.0
 40
1.000000000000019
100
AcDbArc
 50
145.9838840339
 51
203.003235201
  0
LINE
  5
A3
330
1F
100
AcDbEntity
  8
0
  6
Continuous
 62
     7
370
    25
100
AcDbLine
 10
94.8994442603
 20
-124.5920994212
 30
0.0
 11
93.8733838303
 21
-124.5920994212
 31
0.0
  0
LINE
  5
A4
330
1F
100
AcDbEntity
  8
0
  6
Continuous
 62
     7
370
    25
100
AcDbLine
 10
100.2233787654
 20
-116.9297989925
 30
0.0
 11
95.8509604067
 21
-123.4082443545
 31
0.0
  0
SPLINE
  5
A5
330
1F
100
AcDbEntity
  8
0
  6
Continuous
 62
     7
370
    25
100
AcDbSpline
210
0.0
220
0.0
230
1.0
 70
     8
 71
     3
 72
    17
 73
    13
 74
     0
 42
0.000000001
 43
0.00000001
 40
0.0
 40
0.0
 40
0.0
 40
0.0
 40
0.0616369571249442
 40
0.1791932631029337
 40
0.2972260945565458
 40
0.4150696980864706
 40
0.5317897948817993
 40
0.646511673920713
 40
0.7582188972362117
 40
0.8657389740494809
 40
0.9567390482822885
 40
0.9999999999999999
 40
0.9999999999999999
 40
0.9999999999999999
 40
0.9999999999999999
 10
95.85096040665645
 20
-123.4082443545227
 30
0.0
 10
95.82918220535868
 20
-123.4400996032848
 30
0.0
 10
95.76586780540946
 20
-123.5327103718708
 30
0.0
 10
95.65307911434093
 20
-123.6863693484164
 30
0.0
 10
95.51277713630174
 20
-123.8641746489231
 30
0.0
 10
95.36908889806507
 20
-124.0328078631454
 30
0.0
 10
95.22674595307095
 20
-124.1872936668738
 30
0.0
 10
95.09082932779032
 20
-124.3229541869542
 30
0.0
 10
94.96612204910681
 20
-124.4363568229218
 30
0.0
 10
94.86390422950001
 20
-124.519819259196
 30
0.0
 10
94.79379826158383
 20
-124.5710010955422
 30
0.0
 10
94.76821274818828
 20
-124.5869578963977
 30
0.0
 10
94.75996870527382
 20
-124.5920994211737
 30
0.0
  0
LINE
  5
A6
330
1F
100
AcDbEntity
  8
0
  6
Continuous
 62
     7
370
    25
100
AcDbLine
 10
341.9266383525
 20
-84.8858370647
 30
0.0
 11
339.9266383525
 21
-84.8858370647
 31
0.0
  0
LINE
  5
A7
330
1F
100
AcDbEntity
  8
0
  6
Continuous
 62
     7
370
    25
100
AcDbLine
 10
339.9266383525
 20
-100.8858370647
 30
0.0
 11
341.9266383525
 21
-100.8858370647
 31
0.0
  0
LINE
  5
A8
330
1F
100
AcDbEntity
  8
0
  6
Continuous
 62
     7
370
    25
100
AcDbLine
 10
350.6952478028
 20
4.6141629353
 30
0.0
 11
350.3008325393
 21
27.2101982446
 31
0.0
  0
ARC
  5
A9
330
1F
100
AcDbEntity
  8
0
  6
Continuous
 62
     7
370
    25
100
AcDbCircle
 10
349.3009848442
 20
27.1927458381
 30
0.0
 40
1.000000000000023
100
AcDbArc
 50
1.0
 51
45.0
  0
LINE
  5
AA
330
1F
100
AcDbEntity
  8
0
  6
Continuous
 62
     7
370
    25
100
AcDbLine
 10
350.0080916253
 20
27.8998526193
 30
0.0
 11
348.5794709935
 21
29.3284732512
 31
0.0
  0
ARC
  5
AB
330
1F
100
AcDbEntity
  8
0
  6
Continuous
 62
     7
370
    25
100
AcDbCircle
 10
349.2865777747
 20
30.0355800324
 30
0.0
 40
1.000000000000023
100
AcDbArc
 50
181.0
 51
225.0
  0
LINE
  5
AC
330
1F
100
AcDbEntity
  8
0
  6
Continuous
 62
     7
370
    25
100
AcDbLine
 10
348.2867300795
 20
30.018127626
 30
0.0
 11
347.5083033876
 21
74.6141629353
 31
0.0
  0
LINE
  5
AD
330
1F
100
AcDbEntity
  8
0
  6
Continuous
 62
     7
370
    25
100
AcDbLine
 10
-4.8550266827
 20
74.6141629353
 30
0.0
 11
-4.8809877986
 21
73.1268515991
 31
0.0
  0
LINE
  5
AE
330
1F
100
AcDbEntity
  8
0
  6
Continuous
 62
     7
370
    25
100
AcDbLine
 10
347.5083033876
 20
74.6141629353
 30
0.0
 11
339.7519520538
 21
222.6141629353
 31
0.0
  0
LINE
  5
AF
330
1F
100
AcDbEntity
  8
0
  6
Continuous
 62
     7
370
    25
100
AcDbLine
 10
2.9013246512
 20
222.6141629353
 30
0.0
 11
-4.8550266827
 21
74.6141629353
 31
0.0
  0
LINE
  5
B0
330
1F
100
AcDbEntity
  8
0
  6
Continuous
 62
     7
370
    25
100
AcDbLine
 10
339.7519520538
 20
222.6141629353
 30
0.0
 11
338.9526119084
 21
268.4083291918
 31
0.0
  0
LINE
  5
B1
330
1F
100
AcDbEntity
  8
0
  6
Continuous
 62
     7
370
    25
100
AcDbLine
 10
3.7006647966
 20
268.4083291918
 30
0.0
 11
2.9013246512
 21
222.6141629353
 31
0.0
  0
ARC
  5
B2
330
1F
100
AcDbEntity
  8
0
  6
Continuous
 62
     7
370
    25
100
AcDbCircle
 10
323.9548964811
 20
268.1465430953
 30
0.0
 40
15.00000000000002
100
AcDbArc
 50
1.0
 51
82.900914729
  0
ARC
  5
B3
330
1F
100
AcDbEntity
  8
0
  6
Continuous
 62
     7
370
    25
100
AcDbCircle
 10
18.6983802239
 20
268.1465430953
 30
0.0
 40
15.00000000000002
100
AcDbArc
 50
97.099085271
 51
179.0
  0
ARC
  5
B4
330
1F
100
AcDbEntity
  8
0
  6
Continuous
 62
     7
370
    25
100
AcDbCircle
 10
171.3266383525
 20
-957.3858370647
 30
0.0
 40
1250.0
100
AcDbArc
 50
90.3666954922
 51
97.099085271
  0
ARC
  5
B5
330
1F
100
AcDbEntity
  8
0
  6
Continuous
 62
     7
370
    25
100
AcDbCircle
 10
171.3266383525
 20
-957.3858370647
 30
0.0
 40
1250.0
100
AcDbArc
 50
82.900914729
 51
89.6333045078
  0
LINE
  5
B6
330
1F
100
AcDbEntity
  8
0
  6
Continuous
 62
     7
370
    25
100
AcDbLine
 10
45.1397607638
 20
28.1141629353
 30
0.0
 11
44.5036771569
 21
28.1141629353
 31
0.0
  0
LINE
  5
B7
330
1F
100
AcDbEntity
  8
0
  6
Continuous
 62
     7
370
    25
100
AcDbLine
 10
-3.0885996596
 20
51.4782599678
 30
0.0
 11
-3.4677671799
 21
30.0183218262
 31
0.0
  0
LWPOLYLINE
  5
B8
330
1F
100
AcDbEntity
  8
0
  6
Continuous
 62
     7
370
    25
100
AcDbPolyline
 90
        3
 70
   128
 43
0.0
 10
-5.5079222801
 20
27.210410224
 10
-5.8951743892
 20
5.2909513511
 10
-5.9071248961
 20
4.6144118077
  0
SPLINE
  5
B9
330
1F
100
AcDbEntity
  8
0
  6
Continuous
 62
     7
370
    25
100
AcDbSpline
210
0.0
220
0.0
230
1.0
 70
     8
 71
     3
 72
    12
 73
     8
 74
     0
 42
0.000000001
 43
0.00000001
 40
0.0
 40
0.0
 40
0.0
 40
0.0
 40
0.1844050310714088
 40
0.4238500762945354
 40
0.663324466948704
 40
0.9039009773207884
 40
1.0
 40
1.0
 40
1.0
 40
1.0
 10
-3.472002791398449
 20
30.01949831527658
 30
0.0
 10
-3.473689209575082
 20
29.97240586254736
 30
0.0
 10
-3.477565397055793
 20
29.86416510812644
 30
0.0
 10
-3.52271386205244
 20
29.69918015739471
 30
0.0
 10
-3.60243489112605
 20
29.53376629711367
 30
0.0
 10
-3.685472845073673
 20
29.41026834873579
 30
0.0
 10
-3.749163070408457
 20
29.35250000114849
 30
0.0
 10
-3.76734249780375
 20
29.33601088566499
 30
0.0
  0
ARC
  5
BA
330
1F
100
AcDbEntity
  8
0
  6
Continuous
 62
     7
370
    25
100
AcDbCircle
 10
-4.5080841193
 20
27.1927458381
 30
0.0
 40
1.000000000000015
100
AcDbArc
 50
134.6538699237
 51
178.9878467122
  0
LWPOLYLINE
  5
BB
330
1F
100
AcDbEntity
  8
0
  6
Continuous
 62
     7
370
    25
100
AcDbPolyline
 90
        3
 70
   128
 43
0.0
 10
-3.7646859243
 20
29.332781395
 10
-4.7770612482
 20
28.3327334135
 10
-5.2108459499
 20
27.9040475014
  0
SPLINE
  5
BC
330
1F
100
AcDbEntity
  8
0
  6
Continuous
 62
     7
370
    25
100
AcDbSpline
210
0.0
220
0.0
230
1.0
 70
     8
 71
     3
 72
    47
 73
    43
 74
     0
 42
0.000000001
 43
0.00000001
 40
0.0
 40
0.0
 40
0.0
 40
0.0
 40
0.0070802667528736
 40
0.0232872412582242
 40
0.0462989095197226
 40
0.0714678229590728
 40
0.097139898939229
 40
0.1230048409828721
 40
0.1489783507265398
 40
0.1750145332560455
 40
0.2010762598945066
 40
0.2271208434143597
 40
0.2531130482482478
 40
0.2790222083688676
 40
0.30481983077064
 40
0.330480098095051
 40
0.3559770115879727
 40
0.3817744782772269
 40
0.407545364365121
 40
0.4333892904529706
 40
0.4592933517746269
 40
0.4852430776181325
 40
0.5112226654294985
 40
0.5372154461649948
 40
0.5631987360611634
 40
0.5891554650546236
 40
0.6150693739771719
 40
0.6409253071060866
 40
0.6667096064587068
 40
0.692409277585837
 40
0.7180481162197201
 40
0.7434245813563422
 40
0.7689482707167095
 40
0.7945956044167561
 40
0.8203421077440389
 40
0.8461611574304292
 40
0.8720244776614453
 40
0.8979026945181511
 40
0.9237559587959479
 40
0.9495546367294508
 40
0.9752701414995573
 40
1.0
 40
1.0
 40
1.0
 40
1.0
 10
-4.872912683307224
 20
72.98692889656326
 30
0.0
 10
-4.872859256762729
 20
72.98649546810911
 30
0.0
 10
-4.872683535017436
 20
72.98506990699218
 30
0.0
 10
-4.870118079791652
 20
72.96364419410332
 30
0.0
 10
-4.864342440950963
 20
72.91419904356663
 30
0.0
 10
-4.854155773642926
 20
72.82539273859923
 30
0.0
 10
-4.840074352812973
 20
72.70037537897075
 30
0.0
 10
-4.822380016296313
 20
72.54052671947102
 30
0.0
 10
-4.801286208632932
 20
72.34661542207294
 30
0.0
 10
-4.776965379644143
 20
72.11906568858016
 30
0.0
 10
-4.749604185038642
 20
71.85843540335605
 30
0.0
 10
-4.719400536271845
 20
71.56540701831625
 30
0.0
 10
-4.686564543000676
 20
71.24080651257619
 30
0.0
 10
-4.651309573197149
 20
70.88553047482975
 30
0.0
 10
-4.613859544471715
 20
70.50061492183958
 30
0.0
 10
-4.574419496594845
 20
70.08699880638068
 30
0.0
 10
-4.533021836649581
 20
69.64363383973539
 30
0.0
 10
-4.490163601871405
 20
69.17077998667658
 30
0.0
 10
-4.445947090493119
 20
68.6673414429082
 30
0.0
 10
-4.400836977764166
 20
68.13563260723248
 30
0.0
 10
-4.355101190181953
 20
67.57587041012962
 30
0.0
 10
-4.309085255414457
 20
66.98911380046341
 30
0.0
 10
-4.263139131061355
 20
66.37651688881503
 30
0.0
 10
-4.217619957870289
 20
65.73937419774558
 30
0.0
 10
-4.172885350967381
 20
65.07907062766817
 30
0.0
 10
-4.12928963503259
 20
64.39706632969556
 30
0.0
 10
-4.08717991519103
 20
63.69482585506849
 30
0.0
 10
-4.046888797717335
 20
62.97385100984822
 30
0.0
 10
-4.008761938413236
 20
62.23566017976985
 30
0.0
 10
-3.973031235948665
 20
61.48149879002192
 30
0.0
 10
-3.940332918318967
 20
60.71437951954965
 30
0.0
 10
-3.910774717209437
 20
59.93333186476914
 30
0.0
 10
-3.884365197010409
 20
59.13799813285316
 30
0.0
 10
-3.861146972846869
 20
58.32580506680323
 30
0.0
 10
-3.841311574247857
 20
57.49871152751042
 30
0.0
 10
-3.825045982424669
 20
56.65876646164168
 30
0.0
 10
-3.812523483892827
 20
55.80812016695587
 30
0.0
 10
-3.803917721628331
 20
54.94910749255323
 30
0.0
 10
-3.799344300407237
 20
54.08413415042119
 30
0.0
 10
-3.799055303014026
 20
53.21558564351915
 30
0.0
 10
-3.80266758243869
 20
52.35578110247623
 30
0.0
 10
-3.808760196552741
 20
51.7849233773826
 30
0.0
 10
-3.811746982159386
 20
51.50507147722409
 30
0.0
  0
SPLINE
  5
BD
330
1F
100
AcDbEntity
  8
0
  6
Continuous
 62
     7
370
    25
100
AcDbSpline
210
0.0
220
0.0
230
1.0
 70
     8
 71
     3
 72
    54
 73
    50
 74
     0
 42
0.000000001
 43
0.00000001
 40
0.0
 40
0.0
 40
0.0
 40
0.0
 40
0.0012799965281796
 40
0.0023620973206186
 40
0.0030239075290161
 40
0.0037161797631313
 40
0.0048243911140663
 40
0.0071867126705264
 40
0.0114129952334798
 40
0.0210661662937229
 40
0.0454742256795433
 40
0.0716875682566366
 40
0.097278482076102
 40
0.1228755163927289
 40
0.1485454712462522
 40
0.1742820322957317
 40
0.2000584654686746
 40
0.2258393495387818
 40
0.2515804747752808
 40
0.2772469330202491
 40
0.3028052253844508
 40
0.328224128419584
 40
0.3534754174679395
 40
0.3785395971111641
 40
0.403960984108321
 40
0.429428338629412
 40
0.4549637587555217
 40
0.4805540518459468
 40
0.5061845185309886
 40
0.5318393372894327
 40
0.5575004070765682
 40
0.5831470237319356
 40
0.6087628435697129
 40
0.634332349316779
 40
0.6598412558159901
 40
0.6852768816232185
 40
0.7106234435546445
 40
0.7358293310545947
 40
0.760922031081008
 40
0.786152613668611
 40
0.8114981551404026
 40
0.83693430449425
 40
0.8624346888935087
 40
0.8879714100438882
 40
0.9135132166508922
 40
0.9390234557891184
 40
0.9644732960946203
 40
0.9898350117562477
 40
1.0
 40
1.0
 40
1.0
 40
1.0
 10
-4.880624489903617
 20
73.12689083358968
 30
0.0
 10
-4.880777882350112
 20
73.11231521076704
 30
0.0
 10
-4.881060951779564
 20
73.08541745061096
 30
0.0
 10
-4.879271168322541
 20
73.05331608187905
 30
0.0
 10
-4.877958049398168
 20
73.03512950237311
 30
0.0
 10
-4.876974387446803
 20
73.02370447094732
 30
0.0
 10
-4.875988034597073
 20
73.01338161446495
 30
0.0
 10
-4.875202171986393
 20
73.00597572055722
 30
0.0
 10
-4.874421428842063
 20
72.99882539900817
 30
0.0
 10
-4.873012472460108
 20
72.98642725053493
 30
0.0
 10
-4.869045837552988
 20
72.95176897148121
 30
0.0
 10
-4.86023255131901
 20
72.8743306693616
 30
0.0
 10
-4.847489951480544
 20
72.76088231117376
 30
0.0
 10
-4.831275102822108
 20
72.61441381578169
 30
0.0
 10
-4.811630422805052
 20
72.43417300193893
 30
0.0
 10
-4.788695203753107
 20
72.22025659669447
 30
0.0
 10
-4.762640457671247
 20
71.97303958346461
 30
0.0
 10
-4.733660964433367
 20
71.69312419359451
 30
0.0
 10
-4.701967883808833
 20
71.3812904522213
 30
0.0
 10
-4.667785965917743
 20
71.03847510682644
 30
0.0
 10
-4.631337837730204
 20
70.66566894569557
 30
0.0
 10
-4.592875247786371
 20
70.26408535461717
 30
0.0
 10
-4.552559022380192
 20
69.83454093285623
 30
0.0
 10
-4.510567535077254
 20
69.37614296307403
 30
0.0
 10
-4.46721235920905
 20
68.88796007750862
 30
0.0
 10
-4.422605408534647
 20
68.36883254650576
 30
0.0
 10
-4.377241034751483
 20
67.821400389114
 30
0.0
 10
-4.331436207140216
 20
67.24643930281574
 30
0.0
 10
-4.285538210592327
 20
66.64504873728293
 30
0.0
 10
-4.239899323957213
 20
66.01844042597168
 30
0.0
 10
-4.194876580760676
 20
65.36795021397967
 30
0.0
 10
-4.150826016113412
 20
64.69499736151339
 30
0.0
 10
-4.108098299296758
 20
64.00105425826082
 30
0.0
 10
-4.067036164566412
 20
63.28760136273849
 30
0.0
 10
-4.027968819271422
 20
62.55615480827321
 30
0.0
 10
-3.991232445659021
 20
61.80826315571201
 30
0.0
 10
-3.957109273594689
 20
61.04601556850441
 30
0.0
 10
-3.926195991341891
 20
60.27088341161212
 30
0.0
 10
-3.898465452216504
 20
59.48206727435264
 30
0.0
 10
-3.873949993582593
 20
58.67827014372319
 30
0.0
 10
-3.85273915918799
 20
57.85851719952807
 30
0.0
 10
-3.835016458191454
 20
57.02478665673179
 30
0.0
 10
-3.820958419721854
 20
56.17915417477441
 30
0.0
 10
-3.81072259352469
 20
55.3238176726014
 30
0.0
 10
-3.804486547992814
 20
54.4611220982441
 30
0.0
 10
-3.802288857117531
 20
53.59349661965911
 30
0.0
 10
-3.804604070352269
 20
52.72323432589189
 30
0.0
 10
-3.80909067472171
 20
52.02557490867633
 30
0.0
 10
-3.81444523994362
 20
51.61811333236295
 30
0.0
 10
-3.815977301366375
 20
51.50152942004625
 30
0.0
  0
LINE
  5
BE
330
1F
100
AcDbEntity
  8
0
  6
Continuous
 62
     7
370
    25
100
AcDbLine
 10
-3.1087440272
 20
50.6375321309
 30
0.0
 11
-3.4732313545
 21
30.0183413337
 31
0.0
  0
LINE
  5
BF
330
1F
100
AcDbEntity
  8
0
  6
Continuous
 62
     7
370
    25
100
AcDbLine
 10
-5.5110403323
 20
27.210388068
 30
0.0
 11
-5.9101695405
 21
4.6144407014
 31
0.0
  0
ARC
  5
C0
330
1F
100
AcDbEntity
  8
0
  6
Continuous
 62
     7
370
    25
100
AcDbCircle
 10
-4.5124528955
 20
27.1927458381
 30
0.0
 40
1.000000000000005
100
AcDbArc
 50
134.6538699237
 51
178.9878467122
  0
LINE
  5
C1
330
1F
100
AcDbEntity
  8
0
  6
Continuous
 62
     7
370
    25
100
AcDbLine
 10
-3.7688823695
 20
29.3326078273
 30
0.0
 11
-5.2151906973
 21
27.9040286965
 31
0.0
  0
SPLINE
  5
C2
330
1F
100
AcDbEntity
  8
0
  6
Continuous
 62
     7
370
    25
100
AcDbSpline
210
0.0
220
0.0
230
1.0
 70
     8
 71
     3
 72
    12
 73
     8
 74
     0
 42
0.000000001
 43
0.00000001
 40
0.0
 40
0.0
 40
0.0
 40
0.0
 40
0.1354665309230399
 40
0.3752549753141648
 40
0.6126009580094052
 40
0.8559147336284145
 40
1.0
 40
1.0
 40
1.0
 40
1.0
 10
-3.477672789671316
 20
30.01868945895884
 30
0.0
 10
-3.477679710811504
 20
29.98407669611029
 30
0.0
 10
-3.477698883017855
 20
29.8881961019901
 30
0.0
 10
-3.51593428557806
 20
29.73478538473877
 30
0.0
 10
-3.587637111017145
 20
29.56545654041319
 30
0.0
 10
-3.674866664757221
 20
29.42997003993507
 30
0.0
 10
-3.745620666596394
 20
29.36080862325706
 30
0.0
 10
-3.771936191667047
 20
29.33508542814157
 30
0.0
  0
LINE
  5
C3
330
1F
100
AcDbEntity
  8
0
  6
Continuous
 62
     7
370
    25
100
AcDbLine
 10
34.9372561997
 20
-171.6560351504
 30
0.0
 11
34.9372561997
 21
-170.5560351504
 31
0.0
  0
LINE
  5
C4
330
1F
100
AcDbEntity
  8
0
  6
Continuous
 62
     7
370
    25
100
AcDbLine
 10
26.9372561997
 20
-170.5560351504
 30
0.0
 11
26.9372561997
 21
-171.6560351504
 31
0.0
  0
ARC
  5
C5
330
1F
100
AcDbEntity
  8
0
  6
Continuous
 62
     7
370
    25
100
AcDbCircle
 10
32.9372561997
 20
-170.5560351504
 30
0.0
 40
2.000000000000011
100
AcDbArc
 50
0.0
 51
61.6387710849
  0
LINE
  5
C6
330
1F
100
AcDbEntity
  8
0
  6
Continuous
 62
     7
370
    25
100
AcDbLine
 10
33.1931352804
 20
-168.5724712124
 30
0.0
 11
32.9372561997
 21
-168.5560351504
 31
0.0
  0
ARC
  5
C7
330
1F
100
AcDbEntity
  8
0
  6
Continuous
 62
     7
370
    25
100
AcDbCircle
 10
28.9372561997
 20
-170.5560351504
 30
0.0
 40
2.000000000000004
100
AcDbArc
 50
90.0
 51
180.0
  0
LINE
  5
C8
330
1F
100
AcDbEntity
  8
0
  6
Continuous
 62
     7
370
    25
100
AcDbLine
 10
32.9372561997
 20
-172.2146423318
 30
0.0
 11
32.9372561997
 21
-171.6560351504
 31
0.0
  0
LINE
  5
C9
330
1F
100
AcDbEntity
  8
0
  6
Continuous
 62
     7
370
    25
100
AcDbLine
 10
28.9372561997
 20
-171.6560351504
 30
0.0
 11
28.9372561997
 21
-172.2492819475
 31
0.0
  0
LINE
  5
CA
330
1F
100
AcDbEntity
  8
0
  6
Continuous
 62
     7
370
    25
100
AcDbLine
 10
13.3266383525
 20
-161.8858370647
 30
0.0
 11
13.3266383525
 21
-172.1734895448
 31
0.0
  0
LINE
  5
CB
330
1F
100
AcDbEntity
  8
0
  6
Continuous
 62
     7
370
    25
100
AcDbLine
 10
329.3266383525
 20
-172.1757703059
 30
0.0
 11
329.3266383525
 21
-161.8858370647
 31
0.0
  0
LINE
  5
CC
330
1F
100
AcDbEntity
  8
0
  6
Continuous
 62
     7
370
    25
100
AcDbLine
 10
350.3228904627
 20
-189.3858370647
 30
0.0
 11
350.3228904627
 21
-177.5803175151
 31
0.0
  0
SPLINE
  5
CD
330
1F
100
AcDbEntity
  8
0
  6
Continuous
 62
     7
370
    25
100
AcDbSpline
210
0.0
220
0.0
230
1.0
 70
     8
 71
     3
 72
    41
 73
    37
 74
     0
 42
0.000000001
 43
0.00000001
 40
0.0
 40
0.0
 40
0.0
 40
0.0
 40
0.0261608746711818
 40
0.0669373086889088
 40
0.1071704940856411
 40
0.1468756417072342
 40
0.1860601679558168
 40
0.2247244259048357
 40
0.2628620131531418
 40
0.3004597196764411
 40
0.3374971162731517
 40
0.3739457953136272
 40
0.4097681883105447
 40
0.4449158059521547
 40
0.4793267072277482
 40
0.5129217639477331
 40
0.5455988245546579
 40
0.5772226074559194
 40
0.6076043569771166
 40
0.6364535912702362
 40
0.6632549336489092
 40
0.6870426498866846
 40
0.7066390074740772
 40
0.7221366987822864
 40
0.7349970070963239
 40
0.7468505257716415
 40
0.7592537606520876
 40
0.7733848505211824
 40
0.7916592649179431
 40
0.8191860716467462
 40
0.8565765531597317
 40
0.8904249209704189
 40
0.926133303113411
 40
0.9604916718592381
 40
0.9942172707570549
 40
1.0
 40
1.0
 40
1.0
 40
1.0
 10
350.3162808480764
 20
-177.5803167051981
 30
0.0
 10
350.3165323703654
 20
-177.4925952943524
 30
0.0
 10
350.3171759354339
 20
-177.2681442685282
 30
0.0
 10
350.2799232924108
 20
-176.910127064747
 30
0.0
 10
350.2104586813742
 20
-176.5112701133093
 30
0.0
 10
350.1091654640105
 20
-176.1245539019552
 30
0.0
 10
349.9796348910517
 20
-175.7520409558487
 30
0.0
 10
349.8233869075944
 20
-175.3956341132313
 30
0.0
 10
349.6426411549432
 20
-175.0570516712882
 30
0.0
 10
349.4395854711887
 20
-174.7378201756614
 30
0.0
 10
349.2165637715012
 20
-174.4392635692199
 30
0.0
 10
348.9760233861621
 20
-174.162493958272
 30
0.0
 10
348.7205280317874
 20
-173.9084023381613
 30
0.0
 10
348.4527582744443
 20
-173.6776494460762
 30
0.0
 10
348.1755234102493
 20
-173.4706564988776
 30
0.0
 10
347.8917847114087
 20
-173.2875959815171
 30
0.0
 10
347.6047036681847
 20
-173.1283837953791
 30
0.0
 10
347.317746218644
 20
-172.9926772750241
 30
0.0
 10
347.034932708311
 20
-172.8798919874995
 30
0.0
 10
346.7614805934533
 20
-172.7892623624575
 30
0.0
 10
346.5051856841226
 20
-172.7199014625853
 30
0.0
 10
346.2769830614092
 20
-172.6703433811866
 30
0.0
 10
346.086236403362
 20
-172.6373967335659
 30
0.0
 10
345.9347895234736
 20
-172.6164635707541
 30
0.0
 10
345.8157361689404
 20
-172.603096369661
 30
0.0
 10
345.7184292540396
 20
-172.5940980455881
 30
0.0
 10
345.6342103018999
 20
-172.587624203056
 30
0.0
 10
345.5534467798409
 20
-172.5824176211425
 30
0.0
 10
345.4611201508638
 20
-172.5774198185263
 30
0.0
 10
345.3415287783142
 20
-172.5720386001166
 30
0.0
 10
345.1869798228527
 20
-172.5662000534042
 30
0.0
 10
344.9926112082405
 20
-172.5597888972264
 30
0.0
 10
344.7769277543226
 20
-172.5533440286735
 30
0.0
 10
344.5326341362261
 20
-172.5466589565793
 30
0.0
 10
344.3464076995306
 20
-172.5417897743141
 30
0.0
 10
344.2359963413758
 20
-172.5391229485641
 30
0.0
 10
344.2198357236124
 20
-172.5387326123495
 30
0.0
  0
LINE
  5
CE
330
1F
100
AcDbEntity
  8
0
  6
Continuous
 62
     7
370
    25
100
AcDbLine
 10
-7.6696137577
 20
-177.5802991449
 30
0.0
 11
-7.6696137577
 21
-189.3858370647
 31
0.0
  0
SPLINE
  5
CF
330
1F
100
AcDbEntity
  8
0
  6
Continuous
 62
     7
370
    25
100
AcDbSpline
210
0.0
220
0.0
230
1.0
 70
     8
 71
     3
 72
    39
 73
    35
 74
     0
 42
0.000000001
 43
0.00000001
 40
0.0
 40
0.0
 40
0.0
 40
0.0
 40
0.0105589792270121
 40
0.0434744191952049
 40
0.0768675162775772
 40
0.110803964120863
 40
0.1455565825716547
 40
0.1820853198982092
 40
0.2174015536137593
 40
0.2359989092345816
 40
0.2494568984348885
 40
0.2627549104782161
 40
0.2763620864619277
 40
0.2925969192873648
 40
0.3137690983294114
 40
0.3409225021263607
 40
0.3711717540046194
 40
0.4031869607825632
 40
0.4372213538815969
 40
0.4727984304825789
 40
0.5094286169806171
 40
0.5467645286744705
 40
0.5845808859868034
 40
0.622733032934666
 40
0.6611263602084007
 40
0.6996972443677756
 40
0.7384015962786634
 40
0.7772079326669321
 40
0.816093140862532
 40
0.8550397686144016
 40
0.8940342527890014
 40
0.9368933798945055
 40
0.9791911990611354
 40
1.0
 40
1.0
 40
1.0
 40
1.0
 10
-1.566059110802126
 20
-172.5387297028491
 30
0.0
 10
-1.59533065192502
 20
-172.5394412450588
 30
0.0
 10
-1.715850185291495
 20
-172.5423708733528
 30
0.0
 10
-1.908371481516513
 20
-172.5474253406148
 30
0.0
 10
-2.141414990148582
 20
-172.5538572754019
 30
0.0
 10
-2.351713954167861
 20
-172.5601758432533
 30
0.0
 10
-2.541444816542449
 20
-172.5664651172414
 30
0.0
 10
-2.707380593938852
 20
-172.5728047265789
 30
0.0
 10
-2.835100555626746
 20
-172.5786716196399
 30
0.0
 10
-2.946477833102451
 20
-172.5852444808746
 30
0.0
 10
-3.039645058151602
 20
-172.5919835358211
 30
0.0
 10
-3.141593226999861
 20
-172.6009601386342
 30
0.0
 10
-3.267822949297478
 20
-172.6147220197777
 30
0.0
 10
-3.428591776675288
 20
-172.6366050368154
 30
0.0
 10
-3.637846179339543
 20
-172.6727744892565
 30
0.0
 10
-3.893294113934437
 20
-172.7296026374804
 30
0.0
 10
-4.181006069321175
 20
-172.8111598637566
 30
0.0
 10
-4.485252172041765
 20
-172.9183112102145
 30
0.0
 10
-4.798351836769688
 20
-173.0525077353832
 30
0.0
 10
-5.115177297772333
 20
-173.2153825169522
 30
0.0
 10
-5.428871168322136
 20
-173.4065971295996
 30
0.0
 10
-5.733631440187708
 20
-173.624983233555
 30
0.0
 10
-6.024970137186641
 20
-173.8690442105757
 30
0.0
 10
-6.299384471167235
 20
-174.1371143317288
 30
0.0
 10
-6.554051104819159
 20
-174.4274010393165
 30
0.0
 10
-6.786627057129458
 20
-174.7379963855083
 30
0.0
 10
-6.995138016336027
 20
-175.0668830285142
 30
0.0
 10
-7.177894648536021
 20
-175.411941812105
 30
0.0
 10
-7.33351972724236
 20
-175.7709596784382
 30
0.0
 10
-7.46068441929626
 20
-176.141645914816
 30
0.0
 10
-7.562220635820211
 20
-176.5340594272776
 30
0.0
 10
-7.631222540548432
 20
-176.9446477813246
 30
0.0
 10
-7.665814755473788
 20
-177.2989343156667
 30
0.0
 10
-7.663253271634085
 20
-177.5104857762899
 30
0.0
 10
-7.66240864697762
 20
-177.5802428354554
 30
0.0
  0
LINE
  5
D0
330
1F
100
AcDbEntity
  8
0
  6
Continuous
 62
     7
370
    25
100
AcDbLine
 10
344.2235789309
 20
-172.5430335431
 30
0.0
 11
321.6941244419
 21
-171.9876013492
 31
0.0
  0
LINE
  5
D1
330
1F
100
AcDbEntity
  8
0
  6
Continuous
 62
     7
370
    25
100
AcDbLine
 10
20.9591162229
 20
-171.9859162717
 30
0.0
 11
-1.5704221016
 21
-172.5395948173
 31
0.0
  0
SPLINE
  5
D2
330
1F
100
AcDbEntity
  8
0
  6
Continuous
 62
     7
370
    25
100
AcDbSpline
210
0.0
220
0.0
230
1.0
 70
     8
 71
     3
 72
    10
 73
     6
 74
     0
 42
0.000000001
 43
0.00000001
 40
0.0
 40
0.0
 40
0.0
 40
0.0
 40
0.3294416728203297
 40
0.7106158731158454
 40
1.0
 40
1.0
 40
1.0
 40
1.0
 10
321.7001360019831
 20
-171.9763986998555
 30
0.0
 10
321.6365970106195
 20
-171.9741054491658
 30
0.0
 10
321.4995414419108
 20
-171.9691588365312
 30
0.0
 10
321.2997834338763
 20
-171.932752908334
 30
0.0
 10
321.1591672075168
 20
-171.8883104399172
 30
0.0
 10
321.0984832934687
 20
-171.8691309824441
 30
0.0
  0
SPLINE
  5
D3
330
1F
100
AcDbEntity
  8
0
  6
Continuous
 62
     7
370
    25
100
AcDbSpline
210
0.0
220
0.0
230
1.0
 70
     8
 71
     3
 72
    10
 73
     6
 74
     0
 42
0.000000001
 43
0.00000001
 40
0.0
 40
0.0
 40
0.0
 40
0.0
 40
0.2383281213238169
 40
0.61305624870244
 40
1.0
 40
1.0
 40
1.0
 40
1.0
 10
21.55492123987429
 20
-171.8680656881396
 30
0.0
 10
21.50469798696902
 20
-171.8847441739816
 30
0.0
 10
21.3755076973266
 20
-171.9276465805779
 30
0.0
 10
21.175218225782
 20
-171.9657735645527
 30
0.0
 10
21.0277064025606
 20
-171.9747191993758
 30
0.0
 10
20.95276760038609
 20
-171.9792637514239
 30
0.0
  0
SPLINE
  5
D4
330
1F
100
AcDbEntity
  8
0
  6
Continuous
 62
     7
370
    25
100
AcDbSpline
210
0.0
220
0.0
230
1.0
 70
     8
 71
     3
 72
    22
 73
    18
 74
     0
 42
0.000000001
 43
0.00000001
 40
0.0
 40
0.0
 40
0.0
 40
0.0
 40
0.0298609992212104
 40
0.0778158230908071
 40
0.1290073476105391
 40
0.1830733690633249
 40
0.2573280918028908
 40
0.3598537198639191
 40
0.4468332881458125
 40
0.5291293825437776
 40
0.5867695120733438
 40
0.6421093702706511
 40
0.7305596371592962
 40
0.8134954665911595
 40
0.9020122630818459
 40
0.9871838541855184
 40
1.0
 40
1.0
 40
1.0
 40
1.0
 10
321.1065798527005
 20
-171.8755330196863
 30
0.0
 10
321.0812276660918
 20
-171.8669752354815
 30
0.0
 10
321.0151615156091
 20
-171.8446742060754
 30
0.0
 10
320.9421128528867
 20
-171.8103865288637
 30
0.0
 10
320.8816456886823
 20
-171.7770625509386
 30
0.0
 10
320.84574585118
 20
-171.7523742997792
 30
0.0
 10
320.7897852153602
 20
-171.7066265635446
 30
0.0
 10
320.7471742651419
 20
-171.6597361673591
 30
0.0
 10
320.6942474012715
 20
-171.5863870104381
 30
0.0
 10
320.6462722834393
 20
-171.5005584615993
 30
0.0
 10
320.6029454576321
 20
-171.4045291230719
 30
0.0
 10
320.553105405577
 20
-171.2728545809963
 30
0.0
 10
320.506861606809
 20
-171.1149732287805
 30
0.0
 10
320.4630333935689
 20
-170.9043736319538
 30
0.0
 10
320.4353364270548
 20
-170.6647480041962
 30
0.0
 10
320.4222375194835
 20
-170.475341372834
 30
0.0
 10
320.425319726327
 20
-170.3616896133215
 30
0.0
 10
320.4257228585309
 20
-170.3468247172866
 30
0.0
  0
SPLINE
  5
D5
330
1F
100
AcDbEntity
  8
0
  6
Continuous
 62
     7
370
    25
100
AcDbSpline
210
0.0
220
0.0
230
1.0
 70
     8
 71
     3
 72
    22
 73
    18
 74
     0
 42
0.000000001
 43
0.00000001
 40
0.0
 40
0.0
 40
0.0
 40
0.0
 40
0.0164390546764036
 40
0.0987946565300712
 40
0.1814004871682907
 40
0.2654214991620195
 40
0.3527149350326916
 40
0.4156624679691391
 40
0.4665278408661622
 40
0.517954075918076
 40
0.6035117460398762
 40
0.6934965195472588
 40
0.8020602715018971
 40
0.860057805319297
 40
0.9101617903457834
 40
0.9614934127757234
 40
1.0
 40
1.0
 40
1.0
 40
1.0
 10
22.22730963379713
 20
-170.3462990347214
 30
0.0
 10
22.22778157124433
 20
-170.3653094235472
 30
0.0
 10
22.23061779868662
 20
-170.4795571629411
 30
0.0
 10
22.2179144563488
 20
-170.6637039042002
 30
0.0
 10
22.1912931655989
 20
-170.8967314011334
 30
0.0
 10
22.14909492710354
 20
-171.1041365926289
 30
0.0
 10
22.10186011195941
 20
-171.2683427212082
 30
0.0
 10
22.0518290976158
 20
-171.4008719883086
 30
0.0
 10
22.01526189721864
 20
-171.4822841044468
 30
0.0
 10
21.97497199616078
 20
-171.5592153030561
 30
0.0
 10
21.92884681447274
 20
-171.6303559146572
 30
0.0
 10
21.87955849325271
 20
-171.6905692215933
 30
0.0
 10
21.82690368094606
 20
-171.7379576899877
 30
0.0
 10
21.78013546030447
 20
-171.7717383114407
 30
0.0
 10
21.72659432909627
 20
-171.8024049569452
 30
0.0
 10
21.65255584131404
 20
-171.8389047337836
 30
0.0
 10
21.57870354117097
 20
-171.8645846783843
 30
0.0
 10
21.54704885829031
 20
-171.875591654486
 30
0.0
  0
LINE
  5
D6
330
1F
100
AcDbEntity
  8
0
  6
Continuous
 62
     7
370
    25
100
AcDbLine
 10
11.7266383525
 20
-161.8858370647
 30
0.0
 11
330.9266383525
 21
-161.8858370647
 31
0.0
  0
SPLINE
  5
D7
330
1F
100
AcDbEntity
  8
0
  6
Continuous
 62
     7
370
    25
100
AcDbSpline
210
0.0
220
0.0
230
1.0
 70
     8
 71
     3
 72
    24
 73
    20
 74
     0
 42
0.000000001
 43
0.00000001
 40
0.0
 40
0.0
 40
0.0
 40
0.0
 40
0.0671865006071087
 40
0.1310152103220826
 40
0.1949555389539002
 40
0.2514142222185034
 40
0.3078729839669505
 40
0.3646376704468591
 40
0.421402464180356
 40
0.5033744465205807
 40
0.5855725551913153
 40
0.636917214854875
 40
0.6883158496508
 40
0.7400116728453662
 40
0.791707585446849
 40
0.8436186412642106
 40
0.8955297793293675
 40
0.9477380915017651
 40
1.0
 40
1.0
 40
1.0
 40
1.0
 10
330.9264426265773
 20
-67.88642540327801
 30
0.0
 10
330.9235659790846
 20
-67.8950655646259
 30
0.0
 10
330.917956450788
 20
-67.91191407654391
 30
0.0
 10
330.8723060879784
 20
-68.0492334752661
 30
0.0
 10
330.8047626053487
 20
-68.25302136791396
 30
0.0
 10
330.7158344570598
 20
-68.52240321256524
 30
0.0
 10
330.6099212843108
 20
-68.844872538952
 30
0.0
 10
330.4834304022166
 20
-69.23228804600855
 30
0.0
 10
330.3153084852098
 20
-69.75101463943507
 30
0.0
 10
330.0950721906538
 20
-70.43734924348325
 30
0.0
 10
329.847591898494
 20
-71.22005051071136
 30
0.0
 10
329.6142259984718
 20
-71.96887317472924
 30
0.0
 10
329.4066225791523
 20
-72.64304972333609
 30
0.0
 10
329.1865670855489
 20
-73.36707168348448
 30
0.0
 10
328.9546137998959
 20
-74.1412790911834
 30
0.0
 10
328.712061067472
 20
-74.96340406395365
 30
0.0
 10
328.459208476422
 20
-75.83541501479131
 30
0.0
 10
328.1977965155731
 20
-76.75191084303952
 30
0.0
 10
328.0170553153843
 20
-77.40196833455275
 30
0.0
 10
327.9266383524882
 20
-77.72716382970891
 30
0.0
  0
SPLINE
  5
D8
330
1F
100
AcDbEntity
  8
0
  6
Continuous
 62
     7
370
    25
100
AcDbSpline
210
0.0
220
0.0
230
1.0
 70
     8
 71
     3
 72
    12
 73
     8
 74
     0
 42
0.000000001
 43
0.00000001
 40
0.0
 40
0.0
 40
0.0
 40
0.0
 40
0.5000000000000007
 40
0.5000000000000007
 40
0.7500000000000003
 40
0.7500000000000003
 40
1.0
 40
1.0
 40
1.0
 40
1.0
 10
327.9266383524882
 20
-77.72716382970894
 30
0.0
 10
327.6451211597213
 20
-78.74591720245034
 30
0.0
 10
327.352749071367
 20
-79.83691762679408
 30
0.0
 10
326.9037330865253
 20
-81.5850620048322
 30
0.0
 10
326.7524493944338
 20
-82.18601737408206
 30
0.0
 10
326.4507161821248
 20
-83.41243519042298
 30
0.0
 10
326.2998705289015
 20
-84.03942282358835
 30
0.0
 10
326.1495835364431
 20
-84.68003725182031
 30
0.0
  0
SPLINE
  5
D9
330
1F
100
AcDbEntity
  8
0
  6
Continuous
 62
     7
370
    25
100
AcDbSpline
210
0.0
220
0.0
230
1.0
 70
     8
 71
     3
 72
    28
 73
    24
 74
     0
 42
0.000000001
 43
0.00000001
 40
0.0
 40
0.0
 40
0.0
 40
0.0
 40
0.1249999999999963
 40
0.1249999999999963
 40
0.187499999999995
 40
0.187499999999995
 40
0.2499999999999937
 40
0.2499999999999937
 40
0.3749999999999937
 40
0.3749999999999937
 40
0.4999999999999938
 40
0.4999999999999938
 40
0.6249999999999938
 40
0.6249999999999938
 40
0.6874999999999948
 40
0.6874999999999948
 40
0.7499999999999958
 40
0.7499999999999958
 40
0.8124999999999969
 40
0.8124999999999969
 40
0.8749999999999979
 40
0.8749999999999979
 40
1.0
 40
1.0
 40
1.0
 40
1.0
 10
326.1495835364431
 20
-84.68003725182031
 30
0.0
 10
326.0211778022463
 20
-85.22738046927799
 30
0.0
 10
325.9042683185799
 20
-85.81626327534795
 30
0.0
 10
325.7481556306896
 20
-86.76128609693758
 30
0.0
 10
325.6993434662574
 20
-87.08664375142862
 30
0.0
 10
325.6087389577508
 20
-87.75880272734783
 30
0.0
 10
325.5669374151636
 20
-88.10628062878394
 30
0.0
 10
325.455453269449
 20
-89.15822807399816
 30
0.0
 10
325.3985182180127
 20
-89.87941040026332
 30
0.0
 10
325.3212236750524
 20
-91.36168578401617
 30
0.0
 10
325.3011975122338
 20
-92.12923228361122
 30
0.0
 10
325.3011659130056
 20
-93.64060227484515
 30
0.0
 10
325.3205011430503
 20
-94.3912101392529
 30
0.0
 10
325.378429646206
 20
-95.50941598477165
 30
0.0
 10
325.4027200648273
 20
-95.88196928083113
 30
0.0
 10
325.4598183573563
 20
-96.60868511881267
 30
0.0
 10
325.4926921369821
 20
-96.96473057523421
 30
0.0
 10
325.5666285843752
 20
-97.6625748923968
 30
0.0
 10
325.6076919784529
 20
-98.00437304477923
 30
0.0
 10
325.6977226758407
 20
-98.6737162755782
 30
0.0
 10
325.7468482146001
 20
-99.00220865481414
 30
0.0
 10
325.9048507210292
 20
-99.95946128710088
 30
0.0
 10
326.0222219312506
 20
-100.5487443720771
 30
0.0
 10
326.1495835364431
 20
-101.0916368776389
 30
0.0
  0
SPLINE
  5
DA
330
1F
100
AcDbEntity
  8
0
  6
Continuous
 62
     7
370
    25
100
AcDbSpline
210
0.0
220
0.0
230
1.0
 70
     8
 71
     3
 72
    12
 73
     8
 74
     0
 42
0.000000001
 43
0.00000001
 40
0.0
 40
0.0
 40
0.0
 40
0.0
 40
0.2500000000000003
 40
0.2500000000000003
 40
0.5000000000000007
 40
0.5000000000000007
 40
1.0
 40
1.0
 40
1.0
 40
1.0
 10
326.1495835364431
 20
-101.0916368776389
 30
0.0
 10
326.3003816302683
 20
-101.7344299302783
 30
0.0
 10
326.4518123015629
 20
-102.3638013294436
 30
0.0
 10
326.7548549248262
 20
-103.5953258444729
 30
0.0
 10
326.9061139788482
 20
-104.1959828611355
 30
0.0
 10
327.3537778741
 20
-105.938557422582
 30
0.0
 10
327.6455127580832
 20
-107.0271740417083
 30
0.0
 10
327.9266383524882
 20
-108.0445102997504
 30
0.0
  0
SPLINE
  5
DB
330
1F
100
AcDbEntity
  8
0
  6
Continuous
 62
     7
370
    25
100
AcDbSpline
210
0.0
220
0.0
230
1.0
 70
     8
 71
     3
 72
    23
 73
    19
 74
     0
 42
0.000000001
 43
0.00000001
 40
0.0
 40
0.0
 40
0.0
 40
0.0
 40
0.0655019479358645
 40
0.1311097491300077
 40
0.1972210082654743
 40
0.2634435654227276
 40
0.3304738565427847
 40
0.3976231623871599
 40
0.465308123194072
 40
0.5331188796827395
 40
0.5822311193499441
 40
0.6313923839088987
 40
0.7139430680334123
 40
0.7967316829252082
 40
0.863921638963028
 40
0.9312416161534128
 40
0.9991470914475168
 40
1.0
 40
1.0
 40
1.0
 40
1.0
 10
327.9266383524882
 20
-108.0445102997504
 30
0.0
 10
328.0397671790379
 20
-108.4507502148506
 30
0.0
 10
328.2662076519661
 20
-109.2638865418425
 30
0.0
 10
328.5919430425096
 20
-110.3971236492187
 30
0.0
 10
328.9052503399053
 20
-111.4656087718229
 30
0.0
 10
329.2040789118392
 20
-112.4637149756858
 30
0.0
 10
329.4858304108149
 20
-113.3878589139708
 30
0.0
 10
329.7487742021415
 20
-114.2361276521634
 30
0.0
 10
329.989916509946
 20
-115.0026871544246
 30
0.0
 10
330.1871797101417
 20
-115.6216616079001
 30
0.0
 10
330.3461693953635
 20
-116.1158193644152
 30
0.0
 10
330.5017126442633
 20
-116.5957736276841
 30
0.0
 10
330.6575007373546
 20
-117.0722274111424
 30
0.0
 10
330.7849821673009
 20
-117.4589293351915
 30
0.0
 10
330.8692551734852
 20
-117.7132540081605
 30
0.0
 10
330.913410694363
 20
-117.8461005280767
 30
0.0
 10
330.9317606422699
 20
-117.9012343388088
 30
0.0
 10
330.9265077852737
 20
-117.8854445890257
 30
0.0
 10
330.9264426265773
 20
-117.8852487261813
 30
0.0
  0
LINE
  5
DC
330
1F
100
AcDbEntity
  8
0
  6
Continuous
 62
     7
370
    25
100
AcDbLine
 10
327.9266383525
 20
-101.0916368776
 30
0.0
 11
327.9266383525
 21
-84.6800372518
 31
0.0
  0
LINE
  5
DD
330
1F
100
AcDbEntity
  8
0
  6
Continuous
 62
     7
370
    25
100
AcDbLine
 10
327.9266383525
 20
-84.6800372518
 30
0.0
 11
327.9266383525
 21
-77.7271638297
 31
0.0
  0
LINE
  5
DE
330
1F
100
AcDbEntity
  8
0
  6
Continuous
 62
     7
370
    25
100
AcDbLine
 10
327.9266383525
 20
-108.0445102998
 30
0.0
 11
327.9266383525
 21
-101.0916368776
 31
0.0
  0
LWPOLYLINE
  5
DF
330
1F
100
AcDbEntity
  8
0
  6
Continuous
 62
     7
370
    25
100
AcDbPolyline
 90
       83
 70
   128
 43
0.0
 10
38.5090534853
 20
23.614585989
 10
38.8139690074
 20
23.8635696204
 10
39.1314669562
 20
24.0788134472
 10
39.4596841275
 20
24.2590543331
 10
39.7966944123
 20
24.4032345529
 10
40.1405201004
 20
24.5105079996
 10
40.4891434859
 20
24.5802451501
 10
40.8405187081
 20
24.6120367591
 10
41.1925837576
 20
24.6056962607
 10
41.5432725765
 20
24.5612608635
 10
41.8905271835
 20
24.478991332
 10
42.2323097505
 20
24.3593704567
 10
42.5666145614
 20
24.2031002204
 10
42.8914797827
 20
24.0110976789
 10
43.2049989761
 20
23.7844895795
 10
43.5053322863
 20
23.5246057486
 10
43.790717238
 20
23.232971288
 10
44.0594790789
 20
22.9112976246
 10
44.3100406076
 20
22.5614724672
 10
44.5409314293
 20
22.1855487292
 10
44.7507965851
 20
21.7857324804
 10
44.9384045026
 20
21.3643700016
 10
45.102654224
 20
20.9239340153
 10
45.2425818666
 20
20.4670091751
 10
45.3573662795
 20
19.9962768976
 10
45.4463338619
 20
19.5144996269
 10
45.5089625169
 20
19.0245046237
 10
45.5448847144
 20
18.5291673735
 10
45.5538896488
 20
18.0313947123
 10
45.5359244756
 20
17.5341077679
 10
45.4910946215
 20
17.0402248179
 10
45.4196631659
 20
16.5526441637
 10
45.322049297
 20
16.0742271227
 10
45.1988258519
 20
15.6077812361
 10
45.0507159546
 20
15.156043794
 10
44.878588773
 20
14.7216657712
 10
44.6834544177
 20
14.3071962707
 10
44.4664580149
 20
13.9150675644
 10
44.2288729857
 20
13.5475808195
 10
43.9720935734
 20
13.2068925942
 10
43.6976266618
 20
12.8950021826
 10
43.4070829319
 20
12.6137398816
 10
43.1021674098
 20
12.3647562502
 10
42.784669461
 20
12.1495124233
 10
42.4564522897
 20
11.9692715375
 10
42.1194420048
 20
11.8250913177
 10
41.7756163167
 20
11.717817871
 10
41.4269929312
 20
11.6480807205
 10
41.075617709
 20
11.6162891115
 10
40.7235526596
 20
11.6226296099
 10
40.3728638407
 20
11.6670650071
 10
40.0256092337
 20
11.7493345385
 10
39.6838266667
 20
11.8689554138
 10
39.3495218558
 20
12.0252256502
 10
39.0246566345
 20
12.2172281917
 10
38.7111374411
 20
12.4438362911
 10
38.4108041309
 20
12.7037201219
 10
38.1254191791
 20
12.9953545826
 10
37.8566573383
 20
13.317028246
 10
37.6060958096
 20
13.6668534033
 10
37.3752049878
 20
14.0427771414
 10
37.1653398321
 20
14.4425933902
 10
36.9777319146
 20
14.863955869
 10
36.8134821932
 20
15.3043918553
 10
36.6735545505
 20
15.7613166955
 10
36.5587701377
 20
16.232048973
 10
36.4698025552
 20
16.7138262437
 10
36.4071739003
 20
17.2038212468
 10
36.3712517028
 20
17.699158497
 10
36.3622467683
 20
18.1969311583
 10
36.3802119416
 20
18.6942181027
 10
36.4250417957
 20
19.1881010527
 10
36.4964732513
 20
19.6756817068
 10
36.5940871201
 20
20.1540987479
 10
36.7173105653
 20
20.6205446345
 10
36.8654204626
 20
21.0722820766
 10
37.0375476442
 20
21.5066600994
 10
37.2326819994
 20
21.9211295998
 10
37.4496784022
 20
22.3132583061
 10
37.6872634315
 20
22.6807450511
 10
37.9440428438
 20
23.0214332764
 10
38.2185097553
 20
23.333323688
 10
38.5090534853
 20
23.614585989
  0
LWPOLYLINE
  5
E0
330
1F
100
AcDbEntity
  8
0
  6
Continuous
 62
     7
370
    25
100
AcDbPolyline
 90
       47
 70
   128
 43
0.0
 10
43.590076783
 20
25.0708188653
 10
43.9198137598
 20
25.1072304397
 10
44.285604518
 20
25.1111356394
 10
44.650600301
 20
25.0768258005
 10
45.0128076283
 20
25.0044883115
 10
45.3702482491
 20
24.8945182546
 10
45.7209699467
 20
24.7475162483
 10
46.0630572008
 20
24.5642851664
 10
46.3946416494
 20
24.3458257536
 10
46.7139122933
 20
24.0933311594
 10
47.0191253869
 20
23.8081804218
 10
47.3086139622
 20
23.4919309353
 10
47.5807969329
 20
23.1463099447
 10
47.8341877301
 20
22.7732051122
 10
48.067402421
 20
22.374654207
 10
48.2791672679
 20
21.9528339758
 10
48.4683256847
 20
21.5100482546
 10
48.6338445536
 20
21.0487153854
 10
48.774819868
 20
20.5713550082
 10
48.8904816697
 20
20.0805743001
 10
48.9801982539
 20
19.579053735
 10
49.0434796198
 20
19.0695324443
 10
49.0799801465
 20
18.5547932567
 10
49.0895004808
 20
18.037647499
 10
49.071988626
 20
17.5209196422
 10
49.0275402256
 20
17.0074318744
 10
48.9563980416
 20
16.499988688
 10
48.8589506277
 20
16.0013615615
 10
48.735730208
 20
15.5142738235
 10
48.5874097697
 20
15.0413857782
 10
48.4147993876
 20
14.5852801762
 10
48.2188417997
 20
14.1484481082
 10
48.0006072584
 20
13.7332753993
 10
47.7612876852
 20
13.342029579
 10
47.5021901605
 20
12.9768474962
 10
47.2247297852
 20
12.6397236489
 10
46.9304219516
 20
12.3324992905
 10
46.620874067
 20
12.0568523741
 10
46.2977767747
 20
11.8142883875
 10
45.96289472
 20
11.606132131
 10
45.6180569126
 20
11.433520482
 10
45.265146737
 20
11.2973961854
 10
44.9060916662
 20
11.198502705
 10
44.5428527345
 20
11.1373801625
 10
44.177413827
 20
11.1143623883
 10
43.8117708443
 20
11.1295750972
 10
43.590076783
 20
11.1575070053
  0
LINE
  5
E1
330
1F
100
AcDbEntity
  8
0
  6
Continuous
 62
     7
370
    25
100
AcDbLine
 10
46.6251659951
 20
4.6141629353
 30
0.0
 11
42.413363849
 21
4.6141629353
 31
0.0
  0
LINE
  5
E2
330
1F
100
AcDbEntity
  8
0
  6
Continuous
 62
     7
370
    25
100
AcDbLine
 10
-5.8951638495
 20
4.6141629353
 30
0.0
 11
-8.0233616475
 21
4.6141629353
 31
0.0
  0
LINE
  5
E3
330
1F
100
AcDbEntity
  8
0
  6
Continuous
 62
     7
370
    25
100
AcDbLine
 10
215.0750854247
 20
-33.3858370647
 30
0.0
 11
127.5781912803
 21
-33.3858370647
 31
0.0
  0
LINE
  5
E4
330
1F
100
AcDbEntity
  8
0
  6
Continuous
 62
     7
370
    25
100
AcDbLine
 10
127.5781912803
 20
-33.3858370647
 30
0.0
 11
127.4987583131
 21
-32.9441109989
 31
0.0
  0
LINE
  5
E5
330
1F
100
AcDbEntity
  8
0
  6
Continuous
 62
     7
370
    25
100
AcDbLine
 10
215.0750854247
 20
-33.3858370647
 30
0.0
 11
215.1545183919
 21
-32.9441109989
 31
0.0
  0
LINE
  5
E6
330
1F
100
AcDbEntity
  8
0
  6
Continuous
 62
     7
370
    25
100
AcDbLine
 10
127.5781912803
 20
-33.3858370647
 30
0.0
 11
8.1533524861
 21
-33.3858370647
 31
0.0
  0
LINE
  5
E7
330
1F
100
AcDbEntity
  8
0
  6
Continuous
 62
     7
370
    25
100
AcDbLine
 10
328.5653857635
 20
-33.3858370647
 30
0.0
 11
215.0750854247
 21
-33.3858370647
 31
0.0
  0
LINE
  5
E8
330
1F
100
AcDbEntity
  8
0
  6
Continuous
 62
     7
370
    25
100
AcDbLine
 10
334.4999242189
 20
-33.3858370647
 30
0.0
 11
328.5653857635
 21
-33.3858370647
 31
0.0
  0
LINE
  5
E9
330
1F
100
AcDbEntity
  8
0
  6
Continuous
 62
     7
370
    25
100
AcDbLine
 10
339.9266383525
 20
-86.4447969671
 30
0.0
 11
339.9266383525
 21
-98.9665396
 31
0.0
  0
LINE
  5
EA
330
1F
100
AcDbEntity
  8
0
  6
Continuous
 62
     7
370
    25
100
AcDbLine
 10
329.9266383525
 20
-100.5256085624
 30
0.0
 11
329.9266383525
 21
-84.8734302713
 31
0.0
  0
LINE
  5
EB
330
1F
100
AcDbEntity
  8
0
  6
Continuous
 62
     7
370
    25
100
AcDbLine
 10
329.9266383525
 20
-113.8863200589
 30
0.0
 11
329.9266383525
 21
-100.5256085624
 31
0.0
  0
LINE
  5
EC
330
1F
100
AcDbEntity
  8
0
  6
Continuous
 62
     7
370
    25
100
AcDbLine
 10
339.9266383525
 20
-98.9665396
 30
0.0
 11
339.9266383525
 21
-101.2204190072
 31
0.0
  0
LINE
  5
ED
330
1F
100
AcDbEntity
  8
0
  6
Continuous
 62
     7
370
    25
100
AcDbLine
 10
339.9266383525
 20
-84.2206263413
 30
0.0
 11
339.9266383525
 21
-86.4447969671
 31
0.0
  0
LINE
  5
EE
330
1F
100
AcDbEntity
  8
0
  6
Continuous
 62
     7
370
    25
100
AcDbLine
 10
329.9266383525
 20
-84.8734302713
 30
0.0
 11
329.9266383525
 21
-71.8853540706
 31
0.0
  0
SPLINE
  5
EF
330
1F
100
AcDbEntity
  8
0
  6
Continuous
 62
     7
370
    25
100
AcDbSpline
210
0.0
220
0.0
230
1.0
 70
     8
 71
     3
 72
    15
 73
    11
 74
     0
 42
0.000000001
 43
0.00000001
 40
0.0
 40
0.0
 40
0.0
 40
0.0
 40
0.038169395419408
 40
0.071918541185196
 40
0.1584721042386697
 40
0.2352953470580368
 40
0.3135925825621755
 40
0.4838924681776511
 40
0.740313333830547
 40
1.0
 40
1.0
 40
1.0
 40
1.0
 10
337.5266383524882
 20
-102.2119049072287
 30
0.0
 10
337.4829685208448
 20
-102.2136455525347
 30
0.0
 10
337.4006860913985
 20
-102.2169252657644
 30
0.0
 10
337.2411756585969
 20
-102.2487477821005
 30
0.0
 10
337.0894676337761
 20
-102.3080860408481
 30
0.0
 10
336.9539702941653
 20
-102.3905788285542
 30
0.0
 10
336.8111485797097
 20
-102.5073028806701
 30
0.0
 10
336.6605110553432
 20
-102.6941505001077
 30
0.0
 10
336.547556318848
 20
-102.9483734087766
 30
0.0
 10
336.533640360187
 20
-103.133246858021
 30
0.0
 10
336.5266383524882
 20
-103.2262684993212
 30
0.0
  0
SPLINE
  5
F0
330
1F
100
AcDbEntity
  8
0
  6
Continuous
 62
     7
370
    25
100
AcDbSpline
210
0.0
220
0.0
230
1.0
 70
     8
 71
     3
 72
    14
 73
    10
 74
     0
 42
0.000000001
 43
0.00000001
 40
0.0
 40
0.0
 40
0.0
 40
0.0
 40
0.0140960126786351
 40
0.2057575906583715
 40
0.3717794998208326
 40
0.5374693170285011
 40
0.7396150080532644
 40
0.8693271226293142
 40
1.0
 40
1.0
 40
1.0
 40
1.0
 10
338.9075455826099
 20
-102.2187909520145
 30
0.0
 10
338.9070731917085
 20
-102.2187482044381
 30
0.0
 10
338.90017776561
 20
-102.2181242238467
 30
0.0
 10
338.8501401421126
 20
-102.2170136058379
 30
0.0
 10
338.7548025496836
 20
-102.2154945991712
 30
0.0
 10
338.6073096244035
 20
-102.2140353647655
 30
0.0
 10
338.4115950909386
 20
-102.2128522210296
 30
0.0
 10
338.1682953157863
 20
-102.2120528282484
 30
0.0
 10
338.0073885769651
 20
-102.2119543353742
 30
0.0
 10
337.9266383524882
 20
-102.2119049072287
 30
0.0
  0
SPLINE
  5
F1
330
1F
100
AcDbEntity
  8
0
  6
Continuous
 62
     7
370
    25
100
AcDbSpline
210
0.0
220
0.0
230
1.0
 70
     8
 71
     3
 72
    16
 73
    12
 74
     0
 42
0.000000001
 43
0.00000001
 40
0.0
 40
0.0
 40
0.0
 40
0.0
 40
0.1938762295063824
 40
0.3876851642807669
 40
0.534504949531452
 40
0.6811283229588322
 40
0.7604980514645401
 40
0.839664640992562
 40
0.9261714832603778
 40
0.9667345911622627
 40
1.0
 40
1.0
 40
1.0
 40
1.0
 10
336.5266383524882
 20
-82.22652461787912
 30
0.0
 10
336.5303749772665
 20
-82.2937449485608
 30
0.0
 10
336.5378469298352
 20
-82.42816227764578
 30
0.0
 10
336.6025846966839
 20
-82.61861521879808
 30
0.0
 10
336.7001778466647
 20
-82.79391975293153
 30
0.0
 10
336.8167118376027
 20
-82.92762735016186
 30
0.0
 10
336.9474462914465
 20
-83.03448278467927
 30
0.0
 10
337.0843490359597
 20
-83.11599662019712
 30
0.0
 10
337.2411335154549
 20
-83.17675850920155
 30
0.0
 10
337.4041695968814
 20
-83.20794941313216
 30
0.0
 10
337.4885972292112
 20
-83.210836003296
 30
0.0
 10
337.5266383524882
 20
-83.21213663354281
 30
0.0
  0
SPLINE
  5
F2
330
1F
100
AcDbEntity
  8
0
  6
Continuous
 62
     7
370
    25
100
AcDbSpline
210
0.0
220
0.0
230
1.0
 70
     8
 71
     3
 72
    24
 73
    20
 74
     0
 42
0.000000001
 43
0.00000001
 40
0.0
 40
0.0
 40
0.0
 40
0.0
 40
0.0423925331590094
 40
0.0855164728507745
 40
0.206677202101586
 40
0.2606370309607948
 40
0.3145748514925509
 40
0.3684961522404661
 40
0.4282520577839986
 40
0.4824195669812594
 40
0.5365807774836602
 40
0.5907373475581804
 40
0.6469793624494741
 40
0.7057636415499271
 40
0.7646897784550374
 40
0.8234693106467035
 40
0.8823572867406648
 40
0.9411340787665322
 40
1.0
 40
1.0
 40
1.0
 40
1.0
 10
337.9266383524883
 20
-83.21213663354278
 30
0.0
 10
337.9525127721748
 20
-83.21214154547397
 30
0.0
 10
338.0047080278902
 20
-83.21215145408286
 30
0.0
 10
338.1286157808547
 20
-83.21227723031207
 30
0.0
 10
338.2517224620224
 20
-83.21255896503764
 30
0.0
 10
338.3641292486691
 20
-83.21296981988675
 30
0.0
 10
338.4370099353034
 20
-83.21329983985893
 30
0.0
 10
338.505690545182
 20
-83.21367457595187
 30
0.0
 10
338.5677243946803
 20
-83.21407750970197
 30
0.0
 10
338.6235182329477
 20
-83.21450266721901
 30
0.0
 10
338.6720370359237
 20
-83.21492975395633
 30
0.0
 10
338.7160500768615
 20
-83.21537548532424
 30
0.0
 10
338.7562722698792
 20
-83.21584501133867
 30
0.0
 10
338.7925781957001
 20
-83.21633756660367
 30
0.0
 10
338.8244749186832
 20
-83.21684548511905
 30
0.0
 10
338.8517406610158
 20
-83.21736025421023
 30
0.0
 10
338.8744643135478
 20
-83.21787985568206
 30
0.0
 10
338.8932261403824
 20
-83.21840364712217
 30
0.0
 10
338.9022799890921
 20
-83.21875520479311
 30
0.0
 10
338.9068103431637
 20
-83.21893111680325
 30
0.0
  0
ARC
  5
F3
330
1F
100
AcDbEntity
  8
0
  6
Continuous
 62
     7
370
    25
100
AcDbCircle
 10
338.9266513623
 20
-84.2206292389
 30
0.0
 40
0.9999869902008918
100
AcDbArc
 50
0.0001660241
 51
62.945673829
  0
LINE
  5
F4
330
1F
100
AcDbEntity
  8
0
  6
Continuous
 62
     7
370
    25
100
AcDbLine
 10
337.5266383525
 20
-83.2121366335
 30
0.0
 11
337.9266383525
 21
-83.2121366335
 31
0.0
  0
LINE
  5
F5
330
1F
100
AcDbEntity
  8
0
  6
Continuous
 62
     7
370
    25
100
AcDbLine
 10
339.9266383525
 20
-101.2204190072
 30
0.0
 11
339.9266383525
 21
-101.300762461
 31
0.0
  0
LINE
  5
F6
330
1F
100
AcDbEntity
  8
0
  6
Continuous
 62
     7
370
    25
100
AcDbLine
 10
336.5266383525
 20
-103.2262684993
 30
0.0
 11
336.5266383525
 21
-112.8863200589
 31
0.0
  0
LINE
  5
F7
330
1F
100
AcDbEntity
  8
0
  6
Continuous
 62
     7
370
    25
100
AcDbLine
 10
336.5266383525
 20
-72.8853540706
 30
0.0
 11
336.5266383525
 21
-82.2265246179
 31
0.0
  0
LINE
  5
F8
330
1F
100
AcDbEntity
  8
0
  6
Continuous
 62
     7
370
    25
100
AcDbLine
 10
329.5266383525
 20
-112.8858370647
 30
0.0
 11
329.5266383525
 21
-72.8858370647
 31
0.0
  0
LINE
  5
F9
330
1F
100
AcDbEntity
  8
0
  6
Continuous
 62
     7
370
    25
100
AcDbLine
 10
351.5266383525
 20
-92.804346281
 30
0.0
 11
351.5266383525
 21
-109.3858370647
 31
0.0
  0
LINE
  5
FA
330
1F
100
AcDbEntity
  8
0
  6
Continuous
 62
     7
370
    25
100
AcDbLine
 10
351.5266383525
 20
-76.3858370647
 30
0.0
 11
351.5266383525
 21
-92.804346281
 31
0.0
  0
LINE
  5
FB
330
1F
100
AcDbEntity
  8
0
  6
Continuous
 62
     7
370
    25
100
AcDbLine
 10
339.9266383525
 20
-101.300762461
 30
0.0
 11
339.9266383525
 21
-101.358405051
 31
0.0
  0
LINE
  5
FC
330
1F
100
AcDbEntity
  8
0
  6
Continuous
 62
     7
370
    25
100
AcDbLine
 10
130.318552641
 20
-130.0760911315
 30
0.0
 11
124.0641755279
 21
-115.3440148704
 31
0.0
  0
ELLIPSE
  5
FD
330
1F
100
AcDbEntity
  8
0
  6
Continuous
 62
     7
370
    25
100
AcDbEllipse
 10
114.8104962089
 20
-118.569327363
 30
0.0
 11
0.6835751561103791
 21
0.9230191957177992
 31
0.0
210
0.0
220
0.0
230
1.0
 40
0.2431465811
 41
1.748958007150683
 42
2.999483477553222
  0
ELLIPSE
  5
FE
330
1F
100
AcDbEntity
  8
0
  6
Continuous
 62
     7
370
    25
100
AcDbEllipse
 10
119.9961321311
 20
-130.7840023796
 30
0.0
 11
0.8159553350977546
 21
0.6330518499053142
 31
0.0
210
0.0
220
0.0
230
1.0
 40
0.2103370113
 41
1.835540861161945
 42
3.197118975615526
  0
ARC
  5
FF
330
1F
100
AcDbEntity
  8
0
  6
Continuous
 62
     7
370
    25
100
AcDbCircle
 10
129.3492217522
 20
-130.4872764601
 30
0.0
 40
1.052936724856616
100
AcDbArc
 50
326.3211605191
 51
22.9864146213
  0
LINE
  5
100
330
1F
100
AcDbEntity
  8
0
  6
Continuous
 62
     7
370
    25
100
AcDbLine
 10
121.363691558
 20
-144.2012722281
 30
0.0
 11
130.2254325041
 21
-131.0711689714
 31
0.0
  0
ELLIPSE
  5
101
330
1F
100
AcDbEntity
  8
0
  6
Continuous
 62
     7
370
    25
100
AcDbEllipse
 10
113.4179954616
 20
-140.5305763579
 30
0.0
 11
0.3829283040834639
 21
0.9612511352666786
 31
0.0
210
0.0
220
0.0
230
1.0
 40
0.3093997476
 41
0.1226353583304119
 42
1.693431685125226
  0
ARC
  5
102
330
1F
100
AcDbEntity
  8
0
  6
Continuous
 62
     7
370
    25
100
AcDbCircle
 10
123.1877115965
 20
-115.6997649374
 30
0.0
 40
0.9459107427452789
100
AcDbArc
 50
22.091860671
 51
83.1248177316
  0
LINE
  5
103
330
1F
100
AcDbEntity
  8
0
  6
Continuous
 62
     7
370
    25
100
AcDbLine
 10
114.0089567275
 20
-144.6129911657
 30
0.0
 11
113.9966892272
 21
-144.6123445431
 31
0.0
  0
ELLIPSE
  5
104
330
1F
100
AcDbEntity
  8
0
  6
Continuous
 62
     7
370
    25
100
AcDbEllipse
 10
102.2774040409
 20
-117.2410977716
 30
0.0
 11
0.3829283040834639
 21
0.9612511352667213
 31
0.0
210
0.0
220
0.0
230
1.0
 40
0.3093997476
 41
1.693431685125214
 42
3.228175507600953
  0
LINE
  5
105
330
1F
100
AcDbEntity
  8
0
  6
Continuous
 62
     7
370
    25
100
AcDbLine
 10
123.3009435575
 20
-114.7606559681
 30
0.0
 11
108.1848254982
 21
-113.1586829638
 31
0.0
  0
ELLIPSE
  5
106
330
1F
100
AcDbEntity
  8
0
  6
Continuous
 62
     7
370
    25
100
AcDbEllipse
 10
100.8849032936
 20
-139.2023467664
 30
0.0
 11
0.6835751561103933
 21
0.923019195717785
 31
0.0
210
0.0
220
0.0
230
1.0
 40
0.2431465811
 41
0.1781616803557749
 42
1.74895800715068
  0
LINE
  5
107
330
1F
100
AcDbEntity
  8
0
  6
Continuous
 62
     7
370
    25
100
AcDbLine
 10
114.7877265573
 20
-139.5620513129
 30
0.0
 11
113.7616661273
 21
-139.5620513129
 31
0.0
  0
ELLIPSE
  5
108
330
1F
100
AcDbEntity
  8
0
  6
Continuous
 62
     7
370
    25
100
AcDbEllipse
 10
119.5168216693
 20
-132.0958102824
 30
0.0
 11
0.8159553350977546
 21
0.6330518499053142
 31
0.0
210
0.0
220
0.0
230
1.0
 40
0.2103370113
 41
4.977133514751617
 42
5.107718451156272
  0
ARC
  5
109
330
1F
100
AcDbEntity
  8
0
  6
Continuous
 62
     7
370
    25
100
AcDbCircle
 10
120.5924772594
 20
-143.6958996485
 30
0.0
 40
0.9220482300590281
100
AcDbArc
 50
270.4960254929
 51
326.7633902683
  0
LINE
  5
10A
330
1F
100
AcDbEntity
  8
0
  6
Continuous
 62
     7
370
    25
100
AcDbLine
 10
102.5439452197
 20
-138.2644822481
 30
0.0
 11
101.5178847897
 21
-138.2644822481
 31
0.0
  0
ELLIPSE
  5
10B
330
1F
100
AcDbEntity
  8
0
  6
Continuous
 62
     7
370
    25
100
AcDbEllipse
 10
115.1313972229
 20
-138.5935262679
 30
0.0
 11
0.3829283040834639
 21
0.9612511352666786
 31
0.0
210
0.0
220
0.0
230
1.0
 40
0.3093997476
 41
3.264228011920366
 42
4.835024338715019
  0
ELLIPSE
  5
10C
330
1F
100
AcDbEntity
  8
0
  6
Continuous
 62
     7
370
    25
100
AcDbEllipse
 10
95.6992673713
 20
-126.9876717498
 30
0.0
 11
0.8159553350977546
 21
0.6330518499053142
 31
0.0
210
0.0
220
0.0
230
1.0
 40
0.2103370113
 41
0.2647445343670294
 42
1.835540861161845
  0
ELLIPSE
  5
10D
330
1F
100
AcDbEntity
  8
0
  6
Continuous
 62
     7
370
    25
100
AcDbEllipse
 10
103.1769267158
 20
-137.3266177298
 30
0.0
 11
0.683575156110379
 21
0.9230191957178135
 31
0.0
210
0.0
220
0.0
230
1.0
 40
0.2431465811
 41
3.319754333945667
 42
4.890550660740436
  0
ELLIPSE
  5
10E
330
1F
100
AcDbEntity
  8
0
  6
Continuous
 62
     7
370
    25
100
AcDbEllipse
 10
102.6161231395
 20
-119.1781478615
 30
0.0
 11
0.3829283040834639
 21
0.9612511352667071
 31
0.0
210
0.0
220
0.0
230
1.0
 40
0.3093997476
 41
4.83502433871498
 42
5.897560448479489
  0
LINE
  5
10F
330
1F
100
AcDbEntity
  8
0
  6
Continuous
 62
     7
370
    25
100
AcDbLine
 10
97.4780132472
 20
-126.3317677984
 30
0.0
 11
96.4519528173
 21
-126.3317677984
 31
0.0
  0
LINE
  5
110
330
1F
100
AcDbEntity
  8
0
  6
Continuous
 62
     7
370
    25
100
AcDbLine
 10
108.0917053613
 20
-113.1537608037
 30
0.0
 11
108.1848254982
 21
-113.1586829638
 31
0.0
  0
ELLIPSE
  5
111
330
1F
100
AcDbEntity
  8
0
  6
Continuous
 62
     7
370
    25
100
AcDbEllipse
 10
98.2306986931
 20
-125.675863847
 30
0.0
 11
0.8159553350977546
 21
0.633051849905371
 31
0.0
210
0.0
220
0.0
230
1.0
 40
0.2103370113
 41
3.406337187956422
 42
4.977133514751638
  0
ARC
  5
112
330
1F
100
AcDbEntity
  8
0
  6
Continuous
 62
     7
370
    25
100
AcDbCircle
 10
170.803339247
 20
-53.2870218904
 30
0.0
 40
60.60227272727283
100
AcDbArc
 50
232.2580690131
 51
234.566243326
  0
ARC
  5
113
330
1F
100
AcDbEntity
  8
0
  6
Continuous
 62
     7
370
    25
100
AcDbCircle
 10
171.8499374579
 20
-132.4846522391
 30
0.0
 40
60.6022727272729
100
AcDbArc
 50
52.2580690131
 51
54.566243326
  0
ARC
  5
114
330
1F
100
AcDbEntity
  8
0
  6
Continuous
 62
     7
370
    25
100
AcDbCircle
 10
171.8499374579
 20
-132.4846522391
 30
0.0
 40
60.60227272727293
100
AcDbArc
 50
126.9479981909
 51
129.2561725038
  0
ARC
  5
115
330
1F
100
AcDbEntity
  8
0
  6
Continuous
 62
     7
370
    25
100
AcDbCircle
 10
206.629665282
 20
-100.9200490574
 30
0.0
 40
1.000000000000002
100
AcDbArc
 50
270.7571207585
 51
306.9479981909
  0
ARC
  5
116
330
1F
100
AcDbEntity
  8
0
  6
Continuous
 62
     7
370
    25
100
AcDbCircle
 10
170.803339247
 20
-53.2870218904
 30
0.0
 40
60.60227272727282
100
AcDbArc
 50
306.9479981909
 51
309.2561725038
  0
ARC
  5
117
330
1F
100
AcDbEntity
  8
0
  6
Continuous
 62
     7
370
    25
100
AcDbCircle
 10
139.8293885208
 20
-93.3020738281
 30
0.0
 40
10.00000000000006
100
AcDbArc
 50
129.2561725038
 51
232.2580690131
  0
ARC
  5
118
330
1F
100
AcDbEntity
  8
0
  6
Continuous
 62
     7
370
    25
100
AcDbCircle
 10
202.8238881841
 20
-92.4696003014
 30
0.0
 40
10.00000000000012
100
AcDbArc
 50
309.2561725038
 51
52.2580690131
  0
SPLINE
  5
119
330
1F
100
AcDbEntity
  8
0
  6
Continuous
 62
     7
370
    25
100
AcDbSpline
210
0.0
220
0.0
230
1.0
 70
     8
 71
     3
 72
    18
 73
    14
 74
     0
 42
0.000000001
 43
0.00000001
 40
0.0
 40
0.0
 40
0.0
 40
0.0
 40
0.1538241350402529
 40
0.3080114128942616
 40
0.4614191594681284
 40
0.5428001587510395
 40
0.6241308821090911
 40
0.7058739578371908
 40
0.7874564376878999
 40
0.8412472838475109
 40
0.8949693638442193
 40
0.9475081051712846
 40
1.0
 40
1.0
 40
1.0
 40
1.0
 10
138.6546998402734
 20
-104.6591976668143
 30
0.0
 10
138.4599035792862
 20
-104.5363403617066
 30
0.0
 10
138.0698511888893
 20
-104.2903357141219
 30
0.0
 10
137.4967901529937
 20
-103.9173542100138
 30
0.0
 10
137.0296032321743
 20
-103.6065893153703
 30
0.0
 10
136.6684585227921
 20
-103.3617587380351
 30
0.0
 10
136.4031862582833
 20
-103.1798929222634
 30
0.0
 10
136.1577919286208
 20
-103.0097090233383
 30
0.0
 10
135.9664676267722
 20
-102.8757423327571
 30
0.0
 10
135.8293339656187
 20
-102.7790363723359
 30
0.0
 10
135.7393857454483
 20
-102.7153270810364
 30
0.0
 10
135.6803218496314
 20
-102.6733585702813
 30
0.0
 10
135.6724299898375
 20
-102.6677368317519
 30
0.0
 10
135.6684858199317
 20
-102.6649272162107
 30
0.0
  0
SPLINE
  5
11A
330
1F
100
AcDbEntity
  8
0
  6
Continuous
 62
     7
370
    25
100
AcDbSpline
210
0.0
220
0.0
230
1.0
 70
     8
 71
     3
 72
    18
 73
    14
 74
     0
 42
0.000000001
 43
0.00000001
 40
0.0
 40
0.0
 40
0.0
 40
0.0
 40
0.1538241350402476
 40
0.3080114128942533
 40
0.4614191594681141
 40
0.5428001587510348
 40
0.6241308821090944
 40
0.7058739578371956
 40
0.7874564376879015
 40
0.8412472838475176
 40
0.8949693638442257
 40
0.9475081051712912
 40
1.0
 40
1.0
 40
1.0
 40
1.0
 10
203.998576864703
 20
-81.11247646264465
 30
0.0
 10
204.1933731256902
 20
-81.23533376775234
 30
0.0
 10
204.5834255160871
 20
-81.48133841533702
 30
0.0
 10
205.1564865519827
 20
-81.85431991944516
 30
0.0
 10
205.6236734728021
 20
-82.16508481408859
 30
0.0
 10
205.9848181821843
 20
-82.40991539142388
 30
0.0
 10
206.2500904466931
 20
-82.59178120719567
 30
0.0
 10
206.4954847763556
 20
-82.76196510612064
 30
0.0
 10
206.6868090782044
 20
-82.89593179670197
 30
0.0
 10
206.8239427393577
 20
-82.9926377571231
 30
0.0
 10
206.9138909595282
 20
-83.05634704842264
 30
0.0
 10
206.972954855345
 20
-83.09831555917783
 30
0.0
 10
206.9808467151389
 20
-83.10393729770716
 30
0.0
 10
206.9847908850446
 20
-83.10674691324833
 30
0.0
  0
SPLINE
  5
11B
330
1F
100
AcDbEntity
  8
0
  6
Continuous
 62
     7
370
    25
100
AcDbSpline
210
0.0
220
0.0
230
1.0
 70
     8
 71
     3
 72
    17
 73
    13
 74
     0
 42
0.000000001
 43
0.00000001
 40
0.0
 40
0.0
 40
0.0
 40
0.0
 40
0.0537926916730931
 40
0.1076378339619659
 40
0.1611464321090382
 40
0.2147220795255609
 40
0.2978705611462413
 40
0.3811878172546984
 40
0.5185172706724555
 40
0.6561342491780304
 40
0.8280019413957265
 40
1.0
 40
1.0
 40
1.0
 40
1.0
 10
207.2307552135368
 20
-101.7192304474564
 30
0.0
 10
207.2266863888268
 20
-101.7222942297804
 30
0.0
 10
207.2185447720954
 20
-101.7284247817723
 30
0.0
 10
207.1583858980684
 20
-101.7736072971715
 30
0.0
 10
207.0683757599149
 20
-101.8409890643553
 30
0.0
 10
206.9319583465936
 20
-101.9426707212731
 30
0.0
 10
206.7405283655636
 20
-102.0843486391737
 30
0.0
 10
206.439887598677
 20
-102.3047191627456
 30
0.0
 10
206.0471455668593
 20
-102.588274724726
 30
0.0
 10
205.5253050256187
 20
-102.9576059356781
 30
0.0
 10
204.9402647375147
 20
-103.3624463871629
 30
0.0
 10
204.5123312972165
 20
-103.6485902645096
 30
0.0
 10
204.2982834580025
 20
-103.7917164446176
 30
0.0
  0
SPLINE
  5
11C
330
1F
100
AcDbEntity
  8
0
  6
Continuous
 62
     7
370
    25
100
AcDbSpline
210
0.0
220
0.0
230
1.0
 70
     8
 71
     3
 72
    17
 73
    13
 74
     0
 42
0.000000001
 43
0.00000001
 40
0.0
 40
0.0
 40
0.0
 40
0.0
 40
0.0537926916730917
 40
0.107637833961962
 40
0.161146432109032
 40
0.214722079525557
 40
0.297870561146245
 40
0.3811878172547046
 40
0.5185172706724539
 40
0.6561342491780238
 40
0.8280019413957217
 40
1.0
 40
1.0
 40
1.0
 40
1.0
 10
135.4225214914396
 20
-84.05244368200295
 30
0.0
 10
135.4265903161496
 20
-84.04937989967897
 30
0.0
 10
135.434731932881
 20
-84.04324934768711
 30
0.0
 10
135.494890806908
 20
-83.99806683228785
 30
0.0
 10
135.5849009450616
 20
-83.93068506510427
 30
0.0
 10
135.7213183583828
 20
-83.82900340818642
 30
0.0
 10
135.9127483394129
 20
-83.6873254902858
 30
0.0
 10
136.2133891062995
 20
-83.46695496671387
 30
0.0
 10
136.6061311381171
 20
-83.18339940473342
 30
0.0
 10
137.1279716793577
 20
-82.81406819378124
 30
0.0
 10
137.7130119674617
 20
-82.40922774229647
 30
0.0
 10
138.1409454077599
 20
-82.12308386494989
 30
0.0
 10
138.3549932469739
 20
-81.97995768484188
 30
0.0
  0
ARC
  5
11D
330
1F
100
AcDbEntity
  8
0
  6
Continuous
 62
     7
370
    25
100
AcDbCircle
 10
170.803339247
 20
-53.2870218904
 30
0.0
 40
60.60227272727283
100
AcDbArc
 50
237.9617221286
 51
303.5525193883
  0
ARC
  5
11E
330
1F
100
AcDbEntity
  8
0
  6
Continuous
 62
     7
370
    25
100
AcDbCircle
 10
171.8499374579
 20
-132.4846522391
 30
0.0
 40
60.60227272727293
100
AcDbArc
 50
57.9617221286
 51
123.5525193883
  0
LINE
  5
11F
330
1F
100
AcDbEntity
  8
0
  6
Continuous
 62
     7
370
    25
100
AcDbLine
 10
204.0619414643
 20
-99.8380048066
 30
0.0
 11
208.7647957823
 21
-93.9885181115
 31
0.0
  0
LINE
  5
120
330
1F
100
AcDbEntity
  8
0
  6
Continuous
 62
     7
370
    25
100
AcDbLine
 10
196.6447102282
 20
-98.6899568446
 30
0.0
 11
204.0619414643
 21
-99.8380048066
 31
0.0
  0
LINE
  5
121
330
1F
100
AcDbEntity
  8
0
  6
Continuous
 62
     7
370
    25
100
AcDbLine
 10
198.6331876281
 20
-85.8429354921
 30
0.0
 11
193.9303333101
 21
-91.6924221873
 31
0.0
  0
LINE
  5
122
330
1F
100
AcDbEntity
  8
0
  6
Continuous
 62
     7
370
    25
100
AcDbLine
 10
206.0504188642
 20
-86.9909834542
 30
0.0
 11
198.6331876281
 21
-85.8429354921
 31
0.0
  0
LINE
  5
123
330
1F
100
AcDbEntity
  8
0
  6
Continuous
 62
     7
370
    25
100
AcDbLine
 10
208.7647957823
 20
-93.9885181115
 30
0.0
 11
206.0504188642
 21
-86.9909834542
 31
0.0
  0
LINE
  5
124
330
1F
100
AcDbEntity
  8
0
  6
Continuous
 62
     7
370
    25
100
AcDbLine
 10
193.9303333101
 20
-91.6924221873
 30
0.0
 11
196.6447102282
 21
-98.6899568446
 31
0.0
  0
LINE
  5
125
330
1F
100
AcDbEntity
  8
0
  6
Continuous
 62
     7
370
    25
100
AcDbLine
 10
341.9266383525
 20
-89.8214450002
 30
0.0
 11
341.9266383525
 21
-84.8858370647
 31
0.0
  0
LINE
  5
126
330
1F
100
AcDbEntity
  8
0
  6
Continuous
 62
     7
370
    25
100
AcDbLine
 10
341.9266383525
 20
-100.8858370647
 30
0.0
 11
341.9266383525
 21
-89.8214450002
 31
0.0
  0
LINE
  5
127
330
1F
100
AcDbEntity
  8
0
  6
Continuous
 62
     7
370
    25
100
AcDbLine
 10
348.9266383525
 20
-93.9119771377
 30
0.0
 11
341.9266383525
 21
-93.9119771377
 31
0.0
  0
LINE
  5
128
330
1F
100
AcDbEntity
  8
0
  6
Continuous
 62
     7
370
    25
100
AcDbLine
 10
348.9266383525
 20
-93.9119771377
 30
0.0
 11
348.9266383525
 21
-99.8683407317
 31
0.0
  0
LINE
  5
129
330
1F
100
AcDbEntity
  8
0
  6
Continuous
 62
     7
370
    25
100
AcDbLine
 10
348.9266383525
 20
-99.8683407317
 30
0.0
 11
341.9266383525
 21
-99.8683407317
 31
0.0
  0
LINE
  5
12A
330
1F
100
AcDbEntity
  8
0
  6
Continuous
 62
     7
370
    25
100
AcDbLine
 10
348.9266383525
 20
-86.9788870546
 30
0.0
 11
341.9266383525
 21
-86.9788870546
 31
0.0
  0
LINE
  5
12B
330
1F
100
AcDbEntity
  8
0
  6
Continuous
 62
     7
370
    25
100
AcDbLine
 10
348.9266383525
 20
-86.9788870546
 30
0.0
 11
348.9266383525
 21
-93.9119771377
 31
0.0
  0
LINE
  5
12C
330
1F
100
AcDbEntity
  8
0
  6
Continuous
 62
     7
370
    25
100
AcDbLine
 10
348.9266383525
 20
-86.0021605654
 30
0.0
 11
341.9266383525
 21
-86.0021605654
 31
0.0
  0
LINE
  5
12D
330
1F
100
AcDbEntity
  8
0
  6
Continuous
 62
     7
370
    25
100
AcDbLine
 10
348.9266383525
 20
-86.0021605654
 30
0.0
 11
348.9266383525
 21
-86.9788870546
 31
0.0
  0
LINE
  5
12E
330
1F
100
AcDbEntity
  8
0
  6
Continuous
 62
     7
370
    25
100
AcDbLine
 10
134.0092562132
 20
-94.3926343479
 30
0.0
 11
138.9688621867
 21
-100.0260739651
 31
0.0
  0
LINE
  5
12F
330
1F
100
AcDbEntity
  8
0
  6
Continuous
 62
     7
370
    25
100
AcDbLine
 10
136.4081550456
 20
-87.2807697735
 30
0.0
 11
134.0092562132
 21
-94.3926343479
 31
0.0
  0
LINE
  5
130
330
1F
100
AcDbEntity
  8
0
  6
Continuous
 62
     7
370
    25
100
AcDbLine
 10
143.7666598516
 20
-85.8023448163
 30
0.0
 11
136.4081550456
 21
-87.2807697735
 31
0.0
  0
LINE
  5
131
330
1F
100
AcDbEntity
  8
0
  6
Continuous
 62
     7
370
    25
100
AcDbLine
 10
148.7262658251
 20
-91.4357844335
 30
0.0
 11
143.7666598516
 21
-85.8023448163
 31
0.0
  0
LINE
  5
132
330
1F
100
AcDbEntity
  8
0
  6
Continuous
 62
     7
370
    25
100
AcDbLine
 10
146.3273669926
 20
-98.5476490079
 30
0.0
 11
148.7262658251
 21
-91.4357844335
 31
0.0
  0
LINE
  5
133
330
1F
100
AcDbEntity
  8
0
  6
Continuous
 62
     7
370
    25
100
AcDbLine
 10
138.9688621867
 20
-100.0260739651
 30
0.0
 11
146.3273669926
 21
-98.5476490079
 31
0.0
  0
LINE
  5
134
330
1F
100
AcDbEntity
  8
0
  6
Continuous
 62
     7
370
    25
100
AcDbLine
 10
49.7544990591
 20
21.1141629353
 30
0.0
 11
49.5507069247
 21
4.6141629353
 31
0.0
  0
SPLINE
  5
135
330
1F
100
AcDbEntity
  8
0
  6
Continuous
 62
     7
370
    25
100
AcDbSpline
210
0.0
220
0.0
230
1.0
 70
     8
 71
     3
 72
    20
 73
    16
 74
     0
 42
0.000000001
 43
0.00000001
 40
0.0
 40
0.0
 40
0.0
 40
0.0
 40
0.0783636703741667
 40
0.1572711350158622
 40
0.2378936797637121
 40
0.3191089117680368
 40
0.3974856209848447
 40
0.4764066885815915
 40
0.5570450318884516
 40
0.6382769708772601
 40
0.7166298553897084
 40
0.7955271037165832
 40
0.8761413355756484
 40
0.9573488639443768
 40
1.0
 40
1.0
 40
1.0
 40
1.0
 10
47.23934022545201
 20
27.2101982445871
 30
0.0
 10
47.35788279076705
 20
27.11117593059591
 30
0.0
 10
47.59579053176196
 20
26.91244415043644
 30
0.0
 10
47.93179166959521
 20
26.56013489830324
 30
0.0
 10
48.25058260886608
 20
26.16773936179308
 30
0.0
 10
48.54311292317939
 20
25.73879899483374
 30
0.0
 10
48.80666616934729
 20
25.28041090702475
 30
0.0
 10
49.04105977611636
 20
24.79403925712455
 30
0.0
 10
49.24718119197949
 20
24.27550089773818
 30
0.0
 10
49.41970411358545
 20
23.73528722378516
 30
0.0
 10
49.55714604828673
 20
23.18049908851165
 30
0.0
 10
49.66010966850529
 20
22.61275415468257
 30
0.0
 10
49.72782197882866
 20
22.02748730652089
 30
0.0
 10
49.75546672192657
 20
21.52466781949998
 30
0.0
 10
49.75474692387461
 20
21.21931290012725
 30
0.0
 10
49.75449905906196
 20
21.11416293527056
 30
0.0
  0
LINE
  5
136
330
1F
100
AcDbEntity
  8
0
  6
Continuous
 62
     7
370
    25
100
AcDbLine
 10
350.6952478028
 20
4.6141629353
 30
0.0
 11
49.5507069247
 21
4.6141629353
 31
0.0
  0
SPLINE
  5
137
330
1F
100
AcDbEntity
  8
0
  6
Continuous
 62
     7
370
    25
100
AcDbSpline
210
0.0
220
0.0
230
1.0
 70
     8
 71
     3
 72
    11
 73
     7
 74
     0
 42
0.000000001
 43
0.00000001
 40
0.0
 40
0.0
 40
0.0
 40
0.0
 40
0.2458192864072027
 40
0.4928971705353527
 40
0.7450853795820208
 40
0.9999999999999999
 40
0.9999999999999999
 40
0.9999999999999999
 40
0.9999999999999999
 10
46.21115390178151
 20
27.89985261933582
 30
0.0
 10
46.28913841033866
 20
27.86024812800537
 30
0.0
 10
46.44550670908041
 20
27.78083636986971
 30
0.0
 10
46.69039632934588
 20
27.62320518413729
 30
0.0
 10
46.94974324382694
 20
27.43728877826139
 30
0.0
 10
47.1424625166062
 20
27.2861659238063
 30
0.0
 10
47.23934022545201
 20
27.2101982445871
 30
0.0
  0
SPLINE
  5
138
330
1F
100
AcDbEntity
  8
0
  6
Continuous
 62
     7
370
    25
100
AcDbSpline
210
0.0
220
0.0
230
1.0
 70
     8
 71
     3
 72
    11
 73
     7
 74
     0
 42
0.000000001
 43
0.00000001
 40
0.0
 40
0.0
 40
0.0
 40
0.0
 40
0.2077055579335606
 40
0.4661473966207302
 40
0.7330629920758543
 40
0.9999999999999999
 40
0.9999999999999999
 40
0.9999999999999999
 40
0.9999999999999999
 10
45.13972839768179
 20
28.1118444115178
 30
0.0
 10
45.22495566031415
 20
28.11094658158893
 30
0.0
 10
45.41622866712455
 20
28.1089316086237
 30
0.0
 10
45.69088640747371
 20
28.07021458123389
 30
0.0
 10
45.96704033828667
 20
28.00387419349683
 30
0.0
 10
46.12978053814989
 20
27.93452740454051
 30
0.0
 10
46.21115390178151
 20
27.89985261933582
 30
0.0
  0
LINE
  5
139
330
1F
100
AcDbEntity
  8
0
  6
Continuous
 62
     7
370
    25
100
AcDbLine
 10
163.3266383525
 20
292.5885626731
 30
0.0
 11
179.3266383273
 21
292.5885626731
 31
0.0
  0
LWPOLYLINE
  5
13A
330
1F
100
AcDbEntity
  8
0
  6
Continuous
 62
     7
370
    25
100
AcDbPolyline
 90
       37
 70
   128
 43
0.0
 10
40.1790109409
 20
24.5201085752
 10
40.2167296255
 20
24.6141629353
 10
40.4136790363
 20
25.0574033417
 10
40.6335013756
 20
25.4785915483
 10
40.8749673078
 20
25.8753720997
 10
41.1367264574
 20
26.2455260381
 10
41.417314961
 20
26.5869833125
 10
41.715163654
 20
26.8978343555
 10
42.0286068457
 20
27.1763407618
 10
42.3558916345
 20
27.4209450106
 10
42.6951877111
 20
27.6302791758
 10
43.0445975944
 20
27.8031725758
 10
43.4021672424
 20
27.9386583205
 10
43.7658969806
 20
28.0359787188
 10
44.1337526849
 20
28.0945895155
 10
44.5036771569
 20
28.1141629353
 10
44.8736016289
 20
28.0945895155
 10
45.2414573332
 20
28.0359787188
 10
45.6051870714
 20
27.9386583205
 10
45.9627567194
 20
27.8031725758
 10
46.3121666027
 20
27.6302791758
 10
46.6514626793
 20
27.4209450106
 10
46.9787474681
 20
27.1763407618
 10
47.2921906598
 20
26.8978343555
 10
47.5900393528
 20
26.5869833125
 10
47.8706278564
 20
26.2455260381
 10
48.132387006
 20
25.8753720997
 10
48.3738529382
 20
25.4785915483
 10
48.5936752775
 20
25.0574033417
 10
48.7906246883
 20
24.6141629353
 10
48.9635997495
 20
24.1513491091
 10
49.1116331145
 20
23.6715501058
 10
49.2338969206
 20
23.1774491561
 10
49.329707419
 20
22.671809473
 10
49.3985287986
 20
22.1574587985
 10
49.4399761822
 20
21.6372735904
 10
49.4538177794
 20
21.1141629353
  0
LINE
  5
13B
330
1F
100
AcDbEntity
  8
0
  6
Continuous
 62
     7
370
    25
100
AcDbLine
 10
39.5535365344
 20
4.6141629353
 30
0.0
 11
39.5535365344
 21
11.9250934129
 31
0.0
  0
LINE
  5
13C
330
1F
100
AcDbEntity
  8
0
  6
Continuous
 62
     7
370
    25
100
AcDbLine
 10
49.4538177794
 20
21.1141629353
 30
0.0
 11
49.4538177794
 21
4.6141629353
 31
0.0
  0
LINE
  5
13D
330
1F
100
AcDbEntity
  8
0
  6
Continuous
 62
     7
370
    25
100
AcDbLine
 10
46.6251659951
 20
4.6141629353
 30
0.0
 11
46.6251659951
 21
12.0603720323
 31
0.0
  0
LINE
  5
13E
330
1F
100
AcDbEntity
  8
0
  6
Continuous
 62
     7
370
    25
100
AcDbLine
 10
42.3821883187
 20
11.3484909406
 30
0.0
 11
42.3821883187
 21
4.6141629353
 31
0.0
  0
LINE
  5
13F
330
1F
100
AcDbEntity
  8
0
  6
Continuous
 62
     7
370
    25
100
AcDbLine
 10
42.3821883187
 20
4.6141629353
 30
0.0
 11
39.5535365344
 21
4.6141629353
 31
0.0
  0
LINE
  5
140
330
1F
100
AcDbEntity
  8
0
  6
Continuous
 62
     7
370
    25
100
AcDbLine
 10
49.4538177794
 20
4.6141629353
 30
0.0
 11
46.6251659951
 21
4.6141629353
 31
0.0
  0
LINE
  5
141
330
1F
100
AcDbEntity
  8
0
  6
Continuous
 62
     7
370
    25
100
AcDbLine
 10
49.5507069247
 20
4.6141629353
 30
0.0
 11
49.4538177794
 21
4.6141629353
 31
0.0
  0
LINE
  5
142
330
1F
100
AcDbEntity
  8
0
  6
Continuous
 62
     7
370
    25
100
AcDbLine
 10
42.3821883187
 20
4.6141629353
 30
0.0
 11
42.413363849
 21
4.6141629353
 31
0.0
  0
LINE
  5
143
330
1F
100
AcDbEntity
  8
0
  6
Continuous
 62
     7
370
    25
100
AcDbLine
 10
44.5341089494
 20
4.6141629353
 30
0.0
 11
44.6961309273
 21
11.1752615669
 31
0.0
  0
LINE
  5
144
330
1F
100
AcDbEntity
  8
0
  6
Continuous
 62
     7
370
    25
100
AcDbLine
 10
39.5535365344
 20
4.6141629353
 30
0.0
 11
-5.8951638495
 21
4.6141629353
 31
0.0
  0
SPLINE
  5
145
330
1F
100
AcDbEntity
  8
0
  6
Continuous
 62
     7
370
    25
100
AcDbSpline
210
0.0
220
0.0
230
1.0
 70
     8
 71
     3
 72
    14
 73
    10
 74
     0
 42
0.000000001
 43
0.00000001
 40
0.0
 40
0.0
 40
0.0
 40
0.0
 40
0.0036740154265516
 40
0.2934266174512279
 40
0.4387413321080341
 40
0.5877703663421153
 40
0.8006790302939334
 40
0.9529479151849646
 40
0.9999999999999999
 40
0.9999999999999999
 40
0.9999999999999999
 40
0.9999999999999999
 10
-3.801443368581098
 20
51.63161534170786
 30
0.0
 10
-3.801655180998842
 20
51.63009049171737
 30
0.0
 10
-3.818571659036374
 20
51.5083077763825
 30
0.0
 10
-3.810845829444964
 20
51.3249890575961
 30
0.0
 10
-3.730982549700474
 20
51.09634124097607
 30
0.0
 10
-3.618042948291683
 20
50.9097204726411
 30
0.0
 10
-3.438508060556705
 20
50.75236588764882
 30
0.0
 10
-3.247225450976083
 20
50.65298109499126
 30
0.0
 10
-3.135184465586222
 20
50.64085639748696
 30
0.0
 10
-3.108735858823458
 20
50.63799421847904
 30
0.0
  0
SPLINE
  5
146
330
1F
100
AcDbEntity
  8
0
  6
Continuous
 62
     7
370
    25
100
AcDbSpline
210
0.0
220
0.0
230
1.0
 70
     8
 71
     3
 72
     9
 73
     5
 74
     0
 42
0.000000001
 43
0.00000001
 40
0.0
 40
0.0
 40
0.0
 40
0.0
 40
0.028944843362072
 40
1.0
 40
1.0
 40
1.0
 40
1.0
 10
-3.074740446491559
 20
51.63161534170786
 30
0.0
 10
-3.075001811601613
 20
51.63012463564061
 30
0.0
 10
-3.084031575792179
 20
51.57862302450443
 30
0.0
 10
-3.078506165867773
 20
51.52756600846538
 30
0.0
 10
-3.073140688068188
 20
51.47798682975814
 30
0.0
  0
SPLINE
  5
147
330
1F
100
AcDbEntity
  8
0
  6
Continuous
 62
     7
370
    25
100
AcDbSpline
210
0.0
220
0.0
230
1.0
 70
     8
 71
     3
 72
    13
 73
     9
 74
     0
 42
0.000000001
 43
0.00000001
 40
0.0
 40
0.0
 40
0.0
 40
0.0
 40
0.2095308123934523
 40
0.3716285741730943
 40
0.537869638930972
 40
0.7753680778990045
 40
0.9452231781743696
 40
1.0
 40
1.0
 40
1.0
 40
1.0
 10
-3.799751261896356
 20
51.5013616127908
 30
0.0
 10
-3.801773418789067
 20
51.42325831460963
 30
0.0
 10
-3.805359961857352
 20
51.28473254357989
 30
0.0
 10
-3.733299173333315
 20
51.0964250897442
 30
0.0
 10
-3.621992874261543
 20
50.90970362259962
 30
0.0
 10
-3.441898523743825
 20
50.75228189145485
 30
0.0
 10
-3.249614768171622
 20
50.65265472158519
 30
0.0
 10
-3.13636109947768
 20
50.64049684645937
 30
0.0
 10
-3.108744027188359
 20
50.63753213087794
 30
0.0
  0
LINE
  5
148
330
1F
100
AcDbEntity
  8
0
  6
Continuous
 62
     7
370
    25
100
AcDbLine
 10
29.6562519386
 20
-171.6560351504
 30
0.0
 11
26.9372561997
 21
-171.6560351504
 31
0.0
  0
LINE
  5
149
330
1F
100
AcDbEntity
  8
0
  6
Continuous
 62
     7
370
    25
100
AcDbLine
 10
34.9372561997
 20
-171.6560351504
 30
0.0
 11
29.6562519386
 21
-171.6560351504
 31
0.0
  0
SPLINE
  5
14A
330
1F
100
AcDbEntity
  8
0
  6
Continuous
 62
     7
370
    25
100
AcDbSpline
210
0.0
220
0.0
230
1.0
 70
     8
 71
     3
 72
     9
 73
     5
 74
     0
 42
0.000000001
 43
0.00000001
 40
0.0
 40
0.0
 40
0.0
 40
0.0
 40
0.4937136466648875
 40
1.0
 40
1.0
 40
1.0
 40
1.0
 10
29.35612466182047
 20
-169.2264718296628
 30
0.0
 10
29.51201007801557
 20
-169.2069672054068
 30
0.0
 10
29.82775062367021
 20
-169.1674612602347
 30
0.0
 10
30.14356490608966
 20
-169.2066374562464
 30
0.0
 10
30.30345736746692
 20
-169.2264718296628
 30
0.0
  0
SPLINE
  5
14B
330
1F
100
AcDbEntity
  8
0
  6
Continuous
 62
     7
370
    25
100
AcDbSpline
210
0.0
220
0.0
230
1.0
 70
     8
 71
     3
 72
    12
 73
     8
 74
     0
 42
0.000000001
 43
0.00000001
 40
0.0
 40
0.0
 40
0.0
 40
0.0
 40
0.1958641372809471
 40
0.3974695034629276
 40
0.5933149280105579
 40
0.7947007207876237
 40
1.0
 40
1.0
 40
1.0
 40
1.0
 10
30.30345736746692
 20
-169.2264718296628
 30
0.0
 10
30.32869503475169
 20
-169.1469765145182
 30
0.0
 10
30.37991014346683
 20
-168.9856556934799
 30
0.0
 10
30.47147110330128
 20
-168.7998695717146
 30
0.0
 10
30.57171196077643
 20
-168.661270665534
 30
0.0
 10
30.67887576349037
 20
-168.5727246086222
 30
0.0
 10
30.75322612020373
 20
-168.5616338781145
 30
0.0
 10
30.79075903127857
 20
-168.5560351504109
 30
0.0
  0
LINE
  5
14C
330
1F
100
AcDbEntity
  8
0
  6
Continuous
 62
     7
370
    25
100
AcDbLine
 10
30.7907590313
 20
-168.5560351504
 30
0.0
 11
32.6116325632
 21
-168.5560351504
 31
0.0
  0
SPLINE
  5
14D
330
1F
100
AcDbEntity
  8
0
  6
Continuous
 62
     7
370
    25
100
AcDbSpline
210
0.0
220
0.0
230
1.0
 70
     8
 71
     3
 72
    12
 73
     8
 74
     0
 42
0.000000001
 43
0.00000001
 40
0.0
 40
0.0
 40
0.0
 40
0.0
 40
0.2031330793555005
 40
0.4121870772719333
 40
0.6142480326032838
 40
0.82251287886708
 40
1.0
 40
1.0
 40
1.0
 40
1.0
 10
32.6116325631752
 20
-168.5560351504109
 30
0.0
 10
32.72148010848536
 20
-168.5615321974977
 30
0.0
 10
32.94437703295753
 20
-168.5726865194795
 30
0.0
 10
33.26755736924469
 20
-168.6635088096683
 30
0.0
 10
33.5733521223015
 20
-168.8092166187484
 30
0.0
 10
33.83944534041261
 20
-168.9970295047843
 30
0.0
 10
33.98578482001585
 20
-169.1541702821707
 30
0.0
 10
34.05311661645008
 20
-169.2264718296628
 30
0.0
  0
SPLINE
  5
14E
330
1F
100
AcDbEntity
  8
0
  6
Continuous
 62
     7
370
    25
100
AcDbSpline
210
0.0
220
0.0
230
1.0
 70
     8
 71
     3
 72
     9
 73
     5
 74
     0
 42
0.000000001
 43
0.00000001
 40
0.0
 40
0.0
 40
0.0
 40
0.0
 40
0.493713646664948
 40
1.0
 40
1.0
 40
1.0
 40
1.0
 10
34.05311661645008
 20
-169.2264718296628
 30
0.0
 10
34.1058145443274
 20
-169.2069672054068
 30
0.0
 10
34.21255238362617
 20
-169.1674612602347
 30
0.0
 10
34.31931515004658
 20
-169.2066374562464
 30
0.0
 10
34.37336768172952
 20
-169.2264718296628
 30
0.0
  0
SPLINE
  5
14F
330
1F
100
AcDbEntity
  8
0
  6
Continuous
 62
     7
370
    25
100
AcDbSpline
210
0.0
220
0.0
230
1.0
 70
     8
 71
     3
 72
    12
 73
     8
 74
     0
 42
0.000000001
 43
0.00000001
 40
0.0
 40
0.0
 40
0.0
 40
0.0
 40
0.1958641372809268
 40
0.3974695034629552
 40
0.5933149280105533
 40
0.7947007207876474
 40
1.0
 40
1.0
 40
1.0
 40
1.0
 10
34.37336768172949
 20
-169.2264718296628
 30
0.0
 10
34.29871229342585
 20
-169.1469765145182
 30
0.0
 10
34.14721319547037
 20
-168.9856556934799
 30
0.0
 10
33.87636728357324
 20
-168.7998695717146
 30
0.0
 10
33.57984541987494
 20
-168.661270665534
 30
0.0
 10
33.26284483446301
 20
-168.5727246086222
 30
0.0
 10
33.04290950175886
 20
-168.5616338781145
 30
0.0
 10
32.93188362845451
 20
-168.5560351504109
 30
0.0
  0
LINE
  5
150
330
1F
100
AcDbEntity
  8
0
  6
Continuous
 62
     7
370
    25
100
AcDbLine
 10
32.9318836285
 20
-168.5560351504
 30
0.0
 11
32.9372561997
 21
-168.5560351504
 31
0.0
  0
LINE
  5
151
330
1F
100
AcDbEntity
  8
0
  6
Continuous
 62
     7
370
    25
100
AcDbLine
 10
28.9372561997
 20
-168.5560351504
 30
0.0
 11
29.8434263256
 21
-168.5560351504
 31
0.0
  0
SPLINE
  5
152
330
1F
100
AcDbEntity
  8
0
  6
Continuous
 62
     7
370
    25
100
AcDbSpline
210
0.0
220
0.0
230
1.0
 70
     8
 71
     3
 72
    12
 73
     8
 74
     0
 42
0.000000001
 43
0.00000001
 40
0.0
 40
0.0
 40
0.0
 40
0.0
 40
0.2031330793555521
 40
0.4121870772719941
 40
0.614248032603306
 40
0.8225128788670663
 40
1.0
 40
1.0
 40
1.0
 40
1.0
 10
29.84342632563219
 20
-168.5560351504109
 30
0.0
 10
29.80629175485861
 20
-168.5615321974977
 30
0.0
 10
29.73094021565353
 20
-168.5726865194795
 30
0.0
 10
29.62168731394704
 20
-168.6635088096683
 30
0.0
 10
29.51831170489261
 20
-168.8092166187484
 30
0.0
 10
29.42835741950184
 20
-168.9970295047843
 30
0.0
 10
29.37888654833271
 20
-169.1541702821707
 30
0.0
 10
29.35612466182047
 20
-169.2264718296628
 30
0.0
  0
LINE
  5
153
330
1F
100
AcDbEntity
  8
0
  6
Continuous
 62
     7
370
    25
100
AcDbLine
 10
30.3034643142
 20
-168.5560351504
 30
0.0
 11
30.3034643142
 21
-169.226436906
 31
0.0
  0
LINE
  5
154
330
1F
100
AcDbEntity
  8
0
  6
Continuous
 62
     7
370
    25
100
AcDbLine
 10
30.3034643142
 20
-168.5560351504
 30
0.0
 11
29.8434263256
 21
-168.5560351504
 31
0.0
  0
LINE
  5
155
330
1F
100
AcDbEntity
  8
0
  6
Continuous
 62
     7
370
    25
100
AcDbLine
 10
32.9318836285
 20
-168.5560351504
 30
0.0
 11
32.6116325632
 21
-168.5560351504
 31
0.0
  0
LINE
  5
156
330
1F
100
AcDbEntity
  8
0
  6
Continuous
 62
     7
370
    25
100
AcDbLine
 10
30.6237153795
 20
-168.6291883248
 30
0.0
 11
30.6237153795
 21
-168.5560351504
 31
0.0
  0
LINE
  5
157
330
1F
100
AcDbEntity
  8
0
  6
Continuous
 62
     7
370
    25
100
AcDbLine
 10
30.6237153795
 20
-168.5560351504
 30
0.0
 11
30.3034643142
 21
-168.5560351504
 31
0.0
  0
LINE
  5
158
330
1F
100
AcDbEntity
  8
0
  6
Continuous
 62
     7
370
    25
100
AcDbLine
 10
30.7907590313
 20
-168.5560351504
 30
0.0
 11
30.6237153795
 21
-168.5560351504
 31
0.0
  0
LINE
  5
159
330
1F
100
AcDbEntity
  8
0
  6
Continuous
 62
     7
370
    25
100
AcDbLine
 10
226.3266383525
 20
-189.3858370647
 30
0.0
 11
290.598882892
 21
-189.3858370647
 31
0.0
  0
LINE
  5
15A
330
1F
100
AcDbEntity
  8
0
  6
Continuous
 62
     7
370
    25
100
AcDbLine
 10
226.3266383525
 20
-179.3858370647
 30
0.0
 11
226.3266383525
 21
-189.3858370647
 31
0.0
  0
SPLINE
  5
15B
330
1F
100
AcDbEntity
  8
0
  6
Continuous
 62
     7
370
    25
100
AcDbSpline
210
0.0
220
0.0
230
1.0
 70
     8
 71
     3
 72
    27
 73
    23
 74
     0
 42
0.000000001
 43
0.00000001
 40
0.0
 40
0.0
 40
0.0
 40
0.0
 40
0.0550451211490467
 40
0.1100896292838087
 40
0.1651336474237483
 40
0.2241876222473738
 40
0.2792311751178079
 40
0.3342748361052406
 40
0.3893188559055506
 40
0.4483150744227385
 40
0.5033715047417495
 40
0.5584291123157168
 40
0.6134881305964924
 40
0.6431500015157263
 40
0.6728116839306643
 40
0.7257855280788543
 40
0.7787608459676509
 40
0.8317375521052216
 40
0.8603704478403601
 40
0.889003228493568
 40
0.944501965268561
 40
1.0
 40
1.0
 40
1.0
 40
1.0
 10
208.8266383524856
 20
-161.8858370647296
 30
0.0
 10
209.3270434794387
 20
-161.8982524401571
 30
0.0
 10
210.3278481605441
 20
-161.9230830527472
 30
0.0
 10
211.8140356593627
 20
-162.1226109073573
 30
0.0
 10
213.3118284756527
 20
-162.4462633942343
 30
0.0
 10
214.7737564934949
 20
-162.9031894692831
 30
0.0
 10
216.1889593613071
 20
-163.486424196808
 30
0.0
 10
217.517683480601
 20
-164.1719992438645
 30
0.0
 10
218.8149013522314
 20
-164.9883562936478
 30
0.0
 10
220.0376256628065
 20
-165.9184388361758
 30
0.0
 10
221.1759995733248
 20
-166.956053473531
 30
0.0
 10
222.2000384551702
 20
-168.0648856767448
 30
0.0
 10
222.9855360965173
 20
-169.0783710904115
 30
0.0
 10
223.572763634693
 20
-169.9505534418942
 30
0.0
 10
224.1098480791854
 20
-170.8347571733331
 30
0.0
 10
224.6896991698298
 20
-171.9470468945081
 30
0.0
 10
225.2594849976959
 20
-173.3079864558782
 30
0.0
 10
225.6443855985515
 20
-174.5013336741247
 30
0.0
 10
225.8958212720904
 20
-175.4984917796663
 30
0.0
 10
226.105237160703
 20
-176.5304744168175
 30
0.0
 10
226.2863416436184
 20
-177.8265865512716
 30
0.0
 10
226.3132061728351
 20
-178.8660890851603
 30
0.0
 10
226.3266383524858
 20
-179.3858370647295
 30
0.0
  0
SPLINE
  5
15C
330
1F
100
AcDbEntity
  8
0
  6
Continuous
 62
     7
370
    25
100
AcDbSpline
210
0.0
220
0.0
230
1.0
 70
     8
 71
     3
 72
    27
 73
    23
 74
     0
 42
0.000000001
 43
0.00000001
 40
0.0
 40
0.0
 40
0.0
 40
0.0
 40
0.0260522354230931
 40
0.0755190808399577
 40
0.1251614603611446
 40
0.1748088481956679
 40
0.2242825472363484
 40
0.2739813510459104
 40
0.3238428614502219
 40
0.3737125595398254
 40
0.4234225645848581
 40
0.4754891186728577
 40
0.527724078807165
 40
0.5799652517002485
 40
0.6320403049457762
 40
0.6868939615685481
 40
0.7419347366966546
 40
0.7969759678199902
 40
0.8518302483746183
 40
0.9011979464138676
 40
0.9506339544826515
 40
1.0
 40
1.0
 40
1.0
 40
1.0
 10
116.3266383524857
 20
-179.3858370647296
 30
0.0
 10
116.3296857926948
 20
-179.1419279276149
 30
0.0
 10
116.3385195791154
 20
-178.4348947865337
 30
0.0
 10
116.4388499477625
 20
-177.2661450968598
 30
0.0
 10
116.6618308225445
 20
-175.8925823507717
 30
0.0
 10
116.9920878594785
 20
-174.5433378287994
 30
0.0
 10
117.4261413412866
 20
-173.2272397967601
 30
0.0
 10
117.9644147578127
 20
-171.9530106182419
 30
0.0
 10
118.600429048594
 20
-170.7261400484904
 30
0.0
 10
119.3272038447944
 20
-169.5565445535526
 30
0.0
 10
120.1520471815822
 20
-168.4349123417985
 30
0.0
 10
121.076668675756
 20
-167.3717089470597
 30
0.0
 10
122.0976506315723
 20
-166.3741479416491
 30
0.0
 10
123.192512258459
 20
-165.464307539117
 30
0.0
 10
124.3741201052219
 20
-164.633886249218
 30
0.0
 10
125.6419439859437
 20
-163.8948819010109
 30
0.0
 10
126.9908190019039
 20
-163.2550321702188
 30
0.0
 10
128.3884179219819
 20
-162.731054565644
 30
0.0
 10
129.7768078923444
 20
-162.3405607061579
 30
0.0
 10
131.1439771197466
 20
-162.0769306154322
 30
0.0
 10
132.4796952139749
 20
-161.9161047366564
 30
0.0
 10
133.3778693078173
 20
-161.8959215247388
 30
0.0
 10
133.8266383524856
 20
-161.8858370647296
 30
0.0
  0
LINE
  5
15D
330
1F
100
AcDbEntity
  8
0
  6
Continuous
 62
     7
370
    25
100
AcDbLine
 10
116.3266383525
 20
-189.3858370647
 30
0.0
 11
116.3266383525
 21
-179.3858370647
 31
0.0
  0
LINE
  5
15E
330
1F
100
AcDbEntity
  8
0
  6
Continuous
 62
     7
370
    25
100
AcDbLine
 10
52.0543938129
 20
-189.3858370647
 30
0.0
 11
116.3266383525
 21
-189.3858370647
 31
0.0
  0
LINE
  5
15F
330
1F
100
AcDbEntity
  8
0
  6
Continuous
 62
     7
370
    25
100
AcDbLine
 10
226.3266383525
 20
-189.3858370647
 30
0.0
 11
195.7331794916
 21
-189.3858370647
 31
0.0
  0
LINE
  5
160
330
1F
100
AcDbEntity
  8
0
  6
Continuous
 62
     7
370
    25
100
AcDbLine
 10
195.7331794916
 20
-189.3858370647
 30
0.0
 11
195.7331794916
 21
-179.1153991773
 31
0.0
  0
SPLINE
  5
161
330
1F
100
AcDbEntity
  8
0
  6
Continuous
 62
     7
370
    25
100
AcDbSpline
210
0.0
220
0.0
230
1.0
 70
     8
 71
     3
 72
    21
 73
    17
 74
     0
 42
0.000000001
 43
0.00000001
 40
0.0
 40
0.0
 40
0.0
 40
0.0
 40
0.0743942206847867
 40
0.1490229145767253
 40
0.2234146428836662
 40
0.2978516820284858
 40
0.3725281749058046
 40
0.4469552375578689
 40
0.520406995013014
 40
0.594102580109975
 40
0.6675410062401033
 40
0.7386805719062428
 40
0.8100576233303122
 40
0.8811889019529805
 40
0.9405945192699702
 40
1.0
 40
1.0
 40
1.0
 40
1.0
 10
190.6460091725488
 20
-174.139687911016
 30
0.0
 10
190.8414226373922
 20
-174.1461965823415
 30
0.0
 10
191.2328654646769
 20
-174.1592344388045
 30
0.0
 10
191.8119969232361
 20
-174.2619783488876
 30
0.0
 10
192.3766717051547
 20
-174.4238931023301
 30
0.0
 10
192.9188811277675
 20
-174.6515956631787
 30
0.0
 10
193.4322503951395
 20
-174.9388068086444
 30
0.0
 10
193.9079994212308
 20
-175.2813557943826
 30
0.0
 10
194.3384995310577
 20
-175.6762570553648
 30
0.0
 10
194.7198109500129
 20
-176.116136836285
 30
0.0
 10
195.0450449773312
 20
-176.5925546778851
 30
0.0
 10
195.3087892560852
 20
-177.0992960306229
 30
0.0
 10
195.511878920816
 20
-177.627360972246
 30
0.0
 10
195.644740589422
 20
-178.1455600965654
 30
0.0
 10
195.7198740887464
 20
-178.6436114339131
 30
0.0
 10
195.7287443607308
 20
-178.9581367167108
 30
0.0
 10
195.7331794916242
 20
-179.1153991773183
 30
0.0
  0
LINE
  5
162
330
1F
100
AcDbEntity
  8
0
  6
Continuous
 62
     7
370
    25
100
AcDbLine
 10
190.6460091725
 20
-174.139687911
 30
0.0
 11
152.0072675324
 21
-174.139687911
 31
0.0
  0
SPLINE
  5
163
330
1F
100
AcDbEntity
  8
0
  6
Continuous
 62
     7
370
    25
100
AcDbSpline
210
0.0
220
0.0
230
1.0
 70
     8
 71
     3
 72
    17
 73
    13
 74
     0
 42
0.000000001
 43
0.00000001
 40
0.0
 40
0.0
 40
0.0
 40
0.0
 40
0.1031019860717434
 40
0.2062079058981799
 40
0.3092431788595881
 40
0.412291727696435
 40
0.5167385192908115
 40
0.6212001503967557
 40
0.7289973169688654
 40
0.8368044456832271
 40
0.9184019202526196
 40
1.0
 40
1.0
 40
1.0
 40
1.0
 10
146.9200972133525
 20
-179.1153991773182
 30
0.0
 10
146.9336503637808
 20
-178.8424224235691
 30
0.0
 10
146.9607571817445
 20
-178.2964585009119
 30
0.0
 10
147.171829624981
 20
-177.5007723145143
 30
0.0
 10
147.5044152805214
 20
-176.7522497182483
 30
0.0
 10
147.9572460614316
 20
-176.0657286348482
 30
0.0
 10
148.5194039587919
 20
-175.4626493593893
 30
0.0
 10
149.1797475564914
 20
-174.9504651176975
 30
0.0
 10
149.9232582501243
 20
-174.5508999549227
 30
0.0
 10
150.6640663548395
 20
-174.2984538913898
 30
0.0
 10
151.3645340768773
 20
-174.1629136486476
 30
0.0
 10
151.7930225175899
 20
-174.1474298426994
 30
0.0
 10
152.007267532428
 20
-174.139687911016
 30
0.0
  0
LINE
  5
164
330
1F
100
AcDbEntity
  8
0
  6
Continuous
 62
     7
370
    25
100
AcDbLine
 10
146.9200972134
 20
-179.1153991773
 30
0.0
 11
146.9200972134
 21
-189.3858370647
 31
0.0
  0
LINE
  5
165
330
1F
100
AcDbEntity
  8
0
  6
Continuous
 62
     7
370
    25
100
AcDbLine
 10
146.9200972134
 20
-189.3858370647
 30
0.0
 11
116.3266383525
 21
-189.3858370647
 31
0.0
  0
LINE
  5
166
330
1F
100
AcDbEntity
  8
0
  6
Continuous
 62
     7
370
    25
100
AcDbLine
 10
334.1513694784
 20
-189.3858370647
 30
0.0
 11
324.3453153444
 21
-189.3858370647
 31
0.0
  0
LINE
  5
167
330
1F
100
AcDbEntity
  8
0
  6
Continuous
 62
     7
370
    25
100
AcDbLine
 10
18.3079613606
 20
-189.3858370647
 30
0.0
 11
8.5019072266
 21
-189.3858370647
 31
0.0
  0
SPLINE
  5
168
330
1F
100
AcDbEntity
  8
0
  6
Continuous
 62
     7
370
    25
100
AcDbSpline
210
0.0
220
0.0
230
1.0
 70
     8
 71
     3
 72
    18
 73
    14
 74
     0
 42
0.000000001
 43
0.00000001
 40
0.0
 40
0.0
 40
0.0
 40
0.0
 40
0.0970623697937359
 40
0.1941473717326682
 40
0.2911409355207507
 40
0.3881279269586786
 40
0.48585104053394
 40
0.5835711241688862
 40
0.6796489490602018
 40
0.7757345228617369
 40
0.8727187439018207
 40
0.9696901635277339
 40
1.0
 40
1.0
 40
1.0
 40
1.0
 10
33.33039837001706
 20
-172.1683145174906
 30
0.0
 10
33.28327850526192
 20
-172.1726507774334
 30
0.0
 10
33.18902778875829
 20
-172.1813243084098
 30
0.0
 10
32.96773144627802
 20
-172.2120160587627
 30
0.0
 10
32.69360971954846
 20
-172.243766621647
 30
0.0
 10
32.36905608898618
 20
-172.271631394131
 30
0.0
 10
32.00216695262623
 20
-172.2880224001298
 30
0.0
 10
31.6064513189995
 20
-172.2921091765895
 30
0.0
 10
31.19406330804694
 20
-172.2832893642356
 30
0.0
 10
30.77591829334819
 20
-172.2674233116561
 30
0.0
 10
30.36142253730426
 20
-172.2502938801534
 30
0.0
 10
30.05190892509005
 20
-172.242358695187
 30
0.0
 10
29.88564419285461
 20
-172.2432782437918
 30
0.0
 10
29.84605111371907
 20
-172.2434972184366
 30
0.0
  0
LINE
  5
169
330
1F
100
AcDbEntity
  8
0
  6
Continuous
 62
     7
370
    25
100
AcDbLine
 10
324.3453153444
 20
-189.3858370647
 30
0.0
 11
296.3799597523
 21
-189.3858370647
 31
0.0
  0
LINE
  5
16A
330
1F
100
AcDbEntity
  8
0
  6
Continuous
 62
     7
370
    25
100
AcDbLine
 10
46.2733169526
 20
-189.3858370647
 30
0.0
 11
18.3079613606
 21
-189.3858370647
 31
0.0
  0
SPLINE
  5
16B
330
1F
100
AcDbEntity
  8
0
  6
Continuous
 62
     7
370
    25
100
AcDbSpline
210
0.0
220
0.0
230
1.0
 70
     8
 71
     3
 72
    11
 73
     7
 74
     0
 42
0.000000001
 43
0.00000001
 40
0.0
 40
0.0
 40
0.0
 40
0.0
 40
0.3009839641174885
 40
0.6106884126229157
 40
0.8042169950238897
 40
1.0
 40
1.0
 40
1.0
 40
1.0
 10
331.8002230233396
 20
-172.5872153864042
 30
0.0
 10
332.0407334537888
 20
-172.6060961796201
 30
0.0
 10
332.5287226841153
 20
-172.6444048040409
 30
0.0
 10
333.1500897217214
 20
-172.8535360736584
 30
0.0
 10
333.6647223945277
 20
-173.1072532026541
 30
0.0
 10
333.931597472662
 20
-173.2926179744016
 30
0.0
 10
334.0658077208141
 20
-173.3858370647295
 30
0.0
  0
LINE
  5
16C
330
1F
100
AcDbEntity
  8
0
  6
Continuous
 62
     7
370
    25
100
AcDbLine
 10
334.0658077208
 20
-173.3858370647
 30
0.0
 11
346.0658077208
 21
-173.3858370647
 31
0.0
  0
SPLINE
  5
16D
330
1F
100
AcDbEntity
  8
0
  6
Continuous
 62
     7
370
    25
100
AcDbSpline
210
0.0
220
0.0
230
1.0
 70
     8
 71
     3
 72
    11
 73
     7
 74
     0
 42
0.000000001
 43
0.00000001
 40
0.0
 40
0.0
 40
0.0
 40
0.0
 40
0.3009725624838039
 40
0.6106814138534767
 40
0.8042157333919675
 40
1.0
 40
1.0
 40
1.0
 40
1.0
 10
346.0658077208142
 20
-173.3858370647295
 30
0.0
 10
345.8571883784026
 20
-173.2463774464237
 30
0.0
 10
345.4338941288216
 20
-172.9634101347868
 30
0.0
 10
344.8172883815737
 20
-172.7362465350577
 30
0.0
 10
344.2676716774355
 20
-172.6148516509453
 30
0.0
 10
343.9566384150751
 20
-172.5964628986313
 30
0.0
 10
343.8002230233398
 20
-172.5872153864042
 30
0.0
  0
LINE
  5
16E
330
1F
100
AcDbEntity
  8
0
  6
Continuous
 62
     7
370
    25
100
AcDbLine
 10
349.5417296019
 20
-189.3858370647
 30
0.0
 11
334.1513694784
 21
-189.3858370647
 31
0.0
  0
SPLINE
  5
16F
330
1F
100
AcDbEntity
  8
0
  6
Continuous
 62
     7
370
    25
100
AcDbSpline
210
0.0
220
0.0
230
1.0
 70
     8
 71
     3
 72
    11
 73
     7
 74
     0
 42
0.000000001
 43
0.00000001
 40
0.0
 40
0.0
 40
0.0
 40
0.0
 40
0.3009839640334974
 40
0.6106884124524766
 40
0.8042169949507962
 40
1.0
 40
1.0
 40
1.0
 40
1.0
 10
-1.146946318374698
 20
-172.5872153864045
 30
0.0
 10
-1.387456748821514
 20
-172.6060961796258
 30
0.0
 10
-1.875445979142992
 20
-172.6444048040574
 30
0.0
 10
-2.496813016896193
 20
-172.8535360736516
 30
0.0
 10
-3.011445689822312
 20
-173.1072532029328
 30
0.0
 10
-3.278320768302423
 20
-173.2926179744989
 30
0.0
 10
-3.412531016619813
 20
-173.3858370647296
 30
0.0
  0
LINE
  5
170
330
1F
100
AcDbEntity
  8
0
  6
Continuous
 62
     7
370
    25
100
AcDbLine
 10
-3.4125310166
 20
-173.3858370647
 30
0.0
 11
8.5874689834
 21
-173.3858370647
 31
0.0
  0
SPLINE
  5
171
330
1F
100
AcDbEntity
  8
0
  6
Continuous
 62
     7
370
    25
100
AcDbSpline
210
0.0
220
0.0
230
1.0
 70
     8
 71
     3
 72
    11
 73
     7
 74
     0
 42
0.000000001
 43
0.00000001
 40
0.0
 40
0.0
 40
0.0
 40
0.0
 40
0.300972562411739
 40
0.6106814136921639
 40
0.8042157333092637
 40
1.0
 40
1.0
 40
1.0
 40
1.0
 10
8.587468983380003
 20
-173.3858370647296
 30
0.0
 10
8.796088325867203
 20
-173.246377446562
 30
0.0
 10
9.219382575591267
 20
-172.9634101352125
 30
0.0
 10
9.835988322858146
 20
-172.7362465351932
 30
0.0
 10
10.38560502721172
 20
-172.6148516509806
 30
0.0
 10
10.69663828978953
 20
-172.5964628986432
 30
0.0
 10
10.85305368163544
 20
-172.5872153864042
 30
0.0
  0
LINE
  5
172
330
1F
100
AcDbEntity
  8
0
  6
Continuous
 62
     7
370
    25
100
AcDbLine
 10
8.5019072266
 20
-189.3858370647
 30
0.0
 11
-6.8884528969
 21
-189.3858370647
 31
0.0
  0
LINE
  5
173
330
1F
100
AcDbEntity
  8
0
  6
Continuous
 62
     7
370
    25
100
AcDbLine
 10
343.8002230233
 20
-172.5872153864
 30
0.0
 11
331.0461475242
 21
-172.2893202682
 31
0.0
  0
SPLINE
  5
174
330
1F
100
AcDbEntity
  8
0
  6
Continuous
 62
     7
370
    25
100
AcDbSpline
210
0.0
220
0.0
230
1.0
 70
     8
 71
     3
 72
    44
 73
    40
 74
     0
 42
0.000000001
 43
0.00000001
 40
0.0
 40
0.0
 40
0.0
 40
0.0
 40
0.0268047911855373
 40
0.0537053558889278
 40
0.0806059169334713
 40
0.1074107031118443
 40
0.1342171094871918
 40
0.16111932568819
 40
0.1880215272210536
 40
0.2148279135229076
 40
0.2416321659054697
 40
0.2685322435845436
 40
0.2954323016320982
 40
0.3222365271487001
 40
0.3490352973359431
 40
0.3759298747627513
 40
0.4028244372198292
 40
0.4296231869208209
 40
0.4564162915899421
 40
0.4833051649123014
 40
0.5101940359390267
 40
0.5369871374665485
 40
0.5637772957343962
 40
0.5906631826546456
 40
0.6175490812087703
 40
0.64433925539768
 40
0.6711307864571667
 40
0.698018026530067
 40
0.7249052858284103
 40
0.7516968431980623
 40
0.778493309949719
 40
0.8053854964596205
 40
0.8322777000529273
 40
0.8590741901833476
 40
0.8858765547684881
 40
0.9127746726801088
 40
0.9396727979932119
 40
0.9664751727073391
 40
0.9999999999999999
 40
0.9999999999999999
 40
0.9999999999999999
 40
0.9999999999999999
 10
331.0461475242259
 20
-172.2893202681648
 30
0.0
 10
330.7502794148579
 20
-172.2824973610271
 30
0.0
 10
330.1574860593786
 20
-172.2688271685048
 30
0.0
 10
329.2199952650178
 20
-172.2483088643615
 30
0.0
 10
328.2563688190957
 20
-172.2279751107513
 30
0.0
 10
327.2701891911232
 20
-172.2079835269842
 30
0.0
 10
326.2680085824792
 20
-172.1884748506187
 30
0.0
 10
325.2560337075648
 20
-172.1695648010306
 30
0.0
 10
324.2425887537011
 20
-172.1514134496135
 30
0.0
 10
323.2358965974142
 20
-172.1341860519678
 30
0.0
 10
322.2423989103146
 20
-172.1180299981116
 30
0.0
 10
321.2677113489857
 20
-172.1030299463053
 30
0.0
 10
320.3195164000432
 20
-172.0893128675891
 30
0.0
 10
319.4057858522759
 20
-172.0770166599449
 30
0.0
 10
318.5331748773358
 20
-172.0662764685573
 30
0.0
 10
317.7057809301369
 20
-172.0571269258118
 30
0.0
 10
316.9298620110879
 20
-172.0496402684558
 30
0.0
 10
316.2121761557528
 20
-172.0439028134538
 30
0.0
 10
315.5588437856435
 20
-172.040013561733
 30
0.0
 10
314.9719804430347
 20
-172.0379465203902
 30
0.0
 10
314.4557515087607
 20
-172.0377054038141
 30
0.0
 10
314.0149194914821
 20
-172.0393085527667
 30
0.0
 10
313.6543857871908
 20
-172.0428003112744
 30
0.0
 10
313.3740555033494
 20
-172.0480965648518
 30
0.0
 10
313.1755466544633
 20
-172.0551313557843
 30
0.0
 10
313.0611079422621
 20
-172.0638523611566
 30
0.0
 10
313.0338786146614
 20
-172.0742428772716
 30
0.0
 10
313.091574954504
 20
-172.0861763884892
 30
0.0
 10
313.2330679219016
 20
-172.0995294216072
 30
0.0
 10
313.4578758215227
 20
-172.1141903877392
 30
0.0
 10
313.7670250629403
 20
-172.1300886421975
 30
0.0
 10
314.1562987108789
 20
-172.1470783133845
 30
0.0
 10
314.6219227483028
 20
-172.1649997690116
 30
0.0
 10
315.1607325054164
 20
-172.1837025421183
 30
0.0
 10
315.771596791715
 20
-172.2030780873756
 30
0.0
 10
316.448538507749
 20
-172.2229845813419
 30
0.0
 10
317.1866425829272
 20
-172.2432479249151
 30
0.0
 10
318.0422458881768
 20
-172.2654187668055
 30
0.0
 10
318.6875444208236
 20
-172.2807824271497
 30
0.0
 10
319.0461475242257
 20
-172.2893202681648
 30
0.0
  0
LINE
  5
175
330
1F
100
AcDbEntity
  8
0
  6
Continuous
 62
     7
370
    25
100
AcDbLine
 10
319.0461475242
 20
-172.2893202682
 30
0.0
 11
331.8002230233
 21
-172.5872153864
 31
0.0
  0
LINE
  5
176
330
1F
100
AcDbEntity
  8
0
  6
Continuous
 62
     7
370
    25
100
AcDbLine
 10
10.8530536816
 20
-172.5872153864
 30
0.0
 11
23.6071291807
 21
-172.2893202682
 31
0.0
  0
SPLINE
  5
177
330
1F
100
AcDbEntity
  8
0
  6
Continuous
 62
     7
370
    25
100
AcDbSpline
210
0.0
220
0.0
230
1.0
 70
     8
 71
     3
 72
    16
 73
    12
 74
     0
 42
0.000000001
 43
0.00000001
 40
0.0
 40
0.0
 40
0.0
 40
0.0
 40
0.1179089125104422
 40
0.2362390782149171
 40
0.3545692278279668
 40
0.4724781183171628
 40
0.5903990381451729
 40
0.7087414237425663
 40
0.8270837448167191
 40
0.9450045763440128
 40
0.9999999999999999
 40
0.9999999999999999
 40
0.9999999999999999
 40
0.9999999999999999
 10
23.6071291807495
 20
-172.2893202681649
 30
0.0
 10
23.89457472805387
 20
-172.2824976497918
 30
0.0
 10
24.47049277942379
 20
-172.2688280378756
 30
0.0
 10
25.27447850582853
 20
-172.2483105197667
 30
0.0
 10
26.02780902953372
 20
-172.2279778452279
 30
0.0
 10
26.72009298636705
 20
-172.2079858170865
 30
0.0
 10
27.34594530256451
 20
-172.1884808487958
 30
0.0
 10
27.90470349872331
 20
-172.1695574616155
 30
0.0
 10
28.38669138737923
 20
-172.1514552905222
 30
0.0
 10
28.73384994757808
 20
-172.1371372166779
 30
0.0
 10
28.88817397156854
 20
-172.1293309261847
 30
0.0
 10
28.93725619967169
 20
-172.1268481621878
 30
0.0
  0
SPLINE
  5
178
330
1F
100
AcDbEntity
  8
0
  6
Continuous
 62
     7
370
    25
100
AcDbSpline
210
0.0
220
0.0
230
1.0
 70
     8
 71
     3
 72
    28
 73
    24
 74
     0
 42
0.000000001
 43
0.00000001
 40
0.0
 40
0.0
 40
0.0
 40
0.0
 40
0.030292370912283
 40
0.078259465211482
 40
0.1262265554144029
 40
0.1740228022871663
 40
0.2218137983887499
 40
0.2697755649526593
 40
0.3177373522693743
 40
0.3655283767713571
 40
0.4133218214739289
 40
0.4612860016027037
 40
0.5092502160275623
 40
0.5570437076645862
 40
0.6048459569718776
 40
0.6528189608709092
 40
0.7007919952455428
 40
0.748594286258919
 40
0.7964070567602654
 40
0.8443906417346958
 40
0.8923742399135123
 40
0.9401870284851708
 40
1.0
 40
1.0
 40
1.0
 40
1.0
 10
28.93725619967172
 20
-172.0427866524804
 30
0.0
 10
28.86785527008146
 20
-172.0419008707348
 30
0.0
 10
28.68855997323452
 20
-172.0396124791824
 30
0.0
 10
28.30916735667258
 20
-172.0379942673672
 30
0.0
 10
27.81473458333342
 20
-172.0376925949125
 30
0.0
 10
27.24533449438862
 20
-172.0393115211699
 30
0.0
 10
26.6067186929238
 20
-172.0427986666956
 30
0.0
 10
25.90357025398654
 20
-172.0480957795667
 30
0.0
 10
25.14233800493271
 20
-172.0551299697982
 30
0.0
 10
24.3286500110767
 20
-172.0638507794699
 30
0.0
 10
23.46605636995072
 20
-172.0742410088445
 30
0.0
 10
22.56111923426937
 20
-172.0861742768883
 30
0.0
 10
21.62147224134101
 20
-172.0995270766478
 30
0.0
 10
20.65440988538303
 20
-172.114187830924
 30
0.0
 10
19.66513005152654
 20
-172.1300858944132
 30
0.0
 10
18.66020857387254
 20
-172.1470753965136
 30
0.0
 10
17.64792373813637
 20
-172.1649967057531
 30
0.0
 10
16.63633687092164
 20
-172.1836993563672
 30
0.0
 10
15.63181528396262
 20
-172.2030748041979
 30
0.0
 10
14.63992475059892
 20
-172.222981225237
 30
0.0
 10
13.66970359131228
 20
-172.2432445204746
 30
0.0
 10
12.64624285496313
 20
-172.2654164752119
 30
0.0
 10
11.97832451890113
 20
-172.2807812827502
 30
0.0
 10
11.60712918074974
 20
-172.2893202681648
 30
0.0
  0
LINE
  5
179
330
1F
100
AcDbEntity
  8
0
  6
Continuous
 62
     7
370
    25
100
AcDbLine
 10
11.6071291807
 20
-172.2893202682
 30
0.0
 11
-1.1469463184
 21
-172.5872153864
 31
0.0
  0
SPLINE
  5
17A
330
1F
100
AcDbEntity
  8
0
  6
Continuous
 62
     7
370
    25
100
AcDbSpline
210
0.0
220
0.0
230
1.0
 70
     8
 71
     3
 72
     9
 73
     5
 74
     0
 42
0.000000001
 43
0.00000001
 40
0.0
 40
0.0
 40
0.0
 40
0.0
 40
0.6605094527889096
 40
1.0
 40
1.0
 40
1.0
 40
1.0
 10
33.33039837001706
 20
-172.1683145174906
 30
0.0
 10
33.37150918472081
 20
-172.1657456660107
 30
0.0
 10
33.43375025414102
 20
-172.1618564688629
 30
0.0
 10
33.42983833028546
 20
-172.1589708760837
 30
0.0
 10
33.42851026911506
 20
-172.157991244612
 30
0.0
  0
SPLINE
  5
17B
330
1F
100
AcDbEntity
  8
0
  6
Continuous
 62
     7
370
    25
100
AcDbSpline
210
0.0
220
0.0
230
1.0
 70
     8
 71
     3
 72
    11
 73
     7
 74
     0
 42
0.000000001
 43
0.00000001
 40
0.0
 40
0.0
 40
0.0
 40
0.0
 40
0.2968805438085336
 40
0.5937004165277218
 40
0.8905201614458401
 40
1.0
 40
1.0
 40
1.0
 40
1.0
 10
33.43103553240611
 20
-172.155872247765
 30
0.0
 10
33.41487589567049
 20
-172.1544532064596
 30
0.0
 10
33.38255992461428
 20
-172.151615413847
 30
0.0
 10
33.2400952757006
 20
-172.1491816961799
 30
0.0
 10
33.09540536925612
 20
-172.147921858869
 30
0.0
 10
32.97082509523866
 20
-172.1482235637385
 30
0.0
 10
32.93725619967172
 20
-172.1483048599094
 30
0.0
  0
SPLINE
  5
17C
330
1F
100
AcDbEntity
  8
0
  6
Continuous
 62
     7
370
    25
100
AcDbSpline
210
0.0
220
0.0
230
1.0
 70
     8
 71
     3
 72
    10
 73
     6
 74
     0
 42
0.000000001
 43
0.00000001
 40
0.0
 40
0.0
 40
0.0
 40
0.0
 40
0.2936487144537636
 40
0.6468426855293029
 40
1.0
 40
1.0
 40
1.0
 40
1.0
 10
28.93725619967172
 20
-172.2141333157508
 30
0.0
 10
28.86982634471749
 20
-172.2163657331009
 30
0.0
 10
28.72129339934221
 20
-172.2212832510837
 30
0.0
 10
28.55995550339713
 20
-172.2282551959733
 30
0.0
 10
28.50041723535054
 20
-172.2324628815477
 30
0.0
 10
28.4706496462177
 20
-172.2345666151544
 30
0.0
  0
SPLINE
  5
17D
330
1F
100
AcDbEntity
  8
0
  6
Continuous
 62
     7
370
    25
100
AcDbSpline
210
0.0
220
0.0
230
1.0
 70
     8
 71
     3
 72
    15
 73
    11
 74
     0
 42
0.000000001
 43
0.00000001
 40
0.0
 40
0.0
 40
0.0
 40
0.0
 40
0.0050849638178247
 40
0.1558197586191929
 40
0.306554442771725
 40
0.4572610079284929
 40
0.6079675410496854
 40
0.7586577364693724
 40
0.909347991760965
 40
0.9999999999999999
 40
0.9999999999999999
 40
0.9999999999999999
 40
0.9999999999999999
 10
28.43842178358044
 20
-172.2398671464796
 30
0.0
 10
28.4380348405851
 20
-172.2399290104242
 30
0.0
 10
28.42617765412431
 20
-172.2418247220251
 30
0.0
 10
28.46916651476528
 20
-172.2444941504592
 30
0.0
 10
28.57013073218401
 20
-172.247663191313
 30
0.0
 10
28.74801908073341
 20
-172.2493013879242
 30
0.0
 10
28.98440889468323
 20
-172.2495931487274
 30
0.0
 10
29.27834484204889
 20
-172.2484066550398
 30
0.0
 10
29.571788207685
 20
-172.2462547389264
 30
0.0
 10
29.77116282397563
 20
-172.2442501674824
 30
0.0
 10
29.84605111371907
 20
-172.2434972184366
 30
0.0
  0
LINE
  5
17E
330
1F
100
AcDbEntity
  8
0
  6
Continuous
 62
     7
370
    25
100
AcDbLine
 10
296.3799597523
 20
-189.3858370647
 30
0.0
 11
290.598882892
 21
-189.3858370647
 31
0.0
  0
LINE
  5
17F
330
1F
100
AcDbEntity
  8
0
  6
Continuous
 62
     7
370
    25
100
AcDbLine
 10
52.0543938129
 20
-189.3858370647
 30
0.0
 11
46.2733169526
 21
-189.3858370647
 31
0.0
  0
LINE
  5
180
330
1F
100
AcDbEntity
  8
0
  6
Continuous
 62
     7
370
    25
100
AcDbLine
 10
350.3228904627
 20
-189.3858370647
 30
0.0
 11
349.5417296019
 21
-189.3858370647
 31
0.0
  0
LINE
  5
181
330
1F
100
AcDbEntity
  8
0
  6
Continuous
 62
     7
370
    25
100
AcDbLine
 10
-6.8884528969
 20
-189.3858370647
 30
0.0
 11
-7.6696137577
 21
-189.3858370647
 31
0.0
  0
LINE
  5
182
330
1F
100
AcDbEntity
  8
0
  6
Continuous
 62
     7
370
    25
100
AcDbLine
 10
-1.5660161516
 20
-172.5386574552
 30
0.0
 11
-1.5393919646
 21
-172.5382709011
 31
0.0
  0
LINE
  5
183
330
1F
100
AcDbEntity
  8
0
  6
Continuous
 62
     7
370
    25
100
AcDbLine
 10
191.6949167619
 20
-189.3858370647
 30
0.0
 11
195.7331794916
 21
-189.3858370647
 31
0.0
  0
LINE
  5
184
330
1F
100
AcDbEntity
  8
0
  6
Continuous
 62
     7
370
    25
100
AcDbLine
 10
146.9200972134
 20
-189.3858370647
 30
0.0
 11
150.9583599431
 21
-189.3858370647
 31
0.0
  0
SPLINE
  5
185
330
1F
100
AcDbEntity
  8
0
  6
Continuous
 62
     7
370
    25
100
AcDbSpline
210
0.0
220
0.0
230
1.0
 70
     8
 71
     3
 72
    45
 73
    41
 74
     0
 42
0.000000001
 43
0.00000001
 40
0.0
 40
0.0
 40
0.0
 40
0.0
 40
0.0263769030775605
 40
0.0529369189217319
 40
0.0800744639557004
 40
0.1074115734733807
 40
0.1337895321146747
 40
0.1603506500935855
 40
0.1874894855143858
 40
0.2148279675707812
 40
0.2412037723811915
 40
0.2677627605909868
 40
0.2948995676171511
 40
0.3222360654960601
 40
0.3486064325400995
 40
0.3754487309311358
 40
0.402291026430503
 40
0.4296219131996981
 40
0.4559866332556944
 40
0.4828231027287969
 40
0.5096595717437034
 40
0.5369844112419098
 40
0.5633462546363041
 40
0.5901796562253587
 40
0.6170130600532224
 40
0.6443345977402712
 40
0.6706979635204454
 40
0.697532795596724
 40
0.7243676313324364
 40
0.7516904829893057
 40
0.7780588981016693
 40
0.8048988356971726
 40
0.8317387764680687
 40
0.8590667951112874
 40
0.885441042839759
 40
0.9119983673326715
 40
0.9391330739373575
 40
0.9664672795788406
 40
0.9832336398033176
 40
1.0
 40
1.0
 40
1.0
 40
1.0
 10
185.6266383524884
 20
-174.5932371647652
 30
0.0
 10
185.6171804026864
 20
-174.5852419103033
 30
0.0
 10
185.598198844451
 20
-174.5691958970179
 30
0.0
 10
185.4434603792087
 20
-174.5448850849878
 30
0.0
 10
185.1931267179677
 20
-174.5204731263567
 30
0.0
 10
184.8409964794142
 20
-174.4964768985672
 30
0.0
 10
184.3961582088426
 20
-174.4731919030207
 30
0.0
 10
183.8611939146946
 20
-174.450665231863
 30
0.0
 10
183.2301409248963
 20
-174.4287640255253
 30
0.0
 10
182.5142994961325
 20
-174.4079977932622
 30
0.0
 10
181.7243746099187
 20
-174.388613939415
 30
0.0
 10
180.8639463818757
 20
-174.3706450889463
 30
0.0
 10
179.9249006294565
 20
-174.3540145197625
 30
0.0
 10
178.9257293109459
 20
-174.3391414546189
 30
0.0
 10
177.8762899490713
 20
-174.3261409121401
 30
0.0
 10
176.7872222348077
 20
-174.3151270278274
 30
0.0
 10
175.6461911759181
 20
-174.3060137187439
 30
0.0
 10
174.4807054100303
 20
-174.2990895063042
 30
0.0
 10
173.2930531358119
 20
-174.294337648808
 30
0.0
 10
172.0988064788966
 20
-174.2918044225876
 30
0.0
 10
170.8847520164567
 20
-174.2914835369469
 30
0.0
 10
169.6808877285218
 20
-174.2934337597937
 30
0.0
 10
168.4889169488127
 20
-174.2976051312434
 30
0.0
 10
167.3240733868067
 20
-174.3039111285134
 30
0.0
 10
166.173783390366
 20
-174.3124246733555
 30
0.0
 10
165.0671308867809
 20
-174.3229664349755
 30
0.0
 10
164.0050488712322
 20
-174.3354627036417
 30
0.0
 10
163.0007269117223
 20
-174.3497099763097
 30
0.0
 10
162.0436631461473
 20
-174.3658548579081
 30
0.0
 10
161.1587824906352
 20
-174.3835125989668
 30
0.0
 10
160.3461531320765
 20
-174.4026039430863
 30
0.0
 10
159.615447066825
 20
-174.4228445648484
 30
0.0
 10
158.9593884369907
 20
-174.4444432054351
 30
0.0
 10
158.3959758550081
 20
-174.4668708843969
 30
0.0
 10
157.9261390111874
 20
-174.4899783996903
 30
0.0
 10
157.5508911402452
 20
-174.5136065383016
 30
0.0
 10
157.2692286937062
 20
-174.5379311883507
 30
0.0
 10
157.1125712700754
 20
-174.5595233913425
 30
0.0
 10
157.0381394806787
 20
-174.5780037288173
 30
0.0
 10
157.030472061883
 20
-174.5881593527853
 30
0.0
 10
157.0266383524883
 20
-174.5932371647652
 30
0.0
  0
LINE
  5
186
330
1F
100
AcDbEntity
  8
0
  6
Continuous
 62
     7
370
    25
100
AcDbLine
 10
157.0266383525
 20
-175.6858370647
 30
0.0
 11
157.0266383525
 21
-174.5932371648
 31
0.0
  0
LINE
  5
187
330
1F
100
AcDbEntity
  8
0
  6
Continuous
 62
     7
370
    25
100
AcDbLine
 10
185.6266383525
 20
-175.6858370647
 30
0.0
 11
185.6266383525
 21
-174.5932371648
 31
0.0
  0
LINE
  5
188
330
1F
100
AcDbEntity
  8
0
  6
Continuous
 62
     7
370
    25
100
AcDbLine
 10
157.0266383525
 20
-175.6858370647
 30
0.0
 11
185.6266383525
 21
-175.6858370647
 31
0.0
  0
LINE
  5
189
330
1F
100
AcDbEntity
  8
0
  6
Continuous
 62
     7
370
    25
100
AcDbLine
 10
191.6949167619
 20
-189.3858370647
 30
0.0
 11
187.1302912774
 21
-189.3858370647
 31
0.0
  0
LINE
  5
18A
330
1F
100
AcDbEntity
  8
0
  6
Continuous
 62
     7
370
    25
100
AcDbLine
 10
155.5229854276
 20
-189.3858370647
 30
0.0
 11
150.9583599431
 21
-189.3858370647
 31
0.0
  0
LINE
  5
18B
330
1F
100
AcDbEntity
  8
0
  6
Continuous
 62
     7
370
    25
100
AcDbLine
 10
155.5229854276
 20
-189.3858370647
 30
0.0
 11
187.1302912774
 21
-189.3858370647
 31
0.0
  0
LINE
  5
18C
330
1F
100
AcDbEntity
  8
0
  6
Continuous
 62
     7
370
    18
100
AcDbLine
 10
351.5266383525
 20
-92.8858370647
 30
0.0
 11
357.945737449
 21
-92.8858370647
 31
0.0
  0
LINE
  5
18D
330
1F
100
AcDbEntity
  8
0
  6
Continuous
 62
     7
370
    18
100
AcDbLine
 10
205.3647296087
 20
292.7863190783
 30
0.0
 11
205.4318212023
 21
292.9163811279
 31
0.0
  0
LINE
  5
18E
330
1F
100
AcDbEntity
  8
0
  6
CENTERX2
 62
     7
370
    18
100
AcDbLine
 10
171.3266383525
 20
308.0532619361
 30
0.0
 11
171.3266383525
 21
-212.6345597812
 31
0.0
  0
SPLINE
  5
18F
330
1F
100
AcDbEntity
  8
0
  6
Continuous
 62
     7
370
    25
100
AcDbSpline
210
0.0
220
0.0
230
1.0
 70
     8
 71
     3
 72
    25
 73
    21
 74
     0
 42
0.000000001
 43
0.00000001
 40
0.0
 40
0.0
 40
0.0
 40
0.0
 40
0.0185776509239913
 40
0.0843347545752799
 40
0.1499611141304217
 40
0.2154275475065088
 40
0.2806964931913627
 40
0.3457190353502465
 40
0.4104307034065967
 40
0.4747454989303866
 40
0.5385473735538769
 40
0.6016781119261282
 40
0.6639203685035847
 40
0.7249748053120969
 40
0.7844317570890564
 40
0.8417424583664224
 40
0.8898931186908519
 40
0.9342892197719194
 40
0.9745160202834846
 40
1.0
 40
1.0
 40
1.0
 40
1.0
 10
55.13887241061258
 20
711.9986369643731
 30
0.0
 10
55.10159477512558
 20
712.0410842469553
 30
0.0
 10
54.93236992248926
 20
712.2337771322727
 30
0.0
 10
54.64881719034567
 20
712.5583071867192
 30
0.0
 10
54.28977228062573
 20
712.9704787449141
 30
0.0
 10
53.95153060692423
 20
713.3606875930705
 30
0.0
 10
53.63314963180007
 20
713.72981217246
 30
0.0
 10
53.33578049016288
 20
714.0765350583719
 30
0.0
 10
53.06002911749322
 20
714.4000891455564
 30
0.0
 10
52.80667207549758
 20
714.6995041205297
 30
0.0
 10
52.57647941959068
 20
714.9737807199938
 30
0.0
 10
52.37027725655882
 20
715.2218098148545
 30
0.0
 10
52.18893854990633
 20
715.4423612142236
 30
0.0
 10
52.03339569677981
 20
715.6340342387883
 30
0.0
 10
51.9045557644395
 20
715.7953219983561
 30
0.0
 10
51.80711139564723
 20
715.9196519658547
 30
0.0
 10
51.7383581959274
 20
716.0093443462732
 30
0.0
 10
51.69585085137615
 20
716.0661252611412
 30
0.0
 10
51.67355247349833
 20
716.09695222033
 30
0.0
 10
51.67313923102132
 20
716.097560039669
 30
0.0
 10
51.67297896716713
 20
716.0977957643958
 30
0.0
  0
SPLINE
  5
190
330
1F
100
AcDbEntity
  8
0
  6
Continuous
 62
     7
370
    25
100
AcDbSpline
210
0.0
220
0.0
230
1.0
 70
     8
 71
     3
 72
    78
 73
    74
 74
     0
 42
0.000000001
 43
0.00000001
 40
0.0
 40
0.0
 40
0.0
 40
0.0
 40
0.0124329337698491
 40
0.037537818196597
 40
0.0630757413947096
 40
0.0895828399250776
 40
0.1179275993219737
 40
0.1508010350470037
 40
0.1703566992812159
 40
0.1835598419464592
 40
0.1948487090468959
 40
0.2045421395878144
 40
0.2131448925423148
 40
0.2210605880251767
 40
0.228622877331706
 40
0.2361099253014816
 40
0.2436801158658395
 40
0.2515651745828218
 40
0.2599202026089772
 40
0.2688021176089239
 40
0.2781603884659717
 40
0.2878790640437944
 40
0.2978400180187781
 40
0.3079554197895034
 40
0.3181682796175668
 40
0.3284433360799505
 40
0.3387589767350417
 40
0.3491018392313587
 40
0.359463493450389
 40
0.3710067454939378
 40
0.382398655111054
 40
0.3936094559403264
 40
0.4046523780493592
 40
0.415538349994081
 40
0.4262752513760201
 40
0.4368685280519939
 40
0.4473212971014735
 40
0.4576341670901695
 40
0.4678053036028884
 40
0.4778297406889537
 40
0.4876982241555488
 40
0.4973951710723248
 40
0.5068954196630552
 40
0.5161599501764009
 40
0.5251328245348009
 40
0.533746057000872
 40
0.5419417996214702
 40
0.5497096809281021
 40
0.5571147644826036
 40
0.564295819976835
 40
0.5714454543337121
 40
0.5787533853047772
 40
0.5864372072286915
 40
0.5947913323570665
 40
0.6041766396072501
 40
0.6150805542714545
 40
0.6282430866820711
 40
0.6449875352927458
 40
0.66841882192242
 40
0.6996413846491427
 40
0.7265878099812754
 40
0.7518798356665493
 40
0.7786515418265136
 40
0.8042949786011586
 40
0.8292856097765144
 40
0.8538723989013757
 40
0.8781892590060288
 40
0.9023161081517554
 40
0.9263040839917218
 40
0.950187588476248
 40
0.973990667784072
 40
0.9977306508851942
 40
1.0
 40
1.0
 40
1.0
 40
1.0
 10
52.50917988500961
 20
715.6850585929803
 30
0.0
 10
52.46062155384293
 20
715.7328125547818
 30
0.0
 10
52.31401305089364
 20
715.8769924860397
 30
0.0
 10
52.08265526006328
 20
716.1021292596317
 30
0.0
 10
51.81850942085081
 20
716.3556233103187
 30
0.0
 10
51.56270530463544
 20
716.596512775332
 30
0.0
 10
51.30061758857937
 20
716.8369872178532
 30
0.0
 10
51.06754470923683
 20
717.0425782008022
 30
0.0
 10
50.86415452476492
 20
717.2123853348439
 30
0.0
 10
50.71023972647703
 20
717.3345313213002
 30
0.0
 10
50.57314078183078
 20
717.4380335018474
 30
0.0
 10
50.43450694043924
 20
717.5370214214266
 30
0.0
 10
50.29047319134663
 20
717.6336909571971
 30
0.0
 10
50.13623851533658
 20
717.7302420113218
 30
0.0
 10
49.96700903384824
 20
717.8280624153613
 30
0.0
 10
49.77858854651157
 20
717.9273004402185
 30
0.0
 10
49.56693160711645
 20
718.0271387913211
 30
0.0
 10
49.3285009724376
 20
718.1255989113411
 30
0.0
 10
49.06024100119858
 20
718.2195070473107
 30
0.0
 10
48.76193537880266
 20
718.3039652338695
 30
0.0
 10
48.43669020417704
 20
718.3731603740852
 30
0.0
 10
48.09012692776957
 20
718.4216230012509
 30
0.0
 10
47.72872306639739
 20
718.4451765839578
 30
0.0
 10
47.35845999840707
 20
718.4411387108013
 30
0.0
 10
46.98435784800218
 20
718.4080255409139
 30
0.0
 10
46.61058474151528
 20
718.3451813268496
 30
0.0
 10
46.24069804033268
 20
718.2525134007637
 30
0.0
 10
45.87783275038604
 20
718.1303291348324
 30
0.0
 10
45.51157682467097
 20
717.9735776284186
 30
0.0
 10
45.14802370938881
 20
717.7802703567506
 30
0.0
 10
44.79401026065144
 20
717.5498253450696
 30
0.0
 10
44.46618976697867
 20
717.2932225492459
 30
0.0
 10
44.16612775882872
 20
717.0137397832686
 30
0.0
 10
43.8946998780935
 20
716.7143070394911
 30
0.0
 10
43.65257970123687
 20
716.3978322604537
 30
0.0
 10
43.44023727056165
 20
716.0672157798441
 30
0.0
 10
43.25792961394512
 20
715.7253557167016
 30
0.0
 10
43.10568971601017
 20
715.3751551825579
 30
0.0
 10
42.98331385184784
 20
715.0195365056351
 30
0.0
 10
42.89034315519874
 20
714.6614672784726
 30
0.0
 10
42.82603456590412
 20
714.3040140948399
 30
0.0
 10
42.78930753803267
 20
713.9504310394191
 30
0.0
 10
42.77864967240335
 20
713.6042876647467
 30
0.0
 10
42.7919655845897
 20
713.269601824012
 30
0.0
 10
42.8263876724665
 20
712.9508480957091
 30
0.0
 10
42.87816380618658
 20
712.6526054990998
 30
0.0
 10
42.94283840578112
 20
712.3787056233783
 30
0.0
 10
43.01584779846232
 20
712.1311853208078
 30
0.0
 10
43.09330610859963
 20
711.909704764697
 30
0.0
 10
43.17254050123484
 20
711.711817745003
 30
0.0
 10
43.25200872297847
 20
711.5341497181106
 30
0.0
 10
43.33106024694847
 20
711.373055691082
 30
0.0
 10
43.40988132546924
 20
711.2246226812397
 30
0.0
 10
43.48951479619595
 20
711.0845903684751
 30
0.0
 10
43.57190814955359
 20
710.9482223708876
 30
0.0
 10
43.66022977490053
 20
710.8097941909757
 30
0.0
 10
43.7601631560674
 20
710.6607819107505
 30
0.0
 10
43.88412553027543
 20
710.4843595593258
 30
0.0
 10
44.04800981485302
 20
710.2614730105765
 30
0.0
 10
44.2450903479551
 20
710.0044876220693
 30
0.0
 10
44.46664173162559
 20
709.7242773774126
 30
0.0
 10
44.69669218290348
 20
709.4392743376483
 30
0.0
 10
44.94467468835614
 20
709.1369792779323
 30
0.0
 10
45.21450269010363
 20
708.8123369191064
 30
0.0
 10
45.49856427424201
 20
708.4741328231135
 30
0.0
 10
45.79875203610501
 20
708.1198238533962
 30
0.0
 10
46.11597310099152
 20
707.7481743654909
 30
0.0
 10
46.45052188445023
 20
707.3587294207933
 30
0.0
 10
46.80259814022045
 20
706.9512089587914
 30
0.0
 10
47.1714438920641
 20
706.5263683556691
 30
0.0
 10
47.55902614094495
 20
706.0821720272211
 30
0.0
 10
47.83705607389174
 20
705.7643417968338
 30
0.0
 10
47.99055244554543
 20
705.5897731371565
 30
0.0
 10
48.00394520981352
 20
705.5745417875
 30
0.0
  0
LINE
  5
191
330
1F
100
AcDbEntity
  8
0
  6
Continuous
 62
     7
370
    25
100
AcDbLine
 10
55.5408399196
 20
712.6987361816
 30
0.0
 11
52.509179885
 21
715.685058593
 31
0.0
  0
LINE
  5
192
330
1F
100
AcDbEntity
  8
0
  6
Continuous
 62
     7
370
    25
100
AcDbLine
 10
303.462975446
 20
697.9681684146
 30
0.0
 11
306.2914025708
 21
701.5037023205
 31
0.0
  0
LINE
  5
193
330
1F
100
AcDbEntity
  8
0
  6
Continuous
 62
     7
370
    25
100
AcDbLine
 10
297.0990144154
 20
710.696090476
 30
0.0
 11
293.5634805094
 21
707.8676633512
 31
0.0
  0
ARC
  5
194
330
1F
100
AcDbEntity
  8
0
  6
Continuous
 62
     7
370
    25
100
AcDbCircle
 10
287.3572308274
 20
691.6962921469
 30
0.0
 40
21.32341796999999
100
AcDbArc
 50
27.3829856636
 51
45.0
  0
ARC
  5
195
330
1F
100
AcDbEntity
  8
0
  6
Continuous
 62
     7
370
    25
100
AcDbCircle
 10
287.2916042417
 20
691.7619187326
 30
0.0
 40
21.32341796999995
100
AcDbArc
 50
45.0
 51
62.6170143364
  0
LINE
  5
196
330
1F
100
AcDbEntity
  8
0
  6
Continuous
 62
     7
370
    25
100
AcDbLine
 10
302.435164272
 20
706.7742255915
 30
0.0
 11
302.3695376864
 21
706.8398521772
 31
0.0
  0
LINE
  5
197
330
1F
100
AcDbEntity
  8
0
  6
Continuous
 62
     7
370
    25
100
AcDbLine
 10
302.0490712029
 20
698.675584515
 30
0.0
 11
302.4023152743
 21
699.0288285864
 31
0.0
  0
LINE
  5
198
330
1F
100
AcDbEntity
  8
0
  6
Continuous
 62
     7
370
    25
100
AcDbLine
 10
294.6241406812
 20
706.8070031794
 30
0.0
 11
294.2705872906
 21
706.4534497888
 31
0.0
  0
LINE
  5
199
330
1F
100
AcDbEntity
  8
0
  6
Continuous
 62
     7
370
    25
100
AcDbLine
 10
296.3919076342
 20
704.3321294453
 30
0.0
 11
296.3917676165
 21
704.3319894276
 31
0.0
  0
LINE
  5
19A
330
1F
100
AcDbEntity
  8
0
  6
Continuous
 62
     7
370
    25
100
AcDbLine
 10
39.1903012556
 20
453.4944841041
 30
0.0
 11
36.3618741309
 21
449.9589501981
 31
0.0
  0
LINE
  5
19B
330
1F
100
AcDbEntity
  8
0
  6
Continuous
 62
     7
370
    25
100
AcDbLine
 10
45.5542622863
 20
440.7665620427
 30
0.0
 11
49.0897961922
 21
443.5949891674
 31
0.0
  0
ARC
  5
19C
330
1F
100
AcDbEntity
  8
0
  6
Continuous
 62
     7
370
    25
100
AcDbCircle
 10
55.2960458743
 20
459.7663603718
 30
0.0
 40
21.32341796999997
100
AcDbArc
 50
207.3829856636
 51
225.0
  0
ARC
  5
19D
330
1F
100
AcDbEntity
  8
0
  6
Continuous
 62
     7
370
    25
100
AcDbCircle
 10
55.36167246
 20
459.7007337861
 30
0.0
 40
21.32341797000004
100
AcDbArc
 50
225.0
 51
242.6170143364
  0
LINE
  5
19E
330
1F
100
AcDbEntity
  8
0
  6
Continuous
 62
     7
370
    25
100
AcDbLine
 10
40.2181124296
 20
444.6884269271
 30
0.0
 11
40.2837390153
 21
444.6228003415
 31
0.0
  0
LINE
  5
19F
330
1F
100
AcDbEntity
  8
0
  6
Continuous
 62
     7
370
    25
100
AcDbLine
 10
40.6042054987
 20
452.7870680036
 30
0.0
 11
40.2509614274
 21
452.4338239323
 31
0.0
  0
LINE
  5
1A0
330
1F
100
AcDbEntity
  8
0
  6
Continuous
 62
     7
370
    25
100
AcDbLine
 10
48.0291360204
 20
444.6556493392
 30
0.0
 11
48.382689411
 21
445.0092027298
 31
0.0
  0
LINE
  5
1A1
330
1F
100
AcDbEntity
  8
0
  6
Continuous
 62
     7
370
    25
100
AcDbLine
 10
46.2613690675
 20
447.1305230734
 30
0.0
 11
46.2615090851
 21
447.130663091
 31
0.0
  0
ARC
  5
1A2
330
1F
100
AcDbEntity
  8
0
  6
Continuous
 62
     7
370
    25
100
AcDbCircle
 10
350.5266383525
 20
592.2313262577
 30
0.0
 40
1.0
100
AcDbArc
 50
0.0
 51
90.0
  0
ARC
  5
1A3
330
1F
100
AcDbEntity
  8
0
  6
Continuous
 62
     7
370
    25
100
AcDbCircle
 10
350.5266383525
 20
559.2313262577
 30
0.0
 40
1.0
100
AcDbArc
 50
270.0
 51
360.0
  0
LINE
  5
1A4
330
1F
100
AcDbEntity
  8
0
  6
Continuous
 62
     7
370
    25
100
AcDbLine
 10
349.8395175969
 20
558.2313262577
 30
0.0
 11
350.5266383525
 21
558.2313262577
 31
0.0
  0
LINE
  5
1A5
330
1F
100
AcDbEntity
  8
0
  6
Continuous
 62
     7
370
    25
100
AcDbLine
 10
350.5266383525
 20
593.2313262577
 30
0.0
 11
349.8395175969
 21
593.2313262577
 31
0.0
  0
SPLINE
  5
1A6
330
1F
100
AcDbEntity
  8
0
  6
Continuous
 62
     7
370
    25
100
AcDbSpline
210
0.0
220
0.0
230
1.0
 70
     8
 71
     3
 72
    17
 73
    13
 74
     0
 42
0.000000001
 43
0.00000001
 40
0.0
 40
0.0
 40
0.0
 40
0.0
 40
0.0513289097362038
 40
0.1606247189217742
 40
0.2651787651603384
 40
0.3696822854634453
 40
0.4758197716496758
 40
0.5846955788267654
 40
0.6965591412608376
 40
0.8110726087175973
 40
0.9275804298279015
 40
1.0
 40
1.0
 40
1.0
 40
1.0
 10
100.6119359963945
 20
408.2468848482381
 30
0.0
 10
100.6114810646615
 20
408.2475451232249
 30
0.0
 10
100.6100574364933
 20
408.2496113366845
 30
0.0
 10
100.6243663908107
 20
408.223539548393
 30
0.0
 10
100.6442642500429
 20
408.1637750684366
 30
0.0
 10
100.6630860795054
 20
408.0725069367282
 30
0.0
 10
100.6742231834049
 20
407.9537857656468
 30
0.0
 10
100.6737428634321
 20
407.8108751952211
 30
0.0
 10
100.6586025615818
 20
407.6485212079315
 30
0.0
 10
100.6267785983495
 20
407.4725788999812
 30
0.0
 10
100.5849827122461
 20
407.3130034685256
 30
0.0
 10
100.5509382270915
 20
407.2150213903492
 30
0.0
 10
100.5378883089993
 20
407.1774629403122
 30
0.0
  0
LINE
  5
1A7
330
1F
100
AcDbEntity
  8
0
  6
Continuous
 62
     7
370
    25
100
AcDbLine
 10
100.537888309
 20
407.1774629403
 30
0.0
 11
99.511827879
 21
404.358385078
 31
0.0
  0
ARC
  5
1A8
330
1F
100
AcDbEntity
  8
0
  6
Continuous
 62
     7
370
    25
100
AcDbCircle
 10
100.4515204998
 20
404.0163649346
 30
0.0
 40
1.000000000000024
100
AcDbArc
 50
160.0
 51
250.0
  0
LINE
  5
1A9
330
1F
100
AcDbEntity
  8
0
  6
Continuous
 62
     7
370
    25
100
AcDbLine
 10
94.2021196197
 20
413.790267022
 30
0.0
 11
91.7918890712
 21
407.1682130144
 31
0.0
  0
ARC
  5
1AA
330
1F
100
AcDbEntity
  8
0
  6
Continuous
 62
     7
370
    25
100
AcDbCircle
 10
92.731581692
 20
406.826192871
 30
0.0
 40
1.000000000000073
100
AcDbArc
 50
160.0
 51
250.0
  0
ARC
  5
1AB
330
1F
100
AcDbEntity
  8
0
  6
Continuous
 62
     7
370
    25
100
AcDbCircle
 10
122.9638178105
 20
395.8225588086
 30
0.0
 40
1.000000000000019
100
AcDbArc
 50
250.0
 51
340.0
  0
LINE
  5
1AC
330
1F
100
AcDbEntity
  8
0
  6
Continuous
 62
     7
370
    25
100
AcDbLine
 10
123.9035104313
 20
395.4805386653
 30
0.0
 11
126.3137409798
 21
402.1025926729
 31
0.0
  0
SPLINE
  5
1AD
330
1F
100
AcDbEntity
  8
0
  6
Continuous
 62
     7
370
    25
100
AcDbSpline
210
0.0
220
0.0
230
1.0
 70
     8
 71
     3
 72
    18
 73
    14
 74
     0
 42
0.000000001
 43
0.00000001
 40
0.0
 40
0.0
 40
0.0
 40
0.0
 40
0.0803572447335587
 40
0.195777055402294
 40
0.3112029542971433
 40
0.4262492050567024
 40
0.540426889109184
 40
0.6529769208585233
 40
0.7626370134926951
 40
0.8534389461864601
 40
0.9327913955150291
 40
0.9980685467354534
 40
1.0
 40
1.0
 40
1.0
 40
1.0
 10
-3.905944769881903
 20
555.138430662173
 30
0.0
 10
-3.899584856975835
 20
555.0565886943228
 30
0.0
 10
-3.884089987465422
 20
554.8571943581035
 30
0.0
 10
-3.863243620860268
 20
554.5765016357834
 30
0.0
 10
-3.843074343331337
 20
554.292301467791
 30
0.0
 10
-3.826662048449697
 20
554.0428620763388
 30
0.0
 10
-3.814008626978366
 20
553.8283711850861
 30
0.0
 10
-3.80526512443749
 20
553.6508969545914
 30
0.0
 10
-3.800536079904076
 20
553.519159077866
 30
0.0
 10
-3.799173744906653
 20
553.4298229497033
 30
0.0
 10
-3.79931139791903
 20
553.3847214933196
 30
0.0
 10
-3.800554573461457
 20
553.3650253266549
 30
0.0
 10
-3.800142180722416
 20
553.3698226676864
 30
0.0
 10
-3.800130329303875
 20
553.3699605345573
 30
0.0
  0
SPLINE
  5
1AE
330
1F
100
AcDbEntity
  8
0
  6
Continuous
 62
     7
370
    25
100
AcDbSpline
210
0.0
220
0.0
230
1.0
 70
     8
 71
     3
 72
    19
 73
    15
 74
     0
 42
0.000000001
 43
0.00000001
 40
0.0
 40
0.0
 40
0.0
 40
0.0
 40
0.0453761559083495
 40
0.1099215596176836
 40
0.1863327903047292
 40
0.2731408903681616
 40
0.3678031003033342
 40
0.4677400123171014
 40
0.5709630636134584
 40
0.6761380039345088
 40
0.7824095824276537
 40
0.8892230717898675
 40
0.9962008867168534
 40
1.0
 40
1.0
 40
1.0
 40
1.0
 10
-3.803831147923653
 20
598.0634311796352
 30
0.0
 10
-3.803757400651225
 20
598.0622211727235
 30
0.0
 10
-3.803578751423648
 20
598.0592899890609
 30
0.0
 10
-3.802806868771352
 20
598.0227126098162
 30
0.0
 10
-3.803382625790164
 20
597.9558798832429
 30
0.0
 10
-3.806252214957811
 20
597.8512373120511
 30
0.0
 10
-3.812333983091692
 20
597.7079224883462
 30
0.0
 10
-3.822069567915143
 20
597.5252959625574
 30
0.0
 10
-3.835617757456
 20
597.3047406148456
 30
0.0
 10
-3.852983194427784
 20
597.0474979567474
 30
0.0
 10
-3.873927088931778
 20
596.7563680680902
 30
0.0
 10
-3.898745658931974
 20
596.4282835875428
 30
0.0
 10
-3.916926717960595
 20
596.1930427319174
 30
0.0
 10
-3.927652941902088
 20
596.0587827291641
 30
0.0
 10
-3.928020799546378
 20
596.0541782599115
 30
0.0
  0
SPLINE
  5
1AF
330
1F
100
AcDbEntity
  8
0
  6
Continuous
 62
     7
370
    25
100
AcDbSpline
210
0.0
220
0.0
230
1.0
 70
     8
 71
     3
 72
    13
 73
     9
 74
     0
 42
0.000000001
 43
0.00000001
 40
0.0
 40
0.0
 40
0.0
 40
0.0
 40
0.1798605714972236
 40
0.3868071520670095
 40
0.5911170386221897
 40
0.7622645797027605
 40
0.9079257297330809
 40
1.0
 40
1.0
 40
1.0
 40
1.0
 10
47.07083680470206
 20
704.7245905029071
 30
0.0
 10
47.02805281002131
 20
704.6863362460855
 30
0.0
 10
46.93604178726763
 20
704.6040668525635
 30
0.0
 10
46.82325832870024
 20
704.5050371777438
 30
0.0
 10
46.73261984032817
 20
704.4269967037862
 30
0.0
 10
46.67432864702983
 20
704.3782328034775
 30
0.0
 10
46.64259365976184
 20
704.3529411840876
 30
0.0
 10
46.6404662445489
 20
704.3513596341631
 30
0.0
 10
46.63964230252529
 20
704.350747104255
 30
0.0
  0
SPLINE
  5
1B0
330
1F
100
AcDbEntity
  8
0
  6
Continuous
 62
     7
370
    25
100
AcDbSpline
210
0.0
220
0.0
230
1.0
 70
     8
 71
     3
 72
    14
 73
    10
 74
     0
 42
0.000000001
 43
0.00000001
 40
0.0
 40
0.0
 40
0.0
 40
0.0
 40
0.0051270752621889
 40
0.1148380065110874
 40
0.2524747053416563
 40
0.4171742389423035
 40
0.6029937971807802
 40
0.8022148263019193
 40
1.0
 40
1.0
 40
1.0
 40
1.0
 10
56.42666033406527
 20
713.1643935840876
 30
0.0
 10
56.42677096461543
 20
713.1645178578409
 30
0.0
 10
56.42924890597401
 20
713.1673013843834
 30
0.0
 10
56.41843771586522
 20
713.1555724260054
 30
0.0
 10
56.39194780280835
 20
713.1291776107677
 30
0.0
 10
56.33891663237097
 20
713.0777411760496
 30
0.0
 10
56.25867214521188
 20
713.0022158920082
 30
0.0
 10
56.15277126053866
 20
712.9042741286518
 30
0.0
 10
56.0617205923262
 20
712.8215916256711
 30
0.0
 10
56.01635991005013
 20
712.7803998934065
 30
0.0
  0
LINE
  5
1B1
330
1F
100
AcDbEntity
  8
0
  6
Continuous
 62
     7
370
    25
100
AcDbLine
 10
306.2914025708
 20
701.5037023205
 30
0.0
 11
297.0990144154
 21
710.696090476
 31
0.0
  0
LINE
  5
1B2
330
1F
100
AcDbEntity
  8
0
  6
Continuous
 62
     7
370
    25
100
AcDbLine
 10
303.462975446
 20
697.9681684146
 30
0.0
 11
293.5634805094
 21
707.8676633512
 31
0.0
  0
LINE
  5
1B3
330
1F
100
AcDbEntity
  8
0
  6
Continuous
 62
     7
370
    25
100
AcDbLine
 10
298.1546372649
 20
702.5693998146
 30
0.0
 11
294.2705872906
 21
706.4534497888
 31
0.0
  0
LINE
  5
1B4
330
1F
100
AcDbEntity
  8
0
  6
Continuous
 62
     7
370
    25
100
AcDbLine
 10
38.5090534853
 20
447.8117708437
 30
0.0
 11
45.5542622863
 21
440.7665620427
 31
0.0
  0
LINE
  5
1B5
330
1F
100
AcDbEntity
  8
0
  6
Continuous
 62
     7
370
    25
100
AcDbLine
 10
36.3618741309
 20
449.9589501981
 30
0.0
 11
38.5090534853
 21
447.8117708437
 31
0.0
  0
LINE
  5
1B6
330
1F
100
AcDbEntity
  8
0
  6
Continuous
 62
     7
370
    25
100
AcDbLine
 10
41.5026482527
 20
451.182137107
 30
0.0
 11
49.0897961922
 21
443.5949891674
 31
0.0
  0
LINE
  5
1B7
330
1F
100
AcDbEntity
  8
0
  6
Continuous
 62
     7
370
    25
100
AcDbLine
 10
39.1903012556
 20
453.4944841041
 30
0.0
 11
41.5026482527
 21
451.182137107
 31
0.0
  0
LINE
  5
1B8
330
1F
100
AcDbEntity
  8
0
  6
Continuous
 62
     7
370
    25
100
AcDbLine
 10
44.4986394462
 20
448.8932526946
 30
0.0
 11
48.382689411
 21
445.0092027298
 31
0.0
  0
ARC
  5
1B9
330
1F
100
AcDbEntity
  8
0
  6
Continuous
 62
     7
370
    25
100
AcDbCircle
 10
171.3266383525
 20
575.7313262577
 30
0.0
 40
179.350000000001
100
AcDbArc
 50
171.1791727431
 51
188.8061443333
  0
LINE
  5
1BA
330
1F
100
AcDbEntity
  8
0
  6
Continuous
 62
     7
370
    25
100
AcDbLine
 10
46.4496196075
 20
704.4641996403
 30
0.0
 11
47.8217980154
 21
705.7812278851
 31
0.0
  0
LINE
  5
1BB
330
1F
100
AcDbEntity
  8
0
  6
Continuous
 62
     7
370
    25
100
AcDbLine
 10
54.9587323792
 20
712.2045212792
 30
0.0
 11
56.2891309956
 21
713.3278174944
 31
0.0
  0
LINE
  5
1BC
330
1F
100
AcDbEntity
  8
0
  6
Continuous
 62
     7
370
    25
100
AcDbLine
 10
351.5266383525
 20
559.2315274937
 30
0.0
 11
351.5266383525
 21
559.2313262577
 31
0.0
  0
LINE
  5
1BD
330
1F
100
AcDbEntity
  8
0
  6
Continuous
 62
     7
370
    25
100
AcDbLine
 10
351.5266383525
 20
592.2313262577
 30
0.0
 11
351.5266383525
 21
559.2315274937
 31
0.0
  0
LINE
  5
1BE
330
1F
100
AcDbEntity
  8
0
  6
Continuous
 62
     7
370
    25
100
AcDbLine
 10
116.3674205541
 20
397.1592732909
 30
0.0
 11
101.2513024948
 21
402.6610903221
 31
0.0
  0
LINE
  5
1BF
330
1F
100
AcDbEntity
  8
0
  6
Continuous
 62
     7
370
    25
100
AcDbLine
 10
101.2513024948
 20
402.6610903221
 30
0.0
 11
100.1095003565
 21
403.0766723138
 31
0.0
  0
LINE
  5
1C0
330
1F
100
AcDbEntity
  8
0
  6
Continuous
 62
     7
370
    25
100
AcDbLine
 10
122.6217976672
 20
394.8828661878
 30
0.0
 11
116.3674205541
 21
397.1592732909
 31
0.0
  0
LINE
  5
1C1
330
1F
100
AcDbEntity
  8
0
  6
Continuous
 62
     7
370
    25
100
AcDbLine
 10
100.6280513656
 20
408.208824044
 30
0.0
 11
96.3378205152
 21
409.7703403716
 31
0.0
  0
ELLIPSE
  5
1C2
330
1F
100
AcDbEntity
  8
0
  6
Continuous
 62
     7
370
    25
100
AcDbEllipse
 10
98.2306986931
 20
408.0172112853
 30
0.0
 11
0.3420201433256693
 21
0.9396926207859337
 31
0.0
210
0.0
220
0.0
230
1.0
 40
0.8009911212
 41
0.0
 42
1.570796326794834
  0
LINE
  5
1C3
330
1F
100
AcDbEntity
  8
0
  6
Continuous
 62
     7
370
    25
100
AcDbLine
 10
97.4780132472
 20
408.2911663834
 30
0.0
 11
96.4519528173
 21
405.472088521
 31
0.0
  0
LINE
  5
1C4
330
1F
100
AcDbEntity
  8
0
  6
Continuous
 62
     7
370
    25
100
AcDbLine
 10
95.357247228
 20
404.8063509983
 30
0.0
 11
93.531363687
 21
405.4709182585
 31
0.0
  0
ELLIPSE
  5
1C5
330
1F
100
AcDbEntity
  8
0
  6
Continuous
 62
     7
370
    25
100
AcDbEllipse
 10
95.6992673713
 20
405.7460436191
 30
0.0
 11
0.3420201433256693
 21
0.9396926207859337
 31
0.0
210
0.0
220
0.0
230
1.0
 40
0.8009911212
 41
3.141592653589768
 42
4.712388980384614
  0
LINE
  5
1C6
330
1F
100
AcDbEntity
  8
0
  6
Continuous
 62
     7
370
    25
100
AcDbLine
 10
93.531363687
 20
405.4709182585
 30
0.0
 11
92.3895615487
 21
405.8865002502
 31
0.0
  0
LINE
  5
1C7
330
1F
100
AcDbEntity
  8
0
  6
Continuous
 62
     7
370
    25
100
AcDbLine
 10
100.1095003565
 20
403.0766723138
 30
0.0
 11
95.357247228
 21
404.8063509983
 31
0.0
  0
LINE
  5
1C8
330
1F
100
AcDbEntity
  8
0
  6
Continuous
 62
     7
370
    25
100
AcDbLine
 10
207.2567089922
 20
751.7313262577
 30
0.0
 11
207.2567089922
 21
751.4644423171
 31
0.0
  0
LINE
  5
1C9
330
1F
100
AcDbEntity
  8
0
  6
Continuous
 62
     7
370
    25
100
AcDbLine
 10
205.9257431982
 20
751.7313262577
 30
0.0
 11
207.2567089922
 21
751.7313262577
 31
0.0
  0
LINE
  5
1CA
330
1F
100
AcDbEntity
  8
0
  6
Continuous
 62
     7
370
    25
100
AcDbLine
 10
208.2109842981
 20
751.7313262577
 30
0.0
 11
208.2109842981
 21
751.2666306277
 31
0.0
  0
LINE
  5
1CB
330
1F
100
AcDbEntity
  8
0
  6
Continuous
 62
     7
370
    25
100
AcDbLine
 10
207.2567089922
 20
751.7313262577
 30
0.0
 11
208.2109842981
 21
751.7313262577
 31
0.0
  0
LINE
  5
1CC
330
1F
100
AcDbEntity
  8
0
  6
Continuous
 62
     7
370
    25
100
AcDbLine
 10
206.0504188642
 20
399.7313262577
 30
0.0
 11
206.0504188642
 21
399.7558815982
 31
0.0
  0
LINE
  5
1CD
330
1F
100
AcDbEntity
  8
0
  6
Continuous
 62
     7
370
    25
100
AcDbLine
 10
206.0504188642
 20
399.7313262577
 30
0.0
 11
205.9257431982
 21
399.7313262577
 31
0.0
  0
LINE
  5
1CE
330
1F
100
AcDbEntity
  8
0
  6
Continuous
 62
     7
370
    25
100
AcDbLine
 10
208.7647957823
 20
399.7313262577
 30
0.0
 11
208.7647957823
 21
400.313304309
 31
0.0
  0
LINE
  5
1CF
330
1F
100
AcDbEntity
  8
0
  6
Continuous
 62
     7
370
    25
100
AcDbLine
 10
208.7647957823
 20
399.7313262577
 30
0.0
 11
206.0504188642
 21
399.7313262577
 31
0.0
  0
LINE
  5
1D0
330
1F
100
AcDbEntity
  8
0
  6
Continuous
 62
     7
370
    25
100
AcDbLine
 10
348.9266383525
 20
548.5989481351
 30
0.0
 11
348.6312691819
 21
548.5989481351
 31
0.0
  0
LINE
  5
1D1
330
1F
100
AcDbEntity
  8
0
  6
Continuous
 62
     7
370
    25
100
AcDbLine
 10
348.9266383525
 20
541.1572185848
 30
0.0
 11
347.3315505986
 21
541.1572185848
 31
0.0
  0
LINE
  5
1D2
330
1F
100
AcDbEntity
  8
0
  6
Continuous
 62
     7
370
    25
100
AcDbLine
 10
348.9266383525
 20
548.5989481351
 30
0.0
 11
348.9266383525
 21
541.1572185848
 31
0.0
  0
LINE
  5
1D3
330
1F
100
AcDbEntity
  8
0
  6
Continuous
 62
     7
370
    25
100
AcDbLine
 10
348.9266383525
 20
550.6048848836
 30
0.0
 11
348.9266383525
 21
548.5989481351
 31
0.0
  0
LINE
  5
1D4
330
1F
100
AcDbEntity
  8
0
  6
Continuous
 62
     7
370
    25
100
AcDbLine
 10
348.9266383525
 20
538.2822237619
 30
0.0
 11
346.7423240205
 21
538.2822237619
 31
0.0
  0
LINE
  5
1D5
330
1F
100
AcDbEntity
  8
0
  6
Continuous
 62
     7
370
    25
100
AcDbLine
 10
348.9266383525
 20
541.1572185848
 30
0.0
 11
348.9266383525
 21
538.2822237619
 31
0.0
  0
LINE
  5
1D6
330
1F
100
AcDbEntity
  8
0
  6
Continuous
 62
     7
370
    25
100
AcDbLine
 10
134.2086989549
 20
751.7313262577
 30
0.0
 11
134.2086989549
 21
751.2173844817
 31
0.0
  0
LINE
  5
1D7
330
1F
100
AcDbEntity
  8
0
  6
Continuous
 62
     7
370
    25
100
AcDbLine
 10
134.2086989549
 20
751.7313262577
 30
0.0
 11
136.7275335068
 21
751.7313262577
 31
0.0
  0
LINE
  5
1D8
330
1F
100
AcDbEntity
  8
0
  6
Continuous
 62
     7
370
    25
100
AcDbLine
 10
136.4081550456
 20
399.7313262577
 30
0.0
 11
136.4081550456
 21
399.7944126219
 31
0.0
  0
LINE
  5
1D9
330
1F
100
AcDbEntity
  8
0
  6
Continuous
 62
     7
370
    25
100
AcDbLine
 10
136.7275335068
 20
399.7313262577
 30
0.0
 11
136.4081550456
 21
399.7313262577
 31
0.0
  0
LINE
  5
1DA
330
1F
100
AcDbEntity
  8
0
  6
Continuous
 62
     7
370
    25
100
AcDbLine
 10
134.0092562132
 20
399.7313262577
 30
0.0
 11
134.0092562132
 21
400.2875716057
 31
0.0
  0
LINE
  5
1DB
330
1F
100
AcDbEntity
  8
0
  6
Continuous
 62
     7
370
    25
100
AcDbLine
 10
136.4081550456
 20
399.7313262577
 30
0.0
 11
134.0092562132
 21
399.7313262577
 31
0.0
  0
LINE
  5
1DC
330
1F
100
AcDbEntity
  8
0
  6
Continuous
 62
     7
370
    25
100
AcDbLine
 10
348.9266383525
 20
608.5989481351
 30
0.0
 11
347.6581939183
 21
608.5989481351
 31
0.0
  0
LINE
  5
1DD
330
1F
100
AcDbEntity
  8
0
  6
Continuous
 62
     7
370
    25
100
AcDbLine
 10
348.9266383525
 20
601.1572185848
 30
0.0
 11
348.8840151508
 21
601.1572185848
 31
0.0
  0
LINE
  5
1DE
330
1F
100
AcDbEntity
  8
0
  6
Continuous
 62
     7
370
    25
100
AcDbLine
 10
348.9266383525
 20
608.5989481351
 30
0.0
 11
348.9266383525
 21
601.1572185848
 31
0.0
  0
LINE
  5
1DF
330
1F
100
AcDbEntity
  8
0
  6
Continuous
 62
     7
370
    25
100
AcDbLine
 10
348.9266383525
 20
613.1656828624
 30
0.0
 11
346.7454714398
 21
613.1656828624
 31
0.0
  0
LINE
  5
1E0
330
1F
100
AcDbEntity
  8
0
  6
Continuous
 62
     7
370
    25
100
AcDbLine
 10
348.9266383525
 20
613.1656828624
 30
0.0
 11
348.9266383525
 21
608.5989481351
 31
0.0
  0
LINE
  5
1E1
330
1F
100
AcDbEntity
  8
0
  6
Continuous
 62
     7
370
    25
100
AcDbLine
 10
348.9266383525
 20
601.1572185848
 30
0.0
 11
348.9266383525
 21
600.8577676317
 31
0.0
  0
CIRCLE
  5
1E2
330
1F
100
AcDbEntity
  8
0
  6
Continuous
 62
     7
370
    25
100
AcDbCircle
 10
171.3266383525
 20
575.7313262577
 30
0.0
 40
7.99999999999999
  0
CIRCLE
  5
1E3
330
1F
100
AcDbEntity
  8
0
  6
Continuous
 62
     7
370
    25
100
AcDbCircle
 10
171.3266383525
 20
575.7313262577
 30
0.0
 40
168.4253137012641
  0
CIRCLE
  5
1E4
330
1F
100
AcDbEntity
  8
0
  6
Continuous
 62
     7
370
    25
100
AcDbCircle
 10
171.3266383525
 20
575.7313262577
 30
0.0
 40
176.1816650351536
  0
SPLINE
  5
1E5
330
1F
100
AcDbEntity
  8
0
  6
Continuous
 62
     7
370
    25
100
AcDbSpline
210
0.0
220
0.0
230
1.0
 70
     8
 71
     3
 72
    54
 73
    50
 74
     0
 42
0.000000001
 43
0.00000001
 40
0.0
 40
0.0
 40
0.0
 40
0.0
 40
0.0211836699664272
 40
0.045512864537331
 40
0.0698233712071521
 40
0.097691479878592
 40
0.1255596587073372
 40
0.1443406673959101
 40
0.1625888775150712
 40
0.1809156840252018
 40
0.1992424968650348
 40
0.2178307763193554
 40
0.2364190590973008
 40
0.2552749567252525
 40
0.2741308546859782
 40
0.2930728176185359
 40
0.3184657082138331
 40
0.3438585881781623
 40
0.3695070578880789
 40
0.3951555136181504
 40
0.4225023112095451
 40
0.4498490949183969
 40
0.4683673139491686
 40
0.4868855317972624
 40
0.5056695249858937
 40
0.5244535187322397
 40
0.5433230754144652
 40
0.5706584081501119
 40
0.5979937553799153
 40
0.6165035201270562
 40
0.6350132886788165
 40
0.6537877626764483
 40
0.6725622403374169
 40
0.6914217849461254
 40
0.7187698493050388
 40
0.746117916743456
 40
0.7646355911445226
 40
0.783153262790301
 40
0.8019354315418853
 40
0.8207175938677428
 40
0.8395850121938201
 40
0.8670206161758696
 40
0.8944561629313218
 40
0.9130383201338932
 40
0.931620462033119
 40
0.950473642726363
 40
0.9693268056156159
 40
0.988267791297971
 40
1.0
 40
1.0
 40
1.0
 40
1.0
 10
-3.924372511785817
 20
596.0879043631106
 30
0.0
 10
-3.937337474028718
 20
595.9266375039972
 30
0.0
 10
-3.965192542165013
 20
595.5801575633247
 30
0.0
 10
-4.014680326888981
 20
594.9744583751484
 30
0.0
 10
-4.073080764966597
 20
594.2558826323658
 30
0.0
 10
-4.138780352788612
 20
593.4356533103345
 30
0.0
 10
-4.203038290034822
 20
592.609914721746
 30
0.0
 10
-4.260413318993295
 20
591.8473578191487
 30
0.0
 10
-4.309884999273844
 20
591.168781595847
 30
0.0
 10
-4.359078576876701
 20
590.4693263704444
 30
0.0
 10
-4.408309642791236
 20
589.7401398155462
 30
0.0
 10
-4.457102537996138
 20
588.9830072990912
 30
0.0
 10
-4.505283137029858
 20
588.1951688138412
 30
0.0
 10
-4.552201226761865
 20
587.3811401063093
 30
0.0
 10
-4.597519083530677
 20
586.5407995084404
 30
0.0
 10
-4.645524050033655
 20
585.5814906238662
 30
0.0
 10
-4.694683675487477
 20
584.4965578773388
 30
0.0
 10
-4.743020464885173
 20
583.2783171300232
 30
0.0
 10
-4.785142454250602
 20
582.030659196093
 30
0.0
 10
-4.821188997118226
 20
580.7295312545666
 30
0.0
 10
-4.849811011200106
 20
579.3818911378587
 30
0.0
 10
-4.86781982034662
 20
578.1412926400069
 30
0.0
 10
-4.877415821025771
 20
577.0446977877625
 30
0.0
 10
-4.881339884078323
 20
576.0915748518478
 30
0.0
 10
-4.880774554438388
 20
575.1332408301156
 30
0.0
 10
-4.875664279374719
 20
574.1699554939422
 30
0.0
 10
-4.864571322941769
 20
573.0639798555537
 30
0.0
 10
-4.844885524417669
 20
571.8196249610937
 30
0.0
 10
-4.817290188258494
 20
570.5946581756375
 30
0.0
 10
-4.787416301248709
 20
569.5308784945556
 30
0.0
 10
-4.757823133631073
 20
568.6194779689979
 30
0.0
 10
-4.724563315747971
 20
567.7164295411535
 30
0.0
 10
-4.687809724154751
 20
566.8221811180302
 30
0.0
 10
-4.642007416088584
 20
565.8105872842029
 30
0.0
 10
-4.585849371314926
 20
564.6937381711904
 30
0.0
 10
-4.525872482813331
 20
563.6195903934055
 30
0.0
 10
-4.470867678889406
 20
562.7059167776347
 30
0.0
 10
-4.421987999415983
 20
561.9366391258662
 30
0.0
 10
-4.372060198727878
 20
561.1882822423357
 30
0.0
 10
-4.32141732626401
 20
560.4614438541576
 30
0.0
 10
-4.263031442544696
 20
559.6550065685342
 30
0.0
 10
-4.197604482493039
 20
558.7877140768501
 30
0.0
 10
-4.134477168360407
 20
557.9818506565238
 30
0.0
 10
-4.081347286110204
 20
557.3184939804177
 30
0.0
 10
-4.037358599371544
 20
556.7761275177385
 30
0.0
 10
-3.995575530254647
 20
556.2645691293649
 30
0.0
 10
-3.956725502772013
 20
555.7881312202893
 30
0.0
 10
-3.92469559303274
 20
555.3943056772739
 30
0.0
 10
-3.908238179431728
 20
555.1842361812725
 30
0.0
 10
-3.901943373333467
 20
555.1038865724859
 30
0.0
  0
ARC
  5
1E6
330
1F
100
AcDbEntity
  8
0
  6
Continuous
 62
     7
370
    25
100
AcDbCircle
 10
171.3266383525
 20
575.7313262577
 30
0.0
 40
176.5828268956155
100
AcDbArc
 50
170.9937240662
 51
172.6494809936
  0
ARC
  5
1E7
330
1F
100
AcDbEntity
  8
0
  6
Continuous
 62
     7
370
    25
100
AcDbCircle
 10
171.3266383525
 20
575.7313262577
 30
0.0
 40
176.5828268956155
100
AcDbArc
 50
187.3596212767
 51
189.0153782041
  0
SPLINE
  5
1E8
330
1F
100
AcDbEntity
  8
0
  6
Continuous
 62
     7
370
    25
100
AcDbSpline
210
0.0
220
0.0
230
1.0
 70
     8
 71
     3
 72
     9
 73
     5
 74
     0
 42
0.000000001
 43
0.00000001
 40
0.0
 40
0.0
 40
0.0
 40
0.0
 40
0.0168869125608483
 40
0.9999999999999999
 40
0.9999999999999999
 40
0.9999999999999999
 40
0.9999999999999999
 10
-3.805034624127346
 20
598.3231804281183
 30
0.0
 10
-3.80524742888097
 20
598.3217300653341
 30
0.0
 10
-3.817849184995809
 20
598.2358432711031
 30
0.0
 10
-3.805446261643752
 20
598.1474171130899
 30
0.0
 10
-3.793252785373818
 20
598.0604841998751
 30
0.0
  0
SPLINE
  5
1E9
330
1F
100
AcDbEntity
  8
0
  6
Continuous
 62
     7
370
    25
100
AcDbSpline
210
0.0
220
0.0
230
1.0
 70
     8
 71
     3
 72
     9
 73
     5
 74
     0
 42
0.000000001
 43
0.00000001
 40
0.0
 40
0.0
 40
0.0
 40
0.0
 40
0.0173386486415826
 40
1.0
 40
1.0
 40
1.0
 40
1.0
 10
-3.801443368581126
 20
553.1116501515636
 30
0.0
 10
-3.801656467324305
 20
553.1131004740545
 30
0.0
 10
-3.813946856708078
 20
553.1967472749594
 30
0.0
 10
-3.801884424454005
 20
553.282871148704
 30
0.0
 10
-3.79003113847462
 20
553.3675017508622
 30
0.0
  0
ARC
  5
1EA
330
1F
100
AcDbEntity
  8
0
  6
Continuous
 62
     7
370
    25
100
AcDbCircle
 10
-2.4689697208
 20
548.2175289345
 30
0.0
 40
1.000089372654098
100
AcDbArc
 50
137.3872425464
 51
188.9941568866
  0
ARC
  5
1EB
330
1F
100
AcDbEntity
  8
0
  6
Continuous
 62
     7
370
    25
100
AcDbCircle
 10
-2.4733384957
 20
603.2175132663
 30
0.0
 40
1.000089372663685
100
AcDbArc
 50
171.014945384
 51
222.6218597236
  0
LINE
  5
1EC
330
1F
100
AcDbEntity
  8
0
  6
Continuous
 62
     7
370
    25
100
AcDbLine
 10
-3.2453590991
 20
602.2174596871
 30
0.0
 11
-4.5123734632
 21
602.2173590453
 31
0.0
  0
LINE
  5
1ED
330
1F
100
AcDbEntity
  8
0
  6
Continuous
 62
     7
370
    25
100
AcDbLine
 10
-4.5081635516
 20
549.2173592125
 30
0.0
 11
-3.2411491875
 21
549.2174598543
 31
0.0
  0
SPLINE
  5
1EE
330
1F
100
AcDbEntity
  8
0
  6
Continuous
 62
     7
370
    25
100
AcDbSpline
210
0.0
220
0.0
230
1.0
 70
     8
 71
     3
 72
    13
 73
     9
 74
     0
 42
0.000000001
 43
0.00000001
 40
0.0
 40
0.0
 40
0.0
 40
0.0
 40
0.2342045745863366
 40
0.4744547758073768
 40
0.6037169300663476
 40
0.7329821625312033
 40
0.8664857263126273
 40
1.0
 40
1.0
 40
1.0
 40
1.0
 10
296.4421228031952
 20
703.2976905327664
 30
0.0
 10
296.5885553168602
 20
703.0732970429253
 30
0.0
 10
296.8852002716587
 20
702.6187176944939
 30
0.0
 10
297.3531728025597
 20
702.0867713710046
 30
0.0
 10
297.7725408334068
 20
701.6822162376941
 30
0.0
 10
298.1208626538403
 20
701.3868403486481
 30
0.0
 10
298.4876106058028
 20
701.1112241582978
 30
0.0
 10
298.7446164979318
 20
700.9484601670314
 30
0.0
 10
298.873124598163
 20
700.867074907221
 30
0.0
  0
SPLINE
  5
1EF
330
1F
100
AcDbEntity
  8
0
  6
Continuous
 62
     7
370
    25
100
AcDbSpline
210
0.0
220
0.0
230
1.0
 70
     8
 71
     3
 72
    13
 73
     9
 74
     0
 42
0.000000001
 43
0.00000001
 40
0.0
 40
0.0
 40
0.0
 40
0.0
 40
0.2342045745862068
 40
0.4744547758074054
 40
0.603716930066293
 40
0.7329821625310526
 40
0.8664857263125519
 40
1.0
 40
1.0
 40
1.0
 40
1.0
 10
43.78015210681377
 20
450.5955776081261
 30
0.0
 10
44.00456885676368
 20
450.4491807444879
 30
0.0
 10
44.45919532583681
 20
450.1526080099925
 30
0.0
 10
44.99121598687586
 20
449.6847199924297
 30
0.0
 10
45.39583773780989
 20
449.2654162363585
 30
0.0
 10
45.69126895913034
 20
448.9171413450888
 30
0.0
 10
45.96694340926463
 20
448.5504371834064
 30
0.0
 10
46.12974822761196
 20
448.2934571519548
 30
0.0
 10
46.21115390178151
 20
448.1649619825808
 30
0.0
  0
SPLINE
  5
1F0
330
1F
100
AcDbEntity
  8
0
  6
Continuous
 62
     7
370
    25
100
AcDbSpline
210
0.0
220
0.0
230
1.0
 70
     8
 71
     3
 72
    11
 73
     7
 74
     0
 42
0.000000001
 43
0.00000001
 40
0.0
 40
0.0
 40
0.0
 40
0.0
 40
0.196598202574452
 40
0.3947976152465428
 40
0.7994674242145301
 40
1.0
 40
1.0
 40
1.0
 40
1.0
 10
295.4139364795247
 20
704.7045972418452
 30
0.0
 10
295.4890880280101
 20
704.6263715047314
 30
0.0
 10
295.6400032028978
 20
704.4692829146067
 30
0.0
 10
295.9219433956258
 20
704.1092775152163
 30
0.0
 10
296.1866370058505
 20
703.7149749713478
 30
0.0
 10
296.3785370988044
 20
703.4015449357674
 30
0.0
 10
296.4421228031952
 20
703.2976905327664
 30
0.0
  0
SPLINE
  5
1F1
330
1F
100
AcDbEntity
  8
0
  6
Continuous
 62
     7
370
    25
100
AcDbSpline
210
0.0
220
0.0
230
1.0
 70
     8
 71
     3
 72
    20
 73
    16
 74
     0
 42
0.000000001
 43
0.00000001
 40
0.0
 40
0.0
 40
0.0
 40
0.0
 40
0.0783266236827666
 40
0.1571969707555585
 40
0.2377823851095092
 40
0.3189604894597283
 40
0.3972935232221402
 40
0.476170403490555
 40
0.5567621337862119
 40
0.6379462489584832
 40
0.71629342458995
 40
0.7951842012838664
 40
0.8757891379429217
 40
0.956986307256398
 40
1.0
 40
1.0
 40
1.0
 40
1.0
 10
292.8987776459147
 20
707.2230619629573
 30
0.0
 10
292.8997877757164
 20
707.217536816539
 30
0.0
 10
292.9018150473826
 20
707.2064481695488
 30
0.0
 10
292.9501709512183
 20
707.1478765439832
 30
0.0
 10
293.0328184293946
 20
707.0575258872062
 30
0.0
 10
293.1520717148319
 20
706.9334175331337
 30
0.0
 10
293.3046582646588
 20
706.778554909612
 30
0.0
 10
293.4895512807733
 20
706.5936957493831
 30
0.0
 10
293.7086966784157
 20
706.3766690008348
 30
0.0
 10
293.9580492602978
 20
706.1312084764717
 30
0.0
 10
294.2337260762694
 20
705.8607711835757
 30
0.0
 10
294.5342327438343
 20
705.5664770481178
 30
0.0
 10
294.8624953079558
 20
705.2451163528045
 30
0.0
 10
295.1595820373988
 20
704.9541112758784
 30
0.0
 10
295.3485111367297
 20
704.7687775292911
 30
0.0
 10
295.4139364795247
 20
704.7045972418452
 30
0.0
  0
LINE
  5
1F2
330
1F
100
AcDbEntity
  8
0
  6
Continuous
 62
     7
370
    25
100
AcDbLine
 10
292.8987776459
 20
707.223061963
 30
0.0
 11
293.1994589256
 21
707.523791014
 31
0.0
  0
LINE
  5
1F3
330
1F
100
AcDbEntity
  8
0
  6
Continuous
 62
     7
370
    25
100
AcDbLine
 10
293.1994589256
 20
707.523791014
 30
0.0
 11
303.0997401706
 21
697.6250824482
 31
0.0
  0
LINE
  5
1F4
330
1F
100
AcDbEntity
  8
0
  6
Continuous
 62
     7
370
    25
100
AcDbLine
 10
302.7990588909
 20
697.3243533972
 30
0.0
 11
303.0997401706
 21
697.6250824482
 31
0.0
  0
SPLINE
  5
1F5
330
1F
100
AcDbEntity
  8
0
  6
Continuous
 62
     7
370
    25
100
AcDbSpline
210
0.0
220
0.0
230
1.0
 70
     8
 71
     3
 72
    20
 73
    16
 74
     0
 42
0.000000001
 43
0.00000001
 40
0.0
 40
0.0
 40
0.0
 40
0.0
 40
0.0783636703741718
 40
0.1572711350158886
 40
0.2378936797637314
 40
0.3191089117680564
 40
0.3974856209848571
 40
0.4764066885815928
 40
0.5570450318884519
 40
0.6382769708772633
 40
0.7166298553897036
 40
0.795527103716578
 40
0.8761413355756477
 40
0.9573488639443765
 40
1.0
 40
1.0
 40
1.0
 40
1.0
 10
300.2801946318829
 20
699.8391121041772
 30
0.0
 10
300.3964731053132
 20
699.720588009898
 30
0.0
 10
300.6298369511744
 20
699.4827173391523
 30
0.0
 10
300.9588719275035
 20
699.146768469085
 30
0.0
 10
301.2710196475058
 20
698.8280271150102
 30
0.0
 10
301.5577045789268
 20
698.5355423410891
 30
0.0
 10
301.8166248604373
 20
698.2720302248591
 30
0.0
 10
302.0479053365707
 20
698.0376733574101
 30
0.0
 10
302.2527704032202
 20
697.8315844847501
 30
0.0
 10
302.4262714689509
 20
697.6590891241427
 30
0.0
 10
302.5671303518072
 20
697.5216695651952
 30
0.0
 10
302.6760810660836
 20
697.4187232520881
 30
0.0
 10
302.7526755747219
 20
697.351023109065
 30
0.0
 10
302.7901950705573
 20
697.3233843261377
 30
0.0
 10
302.7967884419018
 20
697.3241051716519
 30
0.0
 10
302.7990588908817
 20
697.3243533971615
 30
0.0
  0
SPLINE
  5
1F6
330
1F
100
AcDbEntity
  8
0
  6
Continuous
 62
     7
370
    25
100
AcDbSpline
210
0.0
220
0.0
230
1.0
 70
     8
 71
     3
 72
    11
 73
     7
 74
     0
 42
0.000000001
 43
0.00000001
 40
0.0
 40
0.0
 40
0.0
 40
0.0
 40
0.2458192864072404
 40
0.4928971705354154
 40
0.7450853795820523
 40
1.0
 40
1.0
 40
1.0
 40
1.0
 10
298.873124598163
 20
700.867074907221
 30
0.0
 10
299.0003756023897
 20
700.7891106133582
 30
0.0
 10
299.2555291375246
 20
700.6327828475042
 30
0.0
 10
299.6221607376699
 20
700.3879514689266
 30
0.0
 10
299.9736226453462
 20
700.1286603860242
 30
0.0
 10
300.1776383431906
 20
699.9359735216829
 30
0.0
 10
300.2801946318829
 20
699.8391121041772
 30
0.0
  0
LINE
  5
1F7
330
1F
100
AcDbEntity
  8
0
  6
Continuous
 62
     7
370
    25
100
AcDbLine
 10
49.7544990591
 20
444.2395905524
 30
0.0
 11
49.4538177794
 21
443.9388615013
 31
0.0
  0
LINE
  5
1F8
330
1F
100
AcDbEntity
  8
0
  6
Continuous
 62
     7
370
    25
100
AcDbLine
 10
39.5535365344
 20
453.8375700671
 30
0.0
 11
49.4538177794
 21
443.9388615013
 31
0.0
  0
LINE
  5
1F9
330
1F
100
AcDbEntity
  8
0
  6
Continuous
 62
     7
370
    25
100
AcDbLine
 10
39.8542178141
 20
454.1382991182
 30
0.0
 11
39.5535365344
 21
453.8375700671
 31
0.0
  0
SPLINE
  5
1FA
330
1F
100
AcDbEntity
  8
0
  6
Continuous
 62
     7
370
    25
100
AcDbSpline
210
0.0
220
0.0
230
1.0
 70
     8
 71
     3
 72
    20
 73
    16
 74
     0
 42
0.000000001
 43
0.00000001
 40
0.0
 40
0.0
 40
0.0
 40
0.0
 40
0.0783266236827652
 40
0.1571969707555562
 40
0.2377823851095076
 40
0.3189604894597207
 40
0.3972935232221314
 40
0.4761704034905455
 40
0.5567621337862152
 40
0.6379462489584956
 40
0.7162934245899514
 40
0.7951842012838609
 40
0.8757891379429245
 40
0.9569863072563772
 40
0.9999999999999999
 40
0.9999999999999999
 40
0.9999999999999999
 40
0.9999999999999999
 10
39.85421781409504
 20
454.1382991181856
 30
0.0
 10
39.8597431209175
 20
454.1372898661468
 30
0.0
 10
39.87083208982936
 20
454.1352643560995
 30
0.0
 10
39.92941139669629
 20
454.0869177578309
 30
0.0
 10
40.01977518209068
 20
454.0042846342173
 30
0.0
 10
40.14390247972066
 20
453.8850510667071
 30
0.0
 10
40.29878934188749
 20
453.7324891209925
 30
0.0
 10
40.48367787273585
 20
453.5476254747849
 30
0.0
 10
40.70073943298863
 20
453.3285145577726
 30
0.0
 10
40.94623956754939
 20
453.0792009740217
 30
0.0
 10
41.2167206523156
 20
452.8035671244374
 30
0.0
 10
41.51106252392728
 20
452.5031072135807
 30
0.0
 10
41.83247536448173
 20
452.1748957064354
 30
0.0
 10
42.12352763429605
 20
451.8778552111425
 30
0.0
 10
42.30889139268773
 20
451.6889555571646
 30
0.0
 10
42.37308207309376
 20
451.62354041117
 30
0.0
  0
SPLINE
  5
1FB
330
1F
100
AcDbEntity
  8
0
  6
Continuous
 62
     7
370
    25
100
AcDbSpline
210
0.0
220
0.0
230
1.0
 70
     8
 71
     3
 72
    11
 73
     7
 74
     0
 42
0.000000001
 43
0.00000001
 40
0.0
 40
0.0
 40
0.0
 40
0.0
 40
0.1965982025743959
 40
0.3947976152465563
 40
0.7994674242144524
 40
1.0
 40
1.0
 40
1.0
 40
1.0
 10
42.37308207309376
 20
451.62354041117
 30
0.0
 10
42.45131974814012
 20
451.5484012909322
 30
0.0
 10
42.60843231135924
 20
451.3975110737628
 30
0.0
 10
42.96848249651888
 20
451.1156280767013
 30
0.0
 10
43.36282708585243
 20
450.8509971105271
 30
0.0
 10
43.67628760360648
 20
450.6591468129278
 30
0.0
 10
43.78015210681377
 20
450.5955776081261
 30
0.0
  0
SPLINE
  5
1FC
330
1F
100
AcDbEntity
  8
0
  6
Continuous
 62
     7
370
    25
100
AcDbSpline
210
0.0
220
0.0
230
1.0
 70
     8
 71
     3
 72
    11
 73
     7
 74
     0
 42
0.000000001
 43
0.00000001
 40
0.0
 40
0.0
 40
0.0
 40
0.0
 40
0.2458192864072153
 40
0.4928971705353465
 40
0.7450853795820301
 40
1.0
 40
1.0
 40
1.0
 40
1.0
 10
46.21115390178151
 20
448.1649619825808
 30
0.0
 10
46.28913841033866
 20
448.0377233657251
 30
0.0
 10
46.44550670908041
 20
447.7825946687557
 30
0.0
 10
46.69039632934594
 20
447.4160019682726
 30
0.0
 10
46.94974324382687
 20
447.064581257202
 30
0.0
 10
47.14246251660617
 20
446.8605961730511
 30
0.0
 10
47.23934022545198
 20
446.7580552735019
 30
0.0
  0
SPLINE
  5
1FD
330
1F
100
AcDbEntity
  8
0
  6
Continuous
 62
     7
370
    25
100
AcDbSpline
210
0.0
220
0.0
230
1.0
 70
     8
 71
     3
 72
    20
 73
    16
 74
     0
 42
0.000000001
 43
0.00000001
 40
0.0
 40
0.0
 40
0.0
 40
0.0
 40
0.0783636703741689
 40
0.1572711350158611
 40
0.2378936797637119
 40
0.3191089117680374
 40
0.3974856209848445
 40
0.4764066885815911
 40
0.5570450318884524
 40
0.6382769708772598
 40
0.7166298553897085
 40
0.7955271037165832
 40
0.8761413355756483
 40
0.9573488639443768
 40
0.9999999999999999
 40
0.9999999999999999
 40
0.9999999999999999
 40
0.9999999999999999
 10
47.23934022545198
 20
446.7580552735019
 30
0.0
 10
47.35788279076702
 20
446.6417956308201
 30
0.0
 10
47.59579053176196
 20
446.4084695771296
 30
0.0
 10
47.93179166959524
 20
446.0794879753311
 30
0.0
 10
48.25058260886603
 20
445.7673908959807
 30
0.0
 10
48.54311292317942
 20
445.4807524336501
 30
0.0
 10
48.80666616934729
 20
445.2218740181501
 30
0.0
 10
49.04105977611639
 20
444.9906307759418
 30
0.0
 10
49.24718119197949
 20
444.7857984521011
 30
0.0
 10
49.41970411358545
 20
444.6123247919637
 30
0.0
 10
49.55714604828673
 20
444.4714877419864
 30
0.0
 10
49.66010966850529
 20
444.3625533836081
 30
0.0
 10
49.72782197882871
 20
444.2859696310923
 30
0.0
 10
49.75546672192652
 20
444.2484545265529
 30
0.0
 10
49.75474692387455
 20
444.241861040775
 30
0.0
 10
49.75449905906196
 20
444.2395905523897
 30
0.0
  0
ARC
  5
1FE
330
1F
100
AcDbEntity
  8
0
  6
Continuous
 62
     7
370
    25
100
AcDbCircle
 10
-4.5123586106
 20
603.2173078073
 30
0.0
 40
0.9999487621297769
100
AcDbArc
 50
171.113720318
 51
269.9991489649
  0
SPLINE
  5
1FF
330
1F
100
AcDbEntity
  8
0
  6
Continuous
 62
     7
370
    25
100
AcDbSpline
210
0.0
220
0.0
230
1.0
 70
     8
 71
     3
 72
    12
 73
     8
 74
     0
 42
0.000000001
 43
0.00000001
 40
0.0
 40
0.0
 40
0.0
 40
0.0
 40
0.1956006554437617
 40
0.391201787815729
 40
0.5867891204212241
 40
0.7823474397896216
 40
1.0
 40
1.0
 40
1.0
 40
1.0
 10
-4.911264045795615
 20
602.2173273604708
 30
0.0
 10
-5.023711665687741
 20
602.2283729866352
 30
0.0
 10
-5.248607179650228
 20
602.2504642658961
 30
0.0
 10
-5.548489062644824
 20
602.4229272549486
 30
0.0
 10
-5.774252991501222
 20
602.6765741075417
 30
0.0
 10
-5.916338605687299
 20
603.006464636023
 30
0.0
 10
-5.905346853495558
 20
603.2454948308283
 30
0.0
 10
-5.899557114831894
 20
603.3714003585822
 30
0.0
  0
LINE
  5
200
330
1F
100
AcDbEntity
  8
0
  6
Continuous
 62
     7
370
    25
100
AcDbLine
 10
-4.5123734632
 20
602.2173590453
 30
0.0
 11
-4.9112640458
 21
602.2173273605
 31
0.0
  0
SPLINE
  5
201
330
1F
100
AcDbEntity
  8
0
  6
Continuous
 62
     7
370
    25
100
AcDbSpline
210
0.0
220
0.0
230
1.0
 70
     8
 71
     3
 72
    12
 73
     8
 74
     0
 42
0.000000001
 43
0.00000001
 40
0.0
 40
0.0
 40
0.0
 40
0.0
 40
0.1955200214986249
 40
0.3910398192480649
 40
0.5865676248099793
 40
0.7821208828982369
 40
1.0
 40
1.0
 40
1.0
 40
1.0
 10
-5.895163849484825
 20
548.0630975393545
 30
0.0
 10
-5.901583523768683
 20
548.1758572434088
 30
0.0
 10
-5.914422864989749
 20
548.4013765224772
 30
0.0
 10
-5.790299635680646
 20
548.724137657194
 30
0.0
 10
-5.574562352311935
 20
548.9862513055508
 30
0.0
 10
-5.270474945448744
 20
549.1775952906278
 30
0.0
 10
-5.032478439758265
 20
549.203615081703
 30
0.0
 10
-4.907054134249245
 20
549.217327527672
 30
0.0
  0
LINE
  5
202
330
1F
100
AcDbEntity
  8
0
  6
Continuous
 62
     7
370
    25
100
AcDbLine
 10
-4.9070541342
 20
549.2173275277
 30
0.0
 11
-4.5081635516
 21
549.2173592125
 31
0.0
  0
SPLINE
  5
203
330
1F
100
AcDbEntity
  8
0
  6
Continuous
 62
     7
370
    25
100
AcDbSpline
210
0.0
220
0.0
230
1.0
 70
     8
 71
     3
 72
    27
 73
    23
 74
     0
 42
0.000000001
 43
0.00000001
 40
0.0
 40
0.0
 40
0.0
 40
0.0
 40
0.0434827917819602
 40
0.0942526215943258
 40
0.145119553743152
 40
0.1961490704544104
 40
0.2470174338992437
 40
0.2979891317196155
 40
0.3491225625933421
 40
0.4000951788262819
 40
0.4511067369272992
 40
0.5022793049805653
 40
0.5532909938976109
 40
0.6042723964026327
 40
0.6554144816274691
 40
0.7063952006205179
 40
0.7573089329419828
 40
0.8083837361479328
 40
0.8592961457620379
 40
0.910123966182231
 40
0.9611138618905462
 40
1.0
 40
1.0
 40
1.0
 40
1.0
 10
56.04181862665298
 20
712.801889385466
 30
0.0
 10
55.96650380014675
 20
712.7341434153612
 30
0.0
 10
55.80325255632759
 20
712.5872983066837
 30
0.0
 10
55.48461007796585
 20
712.3043105990605
 30
0.0
 10
55.10322985916075
 20
711.9669832069873
 30
0.0
 10
54.675178622594
 20
711.5890908934442
 30
0.0
 10
54.20790869207795
 20
711.1764600427932
 30
0.0
 10
53.70595358347896
 20
710.7323290916521
 30
0.0
 10
53.17723431326474
 20
710.2631790286495
 30
0.0
 10
52.62850142651205
 20
709.7745241728602
 30
0.0
 10
52.06647171440495
 20
709.2717410930636
 30
0.0
 10
51.49870719821434
 20
708.76157146408
 30
0.0
 10
50.93227233818015
 20
708.250290851859
 30
0.0
 10
50.37461025234438
 20
707.7444711169346
 30
0.0
 10
49.83222242632871
 20
707.2504943980542
 30
0.0
 10
49.31154779363778
 20
706.7745943993534
 30
0.0
 10
48.81988161988052
 20
706.3238203877625
 30
0.0
 10
48.36222620633646
 20
705.9035459125702
 30
0.0
 10
47.94321823189032
 20
705.5186529252406
 30
0.0
 10
47.57167596741746
 20
705.1781076897687
 30
0.0
 10
47.26766677611833
 20
704.9005216283736
 30
0.0
 10
47.11345572590023
 20
704.7615627917501
 30
0.0
 10
47.04673413236679
 20
704.7014402843034
 30
0.0
  0
ARC
  5
204
330
1F
100
AcDbEntity
  8
0
  6
Continuous
 62
     7
370
    25
100
AcDbCircle
 10
171.3266383525
 20
575.7313262577
 30
0.0
 40
179.3686094502731
100
AcDbArc
 50
47.2411316243
 51
129.8357920057
  0
ARC
  5
205
330
1F
100
AcDbEntity
  8
0
  6
Continuous
 62
     7
370
    25
100
AcDbCircle
 10
171.3266383525
 20
575.7313262577
 30
0.0
 40
179.3686094502729
100
AcDbArc
 50
134.1733102647
 51
171.135600281
  0
ARC
  5
206
330
1F
100
AcDbEntity
  8
0
  6
Continuous
 62
     7
370
    25
100
AcDbCircle
 10
171.3266383525
 20
575.7313262577
 30
0.0
 40
179.3686094502731
100
AcDbArc
 50
227.2411316243
 51
42.7679706461
  0
ARC
  5
207
330
1F
100
AcDbEntity
  8
0
  6
Continuous
 62
     7
370
    25
100
AcDbCircle
 10
171.3266383525
 20
575.7313262577
 30
0.0
 40
179.3686094502731
100
AcDbArc
 50
188.8735019893
 51
222.7679706461
  0
SPLINE
  5
208
330
1F
100
AcDbEntity
  8
0
  6
Continuous
 62
     7
370
    25
100
AcDbSpline
210
0.0
220
0.0
230
1.0
 70
     8
 71
     3
 72
    10
 73
     6
 74
     0
 42
0.000000001
 43
0.00000001
 40
0.0
 40
0.0
 40
0.0
 40
0.0
 40
0.1750817564162449
 40
0.641343297693252
 40
0.9999999999999999
 40
0.9999999999999999
 40
0.9999999999999999
 40
0.9999999999999999
 10
56.09041621099903
 20
712.8478189623032
 30
0.0
 10
56.09342449833121
 20
712.8898828008153
 30
0.0
 10
56.10444417826549
 20
713.0439671637846
 30
0.0
 10
56.22330989420413
 20
713.266039533468
 30
0.0
 10
56.36387403532003
 20
713.4050736593871
 30
0.0
 10
56.42498829931811
 20
713.4655227056994
 30
0.0
  0
SPLINE
  5
209
330
1F
100
AcDbEntity
  8
0
  6
Continuous
 62
     7
370
    25
100
AcDbSpline
210
0.0
220
0.0
230
1.0
 70
     8
 71
     3
 72
    10
 73
     6
 74
     0
 42
0.000000001
 43
0.00000001
 40
0.0
 40
0.0
 40
0.0
 40
0.0
 40
0.4620178034164563
 40
0.9240346409871711
 40
1.0
 40
1.0
 40
1.0
 40
1.0
 10
46.33701772478179
 20
704.3808221426809
 30
0.0
 10
46.4252497024617
 20
704.449274152662
 30
0.0
 10
46.60171347337302
 20
704.5861780295255
 30
0.0
 10
46.84446365772177
 20
704.6687258453981
 30
0.0
 10
46.97440155267035
 20
704.6566383052624
 30
0.0
 10
46.99274933239586
 20
704.6549314935281
 30
0.0
  0
LINE
  5
20A
330
1F
100
AcDbEntity
  8
0
  6
Continuous
 62
     7
370
    25
100
AcDbLine
 10
159.3266383525
 20
767.958464103
 30
0.0
 11
159.3266383525
 21
754.6791590765
 31
0.0
  0
LINE
  5
20B
330
1F
100
AcDbEntity
  8
0
  6
Continuous
 62
     7
370
    25
100
AcDbLine
 10
183.3266383525
 20
754.6887661597
 30
0.0
 11
183.3266383525
 21
767.9584641031
 31
0.0
  0
LINE
  5
20C
330
1F
100
AcDbEntity
  8
0
  6
Continuous
 62
     7
370
    25
100
AcDbLine
 10
147.2674523014
 20
753.4653824279
 30
0.0
 11
148.6085937524
 21
765.5383441277
 31
0.0
  0
LINE
  5
20D
330
1F
100
AcDbEntity
  8
0
  6
Continuous
 62
     7
370
    25
100
AcDbLine
 10
194.0446829526
 20
765.5383441277
 30
0.0
 11
195.3864386147
 21
753.459853297
 31
0.0
  0
LINE
  5
20E
330
1F
100
AcDbEntity
  8
0
  6
Continuous
 62
     7
370
    25
100
AcDbLine
 10
343.8002230233
 20
490.0100621804
 30
0.0
 11
332.3035834361
 21
496.6476501409
 31
0.0
  0
LINE
  5
20F
330
1F
100
AcDbEntity
  8
0
  6
Continuous
 62
     7
370
    25
100
AcDbLine
 10
320.3081956435
 20
475.8603775909
 30
0.0
 11
331.8002230233
 21
469.2254524896
 31
0.0
  0
LINE
  5
210
330
1F
100
AcDbEntity
  8
0
  6
Continuous
 62
     7
370
    25
100
AcDbLine
 10
337.2863758835
 20
507.6943260917
 30
0.0
 11
347.0633599445
 21
500.5022210707
 31
0.0
  0
LINE
  5
211
330
1F
100
AcDbEntity
  8
0
  6
Continuous
 62
     7
370
    25
100
AcDbLine
 10
-4.4100832396
 20
500.5022210707
 30
0.0
 11
5.3756969213
 21
507.7007966428
 31
0.0
  0
LINE
  5
212
330
1F
100
AcDbEntity
  8
0
  6
Continuous
 62
     7
370
    25
100
AcDbLine
 10
10.8530536816
 20
469.2254524896
 30
0.0
 11
22.3518686036
 21
475.8642963801
 31
0.0
  0
LINE
  5
213
330
1F
100
AcDbEntity
  8
0
  6
Continuous
 62
     7
370
    25
100
AcDbLine
 10
10.3406649568
 20
496.6424376425
 30
0.0
 11
-1.1469463184
 21
490.0100621804
 31
0.0
  0
LINE
  5
214
330
1F
100
AcDbEntity
  8
0
  6
Continuous
 62
     7
370
    25
100
AcDbLine
 10
324.3453153444
 20
461.1534135747
 30
0.0
 11
313.2217270994
 21
466.02734784
 31
0.0
  0
LINE
  5
215
330
1F
100
AcDbEntity
  8
0
  6
Continuous
 62
     7
370
    25
100
AcDbLine
 10
29.4232490166
 20
466.0237108369
 30
0.0
 11
18.3079613606
 21
461.1534135747
 31
0.0
  0
ARC
  5
216
330
1F
100
AcDbEntity
  8
0
  6
Continuous
 62
     7
370
    25
100
AcDbCircle
 10
171.3266383525
 20
575.7313262577
 30
0.0
 40
195.2123878561544
100
AcDbArc
 50
86.4757200497
 51
93.5242799503
  0
ARC
  5
217
330
1F
100
AcDbEntity
  8
0
  6
Continuous
 62
     7
370
    25
100
AcDbCircle
 10
171.3266383525
 20
575.7313262577
 30
0.0
 40
197.5
100
AcDbArc
 50
85.5306451794
 51
94.4693548206
  0
SPLINE
  5
218
330
1F
100
AcDbEntity
  8
0
  6
Continuous
 62
     7
370
    25
100
AcDbSpline
210
0.0
220
0.0
230
1.0
 70
    24
 71
     3
 72
    13
 73
     9
 74
     0
 42
0.000000001
 43
0.00000001
 40
0.0
 40
0.0
 40
0.0
 40
0.0
 40
0.1500130748905132
 40
0.3010693053494469
 40
0.455413588331523
 40
0.610893127658228
 40
0.8043222020601837
 40
1.0
 40
1.0
 40
1.0
 40
1.0
 10
159.3266383524884
 20
770.5745359738494
 30
0.0
 10
159.3266383524883
 20
770.4563082921885
 30
0.0
 10
159.3266383524883
 20
770.2190308014314
 30
0.0
 10
159.3266383524883
 20
769.8385890072864
 30
0.0
 10
159.3266383524883
 20
769.4407571977071
 30
0.0
 10
159.3266383524883
 20
768.9934117108884
 30
0.0
 10
159.3266383524883
 20
768.498092464447
 30
0.0
 10
159.3266383524883
 20
768.1390319168497
 30
0.0
 10
159.3266383524883
 20
767.9584641030301
 30
0.0
  0
SPLINE
  5
219
330
1F
100
AcDbEntity
  8
0
  6
Continuous
 62
     7
370
    25
100
AcDbSpline
210
0.0
220
0.0
230
1.0
 70
    24
 71
     3
 72
    13
 73
     9
 74
     0
 42
0.000000001
 43
0.00000001
 40
0.0
 40
0.0
 40
0.0
 40
0.0
 40
0.1500199477306657
 40
0.3010802817940904
 40
0.4554227535375345
 40
0.610899829598406
 40
0.8043233156601689
 40
1.0
 40
1.0
 40
1.0
 40
1.0
 10
183.3266383524883
 20
767.9584641030574
 30
0.0
 10
183.3266383524883
 20
768.0968936341488
 30
0.0
 10
183.3266383524883
 20
768.3747127032798
 30
0.0
 10
183.3266383524883
 20
768.7911374314155
 30
0.0
 10
183.3266383524883
 20
769.206079089488
 30
0.0
 10
183.3266383524884
 20
769.6479849066973
 30
0.0
 10
183.3266383524883
 20
770.1114606863157
 30
0.0
 10
183.3266383524883
 20
770.419582787639
 30
0.0
 10
183.3266383524883
 20
770.5745359738494
 30
0.0
  0
ARC
  5
21A
330
1F
100
AcDbEntity
  8
0
  6
Continuous
 62
     7
370
    25
100
AcDbCircle
 10
171.3266383525
 20
575.7313262577
 30
0.0
 40
195.2123878561546
100
AcDbArc
 50
206.4757200497
 51
213.5242799503
  0
ARC
  5
21B
330
1F
100
AcDbEntity
  8
0
  6
Continuous
 62
     7
370
    25
100
AcDbCircle
 10
171.3266383525
 20
575.7313262577
 30
0.0
 40
197.5000000000001
100
AcDbArc
 50
205.5306451794
 51
214.4693548206
  0
SPLINE
  5
21C
330
1F
100
AcDbEntity
  8
0
  6
Continuous
 62
     7
370
    25
100
AcDbSpline
210
0.0
220
0.0
230
1.0
 70
    24
 71
     3
 72
    11
 73
     7
 74
     0
 42
0.000000001
 43
0.00000001
 40
0.0
 40
0.0
 40
0.0
 40
0.0
 40
0.300972562411739
 40
0.6106814136921639
 40
0.8042157333092637
 40
1.0
 40
1.0
 40
1.0
 40
1.0
 10
8.587468983380003
 20
467.9174165541738
 30
0.0
 10
8.796088325867203
 20
468.037862987717
 30
0.0
 10
9.219382575591267
 20
468.2822520367416
 30
0.0
 10
9.835988322858146
 20
468.6382495309099
 30
0.0
 10
10.38560502721172
 20
468.9555708831196
 30
0.0
 10
10.69663828978953
 20
469.1351460209958
 30
0.0
 10
10.85305368163544
 20
469.2254524895835
 30
0.0
  0
SPLINE
  5
21D
330
1F
100
AcDbEntity
  8
0
  6
Continuous
 62
     7
370
    25
100
AcDbSpline
210
0.0
220
0.0
230
1.0
 70
    24
 71
     3
 72
    11
 73
     7
 74
     0
 42
0.000000001
 43
0.00000001
 40
0.0
 40
0.0
 40
0.0
 40
0.0
 40
0.3009839640334974
 40
0.6106884124524766
 40
0.8042169949507962
 40
1.0
 40
1.0
 40
1.0
 40
1.0
 10
-1.146946318374698
 20
490.0100621804041
 30
0.0
 10
-1.387456748821514
 20
489.8712034186428
 30
0.0
 10
-1.875445979142992
 20
489.589462705155
 30
0.0
 10
-2.496813016896193
 20
489.2307162786426
 30
0.0
 10
-3.011445689822312
 20
488.933592966395
 30
0.0
 10
-3.278320768302423
 20
488.7795125679945
 30
0.0
 10
-3.412531016619813
 20
488.7020262450005
 30
0.0
  0
ARC
  5
21E
330
1F
100
AcDbEntity
  8
0
  6
Continuous
 62
     7
370
    25
100
AcDbCircle
 10
171.3266383525
 20
575.7313262577
 30
0.0
 40
195.2123878552544
100
AcDbArc
 50
326.4757200497
 51
333.5242799503
  0
ARC
  5
21F
330
1F
100
AcDbEntity
  8
0
  6
Continuous
 62
     7
370
    25
100
AcDbCircle
 10
171.3266383525
 20
575.7313262577
 30
0.0
 40
197.5
100
AcDbArc
 50
325.5306451794
 51
334.4693548206
  0
SPLINE
  5
220
330
1F
100
AcDbEntity
  8
0
  6
Continuous
 62
     7
370
    25
100
AcDbSpline
210
0.0
220
0.0
230
1.0
 70
    24
 71
     3
 72
    11
 73
     7
 74
     0
 42
0.000000001
 43
0.00000001
 40
0.0
 40
0.0
 40
0.0
 40
0.0
 40
0.3009839641174885
 40
0.6106884126229157
 40
0.8042169950238897
 40
1.0
 40
1.0
 40
1.0
 40
1.0
 10
331.8002230233396
 20
469.2254524895812
 30
0.0
 10
332.0407334537888
 20
469.0865937278185
 30
0.0
 10
332.5287226841153
 20
468.804853014328
 30
0.0
 10
333.1500897217214
 20
468.4461065879004
 30
0.0
 10
333.6647223945277
 20
468.1489832757219
 30
0.0
 10
333.931597472662
 20
467.9949028775211
 30
0.0
 10
334.0658077208141
 20
467.9174165546225
 30
0.0
  0
SPLINE
  5
221
330
1F
100
AcDbEntity
  8
0
  6
Continuous
 62
     7
370
    25
100
AcDbSpline
210
0.0
220
0.0
230
1.0
 70
    24
 71
     3
 72
    11
 73
     7
 74
     0
 42
0.000000001
 43
0.00000001
 40
0.0
 40
0.0
 40
0.0
 40
0.0
 40
0.3009725624838039
 40
0.6106814138534767
 40
0.8042157333919675
 40
1.0
 40
1.0
 40
1.0
 40
1.0
 10
346.0658077208142
 20
488.702026245449
 30
0.0
 10
345.8571883784026
 20
488.8224726789484
 30
0.0
 10
345.4338941288216
 20
489.0668617278905
 30
0.0
 10
344.8172883815737
 20
489.422859222048
 30
0.0
 10
344.2676716774355
 20
489.7401805741333
 30
0.0
 10
343.9566384150751
 20
489.919755711884
 30
0.0
 10
343.8002230233398
 20
490.0100621804078
 30
0.0
  0
SPLINE
  5
222
330
1F
100
AcDbEntity
  8
0
  6
Continuous
 62
     7
370
    25
100
AcDbSpline
210
0.0
220
0.0
230
1.0
 70
     8
 71
     3
 72
    23
 73
    19
 74
     0
 42
0.000000001
 43
0.00000001
 40
0.0
 40
0.0
 40
0.0
 40
0.0
 40
0.0599314968079755
 40
0.1202790044655964
 40
0.1819385660571755
 40
0.2440514923472003
 40
0.3041979522214396
 40
0.3648746705917905
 40
0.4259832287187149
 40
0.4880936527647877
 40
0.5482420913813814
 40
0.6088110799882069
 40
0.6700313942384747
 40
0.7321438879280581
 40
0.7976792003049146
 40
0.8637597040314207
 40
0.9315774636451818
 40
1.0
 40
1.0
 40
1.0
 40
1.0
 10
186.7169984759854
 20
772.6307595104614
 30
0.0
 10
186.9368042449384
 20
772.6082744271636
 30
0.0
 10
187.3779415512562
 20
772.5631481817256
 30
0.0
 10
188.0351323185656
 20
772.4249981091099
 30
0.0
 10
188.6866833934604
 20
772.2336768139302
 30
0.0
 10
189.3186720018374
 20
771.9865672103507
 30
0.0
 10
189.9242838126856
 20
771.6889249446317
 30
0.0
 10
190.4997924652398
 20
771.3436311421465
 30
0.0
 10
191.050121652719
 20
770.9469624653092
 30
0.0
 10
191.5632667959846
 20
770.5061655005693
 30
0.0
 10
192.035943119487
 20
770.0251055577614
 30
0.0
 10
192.4647977550972
 20
769.508845606892
 30
0.0
 10
192.8529102040119
 20
768.9524076782609
 30
0.0
 10
193.2013319595214
 20
768.3490654234623
 30
0.0
 10
193.5031938376601
 20
767.7010464403157
 30
0.0
 10
193.7507542979011
 20
767.0083527782523
 30
0.0
 10
193.9409260963336
 20
766.2858295215107
 30
0.0
 10
194.0099951336623
 20
765.7882421963842
 30
0.0
 10
194.0446829525929
 20
765.5383441276731
 30
0.0
  0
SPLINE
  5
223
330
1F
100
AcDbEntity
  8
0
  6
Continuous
 62
     7
370
    25
100
AcDbSpline
210
0.0
220
0.0
230
1.0
 70
     8
 71
     3
 72
    23
 73
    19
 74
     0
 42
0.000000001
 43
0.00000001
 40
0.0
 40
0.0
 40
0.0
 40
0.0
 40
0.0599314966149104
 40
0.120279004078125
 40
0.1819385654710707
 40
0.2440514915610046
 40
0.3042522414597251
 40
0.3648746701624453
 40
0.4259832280925038
 40
0.4880936519384809
 40
0.5482963831155585
 40
0.6089208135089166
 40
0.6700313953015207
 40
0.7321438887910031
 40
0.7976792009567284
 40
0.8637597044703439
 40
0.931577463865619
 40
1.0
 40
1.0
 40
1.0
 40
1.0
 10
-6.888452896933766
 20
490.6100524716207
 30
0.0
 10
-6.978883127948476
 20
490.8116523940903
 30
0.0
 10
-7.160371305940993
 20
491.2162516326621
 30
0.0
 10
-7.369325218997802
 20
491.8544705532158
 30
0.0
 10
-7.529411647437644
 20
492.5143910434199
 30
0.0
 10
-7.631432890260831
 20
493.1854618429309
 30
0.0
 10
-7.676447888519289
 20
493.8587616740759
 30
0.0
 10
-7.665143834670735
 20
494.5298114311859
 30
0.0
 10
-7.596803467313257
 20
495.2045458083172
 30
0.0
 10
-7.471597630073185
 20
495.8695377046639
 30
0.0
 10
-7.291192719336509
 20
496.5198020510651
 30
0.0
 10
-7.058453683055715
 20
497.1493063653951
 30
0.0
 10
-6.770660379909366
 20
497.7634341341335
 30
0.0
 10
-6.422563756316585
 20
498.3664971152362
 30
0.0
 10
-6.012293834442294
 20
498.9519265637468
 30
0.0
 10
-5.536183744970141
 20
499.5126670693596
 30
0.0
 10
-5.005546152060419
 20
500.0386222989271
 30
0.0
 10
-4.609157406152864
 20
500.3472315034241
 30
0.0
 10
-4.410083239551193
 20
500.5022210706738
 30
0.0
  0
SPLINE
  5
224
330
1F
100
AcDbEntity
  8
0
  6
Continuous
 62
     7
370
    25
100
AcDbSpline
210
0.0
220
0.0
230
1.0
 70
     8
 71
     3
 72
    23
 73
    19
 74
     0
 42
0.000000001
 43
0.00000001
 40
0.0
 40
0.0
 40
0.0
 40
0.0
 40
0.059931543022134
 40
0.1202790978641668
 40
0.1819387098058174
 40
0.2440516875661609
 40
0.3041981474402534
 40
0.3648748658104699
 40
0.4259834239372757
 40
0.4880938479832549
 40
0.5482422866027694
 40
0.6088112752125877
 40
0.6700315894659563
 40
0.7321440831588041
 40
0.797679349845341
 40
0.8637598067300991
 40
0.9315775156793287
 40
1.0
 40
1.0
 40
1.0
 40
1.0
 10
334.1513694784121
 20
463.9531667909393
 30
0.0
 10
334.0219938373968
 20
463.7740518168881
 30
0.0
 10
333.7623445008001
 20
463.4145785511176
 30
0.0
 10
333.3141072392884
 20
462.9145093361756
 30
0.0
 10
332.8226421250422
 20
462.4459099012042
 30
0.0
 10
332.2926442324731
 20
462.0221464019982
 30
0.0
 10
331.7320723046537
 20
461.6464923675616
 30
0.0
 10
331.1452846856529
 20
461.3207343139948
 30
0.0
 10
330.5265948657474
 20
461.042469762657
 30
0.0
 10
329.8882808642282
 20
460.8184716874652
 30
0.0
 10
329.2353325256439
 20
460.6496521312392
 30
0.0
 10
328.573810944784
 20
460.5363832763153
 30
0.0
 10
327.8978653228531
 20
460.4784871828593
 30
0.0
 10
327.2011448936101
 20
460.4784164069078
 30
0.0
 10
326.4890134096702
 20
460.5410059835482
 30
0.0
 10
325.7653434146729
 20
460.6729591976465
 30
0.0
 10
325.0445345772767
 20
460.8695271515189
 30
0.0
 10
324.5790771497494
 20
461.0585051401428
 30
0.0
 10
324.3453153444221
 20
461.1534135746746
 30
0.0
  0
SPLINE
  5
225
330
1F
100
AcDbEntity
  8
0
  6
Continuous
 62
     7
370
    25
100
AcDbSpline
210
0.0
220
0.0
230
1.0
 70
     8
 71
     3
 72
    23
 73
    19
 74
     0
 42
0.000000001
 43
0.00000001
 40
0.0
 40
0.0
 40
0.0
 40
0.0
 40
0.0599480533869948
 40
0.1203123988804698
 40
0.1819897274399324
 40
0.2441207561097846
 40
0.3042894112267653
 40
0.3648790276398814
 40
0.42612063767832
 40
0.4882553708907667
 40
0.5484198079181619
 40
0.609114970199884
 40
0.6702423654754601
 40
0.7323725663590964
 40
0.7978541712143142
 40
0.8638796801983677
 40
0.9316382049305805
 40
1.0
 40
1.0
 40
1.0
 40
1.0
 10
148.6085937523838
 20
765.5383441276732
 30
0.0
 10
148.6382460675365
 20
765.757353767628
 30
0.0
 10
148.6977566098613
 20
766.1968938973273
 30
0.0
 10
148.8573340316155
 20
766.849390375836
 30
0.0
 10
149.0698984555859
 20
767.4945122384589
 30
0.0
 10
149.3376199468154
 20
768.1182676495434
 30
0.0
 10
149.6548350884654
 20
768.7136536761229
 30
0.0
 10
150.0188811085382
 20
769.2777730576441
 30
0.0
 10
150.4334959151863
 20
769.815037492932
 30
0.0
 10
150.8913267557368
 20
770.3139102155384
 30
0.0
 10
151.3881049220193
 20
770.770947633856
 30
0.0
 10
151.9183627308902
 20
771.1826783942504
 30
0.0
 10
152.4874541495443
 20
771.5523400299655
 30
0.0
 10
153.1015289543541
 20
771.8804943871537
 30
0.0
 10
153.7588282028306
 20
772.1607501081645
 30
0.0
 10
154.4586980848201
 20
772.3852593483064
 30
0.0
 10
155.1864470881314
 20
772.5515279216751
 30
0.0
 10
155.6855971226243
 20
772.6042710635915
 30
0.0
 10
155.9362782289913
 20
772.6307595104614
 30
0.0
  0
SPLINE
  5
226
330
1F
100
AcDbEntity
  8
0
  6
Continuous
 62
     7
370
    25
100
AcDbSpline
210
0.0
220
0.0
230
1.0
 70
     8
 71
     3
 72
    23
 73
    19
 74
     0
 42
0.000000001
 43
0.00000001
 40
0.0
 40
0.0
 40
0.0
 40
0.0
 40
0.059948053193217
 40
0.1203123984915695
 40
0.1819897268516678
 40
0.2441207553206845
 40
0.3043437585177409
 40
0.3649888741660848
 40
0.4261206387849737
 40
0.488255371796576
 40
0.5484741482455286
 40
0.6091149714634002
 40
0.6702423665413867
 40
0.7323725672241901
 40
0.7978541718677422
 40
0.8638796806383705
 40
0.9316382051515576
 40
1.0
 40
1.0
 40
1.0
 40
1.0
 10
347.0633599445268
 20
500.5022210706713
 30
0.0
 10
347.2382016989943
 20
500.3670365920063
 30
0.0
 10
347.5890993464733
 20
500.0957288847384
 30
0.0
 10
348.0743891592869
 20
499.6312825517571
 30
0.0
 10
348.5267988789111
 20
499.1246354005908
 30
0.0
 10
348.9332461597937
 20
498.5807435675217
 30
0.0
 10
349.2904517194323
 20
498.0079758080136
 30
0.0
 10
349.5969033855019
 20
497.4106065151912
 30
0.0
 10
349.8547553963862
 20
496.7830764042167
 30
0.0
 10
350.0578151419144
 20
496.1373421171462
 30
0.0
 10
350.2052076503946
 20
495.4785936645941
 30
0.0
 10
350.2966227951265
 20
494.8135098945311
 30
0.0
 10
350.3322029853664
 20
494.13603143507
 30
0.0
 10
350.3093555800737
 20
493.4401499306995
 30
0.0
 10
350.2234145333546
 20
492.7307842075161
 30
0.0
 10
350.0679102967228
 20
492.0124244946053
 30
0.0
 10
349.8480286037221
 20
491.2990410823073
 30
0.0
 10
349.6441304872146
 20
490.8403929013365
 30
0.0
 10
349.5417296019092
 20
490.6100524716182
 30
0.0
  0
SPLINE
  5
227
330
1F
100
AcDbEntity
  8
0
  6
Continuous
 62
     7
370
    25
100
AcDbSpline
210
0.0
220
0.0
230
1.0
 70
     8
 71
     3
 72
    23
 73
    19
 74
     0
 42
0.000000001
 43
0.00000001
 40
0.0
 40
0.0
 40
0.0
 40
0.0
 40
0.0599480533869972
 40
0.1203123988804767
 40
0.1819897274399421
 40
0.244120756109793
 40
0.3042894112267765
 40
0.3648790276398905
 40
0.426120637678328
 40
0.4882553708907771
 40
0.548419807918169
 40
0.6091149701998905
 40
0.6702423654754692
 40
0.7323725663591045
 40
0.7978541712143215
 40
0.8638796801983717
 40
0.9316382049305808
 40
0.9999999999999999
 40
0.9999999999999999
 40
0.9999999999999999
 40
0.9999999999999999
 10
18.30796136055299
 20
461.1534135746768
 30
0.0
 10
18.10346729110199
 20
461.0695884129025
 30
0.0
 10
17.69305910163743
 20
460.9013559894992
 30
0.0
 10
17.04819186449191
 20
460.7133058513544
 30
0.0
 10
16.38321773093851
 20
460.574831111142
 30
0.0
 10
15.70916895357644
 20
460.4948070181437
 30
0.0
 10
15.03494195867541
 20
460.4718303759879
 30
0.0
 10
14.36437723347445
 20
460.505043786757
 30
0.0
 10
13.69178518064112
 20
460.5954785244554
 30
0.0
 10
13.03083330933369
 20
460.7425353017049
 30
0.0
 10
12.38663821144942
 20
460.9442391045924
 30
0.0
 10
11.76494000899289
 20
461.1975904574323
 30
0.0
 10
11.160257932332
 20
461.505607265205
 30
0.0
 10
10.56903052023966
 20
461.8733344674003
 30
0.0
 10
9.997672322050011
 20
462.3024444539639
 30
0.0
 10
9.453306675708205
 20
462.7962949310395
 30
0.0
 10
8.945439365664193
 20
463.3434097688015
 30
0.0
 10
8.650187447642843
 20
463.749314808014
 30
0.0
 10
8.501907226563077
 20
463.9531667909416
 30
0.0
  0
ARC
  5
228
330
1F
100
AcDbEntity
  8
0
  6
Continuous
 62
     7
370
    25
100
AcDbCircle
 10
171.3266383525
 20
753.2313262577
 30
0.0
 40
5.50000000000001
100
AcDbArc
 50
19.0287488208
 51
160.9712511792
  0
ARC
  5
229
330
1F
100
AcDbEntity
  8
0
  6
Continuous
 62
     7
370
    25
100
AcDbCircle
 10
17.6071291807
 20
486.9813262577
 30
0.0
 40
5.500000000000068
100
AcDbArc
 50
139.0287488208
 51
280.9712511792
  0
ARC
  5
22A
330
1F
100
AcDbEntity
  8
0
  6
Continuous
 62
     7
370
    25
100
AcDbCircle
 10
325.0461475242
 20
486.9813262577
 30
0.0
 40
5.500000000000023
100
AcDbArc
 50
259.0287488208
 51
40.9712511792
  0
INSERT
  5
236
330
1F
100
AcDbEntity
  8
0
  6
Continuous
 62
     7
370
    18
100
AcDbBlockReference
  2
SW_CENTERMARKSYMBOL_0
 10
171.3266383525
 20
575.7313262577
 30
0.0
  0
ENDSEC
  0
SECTION
  2
OBJECTS
  0
DICTIONARY
  5
C
330
0
100
AcDbDictionary
281
     1
  3
ACAD_GROUP
350
D
  3
ACAD_LAYOUT
350
1A
  3
ACAD_MLINESTYLE
350
17
  3
ACAD_PLOTSETTINGS
350
19
  3
ACAD_PLOTSTYLENAME
350
E
  3
ACAD_SCALELIST
350
47
  0
DICTIONARY
  5
D
102
{ACAD_REACTORS
330
C
102
}
330
C
100
AcDbDictionary
281
     1
  0
DICTIONARY
  5
1A
102
{ACAD_REACTORS
330
C
102
}
330
C
100
AcDbDictionary
281
     1
  3
Layout1
350
1E
  3
Layout2
350
26
  3
Model
350
22
  0
DICTIONARY
  5
17
102
{ACAD_REACTORS
330
C
102
}
330
C
100
AcDbDictionary
281
     1
  3
Standard
350
18
  0
DICTIONARY
  5
19
102
{ACAD_REACTORS
330
C
102
}
330
C
100
AcDbDictionary
281
     1
  0
ACDBDICTIONARYWDFLT
  5
E
102
{ACAD_REACTORS
330
C
102
}
330
C
100
AcDbDictionary
281
     1
  3
Normal
350
F
100
AcDbDictionaryWithDefault
340
F
  0
DICTIONARY
  5
47
102
{ACAD_REACTORS
330
C
102
}
330
C
100
AcDbDictionary
281
     1
  3
A0
350
48
  3
A1
350
49
  3
A2
350
4A
  3
A3
350
4B
  3
A4
350
4C
  3
A5
350
4D
  3
A6
350
4E
  3
A7
350
4F
  3
A8
350
50
  3
A9
350
51
  3
B0
350
52
  3
B1
350
53
  3
B2
350
54
  3
B3
350
55
  3
B4
350
56
  3
B5
350
57
  3
B6
350
58
  3
B7
350
59
  3
B8
350
5A
  3
B9
350
5B
  3
C0
350
5C
  3
C1
350
5D
  3
C2
350
5E
  3
C3
350
5F
  3
C4
350
60
  3
C5
350
61
  3
C6
350
62
  3
C7
350
63
  3
C8
350
64
  3
C9
350
65
  3
D0
350
66
  3
D1
350
67
  3
D2
350
68
  0
LAYOUT
  5
1E
102
{ACAD_REACTORS
330
1A
102
}
330
1A
100
AcDbPlotSettings
  1

  2
none_device
  4

  6

 40
0.0
 41
0.0
 42
0.0
 43
0.0
 44
0.0
 45
0.0
 46
0.0
 47
0.0
 48
0.0
 49
0.0
140
0.0
141
0.0
142
1.0
143
1.0
 70
   688
 72
     1
 73
     0
 74
     5
  7

 75
    16
147
1.0
148
0.0
149
0.0
100
AcDbLayout
  1
Layout1
 70
     1
 71
     1
 10
0.0
 20
0.0
 11
420.0
 21
297.0
 12
0.0
 22
0.0
 32
0.0
 14
1.0000000000E+20
 24
1.0000000000E+20
 34
1.0000000000E+20
 15
-1.0000000000E+20
 25
-1.0000000000E+20
 35
-1.0000000000E+20
146
0.0
 13
0.0
 23
0.0
 33
0.0
 16
1.0
 26
0.0
 36
0.0
 17
0.0
 27
1.0
 37
0.0
 76
     0
330
1B
  0
LAYOUT
  5
26
102
{ACAD_REACTORS
330
1A
102
}
330
1A
100
AcDbPlotSettings
  1

  2
none_device
  4

  6

 40
0.0
 41
0.0
 42
0.0
 43
0.0
 44
0.0
 45
0.0
 46
0.0
 47
0.0
 48
0.0
 49
0.0
140
0.0
141
0.0
142
1.0
143
1.0
 70
   688
 72
     1
 73
     0
 74
     5
  7

 75
    16
147
1.0
148
0.0
149
0.0
100
AcDbLayout
  1
Layout2
 70
     1
 71
     2
 10
0.0
 20
0.0
 11
0.0
 21
0.0
 12
0.0
 22
0.0
 32
0.0
 14
0.0
 24
0.0
 34
0.0
 15
0.0
 25
0.0
 35
0.0
146
0.0
 13
0.0
 23
0.0
 33
0.0
 16
1.0
 26
0.0
 36
0.0
 17
0.0
 27
1.0
 37
0.0
 76
     0
330
23
  0
LAYOUT
  5
22
102
{ACAD_REACTORS
330
1A
102
}
330
1A
100
AcDbPlotSettings
  1

  2
none_device
  4
Letter_(8.50_x_11.00_Inches)
  6

 40
6.35
 41
6.35
 42
6.35000508
 43
6.35000508
 44
215.9
 45
279.4
 46
0.0
 47
0.0
 48
0.0
 49
0.0
140
0.0
141
0.0
142
1.0
143
1.0
 70
  1712
 72
     1
 73
     0
 74
     0
  7

 75
     0
147
1.0
148
0.0
149
0.0
100
AcDbLayout
  1
Model
 70
     1
 71
     0
 10
0.0
 20
0.0
 11
420.0
 21
297.0
 12
0.0
 22
0.0
 32
0.0
 14
0.0
 24
0.0
 34
0.0
 15
420.0
 25
297.0
 35
0.0
146
0.0
 13
0.0
 23
0.0
 33
0.0
 16
1.0
 26
0.0
 36
0.0
 17
0.0
 27
1.0
 37
0.0
 76
     0
330
1F
331
29
  0
MLINESTYLE
  5
18
102
{ACAD_REACTORS
330
17
102
}
330
17
100
AcDbMlineStyle
  2
Standard
 70
     0
  3

 62
   256
 51
90.0
 52
90.0
 71
     2
 49
0.5
 62
   256
  6
BYLAYER
 49
-0.5
 62
   256
  6
BYLAYER
  0
ACDBPLACEHOLDER
  5
F
102
{ACAD_REACTORS
330
E
102
}
330
E
  0
SCALE
  5
48
102
{ACAD_REACTORS
330
47
102
}
330
47
100
AcDbScale
 70
     0
300
1:1
140
1.0
141
1.0
290
     1
  0
SCALE
  5
49
102
{ACAD_REACTORS
330
47
102
}
330
47
100
AcDbScale
 70
     0
300
1:2
140
1.0
141
2.0
290
     0
  0
SCALE
  5
4A
102
{ACAD_REACTORS
330
47
102
}
330
47
100
AcDbScale
 70
     0
300
1:4
140
1.0
141
4.0
290
     0
  0
SCALE
  5
4B
102
{ACAD_REACTORS
330
47
102
}
330
47
100
AcDbScale
 70
     0
300
1:5
140
1.0
141
5.0
290
     0
  0
SCALE
  5
4C
102
{ACAD_REACTORS
330
47
102
}
330
47
100
AcDbScale
 70
     0
300
1:8
140
1.0
141
8.0
290
     0
  0
SCALE
  5
4D
102
{ACAD_REACTORS
330
47
102
}
330
47
100
AcDbScale
 70
     0
300
1:10
140
1.0
141
10.0
290
     0
  0
SCALE
  5
4E
102
{ACAD_REACTORS
330
47
102
}
330
47
100
AcDbScale
 70
     0
300
1:16
140
1.0
141
16.0
290
     0
  0
SCALE
  5
4F
102
{ACAD_REACTORS
330
47
102
}
330
47
100
AcDbScale
 70
     0
300
1:20
140
1.0
141
20.0
290
     0
  0
SCALE
  5
50
102
{ACAD_REACTORS
330
47
102
}
330
47
100
AcDbScale
 70
     0
300
1:30
140
1.0
141
30.0
290
     0
  0
SCALE
  5
51
102
{ACAD_REACTORS
330
47
102
}
330
47
100
AcDbScale
 70
     0
300
1:40
140
1.0
141
40.0
290
     0
  0
SCALE
  5
52
102
{ACAD_REACTORS
330
47
102
}
330
47
100
AcDbScale
 70
     0
300
1:50
140
1.0
141
50.0
290
     0
  0
SCALE
  5
53
102
{ACAD_REACTORS
330
47
102
}
330
47
100
AcDbScale
 70
     0
300
1:100
140
1.0
141
100.0
290
     0
  0
SCALE
  5
54
102
{ACAD_REACTORS
330
47
102
}
330
47
100
AcDbScale
 70
     0
300
2:1
140
2.0
141
1.0
290
     0
  0
SCALE
  5
55
102
{ACAD_REACTORS
330
47
102
}
330
47
100
AcDbScale
 70
     0
300
4:1
140
4.0
141
1.0
290
     0
  0
SCALE
  5
56
102
{ACAD_REACTORS
330
47
102
}
330
47
100
AcDbScale
 70
     0
300
8:1
140
8.0
141
1.0
290
     0
  0
SCALE
  5
57
102
{ACAD_REACTORS
330
47
102
}
330
47
100
AcDbScale
 70
     0
300
10:1
140
10.0
141
1.0
290
     0
  0
SCALE
  5
58
102
{ACAD_REACTORS
330
47
102
}
330
47
100
AcDbScale
 70
     0
300
100:1
140
100.0
141
1.0
290
     0
  0
SCALE
  5
59
102
{ACAD_REACTORS
330
47
102
}
330
47
100
AcDbScale
 70
     0
300
1/128" = 1'-0"
140
0.0078125
141
12.0
290
     0
  0
SCALE
  5
5A
102
{ACAD_REACTORS
330
47
102
}
330
47
100
AcDbScale
 70
     0
300
1/64" = 1'-0"
140
0.015625
141
12.0
290
     0
  0
SCALE
  5
5B
102
{ACAD_REACTORS
330
47
102
}
330
47
100
AcDbScale
 70
     0
300
1/32" = 1'-0"
140
0.03125
141
12.0
290
     0
  0
SCALE
  5
5C
102
{ACAD_REACTORS
330
47
102
}
330
47
100
AcDbScale
 70
     0
300
1/16" = 1'-0"
140
0.0625
141
12.0
290
     0
  0
SCALE
  5
5D
102
{ACAD_REACTORS
330
47
102
}
330
47
100
AcDbScale
 70
     0
300
3/32" = 1'-0"
140
0.09375
141
12.0
290
     0
  0
SCALE
  5
5E
102
{ACAD_REACTORS
330
47
102
}
330
47
100
AcDbScale
 70
     0
300
1/8" = 1'-0"
140
0.125
141
12.0
290
     0
  0
SCALE
  5
5F
102
{ACAD_REACTORS
330
47
102
}
330
47
100
AcDbScale
 70
     0
300
3/16" = 1'-0"
140
0.1875
141
12.0
290
     0
  0
SCALE
  5
60
102
{ACAD_REACTORS
330
47
102
}
330
47
100
AcDbScale
 70
     0
300
1/4" = 1'-0"
140
0.25
141
12.0
290
     0
  0
SCALE
  5
61
102
{ACAD_REACTORS
330
47
102
}
330
47
100
AcDbScale
 70
     0
300
3/8" = 1'-0"
140
0.375
141
12.0
290
     0
  0
SCALE
  5
62
102
{ACAD_REACTORS
330
47
102
}
330
47
100
AcDbScale
 70
     0
300
1/2" = 1'-0"
140
0.5
141
12.0
290
     0
  0
SCALE
  5
63
102
{ACAD_REACTORS
330
47
102
}
330
47
100
AcDbScale
 70
     0
300
3/4" = 1'-0"
140
0.75
141
12.0
290
     0
  0
SCALE
  5
64
102
{ACAD_REACTORS
330
47
102
}
330
47
100
AcDbScale
 70
     0
300
1" = 1'-0"
140
1.0
141
12.0
290
     0
  0
SCALE
  5
65
102
{ACAD_REACTORS
330
47
102
}
330
47
100
AcDbScale
 70
     0
300
1-1/2" = 1'-0"
140
1.5
141
12.0
290
     0
  0
SCALE
  5
66
102
{ACAD_REACTORS
330
47
102
}
330
47
100
AcDbScale
 70
     0
300
3" = 1'-0"
140
3.0
141
12.0
290
     0
  0
SCALE
  5
67
102
{ACAD_REACTORS
330
47
102
}
330
47
100
AcDbScale
 70
     0
300
6" = 1'-0"
140
6.0
141
12.0
290
     0
  0
SCALE
  5
68
102
{ACAD_REACTORS
330
47
102
}
330
47
100
AcDbScale
 70
     0
300
1'-0" = 1'-0"
140
12.0
141
12.0
290
     0
  0
ENDSEC
  0
EOF
