  0
SECTION
  2
HEADER
  9
$ACADVER
  1
AC1015
  9
$ACADMAINTVER
 70
     6
  9
$DWGCODEPAGE
  3
DOS932
  9
$INSBASE
 10
0.0
 20
0.0
 30
0.0
  9
$EXTMIN
 10
0.0
 20
0.0
 30
0.0
  9
$EXTMAX
 10
420.0
 20
297.0
 30
0.0
  9
$LIMMIN
 10
0.0
 20
0.0
  9
$LIMMAX
 10
420.0
 20
297.0
  9
$ORTHOMODE
 70
     0
  9
$REGENMODE
 70
     1
  9
$FILLMODE
 70
     1
  9
$QTEXTMODE
 70
     0
  9
$MIRRTEXT
 70
     1
  9
$LTSCALE
 40
1.0
  9
$ATTMODE
 70
     1
  9
$TEXTSIZE
 40
3.5
  9
$TRACEWID
 40
1.0
  9
$TEXTSTYLE
  7
Standard
  9
$CLAYER
  8
0
  9
$CELTYPE
  6
ByLayer
  9
$CECOLOR
 62
   256
  9
$CELTSCALE
 40
1.0
  9
$DISPSILH
 70
     0
  9
$DIMSCALE
 40
1.0
  9
$DIMASZ
 40
2.0
  9
$DIMEXO
 40
1.0
  9
$DIMDLI
 40
3.75
  9
$DIMRND
 40
0.0
  9
$DIMDLE
 40
0.0
  9
$DIMEXE
 40
1.0
  9
$DIMTP
 40
0.0
  9
$DIMTM
 40
0.0
  9
$DIMTXT
 40
2.7999999523
  9
$DIMCEN
 40
2.5
  9
$DIMTSZ
 40
0.0
  9
$DIMTOL
 70
     0
  9
$DIMLIM
 70
     0
  9
$DIMTIH
 70
     1
  9
$DIMTOH
 70
     1
  9
$DIMSE1
 70
     0
  9
$DIMSE2
 70
     0
  9
$DIMTAD
 70
     1
  9
$DIMZIN
 70
     1
  9
$DIMBLK
  1

  9
$DIMASO
 70
     1
  9
$DIMSHO
 70
     1
  9
$DIMPOST
  1

  9
$DIMAPOST
  1

  9
$DIMALT
 70
     0
  9
$DIMALTD
 70
     3
  9
$DIMALTF
 40
0.0393700787
  9
$DIMLFAC
 40
5.0
  9
$DIMTOFL
 70
     1
  9
$DIMTVP
 40
0.0
  9
$DIMTIX
 70
     0
  9
$DIMSOXD
 70
     0
  9
$DIMSAH
 70
     0
  9
$DIMBLK1
  1

  9
$DIMBLK2
  1

  9
$DIMSTYLE
  2
ISO-25
  9
$DIMCLRD
 70
     0
  9
$DIMCLRE
 70
     0
  9
$DIMCLRT
 70
     0
  9
$DIMTFAC
 40
1.0
  9
$DIMGAP
 40
1.524
  9
$DIMJUST
 70
     0
  9
$DIMSD1
 70
     0
  9
$DIMSD2
 70
     0
  9
$DIMTOLJ
 70
     0
  9
$DIMTZIN
 70
     1
  9
$DIMALTZ
 70
     0
  9
$DIMALTTZ
 70
     0
  9
$DIMUPT
 70
     0
  9
$DIMDEC
 70
     3
  9
$DIMTDEC
 70
     3
  9
$DIMALTU
 70
     2
  9
$DIMALTTD
 70
     3
  9
$DIMTXSTY
  7
Standard
  9
$DIMAUNIT
 70
     0
  9
$DIMADEC
 70
     0
  9
$DIMALTRND
 40
0.0
  9
$DIMAZIN
 70
     0
  9
$DIMDSEP
 70
    44
  9
$DIMATFIT
 70
     3
  9
$DIMFRAC
 70
     0
  9
$DIMLDRBLK
  1

  9
$DIMLUNIT
 70
     2
  9
$DIMLWD
 70
    -2
  9
$DIMLWE
 70
    -2
  9
$DIMTMOVE
 70
     0
  9
$LUNITS
 70
     2
  9
$LUPREC
 70
     3
  9
$SKETCHINC
 40
1.0
  9
$FILLETRAD
 40
10.0
  9
$AUNITS
 70
     0
  9
$AUPREC
 70
     0
  9
$MENU
  1
.
  9
$ELEVATION
 40
0.0
  9
$PELEVATION
 40
0.0
  9
$THICKNESS
 40
0.0
  9
$LIMCHECK
 70
     0
  9
$CHAMFERA
 40
10.0
  9
$CHAMFERB
 40
10.0
  9
$CHAMFERC
 40
20.0
  9
$CHAMFERD
 40
0.0
  9
$SKPOLY
 70
     0
  9
$TDCREATE
 40
2456338.603009259
  9
$TDUCREATE
 40
2456338.228009259
  9
$TDUPDATE
 40
2456338.603009271
  9
$TDUUPDATE
 40
2456338.228009271
  9
$TDINDWG
 40
0.0000000116
  9
$TDUSRTIMER
 40
0.0000000116
  9
$USRTIMER
 70
     1
  9
$ANGBASE
 50
0.0
  9
$ANGDIR
 70
     0
  9
$PDMODE
 70
     0
  9
$PDSIZE
 40
-1.0
  9
$PLINEWID
 40
0.0
  9
$SPLFRAME
 70
     0
  9
$SPLINETYPE
 70
     6
  9
$SPLINESEGS
 70
     8
  9
$HANDSEED
  5
268
  9
$SURFTAB1
 70
     6
  9
$SURFTAB2
 70
     6
  9
$SURFTYPE
 70
     6
  9
$SURFU
 70
     6
  9
$SURFV
 70
     6
  9
$UCSBASE
  2

  9
$UCSNAME
  2

  9
$UCSORG
 10
0.0
 20
0.0
 30
0.0
  9
$UCSXDIR
 10
1.0
 20
0.0
 30
0.0
  9
$UCSYDIR
 10
0.0
 20
1.0
 30
0.0
  9
$UCSORTHOREF
  2

  9
$UCSORTHOVIEW
 70
     0
  9
$UCSORGTOP
 10
0.0
 20
0.0
 30
0.0
  9
$UCSORGBOTTOM
 10
0.0
 20
0.0
 30
0.0
  9
$UCSORGLEFT
 10
0.0
 20
0.0
 30
0.0
  9
$UCSORGRIGHT
 10
0.0
 20
0.0
 30
0.0
  9
$UCSORGFRONT
 10
0.0
 20
0.0
 30
0.0
  9
$UCSORGBACK
 10
0.0
 20
0.0
 30
0.0
  9
$PUCSBASE
  2

  9
$PUCSNAME
  2

  9
$PUCSORG
 10
0.0
 20
0.0
 30
0.0
  9
$PUCSXDIR
 10
1.0
 20
0.0
 30
0.0
  9
$PUCSYDIR
 10
0.0
 20
1.0
 30
0.0
  9
$PUCSORTHOREF
  2

  9
$PUCSORTHOVIEW
 70
     0
  9
$PUCSORGTOP
 10
0.0
 20
0.0
 30
0.0
  9
$PUCSORGBOTTOM
 10
0.0
 20
0.0
 30
0.0
  9
$PUCSORGLEFT
 10
0.0
 20
0.0
 30
0.0
  9
$PUCSORGRIGHT
 10
0.0
 20
0.0
 30
0.0
  9
$PUCSORGFRONT
 10
0.0
 20
0.0
 30
0.0
  9
$PUCSORGBACK
 10
0.0
 20
0.0
 30
0.0
  9
$USERI1
 70
     0
  9
$USERI2
 70
     0
  9
$USERI3
 70
     0
  9
$USERI4
 70
     0
  9
$USERI5
 70
     0
  9
$USERR1
 40
0.0
  9
$USERR2
 40
0.0
  9
$USERR3
 40
0.0
  9
$USERR4
 40
0.0
  9
$USERR5
 40
0.0
  9
$WORLDVIEW
 70
     1
  9
$SHADEDGE
 70
     3
  9
$SHADEDIF
 70
    70
  9
$TILEMODE
 70
     1
  9
$MAXACTVP
 70
    64
  9
$PINSBASE
 10
0.0
 20
0.0
 30
0.0
  9
$PLIMCHECK
 70
     0
  9
$PEXTMIN
 10
1.0000000000E+20
 20
1.0000000000E+20
 30
1.0000000000E+20
  9
$PEXTMAX
 10
-1.0000000000E+20
 20
-1.0000000000E+20
 30
-1.0000000000E+20
  9
$PLIMMIN
 10
0.0
 20
0.0
  9
$PLIMMAX
 10
420.0
 20
297.0
  9
$UNITMODE
 70
     0
  9
$VISRETAIN
 70
     1
  9
$PLINEGEN
 70
     0
  9
$PSLTSCALE
 70
     1
  9
$TREEDEPTH
 70
  3020
  9
$CMLSTYLE
  2
Standard
  9
$CMLJUST
 70
     0
  9
$CMLSCALE
 40
20.0
  9
$PROXYGRAPHICS
 70
     1
  9
$MEASUREMENT
 70
     1
  9
$CELWEIGHT
370
    -1
  9
$ENDCAPS
280
     0
  9
$JOINSTYLE
280
     0
  9
$LWDISPLAY
290
     1
  9
$INSUNITS
 70
     4
  9
$HYPERLINKBASE
  1

  9
$STYLESHEET
  1

  9
$XEDIT
290
     1
  9
$CEPSNTYPE
380
     0
  9
$PSTYLEMODE
290
     1
  9
$FINGERPRINTGUID
  2
{7FE3F4D0-DCF9-40F9-AE30-42415FD0DD05}
  9
$VERSIONGUID
  2
{FAEB1C32-E019-11D5-929B-00C0DF256EC4}
  9
$EXTNAMES
290
     1
  9
$PSVPSCALE
 40
0.0
  9
$OLESTARTUP
290
     0
  0
ENDSEC
  0
SECTION
  2
CLASSES
  0
CLASS
  1
ACDBDICTIONARYWDFLT
  2
AcDbDictionaryWithDefault
  3
ObjectDBX Classes
 90
        0
280
     0
281
     0
  0
CLASS
  1
VISUALSTYLE
  2
AcDbVisualStyle
  3
ObjectDBX Classes
 90
     4095
280
     0
281
     0
  0
CLASS
  1
MATERIAL
  2
AcDbMaterial
  3
ObjectDBX Classes
 90
     1153
280
     0
281
     0
  0
CLASS
  1
ACDBPLACEHOLDER
  2
AcDbPlaceHolder
  3
ObjectDBX Classes
 90
        0
280
     0
281
     0
  0
CLASS
  1
LAYOUT
  2
AcDbLayout
  3
ObjectDBX Classes
 90
        0
280
     0
281
     0
  0
ENDSEC
  0
SECTION
  2
TABLES
  0
TABLE
  2
VPORT
  5
8
330
0
100
AcDbSymbolTable
 70
     1
  0
VPORT
  5
29
330
8
100
AcDbSymbolTableRecord
100
AcDbViewportTableRecord
  2
*Active
 70
     0
 10
0.0
 20
0.0
 11
1.0
 21
1.0
 12
210.0
 22
148.5
 13
0.0
 23
0.0
 14
10.0
 24
10.0
 15
10.0
 25
10.0
 16
0.0
 26
0.0
 36
1.0
 17
0.0
 27
0.0
 37
0.0
 40
297.0
 41
1.4141414141
 42
50.0
 43
0.0
 44
0.0
 50
0.0
 51
0.0
 71
     0
 72
  2000
 73
     1
 74
     3
 75
     0
 76
     0
 77
     0
 78
     0
281
     0
 65
     1
110
0.0
120
0.0
130
0.0
111
1.0
121
0.0
131
0.0
112
0.0
122
1.0
132
0.0
 79
     0
146
0.0
  0
ENDTAB
  0
TABLE
  2
LTYPE
  5
5
330
0
100
AcDbSymbolTable
 70
     6
  0
LTYPE
  5
14
330
5
100
AcDbSymbolTableRecord
100
AcDbLinetypeTableRecord
  2
ByBlock
 70
     0
  3

 72
    65
 73
     0
 40
0.0
  0
LTYPE
  5
15
330
5
100
AcDbSymbolTableRecord
100
AcDbLinetypeTableRecord
  2
ByLayer
 70
     0
  3

 72
    65
 73
     0
 40
0.0
  0
LTYPE
  5
16
330
5
100
AcDbSymbolTableRecord
100
AcDbLinetypeTableRecord
  2
Continuous
 70
     0
  3
Solid line
 72
    65
 73
     0
 40
0.0
  0
LTYPE
  5
3F
330
5
100
AcDbSymbolTableRecord
100
AcDbLinetypeTableRecord
  2
HIDDEN
 70
     0
  3
Hidden __ __ __ __ __ __ __ __ __ __ __ __ __ __
 72
    65
 73
     2
 40
1.905
 49
1.27
 74
     0
 49
-0.635
 74
     0
  0
LTYPE
  5
40
330
5
100
AcDbSymbolTableRecord
100
AcDbLinetypeTableRecord
  2
PHANTOM
 70
     0
  3
Phantom ______  __  __  ______  __  __  ______
 72
    65
 73
     6
 40
12.7
 49
6.35
 74
     0
 49
-1.27
 74
     0
 49
1.27
 74
     0
 49
-1.27
 74
     0
 49
1.27
 74
     0
 49
-1.27
 74
     0
  0
LTYPE
  5
41
330
5
100
AcDbSymbolTableRecord
100
AcDbLinetypeTableRecord
  2
CENTER
 70
     0
  3
Center ____ _ ____ _ ____ _ ____ _ ____ _ ____
 72
    65
 73
     4
 40
10.16
 49
6.35
 74
     0
 49
-1.27
 74
     0
 49
1.27
 74
     0
 49
-1.27
 74
     0
  0
LTYPE
  5
42
330
5
100
AcDbSymbolTableRecord
100
AcDbLinetypeTableRecord
  2
CENTERX2
 70
     0
  3
Center (2x) ________  __  ________  __  _____
 72
    65
 73
     4
 40
20.32
 49
12.7
 74
     0
 49
-2.54
 74
     0
 49
2.54
 74
     0
 49
-2.54
 74
     0
  0
LTYPE
  5
43
330
5
100
AcDbSymbolTableRecord
100
AcDbLinetypeTableRecord
  2
DOT2
 70
     0
  3
Dot (.5x) ........................................
 72
    65
 73
     2
 40
0.635
 49
0.0
 74
     0
 49
-0.635
 74
     0
  0
ENDTAB
  0
TABLE
  2
LAYER
  5
2
330
0
100
AcDbSymbolTable
 70
     2
  0
LAYER
  5
10
330
2
100
AcDbSymbolTableRecord
100
AcDbLayerTableRecord
  2
0
 70
     0
 62
     7
  6
Continuous
370
    -3
390
F
  0
LAYER
  5
44
330
2
100
AcDbSymbolTableRecord
100
AcDbLayerTableRecord
  2
SLD-0
 70
     0
 62
     3
  6
Continuous
370
    -3
390
F
  0
ENDTAB
  0
TABLE
  2
STYLE
  5
3
330
0
100
AcDbSymbolTable
 70
     1
  0
STYLE
  5
11
330
3
100
AcDbSymbolTableRecord
100
AcDbTextStyleTableRecord
  2
Standard
 70
     0
 40
0.0
 41
1.0
 50
0.0
 71
     0
 42
2.5
  3
txt
  4
bigfont
  0
ENDTAB
  0
TABLE
  2
VIEW
  5
6
330
0
100
AcDbSymbolTable
 70
     0
  0
ENDTAB
  0
TABLE
  2
UCS
  5
7
330
0
100
AcDbSymbolTable
 70
     0
  0
ENDTAB
  0
TABLE
  2
APPID
  5
9
330
0
100
AcDbSymbolTable
 70
     1
  0
APPID
  5
12
330
9
100
AcDbSymbolTableRecord
100
AcDbRegAppTableRecord
  2
ACAD
 70
     0
  0
ENDTAB
  0
TABLE
  2
DIMSTYLE
  5
A
330
0
100
AcDbSymbolTable
 70
     1
100
AcDbDimStyleTable
  0
DIMSTYLE
105
27
330
A
100
AcDbSymbolTableRecord
100
AcDbDimStyleTableRecord
  2
ISO-25
 70
     0
 41
2.5
 42
0.625
 43
3.75
 44
1.25
 73
     0
 74
     0
 77
     1
 78
     8
140
2.5
141
2.5
143
0.0393700787
147
0.625
171
     3
172
     1
178
     0
271
     2
272
     2
274
     3
278
    44
283
     0
284
     8
340
11
  0
ENDTAB
  0
TABLE
  2
BLOCK_RECORD
  5
1
330
0
100
AcDbSymbolTable
 70
     1
  0
BLOCK_RECORD
  5
1F
330
1
100
AcDbSymbolTableRecord
100
AcDbBlockTableRecord
  2
*Model_Space
340
22
  0
BLOCK_RECORD
  5
1B
330
1
100
AcDbSymbolTableRecord
100
AcDbBlockTableRecord
  2
*Paper_Space
340
1E
  0
BLOCK_RECORD
  5
23
330
1
100
AcDbSymbolTableRecord
100
AcDbBlockTableRecord
  2
*Paper_Space0
340
26
  0
ENDTAB
  0
ENDSEC
  0
SECTION
  2
BLOCKS
  0
BLOCK
  5
20
330
1F
100
AcDbEntity
  8
0
100
AcDbBlockBegin
  2
*Model_Space
 70
     0
 10
0.0
 20
0.0
 30
0.0
  3
*Model_Space
  1

  0
ENDBLK
  5
21
330
1F
100
AcDbEntity
  8
0
100
AcDbBlockEnd
  0
BLOCK
  5
1C
330
1B
100
AcDbEntity
 67
     1
  8
0
100
AcDbBlockBegin
  2
*Paper_Space
 70
     0
 10
0.0
 20
0.0
 30
0.0
  3
*Paper_Space
  1

  0
ENDBLK
  5
1D
330
1B
100
AcDbEntity
 67
     1
  8
0
100
AcDbBlockEnd
  0
BLOCK
  5
24
330
23
100
AcDbEntity
  8
0
100
AcDbBlockBegin
  2
*Paper_Space0
 70
     0
 10
0.0
 20
0.0
 30
0.0
  3
*Paper_Space0
  1

  0
ENDBLK
  5
25
330
23
100
AcDbEntity
  8
0
100
AcDbBlockEnd
  0
ENDSEC
  0
SECTION
  2
ENTITIES
  0
ARC
  5
45
330
1F
100
AcDbEntity
  8
0
  6
Continuous
 62
     7
370
    15
100
AcDbCircle
 10
324.4852894506
 20
263.4139614105
 30
0.0
 40
5.0
100
AcDbArc
 50
90.0
 51
180.0
  0
ARC
  5
46
330
1F
100
AcDbEntity
  8
0
  6
Continuous
 62
     7
370
    15
100
AcDbCircle
 10
361.4852894506
 20
263.4139614105
 30
0.0
 40
5.0
100
AcDbArc
 50
0.0
 51
90.0
  0
LINE
  5
47
330
1F
100
AcDbEntity
  8
0
  6
Continuous
 62
     7
370
    15
100
AcDbLine
 10
366.4852875415
 20
253.4139671834
 30
0.0
 11
366.4852875415
 21
263.4139576467
 31
0.0
  0
LINE
  5
48
330
1F
100
AcDbEntity
  8
0
  6
Continuous
 62
     7
370
    15
100
AcDbLine
 10
319.4852891508
 20
263.4139576467
 30
0.0
 11
319.4852891508
 21
253.4139671834
 31
0.0
  0
LINE
  5
49
330
1F
100
AcDbEntity
  8
0
  6
Continuous
 62
     7
370
    15
100
AcDbLine
 10
322.9852887932
 20
253.4139671834
 30
0.0
 11
322.9852887932
 21
252.4139651568
 31
0.0
  0
LINE
  5
4A
330
1F
100
AcDbEntity
  8
0
  6
Continuous
 62
     7
370
    15
100
AcDbLine
 10
362.9852878991
 20
252.4139651568
 30
0.0
 11
362.9852878991
 21
253.4139671834
 31
0.0
  0
LINE
  5
4B
330
1F
100
AcDbEntity
  8
0
  6
Continuous
 62
     7
370
    15
100
AcDbLine
 10
364.9852919522
 20
247.9139634879
 30
0.0
 11
364.9852919522
 21
252.4139651568
 31
0.0
  0
LINE
  5
4C
330
1F
100
AcDbEntity
  8
0
  6
Continuous
 62
     7
370
    15
100
AcDbLine
 10
320.9852847401
 20
252.4139651568
 30
0.0
 11
320.9852847401
 21
234.4139584811
 31
0.0
  0
LINE
  5
4D
330
1F
100
AcDbEntity
  8
0
  6
Continuous
 62
     7
370
    15
100
AcDbLine
 10
425.4852897618
 20
253.9139607461
 30
0.0
 11
425.4852897618
 21
257.9139688523
 31
0.0
  0
LINE
  5
4E
330
1F
100
AcDbEntity
  8
0
  6
Continuous
 62
     7
370
    15
100
AcDbLine
 10
396.4852887336
 20
257.9139688523
 30
0.0
 11
396.4852887336
 21
247.9139634879
 31
0.0
  0
LINE
  5
4F
330
1F
100
AcDbEntity
  8
0
  6
Continuous
 62
     7
370
    15
100
AcDbLine
 10
452.9852896128
 20
227.9139602097
 30
0.0
 11
457.985289501
 21
227.9139602097
 31
0.0
  0
LINE
  5
50
330
1F
100
AcDbEntity
  8
0
  6
Continuous
 62
     7
370
    15
100
AcDbLine
 10
457.985289501
 20
262.913964084
 30
0.0
 11
452.9852896128
 21
262.913964084
 31
0.0
  0
LINE
  5
51
330
1F
100
AcDbEntity
  8
0
  6
Continuous
 62
     7
370
    15
100
AcDbLine
 10
295.9852936808
 20
195.913962415
 30
0.0
 11
300.9852889124
 21
195.913962415
 31
0.0
  0
LINE
  5
52
330
1F
100
AcDbEntity
  8
0
  6
Continuous
 62
     7
370
    15
100
AcDbLine
 10
300.9852889124
 20
230.9139588387
 30
0.0
 11
295.9852936808
 21
230.9139588387
 31
0.0
  0
LINE
  5
53
330
1F
100
AcDbEntity
  8
0
  6
Continuous
 62
     7
370
    15
100
AcDbLine
 10
380.9852871243
 20
83.1874640198
 30
0.0
 11
375.9852918926
 21
80.3007142158
 31
0.0
  0
LINE
  5
54
330
1F
100
AcDbEntity
  8
0
  6
Continuous
 62
     7
370
    15
100
AcDbLine
 10
380.9852871243
 20
71.6404573532
 30
0.0
 11
385.9852898065
 21
74.5272108825
 31
0.0
  0
LINE
  5
55
330
1F
100
AcDbEntity
  8
0
  6
Continuous
 62
     7
370
    15
100
AcDbLine
 10
375.9852918926
 20
74.5272108825
 30
0.0
 11
380.9852871243
 21
71.6404573532
 31
0.0
  0
LINE
  5
56
330
1F
100
AcDbEntity
  8
0
  6
Continuous
 62
     7
370
    15
100
AcDbLine
 10
385.9852898065
 20
80.3007142158
 30
0.0
 11
380.9852871243
 21
83.1874640198
 31
0.0
  0
LINE
  5
57
330
1F
100
AcDbEntity
  8
0
  6
Continuous
 62
     7
370
    15
100
AcDbLine
 10
385.9852898065
 20
74.5272108825
 30
0.0
 11
385.9852898065
 21
80.3007142158
 31
0.0
  0
LINE
  5
58
330
1F
100
AcDbEntity
  8
0
  6
Continuous
 62
     7
370
    15
100
AcDbLine
 10
375.9852918926
 20
80.3007142158
 30
0.0
 11
375.9852918926
 21
74.5272108825
 31
0.0
  0
LINE
  5
59
330
1F
100
AcDbEntity
  8
0
  6
Continuous
 62
     7
370
    15
100
AcDbLine
 10
419.7399254087
 20
112.8124641027
 30
0.0
 11
414.7399264518
 21
109.9257127853
 31
0.0
  0
LINE
  5
5A
330
1F
100
AcDbEntity
  8
0
  6
Continuous
 62
     7
370
    15
100
AcDbLine
 10
424.7399262283
 20
109.9257127853
 30
0.0
 11
419.7399254087
 21
112.8124641027
 31
0.0
  0
LINE
  5
5B
330
1F
100
AcDbEntity
  8
0
  6
Continuous
 62
     7
370
    15
100
AcDbLine
 10
424.7399262283
 20
104.1522103833
 30
0.0
 11
424.7399262283
 21
109.9257127853
 31
0.0
  0
LINE
  5
5C
330
1F
100
AcDbEntity
  8
0
  6
Continuous
 62
     7
370
    15
100
AcDbLine
 10
419.7399254087
 20
101.2654587166
 30
0.0
 11
424.7399262283
 21
104.1522103833
 31
0.0
  0
LINE
  5
5D
330
1F
100
AcDbEntity
  8
0
  6
Continuous
 62
     7
370
    15
100
AcDbLine
 10
414.7399264518
 20
104.1522103833
 30
0.0
 11
419.7399254087
 21
101.2654587166
 31
0.0
  0
LINE
  5
5E
330
1F
100
AcDbEntity
  8
0
  6
Continuous
 62
     7
370
    15
100
AcDbLine
 10
414.7399264518
 20
109.9257127853
 30
0.0
 11
414.7399264518
 21
104.1522103833
 31
0.0
  0
LINE
  5
5F
330
1F
100
AcDbEntity
  8
0
  6
Continuous
 62
     7
370
    15
100
AcDbLine
 10
337.2306498829
 20
109.9257127853
 30
0.0
 11
337.2306498829
 21
104.1522103833
 31
0.0
  0
LINE
  5
60
330
1F
100
AcDbEntity
  8
0
  6
Continuous
 62
     7
370
    15
100
AcDbLine
 10
342.2306525651
 20
112.8124641027
 30
0.0
 11
337.2306498829
 21
109.9257127853
 31
0.0
  0
LINE
  5
61
330
1F
100
AcDbEntity
  8
0
  6
Continuous
 62
     7
370
    15
100
AcDbLine
 10
347.2306552473
 20
109.9257127853
 30
0.0
 11
342.2306525651
 21
112.8124641027
 31
0.0
  0
LINE
  5
62
330
1F
100
AcDbEntity
  8
0
  6
Continuous
 62
     7
370
    15
100
AcDbLine
 10
347.2306552473
 20
104.1522103833
 30
0.0
 11
347.2306552473
 21
109.9257127853
 31
0.0
  0
LINE
  5
63
330
1F
100
AcDbEntity
  8
0
  6
Continuous
 62
     7
370
    15
100
AcDbLine
 10
342.2306525651
 20
101.2654587166
 30
0.0
 11
347.2306552473
 21
104.1522103833
 31
0.0
  0
LINE
  5
64
330
1F
100
AcDbEntity
  8
0
  6
Continuous
 62
     7
370
    15
100
AcDbLine
 10
337.2306498829
 20
104.1522103833
 30
0.0
 11
342.2306525651
 21
101.2654587166
 31
0.0
  0
LINE
  5
65
330
1F
100
AcDbEntity
  8
0
  6
Continuous
 62
     7
370
    15
100
AcDbLine
 10
383.4480616394
 20
168.9420746179
 30
0.0
 11
386.7389607373
 21
173.6858406575
 31
0.0
  0
LINE
  5
66
330
1F
100
AcDbEntity
  8
0
  6
Continuous
 62
     7
370
    15
100
AcDbLine
 10
377.6943880264
 20
169.4201970013
 30
0.0
 11
383.4480616394
 21
168.9420746179
 31
0.0
  0
LINE
  5
67
330
1F
100
AcDbEntity
  8
0
  6
Continuous
 62
     7
370
    15
100
AcDbLine
 10
375.2316209618
 20
174.6420816989
 30
0.0
 11
377.6943880264
 21
169.4201970013
 31
0.0
  0
LINE
  5
68
330
1F
100
AcDbEntity
  8
0
  6
Continuous
 62
     7
370
    15
100
AcDbLine
 10
386.7389607373
 20
173.6858406575
 30
0.0
 11
384.2761862222
 21
178.9077290805
 31
0.0
  0
LINE
  5
69
330
1F
100
AcDbEntity
  8
0
  6
Continuous
 62
     7
370
    15
100
AcDbLine
 10
384.2761862222
 20
178.9077290805
 30
0.0
 11
378.5225200597
 21
179.3858477385
 31
0.0
  0
LINE
  5
6A
330
1F
100
AcDbEntity
  8
0
  6
Continuous
 62
     7
370
    15
100
AcDbLine
 10
378.5225200597
 20
179.3858477385
 30
0.0
 11
375.2316209618
 21
174.6420816989
 31
0.0
  0
LINE
  5
6B
330
1F
100
AcDbEntity
  8
0
  6
Continuous
 62
     7
370
    15
100
AcDbLine
 10
330.9519711081
 20
158.3007120998
 30
0.0
 11
330.9519711081
 21
152.5272087665
 31
0.0
  0
LINE
  5
6C
330
1F
100
AcDbEntity
  8
0
  6
Continuous
 62
     7
370
    15
100
AcDbLine
 10
335.9519663397
 20
149.6404589625
 30
0.0
 11
340.9519690219
 21
152.5272087665
 31
0.0
  0
LINE
  5
6D
330
1F
100
AcDbEntity
  8
0
  6
Continuous
 62
     7
370
    15
100
AcDbLine
 10
330.9519711081
 20
152.5272087665
 30
0.0
 11
335.9519663397
 21
149.6404589625
 31
0.0
  0
LINE
  5
6E
330
1F
100
AcDbEntity
  8
0
  6
Continuous
 62
     7
370
    15
100
AcDbLine
 10
340.9519690219
 20
152.5272087665
 30
0.0
 11
340.9519690219
 21
158.3007120998
 31
0.0
  0
LINE
  5
6F
330
1F
100
AcDbEntity
  8
0
  6
Continuous
 62
     7
370
    15
100
AcDbLine
 10
340.9519690219
 20
158.3007120998
 30
0.0
 11
335.9519663397
 21
161.1874656291
 31
0.0
  0
LINE
  5
70
330
1F
100
AcDbEntity
  8
0
  6
Continuous
 62
     7
370
    15
100
AcDbLine
 10
335.9519663397
 20
161.1874656291
 30
0.0
 11
330.9519711081
 21
158.3007120998
 31
0.0
  0
LINE
  5
71
330
1F
100
AcDbEntity
  8
0
  6
Continuous
 62
     7
370
    15
100
AcDbLine
 10
430.9408209417
 20
152.3964808793
 30
0.0
 11
431.0929301325
 21
158.1679800065
 31
0.0
  0
LINE
  5
72
330
1F
100
AcDbEntity
  8
0
  6
Continuous
 62
     7
370
    15
100
AcDbLine
 10
425.8665005807
 20
149.6424631687
 30
0.0
 11
430.9408209417
 21
152.3964808793
 31
0.0
  0
LINE
  5
73
330
1F
100
AcDbEntity
  8
0
  6
Continuous
 62
     7
370
    15
100
AcDbLine
 10
426.1707189623
 20
161.185461423
 30
0.0
 11
421.0964004639
 21
158.431439987
 31
0.0
  0
LINE
  5
74
330
1F
100
AcDbEntity
  8
0
  6
Continuous
 62
     7
370
    15
100
AcDbLine
 10
431.0929301325
 20
158.1679800065
 30
0.0
 11
426.1707189623
 21
161.185461423
 31
0.0
  0
LINE
  5
75
330
1F
100
AcDbEntity
  8
0
  6
Continuous
 62
     7
370
    15
100
AcDbLine
 10
421.0964004639
 20
158.431439987
 30
0.0
 11
420.9442912731
 21
152.6599408598
 31
0.0
  0
LINE
  5
76
330
1F
100
AcDbEntity
  8
0
  6
Continuous
 62
     7
370
    15
100
AcDbLine
 10
420.9442912731
 20
152.6599408598
 30
0.0
 11
425.8665005807
 21
149.6424631687
 31
0.0
  0
LINE
  5
77
330
1F
100
AcDbEntity
  8
0
  6
Continuous
 62
     7
370
    15
100
AcDbLine
 10
383.9852857534
 20
211.4139640243
 30
0.0
 11
383.9852857534
 21
204.4139647396
 31
0.0
  0
LINE
  5
78
330
1F
100
AcDbEntity
  8
0
  6
Continuous
 62
     7
370
    15
100
AcDbLine
 10
390.4852877501
 20
211.4139640243
 30
0.0
 11
390.4852877501
 21
204.4139647396
 31
0.0
  0
LINE
  5
79
330
1F
100
AcDbEntity
  8
0
  6
Continuous
 62
     7
370
    15
100
AcDbLine
 10
383.9852857534
 20
211.4139640243
 30
0.0
 11
390.4852877501
 21
211.4139640243
 31
0.0
  0
LINE
  5
7A
330
1F
100
AcDbEntity
  8
0
  6
Continuous
 62
     7
370
    15
100
AcDbLine
 10
377.4852874819
 20
211.4139640243
 30
0.0
 11
377.4852874819
 21
204.4139647396
 31
0.0
  0
LINE
  5
7B
330
1F
100
AcDbEntity
  8
0
  6
Continuous
 62
     7
370
    15
100
AcDbLine
 10
377.4852874819
 20
211.4139640243
 30
0.0
 11
383.9852857534
 21
211.4139640243
 31
0.0
  0
LINE
  5
7C
330
1F
100
AcDbEntity
  8
0
  6
Continuous
 62
     7
370
    15
100
AcDbLine
 10
360.8794483486
 20
268.4139677794
 30
0.0
 11
361.4852923099
 21
268.4139677794
 31
0.0
  0
LINE
  5
7D
330
1F
100
AcDbEntity
  8
0
  6
Continuous
 62
     7
370
    15
100
AcDbLine
 10
324.485291833
 20
268.4139677794
 30
0.0
 11
360.8794483486
 21
268.4139677794
 31
0.0
  0
LINE
  5
7E
330
1F
100
AcDbEntity
  8
0
  6
Continuous
 62
     7
370
    15
100
AcDbLine
 10
365.7157096211
 20
253.4139671834
 30
0.0
 11
366.4852875415
 21
253.4139671834
 31
0.0
  0
LINE
  5
7F
330
1F
100
AcDbEntity
  8
0
  6
Continuous
 62
     7
370
    15
100
AcDbLine
 10
319.4852891508
 20
253.4139671834
 30
0.0
 11
365.7157096211
 21
253.4139671834
 31
0.0
  0
LINE
  5
80
330
1F
100
AcDbEntity
  8
0
  6
Continuous
 62
     7
370
    15
100
AcDbLine
 10
440.9852895085
 20
225.4139625938
 30
0.0
 11
442.9852893706
 21
225.4139625938
 31
0.0
  0
LINE
  5
81
330
1F
100
AcDbEntity
  8
0
  6
Continuous
 62
     7
370
    15
100
AcDbLine
 10
440.9852895085
 20
265.4139616998
 30
0.0
 11
442.9852893706
 21
265.4139616998
 31
0.0
  0
LINE
  5
82
330
1F
100
AcDbEntity
  8
0
  6
Continuous
 62
     7
370
    15
100
AcDbLine
 10
312.9852834288
 20
193.4139647992
 30
0.0
 11
310.9852942768
 21
193.4139647992
 31
0.0
  0
LINE
  5
83
330
1F
100
AcDbEntity
  8
0
  6
Continuous
 62
     7
370
    15
100
AcDbLine
 10
312.9852834288
 20
233.4139639051
 30
0.0
 11
310.9852942768
 21
233.4139639051
 31
0.0
  0
LINE
  5
84
330
1F
100
AcDbEntity
  8
0
  6
Continuous
 62
     7
370
    15
100
AcDbLine
 10
312.9852834288
 20
220.1786631258
 30
0.0
 11
312.9852834288
 21
206.649258128
 31
0.0
  0
LINE
  5
85
330
1F
100
AcDbEntity
  8
0
  6
Continuous
 62
     7
370
    15
100
AcDbLine
 10
320.9852847401
 20
220.1786631258
 30
0.0
 11
320.9852847401
 21
206.649258128
 31
0.0
  0
LINE
  5
86
330
1F
100
AcDbEntity
  8
0
  6
Continuous
 62
     7
370
    15
100
AcDbLine
 10
320.9852847401
 20
192.4139627727
 30
0.0
 11
312.9852834288
 21
192.4139627727
 31
0.0
  0
LINE
  5
87
330
1F
100
AcDbEntity
  8
0
  6
Continuous
 62
     7
370
    15
100
AcDbLine
 10
312.9852834288
 20
206.649258128
 30
0.0
 11
312.9852834288
 21
192.4139627727
 31
0.0
  0
LINE
  5
88
330
1F
100
AcDbEntity
  8
0
  6
Continuous
 62
     7
370
    15
100
AcDbLine
 10
320.9852847401
 20
206.649258128
 30
0.0
 11
320.9852847401
 21
192.4139627727
 31
0.0
  0
LINE
  5
89
330
1F
100
AcDbEntity
  8
0
  6
Continuous
 62
     7
370
    15
100
AcDbLine
 10
320.9852847401
 20
234.4139584811
 30
0.0
 11
312.9852834288
 21
234.4139584811
 31
0.0
  0
LINE
  5
8A
330
1F
100
AcDbEntity
  8
0
  6
Continuous
 62
     7
370
    15
100
AcDbLine
 10
312.9852834288
 20
220.1786631258
 30
0.0
 11
312.9852834288
 21
234.4139584811
 31
0.0
  0
LINE
  5
8B
330
1F
100
AcDbEntity
  8
0
  6
Continuous
 62
     7
370
    15
100
AcDbLine
 10
320.9852847401
 20
220.1786631258
 30
0.0
 11
320.9852847401
 21
234.4139584811
 31
0.0
  0
LINE
  5
8C
330
1F
100
AcDbEntity
  8
0
  6
Continuous
 62
     7
370
    15
100
AcDbLine
 10
432.9852891285
 20
252.1786609204
 30
0.0
 11
432.9852891285
 21
238.6492559226
 31
0.0
  0
LINE
  5
8D
330
1F
100
AcDbEntity
  8
0
  6
Continuous
 62
     7
370
    15
100
AcDbLine
 10
440.9852895085
 20
252.1786609204
 30
0.0
 11
440.9852895085
 21
238.6492559226
 31
0.0
  0
LINE
  5
8E
330
1F
100
AcDbEntity
  8
0
  6
Continuous
 62
     7
370
    15
100
AcDbLine
 10
432.9852891285
 20
266.4139637263
 30
0.0
 11
440.9852895085
 21
266.4139637263
 31
0.0
  0
LINE
  5
8F
330
1F
100
AcDbEntity
  8
0
  6
Continuous
 62
     7
370
    15
100
AcDbLine
 10
440.9852895085
 20
252.1786609204
 30
0.0
 11
440.9852895085
 21
266.4139637263
 31
0.0
  0
LINE
  5
90
330
1F
100
AcDbEntity
  8
0
  6
Continuous
 62
     7
370
    15
100
AcDbLine
 10
432.9852891285
 20
252.1786609204
 30
0.0
 11
432.9852891285
 21
266.4139637263
 31
0.0
  0
LINE
  5
91
330
1F
100
AcDbEntity
  8
0
  6
Continuous
 62
     7
370
    15
100
AcDbLine
 10
432.9852891285
 20
224.4139605673
 30
0.0
 11
440.9852895085
 21
224.4139605673
 31
0.0
  0
LINE
  5
92
330
1F
100
AcDbEntity
  8
0
  6
Continuous
 62
     7
370
    15
100
AcDbLine
 10
440.9852895085
 20
238.6492559226
 30
0.0
 11
440.9852895085
 21
224.4139605673
 31
0.0
  0
LINE
  5
93
330
1F
100
AcDbEntity
  8
0
  6
Continuous
 62
     7
370
    15
100
AcDbLine
 10
432.9852891285
 20
238.6492559226
 30
0.0
 11
432.9852891285
 21
235.358245066
 31
0.0
  0
LINE
  5
94
330
1F
100
AcDbEntity
  8
0
  6
Continuous
 62
     7
370
    15
100
AcDbLine
 10
387.9668834749
 20
204.4139647396
 30
0.0
 11
379.5637685004
 21
204.4139647396
 31
0.0
  0
LINE
  5
95
330
1F
100
AcDbEntity
  8
0
  6
Continuous
 62
     7
370
    15
100
AcDbLine
 10
387.9668834749
 20
194.4139593752
 30
0.0
 11
380.0199079457
 21
194.4139593752
 31
0.0
  0
LINE
  5
96
330
1F
100
AcDbEntity
  8
0
  6
Continuous
 62
     7
370
    15
100
AcDbLine
 10
394.9852894191
 20
247.9139634879
 30
0.0
 11
394.9852894191
 21
194.4139593752
 31
0.0
  0
LINE
  5
97
330
1F
100
AcDbEntity
  8
0
  6
Continuous
 62
     7
370
    15
100
AcDbLine
 10
432.9852891285
 20
247.9139634879
 30
0.0
 11
394.9852894191
 21
247.9139634879
 31
0.0
  0
LINE
  5
98
330
1F
100
AcDbEntity
  8
0
  6
Continuous
 62
     7
370
    15
100
AcDbLine
 10
432.9852891285
 20
235.358245066
 30
0.0
 11
432.9852891285
 21
194.4139593752
 31
0.0
  0
LINE
  5
99
330
1F
100
AcDbEntity
  8
0
  6
Continuous
 62
     7
370
    15
100
AcDbLine
 10
432.9852891285
 20
194.4139593752
 30
0.0
 11
394.9852894191
 21
194.4139593752
 31
0.0
  0
LINE
  5
9A
330
1F
100
AcDbEntity
  8
0
  6
Continuous
 62
     7
370
    15
100
AcDbLine
 10
394.9852894191
 20
204.4139647396
 30
0.0
 11
387.9668834749
 21
204.4139647396
 31
0.0
  0
LINE
  5
9B
330
1F
100
AcDbEntity
  8
0
  6
Continuous
 62
     7
370
    15
100
AcDbLine
 10
394.9852894191
 20
194.4139593752
 30
0.0
 11
387.9668834749
 21
194.4139593752
 31
0.0
  0
LINE
  5
9C
330
1F
100
AcDbEntity
  8
0
  6
Continuous
 62
     7
370
    15
100
AcDbLine
 10
359.5962125007
 20
194.4139593752
 30
0.0
 11
359.5962125007
 21
204.4139647396
 31
0.0
  0
LINE
  5
9D
330
1F
100
AcDbEntity
  8
0
  6
Continuous
 62
     7
370
    15
100
AcDbLine
 10
379.5637685004
 20
204.4139647396
 30
0.0
 11
359.5962125007
 21
204.4139647396
 31
0.0
  0
LINE
  5
9E
330
1F
100
AcDbEntity
  8
0
  6
Continuous
 62
     7
370
    15
100
AcDbLine
 10
364.9852919522
 20
252.4139651568
 30
0.0
 11
320.9852847401
 21
252.4139651568
 31
0.0
  0
LINE
  5
9F
330
1F
100
AcDbEntity
  8
0
  6
Continuous
 62
     7
370
    15
100
AcDbLine
 10
361.4341515247
 20
247.9139634879
 30
0.0
 11
361.4341515247
 21
204.4139647396
 31
0.0
  0
LINE
  5
A0
330
1F
100
AcDbEntity
  8
0
  6
Continuous
 62
     7
370
    15
100
AcDbLine
 10
358.4562140647
 20
194.4139593752
 30
0.0
 11
320.9852847401
 21
194.4139593752
 31
0.0
  0
LINE
  5
A1
330
1F
100
AcDbEntity
  8
0
  6
Continuous
 62
     7
370
    15
100
AcDbLine
 10
394.9852894191
 20
247.9139634879
 30
0.0
 11
383.9852857534
 21
247.9139634879
 31
0.0
  0
LINE
  5
A2
330
1F
100
AcDbEntity
  8
0
  6
Continuous
 62
     7
370
    15
100
AcDbLine
 10
421.4852891061
 20
250.713966182
 30
0.0
 11
421.4852891061
 21
247.9139634879
 31
0.0
  0
LINE
  5
A3
330
1F
100
AcDbEntity
  8
0
  6
Continuous
 62
     7
370
    15
100
AcDbLine
 10
410.9852883164
 20
257.9139688523
 30
0.0
 11
425.4852897618
 21
257.9139688523
 31
0.0
  0
LINE
  5
A4
330
1F
100
AcDbEntity
  8
0
  6
Continuous
 62
     7
370
    15
100
AcDbLine
 10
396.4852887336
 20
257.9139688523
 30
0.0
 11
410.9852883164
 21
257.9139688523
 31
0.0
  0
LINE
  5
A5
330
1F
100
AcDbEntity
  8
0
  6
Continuous
 62
     7
370
    15
100
AcDbLine
 10
372.4852922503
 20
204.4139647396
 30
0.0
 11
372.4852922503
 21
247.9139634879
 31
0.0
  0
LINE
  5
A6
330
1F
100
AcDbEntity
  8
0
  6
Continuous
 62
     7
370
    15
100
AcDbLine
 10
372.4852922503
 20
247.9139634879
 30
0.0
 11
361.4341515247
 21
247.9139634879
 31
0.0
  0
LINE
  5
A7
330
1F
100
AcDbEntity
  8
0
  6
Continuous
 62
     7
370
    15
100
AcDbLine
 10
432.9852891285
 20
259.9139580043
 30
0.0
 11
421.4852891061
 21
250.713966182
 31
0.0
  0
LINE
  5
A8
330
1F
100
AcDbEntity
  8
0
  6
Continuous
 62
     7
370
    15
100
AcDbLine
 10
383.9852857534
 20
247.9139634879
 30
0.0
 11
372.4852922503
 21
247.9139634879
 31
0.0
  0
LINE
  5
A9
330
1F
100
AcDbEntity
  8
0
  6
Continuous
 62
     7
370
    15
100
AcDbLine
 10
442.9852893706
 20
252.1786609204
 30
0.0
 11
442.9852893706
 21
238.6492559226
 31
0.0
  0
LINE
  5
AA
330
1F
100
AcDbEntity
  8
0
  6
Continuous
 62
     7
370
    15
100
AcDbLine
 10
452.9852896128
 20
252.1786609204
 30
0.0
 11
452.9852896128
 21
238.6492559226
 31
0.0
  0
LINE
  5
AB
330
1F
100
AcDbEntity
  8
0
  6
Continuous
 62
     7
370
    15
100
AcDbLine
 10
452.9852896128
 20
224.4139605673
 30
0.0
 11
442.9852893706
 21
224.4139605673
 31
0.0
  0
LINE
  5
AC
330
1F
100
AcDbEntity
  8
0
  6
Continuous
 62
     7
370
    15
100
AcDbLine
 10
442.9852893706
 20
238.6492559226
 30
0.0
 11
442.9852893706
 21
224.4139605673
 31
0.0
  0
LINE
  5
AD
330
1F
100
AcDbEntity
  8
0
  6
Continuous
 62
     7
370
    15
100
AcDbLine
 10
452.9852896128
 20
238.6492559226
 30
0.0
 11
452.9852896128
 21
224.4139605673
 31
0.0
  0
LINE
  5
AE
330
1F
100
AcDbEntity
  8
0
  6
Continuous
 62
     7
370
    15
100
AcDbLine
 10
452.9852896128
 20
266.4139637263
 30
0.0
 11
442.9852893706
 21
266.4139637263
 31
0.0
  0
LINE
  5
AF
330
1F
100
AcDbEntity
  8
0
  6
Continuous
 62
     7
370
    15
100
AcDbLine
 10
442.9852893706
 20
252.1786609204
 30
0.0
 11
442.9852893706
 21
266.4139637263
 31
0.0
  0
LINE
  5
B0
330
1F
100
AcDbEntity
  8
0
  6
Continuous
 62
     7
370
    15
100
AcDbLine
 10
452.9852896128
 20
252.1786609204
 30
0.0
 11
452.9852896128
 21
266.4139637263
 31
0.0
  0
LINE
  5
B1
330
1F
100
AcDbEntity
  8
0
  6
Continuous
 62
     7
370
    15
100
AcDbLine
 10
457.985289501
 20
236.4000821026
 30
0.0
 11
452.9852896128
 21
236.4000821026
 31
0.0
  0
LINE
  5
B2
330
1F
100
AcDbEntity
  8
0
  6
Continuous
 62
     7
370
    15
100
AcDbLine
 10
457.985289501
 20
236.4000821026
 30
0.0
 11
457.985289501
 21
227.9139602097
 31
0.0
  0
LINE
  5
B3
330
1F
100
AcDbEntity
  8
0
  6
Continuous
 62
     7
370
    15
100
AcDbLine
 10
457.985289501
 20
254.427842191
 30
0.0
 11
452.9852896128
 21
254.427842191
 31
0.0
  0
LINE
  5
B4
330
1F
100
AcDbEntity
  8
0
  6
Continuous
 62
     7
370
    15
100
AcDbLine
 10
457.985289501
 20
254.427842191
 30
0.0
 11
457.985289501
 21
236.4000821026
 31
0.0
  0
LINE
  5
B5
330
1F
100
AcDbEntity
  8
0
  6
Continuous
 62
     7
370
    15
100
AcDbLine
 10
457.985289501
 20
262.913964084
 30
0.0
 11
457.985289501
 21
254.427842191
 31
0.0
  0
LINE
  5
B6
330
1F
100
AcDbEntity
  8
0
  6
Continuous
 62
     7
370
    15
100
AcDbLine
 10
300.9852889124
 20
220.1786631258
 30
0.0
 11
300.9852889124
 21
206.649258128
 31
0.0
  0
LINE
  5
B7
330
1F
100
AcDbEntity
  8
0
  6
Continuous
 62
     7
370
    15
100
AcDbLine
 10
310.9852942768
 20
220.1786631258
 30
0.0
 11
310.9852942768
 21
206.649258128
 31
0.0
  0
LINE
  5
B8
330
1F
100
AcDbEntity
  8
0
  6
Continuous
 62
     7
370
    15
100
AcDbLine
 10
300.9852889124
 20
192.4139627727
 30
0.0
 11
310.9852942768
 21
192.4139627727
 31
0.0
  0
LINE
  5
B9
330
1F
100
AcDbEntity
  8
0
  6
Continuous
 62
     7
370
    15
100
AcDbLine
 10
300.9852889124
 20
206.649258128
 30
0.0
 11
300.9852889124
 21
192.4139627727
 31
0.0
  0
LINE
  5
BA
330
1F
100
AcDbEntity
  8
0
  6
Continuous
 62
     7
370
    15
100
AcDbLine
 10
310.9852942768
 20
206.649258128
 30
0.0
 11
310.9852942768
 21
192.4139627727
 31
0.0
  0
LINE
  5
BB
330
1F
100
AcDbEntity
  8
0
  6
Continuous
 62
     7
370
    15
100
AcDbLine
 10
300.9852889124
 20
234.4139584811
 30
0.0
 11
310.9852942768
 21
234.4139584811
 31
0.0
  0
LINE
  5
BC
330
1F
100
AcDbEntity
  8
0
  6
Continuous
 62
     7
370
    15
100
AcDbLine
 10
300.9852889124
 20
220.1786631258
 30
0.0
 11
300.9852889124
 21
234.4139584811
 31
0.0
  0
LINE
  5
BD
330
1F
100
AcDbEntity
  8
0
  6
Continuous
 62
     7
370
    15
100
AcDbLine
 10
310.9852942768
 20
220.1786631258
 30
0.0
 11
310.9852942768
 21
234.4139584811
 31
0.0
  0
LINE
  5
BE
330
1F
100
AcDbEntity
  8
0
  6
Continuous
 62
     7
370
    15
100
AcDbLine
 10
295.9852936808
 20
195.913962415
 30
0.0
 11
295.9852936808
 21
204.400084308
 31
0.0
  0
LINE
  5
BF
330
1F
100
AcDbEntity
  8
0
  6
Continuous
 62
     7
370
    15
100
AcDbLine
 10
295.9852936808
 20
204.400084308
 30
0.0
 11
300.9852889124
 21
204.400084308
 31
0.0
  0
LINE
  5
C0
330
1F
100
AcDbEntity
  8
0
  6
Continuous
 62
     7
370
    15
100
AcDbLine
 10
295.9852936808
 20
222.4278369458
 30
0.0
 11
300.9852889124
 21
222.4278369458
 31
0.0
  0
LINE
  5
C1
330
1F
100
AcDbEntity
  8
0
  6
Continuous
 62
     7
370
    15
100
AcDbLine
 10
295.9852936808
 20
204.400084308
 30
0.0
 11
295.9852936808
 21
222.4278369458
 31
0.0
  0
LINE
  5
C2
330
1F
100
AcDbEntity
  8
0
  6
Continuous
 62
     7
370
    15
100
AcDbLine
 10
295.9852936808
 20
222.4278369458
 30
0.0
 11
295.9852936808
 21
230.9139588387
 31
0.0
  0
ARC
  5
C3
330
1F
100
AcDbEntity
  8
0
  6
Continuous
 62
     7
370
    15
100
AcDbCircle
 10
347.3491296061
 20
176.2626720271
 30
0.0
 40
1.200000000000019
100
AcDbArc
 50
340.0
 51
62.6830238831
  0
LINE
  5
C4
330
1F
100
AcDbEntity
  8
0
  6
Continuous
 62
     7
370
    15
100
AcDbLine
 10
346.7760208193
 20
171.1794988723
 30
0.0
 11
348.4767574016
 21
175.8522459777
 31
0.0
  0
LINE
  5
C5
330
1F
100
AcDbEntity
  8
0
  6
Continuous
 62
     7
370
    15
100
AcDbLine
 10
346.9966697637
 20
175.2943017991
 30
0.0
 11
345.6483903471
 21
171.5899215551
 31
0.0
  0
ARC
  5
C6
330
1F
100
AcDbEntity
  8
0
  6
Continuous
 62
     7
370
    15
100
AcDbCircle
 10
345.8690414754
 20
175.7047285893
 30
0.0
 40
1.200000000000012
100
AcDbArc
 50
340.0
 51
59.9732964634
  0
ARC
  5
C7
330
1F
100
AcDbEntity
  8
0
  6
Continuous
 62
     7
370
    15
100
AcDbCircle
 10
357.0780814321
 20
195.0984756035
 30
0.0
 40
21.20000000000002
100
AcDbArc
 50
181.8503109517
 51
239.9732964634
  0
LINE
  5
C8
330
1F
100
AcDbEntity
  8
0
  6
Continuous
 62
     7
370
    15
100
AcDbLine
 10
333.5457342807
 20
194.4139593752
 30
0.0
 11
334.1564956251
 21
192.289426318
 31
0.0
  0
LINE
  5
C9
330
1F
100
AcDbEntity
  8
0
  6
Continuous
 62
     7
370
    15
100
AcDbLine
 10
334.1564956251
 20
192.289426318
 30
0.0
 11
345.7798930947
 21
160.3543901356
 31
0.0
  0
ARC
  5
CA
330
1F
100
AcDbEntity
  8
0
  6
Continuous
 62
     7
370
    15
100
AcDbCircle
 10
342.3970008974
 20
159.1231180215
 30
0.0
 40
3.600000000000029
100
AcDbArc
 50
2.3960635361
 51
20.0
  0
ARC
  5
CB
330
1F
100
AcDbEntity
  8
0
  6
Continuous
 62
     7
370
    15
100
AcDbCircle
 10
342.3970008974
 20
159.1231180215
 30
0.0
 40
3.000000000000009
100
AcDbArc
 50
347.4689951669
 51
20.0
  0
LINE
  5
CC
330
1F
100
AcDbEntity
  8
0
  6
Continuous
 62
     7
370
    15
100
AcDbLine
 10
333.592680389
 20
192.0842149766
 30
0.0
 11
345.2160778586
 21
160.1491787942
 31
0.0
  0
LWPOLYLINE
  5
CD
330
1F
100
AcDbEntity
  8
0
  6
Continuous
 62
     7
370
    15
100
AcDbPolyline
 90
        3
 70
   128
 43
0.0
 10
332.9326558057
 20
194.4139593752
 10
332.943451697
 20
194.3619543226
 10
333.592680389
 20
192.0842149766
  0
ARC
  5
CE
330
1F
100
AcDbEntity
  8
0
  6
Continuous
 62
     7
370
    15
100
AcDbCircle
 10
353.1986439175
 20
173.0369714714
 30
0.0
 40
1.200000000000026
100
AcDbArc
 50
100.2413737133
 51
160.0
  0
LINE
  5
CF
330
1F
100
AcDbEntity
  8
0
  6
Continuous
 62
     7
370
    15
100
AcDbLine
 10
350.7227274719
 20
169.7430120321
 30
0.0
 11
352.0710143391
 21
173.4473960014
 31
0.0
  0
LINE
  5
D0
330
1F
100
AcDbEntity
  8
0
  6
Continuous
 62
     7
370
    15
100
AcDbLine
 10
351.2958410326
 20
174.8261892708
 30
0.0
 11
349.5950969998
 21
170.1534384401
 31
0.0
  0
ARC
  5
D1
330
1F
100
AcDbEntity
  8
0
  6
Continuous
 62
     7
370
    15
100
AcDbCircle
 10
352.4234697584
 20
174.4157632531
 30
0.0
 40
1.200000000000006
100
AcDbArc
 50
77.3169761169
 51
160.0
  0
LWPOLYLINE
  5
D2
330
1F
100
AcDbEntity
  8
0
  6
Continuous
 62
     7
370
    15
100
AcDbPolyline
 90
        9
 70
   128
 43
0.0
 10
346.7760208193
 20
171.1794988723
 10
346.4423912708
 20
170.2628725679
 10
346.121591622
 20
169.3814726086
 10
345.8259376827
 20
168.569173059
 10
345.5667915884
 20
167.8571844013
 10
345.3541222159
 20
167.2728688927
 10
345.1960954014
 20
166.8386825831
 10
345.0987759176
 20
166.5713147731
 10
345.0659188572
 20
166.481036088
  0
LINE
  5
D3
330
1F
100
AcDbEntity
  8
0
  6
Continuous
 62
     7
370
    15
100
AcDbLine
 10
345.0659188572
 20
166.481036088
 30
0.0
 11
343.938288385
 21
166.8914587708
 31
0.0
  0
LWPOLYLINE
  5
D4
330
1F
100
AcDbEntity
  8
0
  6
Continuous
 62
     7
370
    15
100
AcDbPolyline
 90
        9
 70
   128
 43
0.0
 10
343.938288385
 20
166.8914587708
 10
343.9711454455
 20
166.9817374559
 10
344.0684574786
 20
167.2491089912
 10
344.2264917437
 20
167.6832915755
 10
344.4391611162
 20
168.2676070841
 10
344.6983072106
 20
168.9795957418
 10
344.9939611498
 20
169.7918990167
 10
345.3147607986
 20
170.673298976
 10
345.6483903471
 20
171.5899215551
  0
LINE
  5
D5
330
1F
100
AcDbEntity
  8
0
  6
Continuous
 62
     7
370
    15
100
AcDbLine
 10
349.0126255099
 20
165.0445492478
 30
0.0
 11
347.8849950377
 21
165.4549756558
 31
0.0
  0
LWPOLYLINE
  5
D6
330
1F
100
AcDbEntity
  8
0
  6
Continuous
 62
     7
370
    15
100
AcDbPolyline
 90
        9
 70
   128
 43
0.0
 10
347.8849950377
 20
165.4549756558
 10
347.9178520981
 20
165.5452543409
 10
348.0151715819
 20
165.8126221509
 10
348.1731983963
 20
166.2468084605
 10
348.3858752195
 20
166.8311239691
 10
348.6450138632
 20
167.5431126268
 10
348.9406678024
 20
168.3554121764
 10
349.2614749018
 20
169.2368121357
 10
349.5950969998
 20
170.1534384401
  0
LWPOLYLINE
  5
D7
330
1F
100
AcDbEntity
  8
0
  6
Continuous
 62
     7
370
    15
100
AcDbPolyline
 90
        9
 70
   128
 43
0.0
 10
350.7227274719
 20
169.7430120321
 10
350.389105374
 20
168.826389453
 10
350.0682982746
 20
167.9449894937
 10
349.7726443354
 20
167.1326862188
 10
349.5135056916
 20
166.4206975611
 10
349.3008288685
 20
165.8363820525
 10
349.142802054
 20
165.4021994682
 10
349.0454825703
 20
165.1348279329
 10
349.0126255099
 20
165.0445492478
  0
ARC
  5
D8
330
1F
100
AcDbEntity
  8
0
  6
Continuous
 62
     7
370
    15
100
AcDbCircle
 10
357.0780814321
 20
195.0984756035
 30
0.0
 40
19.99999999999999
100
AcDbArc
 50
181.9613717657
 51
258.1915976599
  0
ARC
  5
D9
330
1F
100
AcDbEntity
  8
0
  6
Continuous
 62
     7
370
    15
100
AcDbCircle
 10
389.9852894506
 20
167.6695492377
 30
0.0
 40
2.000000000000147
100
AcDbArc
 50
180.0
 51
256.7613459623
  0
ARC
  5
DA
330
1F
100
AcDbEntity
  8
0
  6
Continuous
 62
     7
370
    15
100
AcDbCircle
 10
343.3549785555
 20
118.080396131
 30
0.0
 40
1.999999999999988
100
AcDbArc
 50
300.0
 51
16.7613459623
  0
ARC
  5
DB
330
1F
100
AcDbEntity
  8
0
  6
Continuous
 62
     7
370
    15
100
AcDbCircle
 10
409.6156003456
 20
102.4919388629
 30
0.0
 40
2.000000000000032
100
AcDbArc
 50
60.0
 51
136.7613459623
  0
LINE
  5
DC
330
1F
100
AcDbEntity
  8
0
  6
Continuous
 62
     7
370
    15
100
AcDbLine
 10
351.8319326583
 20
104.4993599416
 30
0.0
 11
346.1636650506
 21
101.2267836841
 31
0.0
  0
ARC
  5
DD
330
1F
100
AcDbEntity
  8
0
  6
Continuous
 62
     7
370
    15
100
AcDbCircle
 10
342.6636653331
 20
107.2889614105
 30
0.0
 40
7.000000000000219
100
AcDbArc
 50
120.0
 51
300.0
  0
LINE
  5
DE
330
1F
100
AcDbEntity
  8
0
  6
Continuous
 62
     7
370
    15
100
AcDbLine
 10
339.1636657659
 20
113.3511392172
 30
0.0
 11
344.8319333736
 21
116.6237153584
 31
0.0
  0
ARC
  5
DF
330
1F
100
AcDbEntity
  8
0
  6
Continuous
 62
     7
370
    15
100
AcDbCircle
 10
380.9852894506
 20
129.4139614105
 30
0.0
 40
28.04999999999955
100
AcDbArc
 50
320.4115614333
 51
339.5884385666
  0
LINE
  5
E0
330
1F
100
AcDbEntity
  8
0
  6
Continuous
 62
     7
370
    15
100
AcDbLine
 10
417.1386464629
 20
116.6237153584
 30
0.0
 11
422.8069140706
 21
113.3511392172
 31
0.0
  0
ARC
  5
E1
330
1F
100
AcDbEntity
  8
0
  6
Continuous
 62
     7
370
    15
100
AcDbCircle
 10
380.9852894506
 20
129.4139614105
 30
0.0
 40
28.05000000000007
100
AcDbArc
 50
80.4115614333
 51
99.5884385666
  0
ARC
  5
E2
330
1F
100
AcDbEntity
  8
0
  6
Continuous
 62
     7
370
    15
100
AcDbCircle
 10
380.9852894506
 20
129.4139614105
 30
0.0
 40
28.0500000000004
100
AcDbArc
 50
200.4115614334
 51
219.5884385666
  0
ARC
  5
E3
330
1F
100
AcDbEntity
  8
0
  6
Continuous
 62
     7
370
    15
100
AcDbCircle
 10
419.306913568
 20
107.2889614105
 30
0.0
 40
7.000000000000004
100
AcDbArc
 50
240.0
 51
60.0
  0
LINE
  5
E4
330
1F
100
AcDbEntity
  8
0
  6
Continuous
 62
     7
370
    15
100
AcDbLine
 10
415.8069129232
 20
101.2267836841
 30
0.0
 11
410.1386453155
 21
104.4993599416
 31
0.0
  0
LINE
  5
E5
330
1F
100
AcDbEntity
  8
0
  6
Continuous
 62
     7
370
    15
100
AcDbLine
 10
373.9852878395
 20
167.1188095124
 30
0.0
 11
373.9852878395
 21
173.6639620276
 31
0.0
  0
ARC
  5
E6
330
1F
100
AcDbEntity
  8
0
  6
Continuous
 62
     7
370
    15
100
AcDbCircle
 10
380.9852894506
 20
173.6639614105
 30
0.0
 40
7.000000000000057
100
AcDbArc
 50
360.0
 51
180.0
  0
LINE
  5
E7
330
1F
100
AcDbEntity
  8
0
  6
Continuous
 62
     7
370
    15
100
AcDbLine
 10
387.9852901343
 20
173.6639620276
 30
0.0
 11
387.9852901343
 21
167.1188095124
 31
0.0
  0
ARC
  5
E8
330
1F
100
AcDbEntity
  8
0
  6
Continuous
 62
     7
370
    15
100
AcDbCircle
 10
371.9852894506
 20
167.6695492377
 30
0.0
 40
2.0
100
AcDbArc
 50
283.2386540377
 51
0.0
  0
ARC
  5
E9
330
1F
100
AcDbEntity
  8
0
  6
Continuous
 62
     7
370
    15
100
AcDbCircle
 10
418.6156003456
 20
118.080396131
 30
0.0
 40
2.000000000000805
100
AcDbArc
 50
163.2386540377
 51
240.0
  0
ARC
  5
EA
330
1F
100
AcDbEntity
  8
0
  6
Continuous
 62
     7
370
    15
100
AcDbCircle
 10
352.3549785555
 20
102.4919388629
 30
0.0
 40
2.000000000000016
100
AcDbArc
 50
43.2386540377
 51
120.0
  0
SPLINE
  5
EB
330
1F
100
AcDbEntity
  8
0
  6
Continuous
 62
     7
370
    15
100
AcDbSpline
210
0.0
220
0.0
230
1.0
 70
     8
 71
     3
 72
    11
 73
     7
 74
     0
 42
0.00000001
 43
0.00000001
 40
0.0
 40
0.0
 40
0.0
 40
0.0
 40
0.0500067520353237
 40
0.3968162242386964
 40
0.7127763578785551
 40
1.0
 40
1.0
 40
1.0
 40
1.0
 10
359.3687835279671
 20
111.5385800139736
 30
0.0
 10
359.3942309352451
 20
111.5078878462428
 30
0.0
 10
359.5961625477118
 20
111.2643377331688
 30
0.0
 10
360.0427461315651
 20
110.7440632795066
 30
0.0
 10
360.8313320512618
 20
109.8883835411007
 30
0.0
 10
361.4284117339607
 20
109.3091349745019
 30
0.0
 10
361.7127287331787
 20
109.0333087840807
 30
0.0
  0
SPLINE
  5
EC
330
1F
100
AcDbEntity
  8
0
  6
Continuous
 62
     7
370
    15
100
AcDbSpline
210
0.0
220
0.0
230
1.0
 70
     8
 71
     3
 72
    11
 73
     7
 74
     0
 42
0.00000001
 43
0.00000001
 40
0.0
 40
0.0
 40
0.0
 40
0.0
 40
0.0500059847584594
 40
0.3968154248571603
 40
0.7127749751947394
 40
1.0
 40
1.0
 40
1.0
 40
1.0
 10
376.3130056802002
 20
157.0720927329492
 30
0.0
 10
376.2737035747819
 20
157.0654010245871
 30
0.0
 10
375.9618272716819
 20
157.0122999185988
 30
0.0
 10
375.28795432057
 20
156.8856842545415
 30
0.0
 10
374.1526232428933
 20
156.6305918648558
 30
0.0
 10
373.3524382560889
 20
156.403125885945
 30
0.0
 10
372.9714053813187
 20
156.2948109121751
 30
0.0
  0
SPLINE
  5
ED
330
1F
100
AcDbEntity
  8
0
  6
Continuous
 62
     7
370
    15
100
AcDbSpline
210
0.0
220
0.0
230
1.0
 70
     8
 71
     3
 72
    11
 73
     7
 74
     0
 42
0.00000001
 43
0.00000001
 40
0.0
 40
0.0
 40
0.0
 40
0.0
 40
0.2872238522676195
 40
0.6031839546069311
 40
0.9499932484456068
 40
1.0
 40
1.0
 40
1.0
 40
1.0
 10
353.6988469902245
 20
122.9137623222303
 30
0.0
 10
353.7955590759279
 20
122.5296226301546
 30
0.0
 10
353.9986591243825
 20
121.7229107336379
 30
0.0
 10
354.3454228156333
 20
120.6121403722935
 30
0.0
 10
354.5726832329418
 20
119.9652448941456
 30
0.0
 10
354.6826447369559
 20
119.6685945411791
 30
0.0
 10
354.6965020838944
 20
119.6312106685471
 30
0.0
  0
SPLINE
  5
EE
330
1F
100
AcDbEntity
  8
0
  6
Continuous
 62
     7
370
    15
100
AcDbSpline
210
0.0
220
0.0
230
1.0
 70
     8
 71
     3
 72
    11
 73
     7
 74
     0
 42
0.00000001
 43
0.00000001
 40
0.0
 40
0.0
 40
0.0
 40
0.0
 40
0.2872236421214449
 40
0.6031837757613037
 40
0.9499932479646763
 40
0.9999999999999999
 40
0.9999999999999999
 40
0.9999999999999999
 40
0.9999999999999999
 10
400.2578492406574
 20
109.0333087840807
 30
0.0
 10
400.5421662398755
 20
109.3091349745019
 30
0.0
 10
401.1392459225744
 20
109.8883835411007
 30
0.0
 10
401.9278318422711
 20
110.7440632795066
 30
0.0
 10
402.3744154261244
 20
111.2643377331688
 30
0.0
 10
402.5763470385911
 20
111.5078878462428
 30
0.0
 10
402.6017944458691
 20
111.5385800139736
 30
0.0
  0
SPLINE
  5
EF
330
1F
100
AcDbEntity
  8
0
  6
Continuous
 62
     7
370
    15
100
AcDbSpline
210
0.0
220
0.0
230
1.0
 70
     8
 71
     3
 72
    11
 73
     7
 74
     0
 42
0.00000001
 43
0.00000001
 40
0.0
 40
0.0
 40
0.0
 40
0.0
 40
0.2872242619848928
 40
0.6031839190774477
 40
0.9499934763545448
 40
1.0
 40
1.0
 40
1.0
 40
1.0
 10
388.9991725925175
 20
156.2948109121751
 30
0.0
 10
388.6181411611784
 20
156.4031259550788
 30
0.0
 10
387.8179579508238
 20
156.6305924358775
 30
0.0
 10
386.6826252696885
 20
156.8856839846468
 30
0.0
 10
386.0087594260044
 20
157.0123004671517
 30
0.0
 10
385.6968756938203
 20
157.0654010317621
 30
0.0
 10
385.657572293636
 20
157.0720927329492
 30
0.0
  0
SPLINE
  5
F0
330
1F
100
AcDbEntity
  8
0
  6
Continuous
 62
     7
370
    15
100
AcDbSpline
210
0.0
220
0.0
230
1.0
 70
     8
 71
     3
 72
    11
 73
     7
 74
     0
 42
0.00000001
 43
0.00000001
 40
0.0
 40
0.0
 40
0.0
 40
0.0
 40
0.0500065679908192
 40
0.3968162768449805
 40
0.7127761473340392
 40
1.0
 40
1.0
 40
1.0
 40
1.0
 10
407.2740758899418
 20
119.6312106685471
 30
0.0
 10
407.2879318746116
 20
119.668594559953
 30
0.0
 10
407.3978830364204
 20
119.9652463238649
 30
0.0
 10
407.6251658869602
 20
120.6121385586534
 30
0.0
 10
407.9719166275373
 20
121.7229114416759
 30
0.0
 10
408.1750181559419
 20
122.5296227583366
 30
0.0
 10
408.2717309836117
 20
122.9137623222303
 30
0.0
  0
ARC
  5
F1
330
1F
100
AcDbEntity
  8
0
  6
Continuous
 62
     7
370
    15
100
AcDbCircle
 10
380.9852894506
 20
129.4139614105
 30
0.0
 40
37.30000000000001
100
AcDbArc
 50
343.2386540377
 51
76.7613459623
  0
ARC
  5
F2
330
1F
100
AcDbEntity
  8
0
  6
Continuous
 62
     7
370
    15
100
AcDbCircle
 10
380.9852894506
 20
129.4139614105
 30
0.0
 40
37.30000000000005
100
AcDbArc
 50
103.2386540377
 51
196.7613459623
  0
ARC
  5
F3
330
1F
100
AcDbEntity
  8
0
  6
Continuous
 62
     7
370
    15
100
AcDbCircle
 10
380.9852894506
 20
129.4139614105
 30
0.0
 40
37.30000000000006
100
AcDbArc
 50
223.2386540377
 51
316.7613459623
  0
ARC
  5
F4
330
1F
100
AcDbEntity
  8
0
  6
Continuous
 62
     7
370
    15
100
AcDbCircle
 10
380.9852894506
 20
107.9139614105
 30
0.0
 40
9.999999999999988
100
AcDbArc
 50
141.7546061683
 51
188.0604625054
  0
LINE
  5
F5
330
1F
100
AcDbEntity
  8
0
  6
Continuous
 62
     7
370
    15
100
AcDbLine
 10
373.1995868627
 20
114.1877933178
 30
0.0
 11
373.1316226665
 21
114.1042695153
 31
0.0
  0
LINE
  5
F6
330
1F
100
AcDbEntity
  8
0
  6
Continuous
 62
     7
370
    15
100
AcDbLine
 10
388.8389553074
 20
114.1042695153
 30
0.0
 11
388.7709948364
 21
114.1877933178
 31
0.0
  0
ARC
  5
F7
330
1F
100
AcDbEntity
  8
0
  6
Continuous
 62
     7
370
    15
100
AcDbCircle
 10
380.9852894506
 20
107.9139614105
 30
0.0
 40
10.00000000000041
100
AcDbArc
 50
351.9395374946
 51
38.2453938317
  0
ARC
  5
F8
330
1F
100
AcDbEntity
  8
0
  6
Continuous
 62
     7
370
    15
100
AcDbCircle
 10
392.8667372772
 20
106.2313451315
 30
0.0
 40
2.000000000000065
100
AcDbArc
 50
171.9395374946
 51
297.1358383702
  0
ARC
  5
F9
330
1F
100
AcDbEntity
  8
0
  6
Continuous
 62
     7
370
    15
100
AcDbCircle
 10
380.9852894506
 20
129.4139614105
 30
0.0
 40
28.05000000000007
100
AcDbArc
 50
297.1358383702
 51
313.3993070145
  0
ARC
  5
FA
330
1F
100
AcDbEntity
  8
0
  6
Continuous
 62
     7
370
    15
100
AcDbCircle
 10
380.9852894506
 20
129.4139614105
 30
0.0
 40
28.05000000000014
100
AcDbArc
 50
346.6006929855
 51
73.3993070145
  0
ARC
  5
FB
330
1F
100
AcDbEntity
  8
0
  6
Continuous
 62
     7
370
    15
100
AcDbCircle
 10
380.9852894506
 20
129.4139614105
 30
0.0
 40
28.05000000000005
100
AcDbArc
 50
106.6006929855
 51
193.3993070145
  0
ARC
  5
FC
330
1F
100
AcDbEntity
  8
0
  6
Continuous
 62
     7
370
    15
100
AcDbCircle
 10
380.9852894506
 20
129.4139614105
 30
0.0
 40
28.05000000000006
100
AcDbArc
 50
226.6006929855
 51
242.8641616298
  0
ARC
  5
FD
330
1F
100
AcDbEntity
  8
0
  6
Continuous
 62
     7
370
    15
100
AcDbCircle
 10
369.1038416239
 20
106.2313451315
 30
0.0
 40
1.999999999999986
100
AcDbArc
 50
242.8641616298
 51
8.0604625054
  0
LINE
  5
FE
330
1F
100
AcDbEntity
  8
0
  6
Continuous
 62
     7
370
    15
100
AcDbLine
 10
387.3014311436
 20
186.4139580639
 30
0.0
 11
381.0112523977
 21
186.4139580639
 31
0.0
  0
LINE
  5
FF
330
1F
100
AcDbEntity
  8
0
  6
Continuous
 62
     7
370
    15
100
AcDbLine
 10
358.4562140647
 20
194.4139593752
 30
0.0
 11
380.0199079457
 21
194.4139593752
 31
0.0
  0
LINE
  5
100
330
1F
100
AcDbEntity
  8
0
  6
Continuous
 62
     7
370
    15
100
AcDbLine
 10
381.0112523977
 20
186.4139580639
 30
0.0
 11
356.0199040118
 21
186.4139580639
 31
0.0
  0
LINE
  5
101
330
1F
100
AcDbEntity
  8
0
  6
Continuous
 62
     7
370
    15
100
AcDbLine
 10
409.1683599297
 20
186.4139580639
 30
0.0
 11
387.3014311436
 21
186.4139580639
 31
0.0
  0
LINE
  5
102
330
1F
100
AcDbEntity
  8
0
  6
Continuous
 62
     7
370
    15
100
AcDbLine
 10
356.0199040118
 20
186.4139580639
 30
0.0
 11
353.9956706706
 21
186.4139580639
 31
0.0
  0
LINE
  5
103
330
1F
100
AcDbEntity
  8
0
  6
Continuous
 62
     7
370
    15
100
AcDbLine
 10
349.9852913562
 20
187.8992834599
 30
0.0
 11
349.9852913562
 21
194.4139593752
 31
0.0
  0
LINE
  5
104
330
1F
100
AcDbEntity
  8
0
  6
Continuous
 62
     7
370
    15
100
AcDbLine
 10
409.5071005765
 20
186.4078932913
 30
0.0
 11
409.1683599297
 21
186.4139580639
 31
0.0
  0
LINE
  5
105
330
1F
100
AcDbEntity
  8
0
  6
Continuous
 62
     7
370
    15
100
AcDbLine
 10
417.9852894638
 20
187.5786551745
 30
0.0
 11
417.9852894638
 21
194.4139593752
 31
0.0
  0
LINE
  5
106
330
1F
100
AcDbEntity
  8
0
  6
Continuous
 62
     7
370
    15
100
AcDbLine
 10
417.9851311389
 20
187.5778281601
 30
0.0
 11
417.9852894638
 21
187.5786551745
 31
0.0
  0
LINE
  5
107
330
1F
100
AcDbEntity
  8
0
  6
Continuous
 62
     7
370
    15
100
AcDbLine
 10
383.9852857534
 20
181.4139628323
 30
0.0
 11
383.9852857534
 21
186.4139580639
 31
0.0
  0
LINE
  5
108
330
1F
100
AcDbEntity
  8
0
  6
Continuous
 62
     7
370
    15
100
AcDbLine
 10
376.9852864686
 20
186.4139580639
 30
0.0
 11
376.9852864686
 21
181.4139628323
 31
0.0
  0
ARC
  5
109
330
1F
100
AcDbEntity
  8
0
  6
Continuous
 62
     7
370
    15
100
AcDbCircle
 10
419.9847596417
 20
181.834538202
 30
0.0
 40
4.999470670060478
100
AcDbArc
 50
124.9164143203
 51
179.9992887803
  0
LINE
  5
10A
330
1F
100
AcDbEntity
  8
0
  6
Continuous
 62
     7
370
    15
100
AcDbLine
 10
352.9852899853
 20
154.0572152944
 30
0.0
 11
352.9852899853
 21
181.8313890608
 31
0.0
  0
LINE
  5
10B
330
1F
100
AcDbEntity
  8
0
  6
Continuous
 62
     7
370
    15
100
AcDbLine
 10
411.3367992583
 20
153.8656161638
 30
0.0
 11
411.3367992583
 21
151.0951922746
 31
0.0
  0
LINE
  5
10C
330
1F
100
AcDbEntity
  8
0
  6
Continuous
 62
     7
370
    15
100
AcDbLine
 10
414.985288972
 20
181.834600261
 30
0.0
 11
414.985288972
 21
155.9720741125
 31
0.0
  0
LINE
  5
10D
330
1F
100
AcDbEntity
  8
0
  6
Continuous
 62
     7
370
    15
100
AcDbLine
 10
376.9852864686
 20
179.4085273059
 30
0.0
 11
376.9852864686
 21
181.4139628323
 31
0.0
  0
LINE
  5
10E
330
1F
100
AcDbEntity
  8
0
  6
Continuous
 62
     7
370
    15
100
AcDbLine
 10
383.9852857534
 20
179.9885177525
 30
0.0
 11
383.9852857534
 21
181.4139628323
 31
0.0
  0
ARC
  5
10F
330
1F
100
AcDbEntity
  8
0
  6
Continuous
 62
     7
370
    15
100
AcDbCircle
 10
380.9852894506
 20
77.4139614105
 30
0.0
 40
6.0
100
AcDbArc
 50
180.0
 51
0.0
  0
LINE
  5
110
330
1F
100
AcDbEntity
  8
0
  6
Continuous
 62
     7
370
    15
100
AcDbLine
 10
386.9852881077
 20
77.4139606865
 30
0.0
 11
386.9852881077
 21
92.5996986689
 31
0.0
  0
LINE
  5
111
330
1F
100
AcDbEntity
  8
0
  6
Continuous
 62
     7
370
    15
100
AcDbLine
 10
374.9852898661
 20
92.5996986689
 30
0.0
 11
374.9852898661
 21
77.4139606865
 31
0.0
  0
ARC
  5
112
330
1F
100
AcDbEntity
  8
0
  6
Continuous
 62
     7
370
    15
100
AcDbCircle
 10
335.9519684538
 20
155.4139614105
 30
0.0
 40
6.000000000000028
100
AcDbArc
 50
60.0
 51
240.0
  0
LINE
  5
113
330
1F
100
AcDbEntity
  8
0
  6
Continuous
 62
     7
370
    15
100
AcDbLine
 10
332.9519677106
 20
150.2178081782
 30
0.0
 11
346.1032035891
 21
142.6249401184
 31
0.0
  0
LINE
  5
114
330
1F
100
AcDbEntity
  8
0
  6
Continuous
 62
     7
370
    15
100
AcDbLine
 10
352.1032008473
 20
153.0172446282
 30
0.0
 11
338.9519649688
 21
160.6101126881
 31
0.0
  0
LINE
  5
115
330
1F
100
AcDbEntity
  8
0
  6
Continuous
 62
     7
370
    15
100
AcDbLine
 10
423.0186111424
 20
160.6101126881
 30
0.0
 11
411.3367992583
 21
153.8656161638
 31
0.0
  0
LINE
  5
116
330
1F
100
AcDbEntity
  8
0
  6
Continuous
 62
     7
370
    15
100
AcDbLine
 10
415.86737811
 20
142.6249401184
 30
0.0
 11
429.0186102632
 21
150.2178081782
 31
0.0
  0
ARC
  5
117
330
1F
100
AcDbEntity
  8
0
  6
Continuous
 62
     7
370
    15
100
AcDbCircle
 10
426.0186104473
 20
155.4139614105
 30
0.0
 40
5.999999999999996
100
AcDbArc
 50
300.0
 51
120.0
  0
LINE
  5
118
330
1F
100
AcDbEntity
  8
0
  6
Continuous
 62
     7
370
    15
100
AcDbLine
 10
349.9852913562
 20
187.7826818736
 30
0.0
 11
349.9852913562
 21
187.8992834599
 31
0.0
  0
ARC
  5
119
330
1F
100
AcDbEntity
  8
0
  6
Continuous
 62
     7
370
    15
100
AcDbCircle
 10
347.9852894506
 20
181.8313857156
 30
0.0
 40
5.0
100
AcDbArc
 50
0.0
 51
55.150095421
  0
ARC
  5
11A
330
1F
100
AcDbEntity
  8
0
  6
Continuous
 62
     7
370
    15
100
AcDbCircle
 10
351.9852894506
 20
187.5759483621
 30
0.0
 40
2.000000000000031
100
AcDbArc
 50
180.0
 51
235.150095421
  0
LINE
  5
11B
330
1F
100
AcDbEntity
  8
0
  6
Continuous
 62
     7
370
    15
100
AcDbLine
 10
349.9852913562
 20
187.5759506138
 30
0.0
 11
349.9852913562
 21
187.592148176
 31
0.0
  0
ARC
  5
11C
330
1F
100
AcDbEntity
  8
0
  6
Continuous
 62
     7
370
    15
100
AcDbCircle
 10
419.9848847527
 20
181.8338219597
 30
0.0
 40
4.999595780945987
100
AcDbArc
 50
124.9014399641
 51
179.9993628762
  0
ARC
  5
11D
330
1F
100
AcDbEntity
  8
0
  6
Continuous
 62
     7
370
    15
100
AcDbCircle
 10
415.9854896771
 20
187.5777158155
 30
0.0
 40
1.999641465017594
100
AcDbArc
 50
304.7588791507
 51
0.0032190134
  0
ARC
  5
11E
330
1F
100
AcDbEntity
  8
0
  6
Continuous
 62
     7
370
    15
100
AcDbCircle
 10
380.9852894506
 20
129.4139614105
 30
0.0
 40
46.00000000000007
100
AcDbArc
 50
127.4952497646
 51
142.5052825461
  0
LINE
  5
11F
330
1F
100
AcDbEntity
  8
0
  6
Continuous
 62
     7
370
    15
100
AcDbLine
 10
414.985288972
 20
160.3978270204
 30
0.0
 11
417.482125679
 21
157.4136236222
 31
0.0
  0
ARC
  5
120
330
1F
100
AcDbEntity
  8
0
  6
Continuous
 62
     7
370
    15
100
AcDbCircle
 10
380.9852894506
 20
129.4139614105
 30
0.0
 40
45.99999999999996
100
AcDbArc
 50
338.6154901315
 51
22.5052825461
  0
ARC
  5
121
330
1F
100
AcDbEntity
  8
0
  6
Continuous
 62
     7
370
    15
100
AcDbCircle
 10
380.9852894506
 20
129.4139614105
 30
0.0
 40
45.99999999999999
100
AcDbArc
 50
277.4947174539
 51
321.3845098685
  0
ARC
  5
122
330
1F
100
AcDbEntity
  8
0
  6
Continuous
 62
     7
370
    15
100
AcDbCircle
 10
380.9852894506
 20
129.4139614105
 30
0.0
 40
46.00000000000001
100
AcDbArc
 50
218.6154901315
 51
262.5052825461
  0
ARC
  5
123
330
1F
100
AcDbEntity
  8
0
  6
Continuous
 62
     7
370
    15
100
AcDbCircle
 10
380.9852894506
 20
129.4139614105
 30
0.0
 40
46.00000000000002
100
AcDbArc
 50
157.4947174539
 51
201.3845098685
  0
ARC
  5
124
330
1F
100
AcDbEntity
  8
0
  6
Continuous
 62
     7
370
    15
100
AcDbCircle
 10
355.1457918342
 20
78.4798897119
 30
0.0
 40
11.60000000000003
100
AcDbArc
 50
77.9944445682
 51
149.8850703965
  0
ARC
  5
125
330
1F
100
AcDbEntity
  8
0
  6
Continuous
 62
     7
370
    15
100
AcDbCircle
 10
425.7133307785
 20
75.0139614105
 30
0.0
 40
3.000000000000014
100
AcDbArc
 50
210.1149296035
 51
270.0
  0
LINE
  5
126
330
1F
100
AcDbEntity
  8
0
  6
Continuous
 62
     7
370
    15
100
AcDbLine
 10
435.4852895383
 20
72.0139624091
 30
0.0
 11
425.7133315448
 21
72.0139624091
 31
0.0
  0
ARC
  5
127
330
1F
100
AcDbEntity
  8
0
  6
Continuous
 62
     7
370
    15
100
AcDbCircle
 10
425.7133307785
 20
75.0139614105
 30
0.0
 40
5.600000000000013
100
AcDbArc
 50
210.1149296035
 51
270.0
  0
ARC
  5
128
330
1F
100
AcDbEntity
  8
0
  6
Continuous
 62
     7
370
    15
100
AcDbCircle
 10
406.8247870669
 20
78.4798897119
 30
0.0
 40
9.000000000000002
100
AcDbArc
 50
30.1149296035
 51
110.0
  0
LINE
  5
129
330
1F
100
AcDbEntity
  8
0
  6
Continuous
 62
     7
370
    15
100
AcDbLine
 10
386.9852881077
 20
80.836504093
 30
0.0
 11
403.7466059569
 21
86.9371233048
 31
0.0
  0
LINE
  5
12A
330
1F
100
AcDbEntity
  8
0
  6
Continuous
 62
     7
370
    15
100
AcDbLine
 10
358.2239720169
 20
86.9371233048
 30
0.0
 11
374.9852898661
 21
80.836504093
 31
0.0
  0
ARC
  5
12B
330
1F
100
AcDbEntity
  8
0
  6
Continuous
 62
     7
370
    15
100
AcDbCircle
 10
355.1457918342
 20
78.4798897119
 30
0.0
 40
9.000000000000025
100
AcDbArc
 50
70.0
 51
149.8850703965
  0
ARC
  5
12C
330
1F
100
AcDbEntity
  8
0
  6
Continuous
 62
     7
370
    15
100
AcDbCircle
 10
336.2572481226
 20
75.0139614105
 30
0.0
 40
5.599999999999994
100
AcDbArc
 50
270.0
 51
329.8850703965
  0
ARC
  5
12D
330
1F
100
AcDbEntity
  8
0
  6
Continuous
 62
     7
370
    15
100
AcDbCircle
 10
336.2572481226
 20
75.0139614105
 30
0.0
 40
3.000000000000014
100
AcDbArc
 50
270.0
 51
329.8850703965
  0
LINE
  5
12E
330
1F
100
AcDbEntity
  8
0
  6
Continuous
 62
     7
370
    15
100
AcDbLine
 10
425.7133315448
 20
69.4139631005
 30
0.0
 11
435.4852895383
 21
69.4139631005
 31
0.0
  0
ARC
  5
12F
330
1F
100
AcDbEntity
  8
0
  6
Continuous
 62
     7
370
    15
100
AcDbCircle
 10
406.8247870669
 20
78.4798897119
 30
0.0
 40
11.60000000000002
100
AcDbArc
 50
30.1149296035
 51
102.0055554318
  0
LINE
  5
130
330
1F
100
AcDbEntity
  8
0
  6
Continuous
 62
     7
370
    15
100
AcDbLine
 10
374.9852898661
 20
83.603364742
 30
0.0
 11
374.0689429585
 21
83.9368881197
 31
0.0
  0
LINE
  5
131
330
1F
100
AcDbEntity
  8
0
  6
Continuous
 62
     7
370
    15
100
AcDbLine
 10
341.1013606135
 20
72.2042390616
 30
0.0
 11
347.3606082741
 21
82.9955147119
 31
0.0
  0
LINE
  5
132
330
1F
100
AcDbEntity
  8
0
  6
Continuous
 62
     7
370
    15
100
AcDbLine
 10
414.609973425
 20
82.9955147119
 30
0.0
 11
420.8692154977
 21
72.2042390616
 31
0.0
  0
LINE
  5
133
330
1F
100
AcDbEntity
  8
0
  6
Continuous
 62
     7
370
    15
100
AcDbLine
 10
423.1182682458
 20
73.5087537678
 30
0.0
 11
416.8590280358
 21
84.300029418
 31
0.0
  0
LINE
  5
134
330
1F
100
AcDbEntity
  8
0
  6
Continuous
 62
     7
370
    15
100
AcDbLine
 10
336.2572464291
 20
72.0139624091
 30
0.0
 11
326.4852884356
 21
72.0139624091
 31
0.0
  0
LINE
  5
135
330
1F
100
AcDbEntity
  8
0
  6
Continuous
 62
     7
370
    15
100
AcDbLine
 10
345.1115536634
 20
84.300029418
 30
0.0
 11
338.8523134533
 21
73.5087537678
 31
0.0
  0
LINE
  5
136
330
1F
100
AcDbEntity
  8
0
  6
Continuous
 62
     7
370
    15
100
AcDbLine
 10
326.4852884356
 20
69.4139631005
 30
0.0
 11
336.2572464291
 21
69.4139631005
 31
0.0
  0
LINE
  5
137
330
1F
100
AcDbEntity
  8
0
  6
Continuous
 62
     7
370
    15
100
AcDbLine
 10
387.9016387407
 20
83.9368881197
 30
0.0
 11
386.9852881077
 21
83.603364742
 31
0.0
  0
LINE
  5
138
330
1F
100
AcDbEntity
  8
0
  6
Continuous
 62
     7
370
    15
100
AcDbLine
 10
435.4852895383
 20
72.0139624091
 30
0.0
 11
442.4852892887
 21
72.0139624091
 31
0.0
  0
LINE
  5
139
330
1F
100
AcDbEntity
  8
0
  6
Continuous
 62
     7
370
    15
100
AcDbLine
 10
442.4852892887
 20
72.0139624091
 30
0.0
 11
442.4852892887
 21
69.4139631005
 31
0.0
  0
LINE
  5
13A
330
1F
100
AcDbEntity
  8
0
  6
Continuous
 62
     7
370
    15
100
AcDbLine
 10
442.4852892887
 20
69.4139631005
 30
0.0
 11
435.4852895383
 21
69.4139631005
 31
0.0
  0
LINE
  5
13B
330
1F
100
AcDbEntity
  8
0
  6
Continuous
 62
     7
370
    15
100
AcDbLine
 10
319.4852891508
 20
69.4139631005
 30
0.0
 11
319.4852891508
 21
72.0139624091
 31
0.0
  0
LINE
  5
13C
330
1F
100
AcDbEntity
  8
0
  6
Continuous
 62
     7
370
    15
100
AcDbLine
 10
319.4852891508
 20
72.0139624091
 30
0.0
 11
326.4852884356
 21
72.0139624091
 31
0.0
  0
LINE
  5
13D
330
1F
100
AcDbEntity
  8
0
  6
Continuous
 62
     7
370
    15
100
AcDbLine
 10
326.4852884356
 20
69.4139631005
 30
0.0
 11
319.4852891508
 21
69.4139631005
 31
0.0
  0
CIRCLE
  5
13E
330
1F
100
AcDbEntity
  8
SLD-0
 62
   218
370
     0
100
AcDbCircle
 10
380.9852894506
 20
129.4139614105
 30
0.0
 40
17.10126938124224
  0
LINE
  5
13F
330
1F
100
AcDbEntity
  8
0
  6
Continuous
 62
     7
370
    15
100
AcDbLine
 10
221.0993753652
 20
110.0389613775
 30
0.0
 11
218.0993767361
 21
110.0389613775
 31
0.0
  0
LINE
  5
140
330
1F
100
AcDbEntity
  8
0
  6
Continuous
 62
     7
370
    15
100
AcDbLine
 10
218.0993767361
 20
104.0389615582
 30
0.0
 11
221.0993753652
 21
104.0389615582
 31
0.0
  0
ARC
  5
141
330
1F
100
AcDbEntity
  8
0
  6
Continuous
 62
     7
370
    15
100
AcDbCircle
 10
197.0993780355
 20
263.4139614105
 30
0.0
 40
5.0
100
AcDbArc
 50
90.0
 51
180.0
  0
ARC
  5
142
330
1F
100
AcDbEntity
  8
0
  6
Continuous
 62
     7
370
    15
100
AcDbCircle
 10
234.0993780355
 20
263.4139614105
 30
0.0
 40
5.0
100
AcDbArc
 50
0.0
 51
90.0
  0
LINE
  5
143
330
1F
100
AcDbEntity
  8
0
  6
Continuous
 62
     7
370
    15
100
AcDbLine
 10
239.0993745904
 20
253.4139671834
 30
0.0
 11
239.0993745904
 21
263.4139576467
 31
0.0
  0
LINE
  5
144
330
1F
100
AcDbEntity
  8
0
  6
Continuous
 62
     7
370
    15
100
AcDbLine
 10
192.0993761997
 20
263.4139576467
 30
0.0
 11
192.0993761997
 21
253.4139671834
 31
0.0
  0
LINE
  5
145
330
1F
100
AcDbEntity
  8
0
  6
Continuous
 62
     7
370
    15
100
AcDbLine
 10
195.5993795673
 20
253.4139671834
 30
0.0
 11
195.5993795673
 21
252.4139651568
 31
0.0
  0
LINE
  5
146
330
1F
100
AcDbEntity
  8
0
  6
Continuous
 62
     7
370
    15
100
AcDbLine
 10
235.599374948
 20
252.4139651568
 30
0.0
 11
235.599374948
 21
253.4139671834
 31
0.0
  0
LINE
  5
147
330
1F
100
AcDbEntity
  8
0
  6
Continuous
 62
     7
370
    15
100
AcDbLine
 10
237.5993790011
 20
194.4139593752
 30
0.0
 11
237.5993790011
 21
198.331936589
 31
0.0
  0
LINE
  5
148
330
1F
100
AcDbEntity
  8
0
  6
Continuous
 62
     7
370
    15
100
AcDbLine
 10
237.5993790011
 20
210.7682073029
 30
0.0
 11
237.5993790011
 21
216.0597139509
 31
0.0
  0
LINE
  5
149
330
1F
100
AcDbEntity
  8
0
  6
Continuous
 62
     7
370
    15
100
AcDbLine
 10
237.5993790011
 20
228.4959846647
 30
0.0
 11
237.5993790011
 21
252.4139651568
 31
0.0
  0
LINE
  5
14A
330
1F
100
AcDbEntity
  8
0
  6
Continuous
 62
     7
370
    15
100
AcDbLine
 10
193.5993792395
 20
252.4139651568
 30
0.0
 11
193.5993792395
 21
228.4959846647
 31
0.0
  0
LINE
  5
14B
330
1F
100
AcDbEntity
  8
0
  6
Continuous
 62
     7
370
    15
100
AcDbLine
 10
193.5993792395
 20
216.0597139509
 30
0.0
 11
193.5993792395
 21
210.7682073029
 31
0.0
  0
LINE
  5
14C
330
1F
100
AcDbEntity
  8
0
  6
Continuous
 62
     7
370
    15
100
AcDbLine
 10
193.5993792395
 20
198.331936589
 30
0.0
 11
193.5993792395
 21
194.4139593752
 31
0.0
  0
LINE
  5
14D
330
1F
100
AcDbEntity
  8
0
  6
Continuous
 62
     7
370
    15
100
AcDbLine
 10
186.5993762295
 20
203.3582398208
 30
0.0
 11
186.5993762295
 21
194.4139593752
 31
0.0
  0
LINE
  5
14E
330
1F
100
AcDbEntity
  8
0
  6
Continuous
 62
     7
370
    15
100
AcDbLine
 10
244.5993782858
 20
194.4139593752
 30
0.0
 11
244.5993782858
 21
203.3582398208
 31
0.0
  0
ARC
  5
14F
330
1F
100
AcDbEntity
  8
0
  6
Continuous
 62
     7
370
    15
100
AcDbCircle
 10
60.3993780355
 20
208.2080081632
 30
0.0
 40
10.60000000000001
100
AcDbArc
 50
90.0
 51
180.0
  0
LINE
  5
150
330
1F
100
AcDbEntity
  8
0
  6
Continuous
 62
     7
370
    15
100
AcDbLine
 10
109.7993781696
 20
218.8080096157
 30
0.0
 11
60.3993745427
 21
218.8080096157
 31
0.0
  0
SPLINE
  5
151
330
1F
100
AcDbEntity
  8
0
  6
Continuous
 62
     7
370
    15
100
AcDbSpline
210
0.0
220
0.0
230
1.0
 70
     8
 71
     3
 72
    15
 73
    11
 74
     0
 42
0.00000001
 43
0.00000001
 40
0.0
 40
0.0
 40
0.0
 40
0.0
 40
0.0898857443339607
 40
0.2663242973450001
 40
0.4155960413339378
 40
0.5471728780035574
 40
0.6676255051605217
 40
0.7858220354226194
 40
0.9155471362194642
 40
1.0
 40
1.0
 40
1.0
 40
1.0
 10
49.76663607163732
 20
177.8697067411374
 30
0.0
 10
49.76823668615005
 20
177.7054934863237
 30
0.0
 10
49.77297917939607
 20
177.2189426986872
 30
0.0
 10
49.46565309826792
 20
176.4841810702058
 30
0.0
 10
48.95609198229105
 20
175.8302978710578
 30
0.0
 10
48.40757387381944
 20
175.4243917424716
 30
0.0
 10
47.92775414751311
 20
175.2119393743574
 30
0.0
 10
47.59615162864034
 20
175.1293141432458
 30
0.0
 10
47.4398516945486
 20
175.1137925004604
 30
0.0
 10
47.44911053943341
 20
175.1143778759125
 30
0.0
 10
47.45276140971487
 20
175.1146086962652
 30
0.0
  0
LINE
  5
152
330
1F
100
AcDbEntity
  8
0
  6
Continuous
 62
     7
370
    15
100
AcDbLine
 10
47.4861698131
 20
175.1139604958
 30
0.0
 11
46.7993752937
 21
175.1139604958
 31
0.0
  0
ARC
  5
153
330
1F
100
AcDbEntity
  8
0
  6
Continuous
 62
     7
370
    15
100
AcDbCircle
 10
64.3993780355
 20
177.0984756035
 30
0.0
 40
2.0
100
AcDbArc
 50
270.0
 51
0.0
  0
ARC
  5
154
330
1F
100
AcDbEntity
  8
0
  6
Continuous
 62
     7
370
    15
100
AcDbCircle
 10
64.3993780355
 20
177.0984756035
 30
0.0
 40
2.0
100
AcDbArc
 50
221.3542948589
 51
270.0
  0
ARC
  5
155
330
1F
100
AcDbEntity
  8
0
  6
Continuous
 62
     7
370
    15
100
AcDbCircle
 10
72.3993780355
 20
177.0984756035
 30
0.0
 40
2.0
100
AcDbArc
 50
180.0
 51
270.0
  0
LINE
  5
156
330
1F
100
AcDbEntity
  8
0
  6
Continuous
 62
     7
370
    15
100
AcDbLine
 10
72.3993765096
 20
175.0984781893
 30
0.0
 11
77.076050071
 21
175.0984781893
 31
0.0
  0
LINE
  5
157
330
1F
100
AcDbEntity
  8
0
  6
Continuous
 62
     7
370
    15
100
AcDbLine
 10
109.7993781696
 20
175.0984781893
 30
0.0
 11
150.3993781189
 21
175.0984781893
 31
0.0
  0
LINE
  5
158
330
1F
100
AcDbEntity
  8
0
  6
Continuous
 62
     7
370
    15
100
AcDbLine
 10
150.3993781189
 20
215.0984772952
 30
0.0
 11
109.7993781696
 21
215.0984772952
 31
0.0
  0
ARC
  5
159
330
1F
100
AcDbEntity
  8
0
  6
Continuous
 62
     7
370
    15
100
AcDbCircle
 10
150.3993780355
 20
213.0984756035
 30
0.0
 40
2.0
100
AcDbArc
 50
0.0
 51
90.0
  0
ARC
  5
15A
330
1F
100
AcDbEntity
  8
0
  6
Continuous
 62
     7
370
    15
100
AcDbCircle
 10
150.3993780355
 20
177.0984756035
 30
0.0
 40
2.0
100
AcDbArc
 50
270.0
 51
0.0
  0
ARC
  5
15B
330
1F
100
AcDbEntity
  8
0
  6
Continuous
 62
     7
370
    15
100
AcDbCircle
 10
68.3993780355
 20
177.0984756035
 30
0.0
 40
2.000000000000032
100
AcDbArc
 50
150.5174715887
 51
180.0
  0
ARC
  5
15C
330
1F
100
AcDbEntity
  8
0
  6
Continuous
 62
     7
370
    15
100
AcDbCircle
 10
68.3993780355
 20
177.0984756035
 30
0.0
 40
2.000000000000019
100
AcDbArc
 50
0.0
 51
29.4825284113
  0
LINE
  5
15D
330
1F
100
AcDbEntity
  8
0
  6
Continuous
 62
     7
370
    15
100
AcDbLine
 10
228.09937465
 20
100.2889614092
 30
0.0
 11
232.0993753056
 21
100.2889614092
 31
0.0
  0
ARC
  5
15E
330
1F
100
AcDbEntity
  8
0
  6
Continuous
 62
     7
370
    15
100
AcDbCircle
 10
232.0993780355
 20
102.2889614105
 30
0.0
 40
2.0
100
AcDbArc
 50
270.0
 51
0.0
  0
ARC
  5
15F
330
1F
100
AcDbEntity
  8
0
  6
Continuous
 62
     7
370
    15
100
AcDbCircle
 10
234.0993780355
 20
122.4824264685
 30
0.0
 40
2.000000000000005
100
AcDbArc
 50
210.5345195191
 51
240.0
  0
ARC
  5
160
330
1F
100
AcDbEntity
  8
0
  6
Continuous
 62
     7
370
    15
100
AcDbCircle
 10
232.0993780355
 20
119.0183248534
 30
0.0
 40
2.0
100
AcDbArc
 50
0.0
 51
60.0
  0
ARC
  5
161
330
1F
100
AcDbEntity
  8
0
  6
Continuous
 62
     7
370
    15
100
AcDbCircle
 10
230.0993780355
 20
94.1139614105
 30
0.0
 40
2.0
100
AcDbArc
 50
270.0
 51
0.0
  0
LINE
  5
162
330
1F
100
AcDbEntity
  8
0
  6
Continuous
 62
     7
370
    15
100
AcDbLine
 10
228.09937465
 20
92.1139617922
 30
0.0
 11
230.0993787031
 21
92.1139617922
 31
0.0
  0
ARC
  5
163
330
1F
100
AcDbEntity
  8
0
  6
Continuous
 62
     7
370
    15
100
AcDbCircle
 10
213.0993780355
 20
129.4139614105
 30
0.0
 40
21.99999999999999
100
AcDbArc
 50
336.4893306548
 51
30.2726413189
  0
LINE
  5
164
330
1F
100
AcDbEntity
  8
0
  6
Continuous
 62
     7
370
    15
100
AcDbLine
 10
232.0993753056
 20
180.6639650376
 30
0.0
 11
228.09937465
 21
180.6639650376
 31
0.0
  0
ARC
  5
165
330
1F
100
AcDbEntity
  8
0
  6
Continuous
 62
     7
370
    15
100
AcDbCircle
 10
232.0993780355
 20
178.6639614105
 30
0.0
 40
2.0
100
AcDbArc
 50
0.0
 51
90.0
  0
ARC
  5
166
330
1F
100
AcDbEntity
  8
0
  6
Continuous
 62
     7
370
    15
100
AcDbCircle
 10
232.0993780355
 20
159.0441529472
 30
0.0
 40
2.000000000000018
100
AcDbArc
 50
277.1063906214
 51
0.0
  0
LINE
  5
167
330
1F
100
AcDbEntity
  8
0
  6
Continuous
 62
     7
370
    15
100
AcDbLine
 10
221.6193811874
 20
161.413959554
 30
0.0
 11
201.2993754725
 21
161.413959554
 31
0.0
  0
LINE
  5
168
330
1F
100
AcDbEntity
  8
0
  6
Continuous
 62
     7
370
    15
100
AcDbLine
 10
221.0993753652
 20
100.2889614092
 30
0.0
 11
228.09937465
 21
100.2889614092
 31
0.0
  0
LINE
  5
169
330
1F
100
AcDbEntity
  8
0
  6
Continuous
 62
     7
370
    15
100
AcDbLine
 10
221.6193811874
 20
92.1639607759
 30
0.0
 11
228.09937465
 21
92.1639607759
 31
0.0
  0
ARC
  5
16A
330
1F
100
AcDbEntity
  8
0
  6
Continuous
 62
     7
370
    15
100
AcDbCircle
 10
211.5593780355
 20
158.1308698587
 30
0.0
 40
4.00000000000002
100
AcDbArc
 50
112.3336826578
 51
124.8377621968
  0
ARC
  5
16B
330
1F
100
AcDbEntity
  8
0
  6
Continuous
 62
     7
370
    15
100
AcDbCircle
 10
204.5593780355
 20
109.646135369
 30
0.0
 40
3.000000000000006
100
AcDbArc
 50
0.0
 51
85.2164703931
  0
LINE
  5
16C
330
1F
100
AcDbEntity
  8
0
  6
Continuous
 62
     7
370
    15
100
AcDbLine
 10
186.3092021923
 20
114.1838481189
 30
0.0
 11
204.809552608
 21
112.6356859813
 31
0.0
  0
LINE
  5
16D
330
1F
100
AcDbEntity
  8
0
  6
Continuous
 62
     7
370
    15
100
AcDbLine
 10
183.5802594106
 20
142.0078699948
 30
0.0
 11
183.5593791585
 21
141.6545243473
 31
0.0
  0
ARC
  5
16E
330
1F
100
AcDbEntity
  8
0
  6
Continuous
 62
     7
370
    15
100
AcDbCircle
 10
186.5593780355
 20
117.1733987266
 30
0.0
 40
3.0
100
AcDbArc
 50
180.0
 51
265.2164703931
  0
LINE
  5
16F
330
1F
100
AcDbEntity
  8
0
  6
Continuous
 62
     7
370
    15
100
AcDbLine
 10
228.09937465
 20
180.6639650376
 30
0.0
 11
222.0993773918
 21
180.6639650376
 31
0.0
  0
LINE
  5
170
330
1F
100
AcDbEntity
  8
0
  6
Continuous
 62
     7
370
    15
100
AcDbLine
 10
201.2993754725
 20
71.413959703
 30
0.0
 11
221.6193811874
 21
71.413959703
 31
0.0
  0
LINE
  5
171
330
1F
100
AcDbEntity
  8
0
  6
Continuous
 62
     7
370
    15
100
AcDbLine
 10
186.5993762295
 20
194.4139593752
 30
0.0
 11
186.5993762295
 21
188.413962117
 31
0.0
  0
ARC
  5
172
330
1F
100
AcDbEntity
  8
0
  6
Continuous
 62
     7
370
    15
100
AcDbCircle
 10
188.5993780355
 20
188.4139614105
 30
0.0
 40
2.0
100
AcDbArc
 50
180.0
 51
270.0
  0
LINE
  5
173
330
1F
100
AcDbEntity
  8
0
  6
Continuous
 62
     7
370
    15
100
AcDbLine
 10
244.5993782858
 20
188.413962117
 30
0.0
 11
244.5993782858
 21
194.4139593752
 31
0.0
  0
ARC
  5
174
330
1F
100
AcDbEntity
  8
0
  6
Continuous
 62
     7
370
    15
100
AcDbCircle
 10
242.5993780355
 20
188.4139614105
 30
0.0
 40
2.0
100
AcDbArc
 50
270.0
 51
0.0
  0
LINE
  5
175
330
1F
100
AcDbEntity
  8
0
  6
Continuous
 62
     7
370
    15
100
AcDbLine
 10
201.2993754725
 20
161.413959554
 30
0.0
 11
168.7993766646
 21
161.413959554
 31
0.0
  0
LINE
  5
176
330
1F
100
AcDbEntity
  8
0
  6
Continuous
 62
     7
370
    15
100
AcDbLine
 10
166.7993763368
 20
83.41396167
 30
0.0
 11
168.7993766646
 21
83.41396167
 31
0.0
  0
LINE
  5
177
330
1F
100
AcDbEntity
  8
0
  6
Continuous
 62
     7
370
    15
100
AcDbLine
 10
172.7993773202
 20
175.4139581235
 30
0.0
 11
166.7993763368
 21
175.4139581235
 31
0.0
  0
ARC
  5
178
330
1F
100
AcDbEntity
  8
0
  6
Continuous
 62
     7
370
    15
100
AcDbCircle
 10
172.7993780355
 20
172.4139614105
 30
0.0
 40
3.000000000000028
100
AcDbArc
 50
0.0
 51
90.0
  0
LINE
  5
179
330
1F
100
AcDbEntity
  8
0
  6
Continuous
 62
     7
370
    15
100
AcDbLine
 10
175.7993796746
 20
110.413961439
 30
0.0
 11
177.7993762772
 21
110.413961439
 31
0.0
  0
ARC
  5
17A
330
1F
100
AcDbEntity
  8
0
  6
Continuous
 62
     7
370
    15
100
AcDbCircle
 10
177.7993780355
 20
112.4139614105
 30
0.0
 40
2.0
100
AcDbArc
 50
270.0
 51
0.0
  0
LINE
  5
17B
330
1F
100
AcDbEntity
  8
0
  6
Continuous
 62
     7
370
    15
100
AcDbLine
 10
168.7993766646
 20
71.413959703
 30
0.0
 11
201.2993754725
 21
71.413959703
 31
0.0
  0
ARC
  5
17C
330
1F
100
AcDbEntity
  8
0
  6
Continuous
 62
     7
370
    15
100
AcDbCircle
 10
41.2993780355
 20
174.4139614105
 30
0.0
 40
1.0
100
AcDbArc
 50
90.0
 51
180.0
  0
ARC
  5
17D
330
1F
100
AcDbEntity
  8
0
  6
Continuous
 62
     7
370
    15
100
AcDbCircle
 10
41.2993780355
 20
84.4139614105
 30
0.0
 40
1.0
100
AcDbArc
 50
180.0
 51
270.0
  0
LINE
  5
17E
330
1F
100
AcDbEntity
  8
0
  6
Continuous
 62
     7
370
    15
100
AcDbLine
 10
46.7993752937
 20
175.4139581235
 30
0.0
 11
41.2993790488
 21
175.4139581235
 31
0.0
  0
LINE
  5
17F
330
1F
100
AcDbEntity
  8
0
  6
Continuous
 62
     7
370
    15
100
AcDbLine
 10
41.2993790488
 20
83.41396167
 30
0.0
 11
46.7993752937
 21
83.41396167
 31
0.0
  0
LINE
  5
180
330
1F
100
AcDbEntity
  8
0
  6
Continuous
 62
     7
370
    15
100
AcDbLine
 10
166.7993763368
 20
174.513961515
 30
0.0
 11
109.7993781696
 21
174.513961515
 31
0.0
  0
LINE
  5
181
330
1F
100
AcDbEntity
  8
0
  6
Continuous
 62
     7
370
    15
100
AcDbLine
 10
77.3292170743
 20
174.513961515
 30
0.0
 11
62.2695373277
 21
174.513961515
 31
0.0
  0
LINE
  5
182
330
1F
100
AcDbEntity
  8
0
  6
Continuous
 62
     7
370
    15
100
AcDbLine
 10
46.7993752937
 20
84.3139620038
 30
0.0
 11
87.7993764262
 21
84.3139620038
 31
0.0
  0
LINE
  5
183
330
1F
100
AcDbEntity
  8
0
  6
Continuous
 62
     7
370
    15
100
AcDbLine
 10
127.7993778604
 20
84.3139620038
 30
0.0
 11
166.7993763368
 21
84.3139620038
 31
0.0
  0
ARC
  5
184
330
1F
100
AcDbEntity
  8
0
  6
Continuous
 62
     7
370
    15
100
AcDbCircle
 10
38.7993780355
 20
114.4139614105
 30
0.0
 40
5.000000000000007
100
AcDbArc
 50
180.0
 51
270.0
  0
ARC
  5
185
330
1F
100
AcDbEntity
  8
0
  6
Continuous
 62
     7
370
    15
100
AcDbCircle
 10
38.7993780355
 20
144.4139614105
 30
0.0
 40
5.000000000000007
100
AcDbArc
 50
90.0
 51
180.0
  0
LINE
  5
186
330
1F
100
AcDbEntity
  8
0
  6
Continuous
 62
     7
370
    15
100
AcDbLine
 10
40.2993770222
 20
149.4139613123
 30
0.0
 11
38.799381433
 21
149.4139613123
 31
0.0
  0
LINE
  5
187
330
1F
100
AcDbEntity
  8
0
  6
Continuous
 62
     7
370
    15
100
AcDbLine
 10
38.799381433
 20
109.4139615079
 30
0.0
 11
40.2993770222
 21
109.4139615079
 31
0.0
  0
LINE
  5
188
330
1F
100
AcDbEntity
  8
0
  6
Continuous
 62
     7
370
    15
100
AcDbLine
 10
179.799376605
 20
123.9139617892
 30
0.0
 11
183.5593791585
 21
123.9139617892
 31
0.0
  0
LINE
  5
189
330
1F
100
AcDbEntity
  8
0
  6
Continuous
 62
     7
370
    15
100
AcDbLine
 10
183.5593791585
 20
134.9139617296
 30
0.0
 11
179.799376605
 21
134.9139617296
 31
0.0
  0
LINE
  5
18A
330
1F
100
AcDbEntity
  8
0
  6
Continuous
 62
     7
370
    15
100
AcDbLine
 10
127.7993778604
 20
90.0798899593
 30
0.0
 11
87.7993764262
 21
90.0798899593
 31
0.0
  0
LINE
  5
18B
330
1F
100
AcDbEntity
  8
0
  6
Continuous
 62
     7
370
    15
100
AcDbLine
 10
226.619376419
 20
74.5272108825
 30
0.0
 11
221.6193811874
 21
74.5272108825
 31
0.0
  0
LINE
  5
18C
330
1F
100
AcDbEntity
  8
0
  6
Continuous
 62
     7
370
    15
100
AcDbLine
 10
226.619376419
 20
74.5272108825
 30
0.0
 11
226.619376419
 21
71.6404573532
 31
0.0
  0
LINE
  5
18D
330
1F
100
AcDbEntity
  8
0
  6
Continuous
 62
     7
370
    15
100
AcDbLine
 10
226.619376419
 20
71.6404573532
 30
0.0
 11
221.6193811874
 21
71.6404573532
 31
0.0
  0
LINE
  5
18E
330
1F
100
AcDbEntity
  8
0
  6
Continuous
 62
     7
370
    15
100
AcDbLine
 10
226.619376419
 20
83.1874640198
 30
0.0
 11
221.6193811874
 21
83.1874640198
 31
0.0
  0
LINE
  5
18F
330
1F
100
AcDbEntity
  8
0
  6
Continuous
 62
     7
370
    15
100
AcDbLine
 10
226.619376419
 20
83.1874640198
 30
0.0
 11
226.619376419
 21
80.3007142158
 31
0.0
  0
LINE
  5
190
330
1F
100
AcDbEntity
  8
0
  6
Continuous
 62
     7
370
    15
100
AcDbLine
 10
226.619376419
 20
80.3007142158
 30
0.0
 11
221.6193811874
 21
80.3007142158
 31
0.0
  0
LINE
  5
191
330
1F
100
AcDbEntity
  8
0
  6
Continuous
 62
     7
370
    15
100
AcDbLine
 10
226.619376419
 20
80.3007142158
 30
0.0
 11
226.619376419
 21
74.5272108825
 31
0.0
  0
LINE
  5
192
330
1F
100
AcDbEntity
  8
0
  6
Continuous
 62
     7
370
    15
100
AcDbLine
 10
239.0993745904
 20
104.1522103833
 30
0.0
 11
234.0993793587
 21
104.1522103833
 31
0.0
  0
LINE
  5
193
330
1F
100
AcDbEntity
  8
0
  6
Continuous
 62
     7
370
    15
100
AcDbLine
 10
239.0993745904
 20
104.1522103833
 30
0.0
 11
239.0993745904
 21
101.2654587166
 31
0.0
  0
LINE
  5
194
330
1F
100
AcDbEntity
  8
0
  6
Continuous
 62
     7
370
    15
100
AcDbLine
 10
239.0993745904
 20
101.2654587166
 30
0.0
 11
234.0993793587
 21
101.2654587166
 31
0.0
  0
LINE
  5
195
330
1F
100
AcDbEntity
  8
0
  6
Continuous
 62
     7
370
    15
100
AcDbLine
 10
234.0993793587
 20
104.1522103833
 30
0.0
 11
234.0993793587
 21
101.2654587166
 31
0.0
  0
LINE
  5
196
330
1F
100
AcDbEntity
  8
0
  6
Continuous
 62
     7
370
    15
100
AcDbLine
 10
239.0993745904
 20
112.8124641027
 30
0.0
 11
234.0993793587
 21
112.8124641027
 31
0.0
  0
LINE
  5
197
330
1F
100
AcDbEntity
  8
0
  6
Continuous
 62
     7
370
    15
100
AcDbLine
 10
239.0993745904
 20
112.8124641027
 30
0.0
 11
239.0993745904
 21
109.9257127853
 31
0.0
  0
LINE
  5
198
330
1F
100
AcDbEntity
  8
0
  6
Continuous
 62
     7
370
    15
100
AcDbLine
 10
239.0993745904
 20
109.9257127853
 30
0.0
 11
234.0993793587
 21
109.9257127853
 31
0.0
  0
LINE
  5
199
330
1F
100
AcDbEntity
  8
0
  6
Continuous
 62
     7
370
    15
100
AcDbLine
 10
234.0993793587
 20
112.8124641027
 30
0.0
 11
234.0993793587
 21
109.9257127853
 31
0.0
  0
LINE
  5
19A
330
1F
100
AcDbEntity
  8
0
  6
Continuous
 62
     7
370
    15
100
AcDbLine
 10
239.0993745904
 20
109.9257127853
 30
0.0
 11
239.0993745904
 21
104.1522103833
 31
0.0
  0
LINE
  5
19B
330
1F
100
AcDbEntity
  8
0
  6
Continuous
 62
     7
370
    15
100
AcDbLine
 10
234.0993793587
 20
109.9257127853
 30
0.0
 11
234.0993793587
 21
104.1522103833
 31
0.0
  0
LINE
  5
19C
330
1F
100
AcDbEntity
  8
0
  6
Continuous
 62
     7
370
    15
100
AcDbLine
 10
218.0993767361
 20
110.0389613775
 30
0.0
 11
218.0993767361
 21
104.0389615582
 31
0.0
  0
LINE
  5
19D
330
1F
100
AcDbEntity
  8
0
  6
Continuous
 62
     7
370
    15
100
AcDbLine
 10
239.0993745904
 20
174.6420816989
 30
0.0
 11
234.0993793587
 21
174.6420816989
 31
0.0
  0
LINE
  5
19E
330
1F
100
AcDbEntity
  8
0
  6
Continuous
 62
     7
370
    15
100
AcDbLine
 10
239.0993745904
 20
174.6420816989
 30
0.0
 11
239.0993745904
 21
169.4201970013
 31
0.0
  0
LINE
  5
19F
330
1F
100
AcDbEntity
  8
0
  6
Continuous
 62
     7
370
    15
100
AcDbLine
 10
239.0993745904
 20
169.4201970013
 30
0.0
 11
234.0993793587
 21
169.4201970013
 31
0.0
  0
LINE
  5
1A0
330
1F
100
AcDbEntity
  8
0
  6
Continuous
 62
     7
370
    15
100
AcDbLine
 10
234.0993793587
 20
174.6420816989
 30
0.0
 11
234.0993793587
 21
173.0440513702
 31
0.0
  0
LINE
  5
1A1
330
1F
100
AcDbEntity
  8
0
  6
Continuous
 62
     7
370
    15
100
AcDbLine
 10
239.0993745904
 20
179.3858477385
 30
0.0
 11
234.0993793587
 21
179.3858477385
 31
0.0
  0
LINE
  5
1A2
330
1F
100
AcDbEntity
  8
0
  6
Continuous
 62
     7
370
    15
100
AcDbLine
 10
239.0993745904
 20
179.3858477385
 30
0.0
 11
239.0993745904
 21
174.6420816989
 31
0.0
  0
LINE
  5
1A3
330
1F
100
AcDbEntity
  8
0
  6
Continuous
 62
     7
370
    15
100
AcDbLine
 10
234.0993793587
 20
179.3858477385
 30
0.0
 11
234.0993793587
 21
174.6420816989
 31
0.0
  0
LINE
  5
1A4
330
1F
100
AcDbEntity
  8
0
  6
Continuous
 62
     7
370
    15
100
AcDbLine
 10
239.0993745904
 20
168.9420746179
 30
0.0
 11
234.0993793587
 21
168.9420746179
 31
0.0
  0
LINE
  5
1A5
330
1F
100
AcDbEntity
  8
0
  6
Continuous
 62
     7
370
    15
100
AcDbLine
 10
239.0993745904
 20
169.4201970013
 30
0.0
 11
239.0993745904
 21
168.9420746179
 31
0.0
  0
LINE
  5
1A6
330
1F
100
AcDbEntity
  8
0
  6
Continuous
 62
     7
370
    15
100
AcDbLine
 10
226.619376419
 20
158.3007120998
 30
0.0
 11
221.6193811874
 21
158.3007120998
 31
0.0
  0
LINE
  5
1A7
330
1F
100
AcDbEntity
  8
0
  6
Continuous
 62
     7
370
    15
100
AcDbLine
 10
226.619376419
 20
158.3007120998
 30
0.0
 11
226.619376419
 21
152.5272087665
 31
0.0
  0
LINE
  5
1A8
330
1F
100
AcDbEntity
  8
0
  6
Continuous
 62
     7
370
    15
100
AcDbLine
 10
226.619376419
 20
152.5272087665
 30
0.0
 11
221.6193811874
 21
152.5272087665
 31
0.0
  0
LINE
  5
1A9
330
1F
100
AcDbEntity
  8
0
  6
Continuous
 62
     7
370
    15
100
AcDbLine
 10
226.619376419
 20
152.5272087665
 30
0.0
 11
226.619376419
 21
149.6404589625
 31
0.0
  0
LINE
  5
1AA
330
1F
100
AcDbEntity
  8
0
  6
Continuous
 62
     7
370
    15
100
AcDbLine
 10
226.619376419
 20
149.6404589625
 30
0.0
 11
221.6193811874
 21
149.6404589625
 31
0.0
  0
LINE
  5
1AB
330
1F
100
AcDbEntity
  8
0
  6
Continuous
 62
     7
370
    15
100
AcDbLine
 10
226.619376419
 20
161.1874656291
 30
0.0
 11
221.6193811874
 21
161.1874656291
 31
0.0
  0
LINE
  5
1AC
330
1F
100
AcDbEntity
  8
0
  6
Continuous
 62
     7
370
    15
100
AcDbLine
 10
226.619376419
 20
161.1874656291
 30
0.0
 11
226.619376419
 21
158.3007120998
 31
0.0
  0
LINE
  5
1AD
330
1F
100
AcDbEntity
  8
0
  6
Continuous
 62
     7
370
    15
100
AcDbLine
 10
240.3521524648
 20
211.4139640243
 30
0.0
 11
240.3521524648
 21
209.4216117175
 31
0.0
  0
LINE
  5
1AE
330
1F
100
AcDbEntity
  8
0
  6
Continuous
 62
     7
370
    15
100
AcDbLine
 10
237.5993790011
 20
211.4139640243
 30
0.0
 11
240.3521524648
 21
211.4139640243
 31
0.0
  0
LINE
  5
1AF
330
1F
100
AcDbEntity
  8
0
  6
Continuous
 62
     7
370
    15
100
AcDbLine
 10
240.3521524648
 20
211.4139640243
 30
0.0
 11
244.0634803752
 21
211.4139640243
 31
0.0
  0
LINE
  5
1B0
330
1F
100
AcDbEntity
  8
0
  6
Continuous
 62
     7
370
    15
100
AcDbLine
 10
187.1352778654
 20
211.4139640243
 30
0.0
 11
190.8466020505
 21
211.4139640243
 31
0.0
  0
LINE
  5
1B1
330
1F
100
AcDbEntity
  8
0
  6
Continuous
 62
     7
370
    15
100
AcDbLine
 10
190.8466020505
 20
211.4139640243
 30
0.0
 11
190.8466020505
 21
209.4216117175
 31
0.0
  0
LINE
  5
1B2
330
1F
100
AcDbEntity
  8
0
  6
Continuous
 62
     7
370
    15
100
AcDbLine
 10
190.8466020505
 20
211.4139640243
 30
0.0
 11
193.5993792395
 21
211.4139640243
 31
0.0
  0
LINE
  5
1B3
330
1F
100
AcDbEntity
  8
0
  6
Continuous
 62
     7
370
    15
100
AcDbLine
 10
197.0993788819
 20
268.4139677794
 30
0.0
 11
234.0993793587
 21
268.4139677794
 31
0.0
  0
LINE
  5
1B4
330
1F
100
AcDbEntity
  8
0
  6
Continuous
 62
     7
370
    15
100
AcDbLine
 10
192.0993761997
 20
253.4139671834
 30
0.0
 11
239.0993745904
 21
253.4139671834
 31
0.0
  0
CIRCLE
  5
1B5
330
1F
100
AcDbEntity
  8
0
  6
Continuous
 62
     7
370
    15
100
AcDbCircle
 10
240.5993780355
 20
213.4139614105
 30
0.0
 40
4.000000000000028
  0
CIRCLE
  5
1B6
330
1F
100
AcDbEntity
  8
0
  6
Continuous
 62
     7
370
    15
100
AcDbCircle
 10
190.5993780355
 20
213.4139614105
 30
0.0
 40
3.999999999999972
  0
LINE
  5
1B7
330
1F
100
AcDbEntity
  8
0
  6
Continuous
 62
     7
370
    15
100
AcDbLine
 10
237.5993790011
 20
194.4139593752
 30
0.0
 11
228.674328504
 21
194.4139593752
 31
0.0
  0
LINE
  5
1B8
330
1F
100
AcDbEntity
  8
0
  6
Continuous
 62
     7
370
    15
100
AcDbLine
 10
202.5244297366
 20
194.4139593752
 30
0.0
 11
193.5993792395
 21
194.4139593752
 31
0.0
  0
LINE
  5
1B9
330
1F
100
AcDbEntity
  8
0
  6
Continuous
 62
     7
370
    15
100
AcDbLine
 10
237.5993790011
 20
252.4139651568
 30
0.0
 11
193.5993792395
 21
252.4139651568
 31
0.0
  0
LINE
  5
1BA
330
1F
100
AcDbEntity
  8
0
  6
Continuous
 62
     7
370
    15
100
AcDbLine
 10
187.9322850983
 20
194.4139593752
 30
0.0
 11
193.5993792395
 21
194.4139593752
 31
0.0
  0
LINE
  5
1BB
330
1F
100
AcDbEntity
  8
0
  6
Continuous
 62
     7
370
    15
100
AcDbLine
 10
186.5993762295
 20
194.4139593752
 30
0.0
 11
187.9322850983
 21
194.4139593752
 31
0.0
  0
LINE
  5
1BC
330
1F
100
AcDbEntity
  8
0
  6
Continuous
 62
     7
370
    15
100
AcDbLine
 10
244.5993782858
 20
194.4139593752
 30
0.0
 11
243.5474531631
 21
194.4139593752
 31
0.0
  0
LINE
  5
1BD
330
1F
100
AcDbEntity
  8
0
  6
Continuous
 62
     7
370
    15
100
AcDbLine
 10
186.5993762295
 20
247.9139634879
 30
0.0
 11
186.5993762295
 21
223.469681433
 31
0.0
  0
LINE
  5
1BE
330
1F
100
AcDbEntity
  8
0
  6
Continuous
 62
     7
370
    15
100
AcDbLine
 10
186.5993762295
 20
203.3582398208
 30
0.0
 11
186.5993762295
 21
194.4139593752
 31
0.0
  0
LINE
  5
1BF
330
1F
100
AcDbEntity
  8
0
  6
Continuous
 62
     7
370
    15
100
AcDbLine
 10
193.5993792395
 20
247.9139634879
 30
0.0
 11
186.5993762295
 21
247.9139634879
 31
0.0
  0
LINE
  5
1C0
330
1F
100
AcDbEntity
  8
0
  6
Continuous
 62
     7
370
    15
100
AcDbLine
 10
244.5993782858
 20
247.9139634879
 30
0.0
 11
244.5993782858
 21
223.469681433
 31
0.0
  0
LINE
  5
1C1
330
1F
100
AcDbEntity
  8
0
  6
Continuous
 62
     7
370
    15
100
AcDbLine
 10
244.5993782858
 20
203.3582398208
 30
0.0
 11
244.5993782858
 21
194.4139593752
 31
0.0
  0
LINE
  5
1C2
330
1F
100
AcDbEntity
  8
0
  6
Continuous
 62
     7
370
    15
100
AcDbLine
 10
244.5993782858
 20
247.9139634879
 30
0.0
 11
237.5993790011
 21
247.9139634879
 31
0.0
  0
ARC
  5
1C3
330
1F
100
AcDbEntity
  8
0
  6
Continuous
 62
     7
370
    15
100
AcDbCircle
 10
215.6393627744
 20
268.4139432426
 30
0.0
 40
44.00000000000004
100
AcDbArc
 50
222.5684126319
 51
228.7001536605
  0
ARC
  5
1C4
330
1F
100
AcDbEntity
  8
0
  6
Continuous
 62
     7
370
    15
100
AcDbCircle
 10
190.5993780355
 20
245.4139614105
 30
0.0
 40
10.00000000000005
100
AcDbArc
 50
137.4315873681
 51
222.5684126319
  0
ARC
  5
1C5
330
1F
100
AcDbEntity
  8
0
  6
Continuous
 62
     7
370
    15
100
AcDbCircle
 10
215.6393627744
 20
222.4139795785
 30
0.0
 40
44.00000000000003
100
AcDbArc
 50
122.3438878912
 51
137.4315873681
  0
ARC
  5
1C6
330
1F
100
AcDbEntity
  8
0
  6
Continuous
 62
     7
370
    15
100
AcDbCircle
 10
215.5593932966
 20
222.4139795785
 30
0.0
 40
44.00000000000001
100
AcDbArc
 50
42.5684126319
 51
57.6561121088
  0
ARC
  5
1C7
330
1F
100
AcDbEntity
  8
0
  6
Continuous
 62
     7
370
    15
100
AcDbCircle
 10
240.5993780355
 20
245.4139614105
 30
0.0
 40
10.00000000000001
100
AcDbArc
 50
317.4315873681
 51
42.5684126319
  0
ARC
  5
1C8
330
1F
100
AcDbEntity
  8
0
  6
Continuous
 62
     7
370
    15
100
AcDbCircle
 10
215.5593932966
 20
268.4139432426
 30
0.0
 40
43.99999999999999
100
AcDbArc
 50
311.2998463395
 51
317.4315873681
  0
LINE
  5
1C9
330
1F
100
AcDbEntity
  8
0
  6
Continuous
 62
     7
370
    15
100
AcDbLine
 10
230.5993797164
 20
204.400084308
 30
0.0
 11
230.5993797164
 21
222.4278369458
 31
0.0
  0
CIRCLE
  5
1CA
330
1F
100
AcDbEntity
  8
0
  6
Continuous
 62
     7
370
    15
100
AcDbCircle
 10
215.5993780355
 20
213.4139614105
 30
0.0
 40
10.0
  0
LINE
  5
1CB
330
1F
100
AcDbEntity
  8
0
  6
Continuous
 62
     7
370
    15
100
AcDbLine
 10
200.5993785243
 20
222.4278369458
 30
0.0
 11
200.5993785243
 21
204.400084308
 31
0.0
  0
ARC
  5
1CC
330
1F
100
AcDbEntity
  8
0
  6
Continuous
 62
     7
370
    15
100
AcDbCircle
 10
215.5993780355
 20
213.4139614105
 30
0.0
 40
17.49999999999999
100
AcDbArc
 50
31.0027191339
 51
148.9972808661
  0
ARC
  5
1CD
330
1F
100
AcDbEntity
  8
0
  6
Continuous
 62
     7
370
    15
100
AcDbCircle
 10
215.5993780355
 20
213.4139614105
 30
0.0
 40
17.50000000000002
100
AcDbArc
 50
211.0027191339
 51
328.9972808661
  0
ARC
  5
1CE
330
1F
100
AcDbEntity
  8
0
  6
Continuous
 62
     7
370
    15
100
AcDbCircle
 10
215.5593932966
 20
190.4139795785
 30
0.0
 40
44.0
100
AcDbArc
 50
42.5684126319
 51
89.9479327932
  0
ARC
  5
1CF
330
1F
100
AcDbEntity
  8
0
  6
Continuous
 62
     7
370
    15
100
AcDbCircle
 10
240.5993780355
 20
213.4139614105
 30
0.0
 40
10.00000000000005
100
AcDbArc
 50
317.4315873681
 51
42.5684126319
  0
ARC
  5
1D0
330
1F
100
AcDbEntity
  8
0
  6
Continuous
 62
     7
370
    15
100
AcDbCircle
 10
215.5593932966
 20
236.4139432426
 30
0.0
 40
44.00000000000001
100
AcDbArc
 50
270.0520672068
 51
317.4315873681
  0
CIRCLE
  5
1D1
330
1F
100
AcDbEntity
  8
0
  6
Continuous
 62
     7
370
    15
100
AcDbCircle
 10
240.5993780355
 20
213.4139614105
 30
0.0
 40
4.5
  0
ARC
  5
1D2
330
1F
100
AcDbEntity
  8
0
  6
Continuous
 62
     7
370
    15
100
AcDbCircle
 10
215.6393627744
 20
236.4139432426
 30
0.0
 40
43.99999999999999
100
AcDbArc
 50
222.5684126319
 51
269.9479327932
  0
ARC
  5
1D3
330
1F
100
AcDbEntity
  8
0
  6
Continuous
 62
     7
370
    15
100
AcDbCircle
 10
215.6393627744
 20
190.4139795785
 30
0.0
 40
43.99999999999999
100
AcDbArc
 50
90.0520672068
 51
137.4315873681
  0
ARC
  5
1D4
330
1F
100
AcDbEntity
  8
0
  6
Continuous
 62
     7
370
    15
100
AcDbCircle
 10
190.5993780355
 20
213.4139614105
 30
0.0
 40
10.00000000000001
100
AcDbArc
 50
137.4315873681
 51
222.5684126319
  0
CIRCLE
  5
1D5
330
1F
100
AcDbEntity
  8
0
  6
Continuous
 62
     7
370
    15
100
AcDbCircle
 10
190.5993780355
 20
213.4139614105
 30
0.0
 40
4.5
  0
LINE
  5
1D6
330
1F
100
AcDbEntity
  8
0
  6
Continuous
 62
     7
370
    15
100
AcDbLine
 10
49.7993813734
 20
195.7096227916
 30
0.0
 11
49.7993813734
 21
203.3999034675
 31
0.0
  0
LINE
  5
1D7
330
1F
100
AcDbEntity
  8
0
  6
Continuous
 62
     7
370
    15
100
AcDbLine
 10
109.7993781696
 20
213.3606442721
 30
0.0
 11
109.7993781696
 21
192.0842149766
 31
0.0
  0
LINE
  5
1D8
330
1F
100
AcDbEntity
  8
0
  6
Continuous
 62
     7
370
    15
100
AcDbLine
 10
61.7993758897
 20
147.5027272017
 30
0.0
 11
65.549379764
 21
147.5027272017
 31
0.0
  0
SPLINE
  5
1D9
330
1F
100
AcDbEntity
  8
0
  6
Continuous
 62
     7
370
    15
100
AcDbSpline
210
0.0
220
0.0
230
1.0
 70
     8
 71
     3
 72
    16
 73
    12
 74
     0
 42
0.00000001
 43
0.00000001
 40
0.0
 40
0.0
 40
0.0
 40
0.0
 40
0.1057692725510585
 40
0.2115032409930764
 40
0.317444128942138
 40
0.4233816553410539
 40
0.5264300705721503
 40
0.6294885444662759
 40
0.7336086198473005
 40
0.8377331415081213
 40
1.0
 40
1.0
 40
1.0
 40
1.0
 10
46.79937529368704
 20
160.275536915822
 30
0.0
 10
46.83667925223574
 20
159.6467414433428
 30
0.0
 10
46.91127471786221
 20
158.3893603803604
 30
0.0
 10
47.51293086287708
 20
156.4377065597458
 30
0.0
 10
48.49238150706864
 20
154.5206664516546
 30
0.0
 10
49.83643683620015
 20
152.7194722974954
 30
0.0
 10
51.50490936783589
 20
151.1130746525437
 30
0.0
 10
53.43692482674165
 20
149.740519433314
 30
0.0
 10
55.60835125831261
 20
148.6645982157366
 30
0.0
 10
58.3879873886501
 20
147.7304270296681
 30
0.0
 10
60.50800844298507
 20
147.5889220591506
 30
0.0
 10
61.79937588973347
 20
147.5027272017431
 30
0.0
  0
LINE
  5
1DA
330
1F
100
AcDbEntity
  8
0
  6
Continuous
 62
     7
370
    15
100
AcDbLine
 10
65.549379764
 20
157.2929838212
 30
0.0
 11
65.549379764
 21
147.5027272017
 31
0.0
  0
LINE
  5
1DB
330
1F
100
AcDbEntity
  8
0
  6
Continuous
 62
     7
370
    15
100
AcDbLine
 10
49.7993813734
 20
169.36859428
 30
0.0
 11
49.7993813734
 21
195.7096227916
 31
0.0
  0
LINE
  5
1DC
330
1F
100
AcDbEntity
  8
0
  6
Continuous
 62
     7
370
    15
100
AcDbLine
 10
74.0493783633
 20
160.1491787942
 30
0.0
 11
74.0493783633
 21
165.6058163853
 31
0.0
  0
ARC
  5
1DD
330
1F
100
AcDbEntity
  8
0
  6
Continuous
 62
     7
370
    15
100
AcDbCircle
 10
70.4820105916
 20
171.9694436025
 30
0.0
 40
7.295331670213091
100
AcDbArc
 50
299.2744307317
 51
56.9275343009
  0
LINE
  5
1DE
330
1F
100
AcDbEntity
  8
0
  6
Continuous
 62
     7
370
    15
100
AcDbLine
 10
74.4630681257
 20
178.0827933462
 30
0.0
 11
65.1356862764
 21
178.0827933462
 31
0.0
  0
ARC
  5
1DF
330
1F
100
AcDbEntity
  8
0
  6
Continuous
 62
     7
370
    15
100
AcDbCircle
 10
69.1188523741
 20
171.9695145803
 30
0.0
 40
7.296423057337409
100
AcDbArc
 50
123.0866448675
 51
240.7114242763
  0
LINE
  5
1E0
330
1F
100
AcDbEntity
  8
0
  6
Continuous
 62
     7
370
    15
100
AcDbLine
 10
65.549379764
 20
165.6058163853
 30
0.0
 11
65.549379764
 21
160.1491787942
 31
0.0
  0
LINE
  5
1E1
330
1F
100
AcDbEntity
  8
0
  6
Continuous
 62
     7
370
    15
100
AcDbLine
 10
109.7993781696
 20
192.0842149766
 30
0.0
 11
109.7993781696
 21
160.1491787942
 31
0.0
  0
SPLINE
  5
1E2
330
1F
100
AcDbEntity
  8
0
  6
Continuous
 62
     7
370
    15
100
AcDbSpline
210
0.0
220
0.0
230
1.0
 70
     8
 71
     3
 72
    16
 73
    12
 74
     0
 42
0.00000001
 43
0.00000001
 40
0.0
 40
0.0
 40
0.0
 40
0.0
 40
0.1060628952966841
 40
0.212125496041407
 40
0.3182088774306527
 40
0.4242855012934884
 40
0.5298597374561725
 40
0.6354240342087495
 40
0.7390018473419329
 40
0.8425906255618797
 40
1.0
 40
1.0
 40
1.0
 40
1.0
 10
61.79937588973348
 20
147.2652399452161
 30
0.0
 10
60.95696388869192
 20
147.3038855526749
 30
0.0
 10
59.27214222610839
 20
147.3811766602681
 30
0.0
 10
56.814839650787
 20
147.9803384067972
 30
0.0
 10
54.50179023544255
 20
148.9203427441765
 30
0.0
 10
52.39477321183411
 20
150.1822094703725
 30
0.0
 10
50.56520180407016
 20
151.7170908148831
 30
0.0
 10
49.05777259298515
 20
153.4427942304544
 30
0.0
 10
47.93011045260464
 20
155.2914305506305
 30
0.0
 10
47.00794991382485
 20
157.5240422355445
 30
0.0
 10
46.87784329044469
 20
159.0834390924464
 30
0.0
 10
46.79937529368704
 20
160.0239196331929
 30
0.0
  0
LINE
  5
1E3
330
1F
100
AcDbEntity
  8
0
  6
Continuous
 62
     7
370
    15
100
AcDbLine
 10
61.7993758897
 20
147.2652399452
 30
0.0
 11
65.549379764
 21
147.2652399452
 31
0.0
  0
LINE
  5
1E4
330
1F
100
AcDbEntity
  8
0
  6
Continuous
 62
     7
370
    15
100
AcDbLine
 10
99.1993794124
 20
147.5027272017
 30
0.0
 11
109.7993781696
 21
147.5027272017
 31
0.0
  0
LINE
  5
1E5
330
1F
100
AcDbEntity
  8
0
  6
Continuous
 62
     7
370
    15
100
AcDbLine
 10
99.1993794124
 20
147.5027272017
 30
0.0
 11
99.1993794124
 21
151.9875706644
 31
0.0
  0
SPLINE
  5
1E6
330
1F
100
AcDbEntity
  8
0
  6
Continuous
 62
     7
370
    15
100
AcDbSpline
210
0.0
220
0.0
230
1.0
 70
     8
 71
     3
 72
    17
 73
    13
 74
     0
 42
0.00000001
 43
0.00000001
 40
0.0
 40
0.0
 40
0.0
 40
0.0
 40
0.1072582118808867
 40
0.2145136153282905
 40
0.3218467452821594
 40
0.4292535886749774
 40
0.53659371910997
 40
0.6438508362443334
 40
0.7511519677436279
 40
0.8585482632986677
 40
0.9659229952550408
 40
1.0
 40
1.0
 40
1.0
 40
1.0
 10
99.199379412368
 20
151.9875706644487
 30
0.0
 10
99.1728918422056
 20
152.2212930951745
 30
0.0
 10
99.11991739542746
 20
152.688731836872
 30
0.0
 10
98.7069368485361
 20
153.3029965951475
 30
0.0
 10
98.09845360241442
 20
153.7669082776372
 30
0.0
 10
97.33808882779894
 20
154.0309809498983
 30
0.0
 10
96.51840944256284
 20
154.0679095044309
 30
0.0
 10
95.73056068740804
 20
153.8741926917984
 30
0.0
 10
95.06245066093955
 20
153.4696281673725
 30
0.0
 10
94.59224290569415
 20
152.8965364604205
 30
0.0
 10
94.41383592949917
 20
152.3690282675416
 30
0.0
 10
94.40218355337629
 20
152.0616265281408
 30
0.0
 10
94.39937639041251
 20
151.9875706644487
 30
0.0
  0
LINE
  5
1E7
330
1F
100
AcDbEntity
  8
0
  6
Continuous
 62
     7
370
    15
100
AcDbLine
 10
94.3993763904
 20
151.9875706644
 30
0.0
 11
94.3993763904
 21
147.5027272017
 31
0.0
  0
LINE
  5
1E8
330
1F
100
AcDbEntity
  8
0
  6
Continuous
 62
     7
370
    15
100
AcDbLine
 10
74.0493783633
 20
147.5027272017
 30
0.0
 11
94.3993763904
 21
147.5027272017
 31
0.0
  0
LINE
  5
1E9
330
1F
100
AcDbEntity
  8
0
  6
Continuous
 62
     7
370
    15
100
AcDbLine
 10
74.0493783633
 20
147.5027272017
 30
0.0
 11
74.0493783633
 21
157.2929838212
 31
0.0
  0
LINE
  5
1EA
330
1F
100
AcDbEntity
  8
0
  6
Continuous
 62
     7
370
    15
100
AcDbLine
 10
109.7993781696
 20
147.5027272017
 30
0.0
 11
109.7993781696
 21
157.2929838212
 31
0.0
  0
ARC
  5
1EB
330
1F
100
AcDbEntity
  8
0
  6
Continuous
 62
     7
370
    15
100
AcDbCircle
 10
69.2311468302
 20
172.2672984448
 30
0.0
 40
7.432283654062026
100
AcDbArc
 50
180.6730020901
 51
240.3055226841
  0
LINE
  5
1EC
330
1F
100
AcDbEntity
  8
0
  6
Continuous
 62
     7
370
    15
100
AcDbLine
 10
65.549379764
 20
165.6058163853
 30
0.0
 11
65.549379764
 21
165.8110277267
 31
0.0
  0
ARC
  5
1ED
330
1F
100
AcDbEntity
  8
0
  6
Continuous
 62
     7
370
    15
100
AcDbCircle
 10
70.3920708285
 20
172.2528925208
 30
0.0
 40
7.407666328194357
100
AcDbArc
 50
299.5853322731
 51
359.4361927242
  0
LINE
  5
1EE
330
1F
100
AcDbEntity
  8
0
  6
Continuous
 62
     7
370
    15
100
AcDbLine
 10
74.0493783633
 20
165.6058163853
 30
0.0
 11
74.0493783633
 21
165.8110277267
 31
0.0
  0
LINE
  5
1EF
330
1F
100
AcDbEntity
  8
0
  6
Continuous
 62
     7
370
    15
100
AcDbLine
 10
65.549379764
 20
147.5027272017
 30
0.0
 11
65.549379764
 21
147.2652399452
 31
0.0
  0
LINE
  5
1F0
330
1F
100
AcDbEntity
  8
0
  6
Continuous
 62
     7
370
    15
100
AcDbLine
 10
94.3993763904
 20
147.5027272017
 30
0.0
 11
94.3993763904
 21
147.2652399452
 31
0.0
  0
LINE
  5
1F1
330
1F
100
AcDbEntity
  8
0
  6
Continuous
 62
     7
370
    15
100
AcDbLine
 10
74.0493783633
 20
147.2652399452
 30
0.0
 11
94.3993763904
 21
147.2652399452
 31
0.0
  0
LINE
  5
1F2
330
1F
100
AcDbEntity
  8
0
  6
Continuous
 62
     7
370
    15
100
AcDbLine
 10
74.0493783633
 20
147.2652399452
 30
0.0
 11
74.0493783633
 21
147.5027272017
 31
0.0
  0
LINE
  5
1F3
330
1F
100
AcDbEntity
  8
0
  6
Continuous
 62
     7
370
    15
100
AcDbLine
 10
99.1993794124
 20
147.2652399452
 30
0.0
 11
99.1993794124
 21
147.5027272017
 31
0.0
  0
LINE
  5
1F4
330
1F
100
AcDbEntity
  8
0
  6
Continuous
 62
     7
370
    15
100
AcDbLine
 10
99.1993794124
 20
147.2652399452
 30
0.0
 11
109.7993781696
 21
147.2652399452
 31
0.0
  0
LINE
  5
1F5
330
1F
100
AcDbEntity
  8
0
  6
Continuous
 62
     7
370
    15
100
AcDbLine
 10
109.7993781696
 20
147.2652399452
 30
0.0
 11
109.7993781696
 21
147.5027272017
 31
0.0
  0
SPLINE
  5
1F6
330
1F
100
AcDbEntity
  8
0
  6
Continuous
 62
     7
370
    15
100
AcDbSpline
210
0.0
220
0.0
230
1.0
 70
     8
 71
     3
 72
    17
 73
    13
 74
     0
 42
0.00000001
 43
0.00000001
 40
0.0
 40
0.0
 40
0.0
 40
0.0
 40
0.1072552142983739
 40
0.2145075777007049
 40
0.321839484157284
 40
0.4292473448323244
 40
0.5365867349672687
 40
0.6438408299589444
 40
0.751139992369665
 40
0.8585364585210282
 40
0.9659115966274963
 40
1.0
 40
1.0
 40
1.0
 40
1.0
 10
94.39937639041251
 20
151.6875618608426
 30
0.0
 10
94.4258626284284
 20
151.9212807718204
 30
0.0
 10
94.47883440044303
 20
152.3887123814129
 30
0.0
 10
94.8917923791061
 20
153.0028767772806
 30
0.0
 10
95.50025802163478
 20
153.4666631632552
 30
0.0
 10
96.26061229309622
 20
153.7306613282539
 30
0.0
 10
97.08028799427166
 20
153.7675880110273
 30
0.0
 10
97.86812855504672
 20
153.5739603173064
 30
0.0
 10
98.53624295524462
 20
153.1695442554131
 30
0.0
 10
99.00647727478808
 20
152.5965804441464
 30
0.0
 10
99.1849090526381
 20
152.0690871127247
 30
0.0
 10
99.19656958044142
 20
151.7616458403392
 30
0.0
 10
99.199379412368
 20
151.6875618608426
 30
0.0
  0
LINE
  5
1F7
330
1F
100
AcDbEntity
  8
0
  6
Continuous
 62
     7
370
    15
100
AcDbLine
 10
49.7993813734
 20
203.3999034675
 30
0.0
 11
49.7993813734
 21
207.8461640985
 31
0.0
  0
LINE
  5
1F8
330
1F
100
AcDbEntity
  8
0
  6
Continuous
 62
     7
370
    15
100
AcDbLine
 10
109.7993781696
 20
217.8069049032
 30
0.0
 11
109.7993781696
 21
213.3606442721
 31
0.0
  0
LINE
  5
1F9
330
1F
100
AcDbEntity
  8
0
  6
Continuous
 62
     7
370
    15
100
AcDbLine
 10
65.549379764
 20
160.1491787942
 30
0.0
 11
65.549379764
 21
157.2929838212
 31
0.0
  0
LINE
  5
1FA
330
1F
100
AcDbEntity
  8
0
  6
Continuous
 62
     7
370
    15
100
AcDbLine
 10
74.0493783633
 20
157.2929838212
 30
0.0
 11
74.0493783633
 21
160.1491787942
 31
0.0
  0
LINE
  5
1FB
330
1F
100
AcDbEntity
  8
0
  6
Continuous
 62
     7
370
    15
100
AcDbLine
 10
109.7993781696
 20
160.1491787942
 30
0.0
 11
109.7993781696
 21
157.2929838212
 31
0.0
  0
LINE
  5
1FC
330
1F
100
AcDbEntity
  8
0
  6
Continuous
 62
     7
370
    15
100
AcDbLine
 10
49.7993813734
 20
207.8461640985
 30
0.0
 11
49.7993813734
 21
208.2080089958
 31
0.0
  0
LINE
  5
1FD
330
1F
100
AcDbEntity
  8
0
  6
Continuous
 62
     7
370
    15
100
AcDbLine
 10
109.7993781696
 20
218.8080096157
 30
0.0
 11
109.7993781696
 21
217.8069049032
 31
0.0
  0
LINE
  5
1FE
330
1F
100
AcDbEntity
  8
0
  6
Continuous
 62
     7
370
    15
100
AcDbLine
 10
66.3993792514
 20
178.0827933462
 30
0.0
 11
66.3993792514
 21
177.0984747918
 31
0.0
  0
LINE
  5
1FF
330
1F
100
AcDbEntity
  8
0
  6
Continuous
 62
     7
370
    15
100
AcDbLine
 10
70.3993799071
 20
178.0827933462
 30
0.0
 11
70.3993799071
 21
177.0984747918
 31
0.0
  0
LINE
  5
200
330
1F
100
AcDbEntity
  8
0
  6
Continuous
 62
     7
370
    15
100
AcDbLine
 10
152.3993784468
 20
212.6395919831
 30
0.0
 11
152.3993784468
 21
177.0984747918
 31
0.0
  0
LINE
  5
201
330
1F
100
AcDbEntity
  8
0
  6
Continuous
 62
     7
370
    15
100
AcDbLine
 10
152.3993784468
 20
213.0984732421
 30
0.0
 11
152.3993784468
 21
212.6395919831
 31
0.0
  0
LINE
  5
202
330
1F
100
AcDbEntity
  8
0
  6
Continuous
 62
     7
370
    15
100
AcDbLine
 10
228.09937465
 20
100.2889614092
 30
0.0
 11
228.09937465
 21
113.3511392172
 31
0.0
  0
LINE
  5
203
330
1F
100
AcDbEntity
  8
0
  6
Continuous
 62
     7
370
    15
100
AcDbLine
 10
228.09937465
 20
113.3511392172
 30
0.0
 11
228.09937465
 21
116.3483451592
 31
0.0
  0
LINE
  5
204
330
1F
100
AcDbEntity
  8
0
  6
Continuous
 62
     7
370
    15
100
AcDbLine
 10
234.0993793587
 20
114.8916644515
 30
0.0
 11
234.0993793587
 21
111.6190884268
 31
0.0
  0
LINE
  5
205
330
1F
100
AcDbEntity
  8
0
  6
Continuous
 62
     7
370
    15
100
AcDbLine
 10
232.0993753056
 20
163.5473774286
 30
0.0
 11
232.0993753056
 21
120.1414827728
 31
0.0
  0
LINE
  5
206
330
1F
100
AcDbEntity
  8
0
  6
Continuous
 62
     7
370
    15
100
AcDbLine
 10
228.09937465
 20
118.6571678618
 30
0.0
 11
228.09937465
 21
165.7227010937
 31
0.0
  0
LINE
  5
207
330
1F
100
AcDbEntity
  8
0
  6
Continuous
 62
     7
370
    15
100
AcDbLine
 10
228.09937465
 20
116.3483451592
 30
0.0
 11
228.09937465
 21
118.6571678618
 31
0.0
  0
SPLINE
  5
208
330
1F
100
AcDbEntity
  8
0
  6
Continuous
 62
     7
370
    15
100
AcDbSpline
210
0.0
220
0.0
230
1.0
 70
    24
 71
     3
 72
     9
 73
     5
 74
     0
 42
0.00000001
 43
0.00000001
 40
0.0
 40
0.0
 40
0.0
 40
0.0
 40
0.5975949127040077
 40
0.9999999999999999
 40
0.9999999999999999
 40
0.9999999999999999
 40
0.9999999999999999
 10
234.0993793587238
 20
117.1414827467632
 30
0.0
 10
234.0993793587238
 20
116.6710487112262
 30
0.0
 10
234.0993793587238
 20
115.8838364616969
 30
0.0
 10
234.0993793587238
 20
115.1763575605135
 30
0.0
 10
234.0993793587238
 20
114.8916644515228
 30
0.0
  0
LINE
  5
209
330
1F
100
AcDbEntity
  8
0
  6
Continuous
 62
     7
370
    15
100
AcDbLine
 10
234.0993793587
 20
118.8125534454
 30
0.0
 11
234.0993793587
 21
117.1414827468
 31
0.0
  0
LINE
  5
20A
330
1F
100
AcDbEntity
  8
0
  6
Continuous
 62
     7
370
    15
100
AcDbLine
 10
232.3962436895
 20
121.4778668718
 30
0.0
 11
232.270015953
 21
121.71717207
 31
0.0
  0
LINE
  5
20B
330
1F
100
AcDbEntity
  8
0
  6
Continuous
 62
     7
370
    15
100
AcDbLine
 10
234.0993793587
 20
119.0183249773
 30
0.0
 11
234.0993793587
 21
118.8125534454
 31
0.0
  0
LINE
  5
20C
330
1F
100
AcDbEntity
  8
0
  6
Continuous
 62
     7
370
    15
100
AcDbLine
 10
232.0993753056
 20
100.2889614092
 30
0.0
 11
232.0993753056
 21
94.11396212
 31
0.0
  0
LINE
  5
20D
330
1F
100
AcDbEntity
  8
0
  6
Continuous
 62
     7
370
    15
100
AcDbLine
 10
228.09937465
 20
92.1139617922
 30
0.0
 11
228.09937465
 21
100.2889614092
 31
0.0
  0
LINE
  5
20E
330
1F
100
AcDbEntity
  8
0
  6
Continuous
 62
     7
370
    15
100
AcDbLine
 10
228.09937465
 20
165.7227010937
 30
0.0
 11
228.09937465
 21
167.6695489796
 31
0.0
  0
SPLINE
  5
20F
330
1F
100
AcDbEntity
  8
0
  6
Continuous
 62
     7
370
    15
100
AcDbSpline
210
0.0
220
0.0
230
1.0
 70
    24
 71
     3
 72
     9
 73
     5
 74
     0
 42
0.00000001
 43
0.00000001
 40
0.0
 40
0.0
 40
0.0
 40
0.0
 40
0.5665019881707756
 40
0.9999999999999999
 40
0.9999999999999999
 40
0.9999999999999999
 40
0.9999999999999999
 10
234.0993793587238
 20
167.1188095124196
 30
0.0
 10
234.0993793587238
 20
166.4439929184923
 30
0.0
 10
234.0993793587238
 20
165.2527939324017
 30
0.0
 10
234.0993793587238
 20
164.0631051503078
 30
0.0
 10
234.0993793587238
 20
163.5473774285745
 30
0.0
  0
LINE
  5
210
330
1F
100
AcDbEntity
  8
0
  6
Continuous
 62
     7
370
    15
100
AcDbLine
 10
234.0993793587
 20
160.2052332373
 30
0.0
 11
234.0993793587
 21
159.0441533835
 31
0.0
  0
LINE
  5
211
330
1F
100
AcDbEntity
  8
0
  6
Continuous
 62
     7
370
    15
100
AcDbLine
 10
234.0993793587
 20
163.5473774286
 30
0.0
 11
234.0993793587
 21
160.2052332373
 31
0.0
  0
LINE
  5
212
330
1F
100
AcDbEntity
  8
0
  6
Continuous
 62
     7
370
    15
100
AcDbLine
 10
228.09937465
 20
167.6695489796
 30
0.0
 11
228.09937465
 21
173.6639620276
 31
0.0
  0
LINE
  5
213
330
1F
100
AcDbEntity
  8
0
  6
Continuous
 62
     7
370
    15
100
AcDbLine
 10
228.09937465
 20
173.6639620276
 30
0.0
 11
228.09937465
 21
180.6639650376
 31
0.0
  0
LINE
  5
214
330
1F
100
AcDbEntity
  8
0
  6
Continuous
 62
     7
370
    15
100
AcDbLine
 10
234.0993793587
 20
173.0440513702
 30
0.0
 11
234.0993793587
 21
167.1188095124
 31
0.0
  0
LINE
  5
215
330
1F
100
AcDbEntity
  8
0
  6
Continuous
 62
     7
370
    15
100
AcDbLine
 10
221.6193811874
 20
161.413959554
 30
0.0
 11
221.6193811874
 21
150.2178081782
 31
0.0
  0
LINE
  5
216
330
1F
100
AcDbEntity
  8
0
  6
Continuous
 62
     7
370
    15
100
AcDbLine
 10
201.2993754725
 20
161.413959554
 30
0.0
 11
201.2993754725
 21
150.2178081782
 31
0.0
  0
LINE
  5
217
330
1F
100
AcDbEntity
  8
0
  6
Continuous
 62
     7
370
    15
100
AcDbLine
 10
221.0993753652
 20
142.599610007
 30
0.0
 11
221.6193811874
 21
142.599610007
 31
0.0
  0
LINE
  5
218
330
1F
100
AcDbEntity
  8
0
  6
Continuous
 62
     7
370
    15
100
AcDbLine
 10
216.0993801336
 20
141.3826172711
 30
0.0
 11
221.0993753652
 21
141.3826172711
 31
0.0
  0
LINE
  5
219
330
1F
100
AcDbEntity
  8
0
  6
Continuous
 62
     7
370
    15
100
AcDbLine
 10
211.5593762974
 20
140.2393573435
 30
0.0
 11
216.0993801336
 21
140.2393573435
 31
0.0
  0
SPLINE
  5
21A
330
1F
100
AcDbEntity
  8
0
  6
Continuous
 62
     7
370
    15
100
AcDbSpline
210
0.0
220
0.0
230
1.0
 70
     8
 71
     3
 72
    12
 73
     8
 74
     0
 42
0.00000001
 43
0.00000001
 40
0.0
 40
0.0
 40
0.0
 40
0.0
 40
0.2203188422768589
 40
0.4407392600527349
 40
0.6583973593657694
 40
0.871919421970626
 40
1.0
 40
1.0
 40
1.0
 40
1.0
 10
207.5593756417782
 20
138.1995820911359
 30
0.0
 10
207.6047235708012
 20
138.4326512856366
 30
0.0
 10
207.6954403359948
 20
138.898897128542
 30
0.0
 10
208.4067572972291
 20
139.5183063192409
 30
0.0
 10
209.4494925979742
 20
139.9782984031024
 30
0.0
 10
210.5690997127751
 20
140.2088495752495
 30
0.0
 10
211.2893321648491
 20
140.2310380073089
 30
0.0
 10
211.5593762974293
 20
140.2393573434781
 30
0.0
  0
LINE
  5
21B
330
1F
100
AcDbEntity
  8
0
  6
Continuous
 62
     7
370
    15
100
AcDbLine
 10
207.5593756418
 20
134.2178092809
 30
0.0
 11
203.549376307
 21
134.2178092809
 31
0.0
  0
LINE
  5
21C
330
1F
100
AcDbEntity
  8
0
  6
Continuous
 62
     7
370
    15
100
AcDbLine
 10
203.549376307
 20
134.2178092809
 30
0.0
 11
203.549376307
 21
142.4729445489
 31
0.0
  0
LINE
  5
21D
330
1F
100
AcDbEntity
  8
0
  6
Continuous
 62
     7
370
    15
100
AcDbLine
 10
203.549376307
 20
142.4729445489
 30
0.0
 11
201.2993754725
 21
142.4729445489
 31
0.0
  0
LINE
  5
21E
330
1F
100
AcDbEntity
  8
0
  6
Continuous
 62
     7
370
    15
100
AcDbLine
 10
221.6193811874
 20
150.2178081782
 30
0.0
 11
221.6193811874
 21
142.599610007
 31
0.0
  0
LINE
  5
21F
330
1F
100
AcDbEntity
  8
0
  6
Continuous
 62
     7
370
    15
100
AcDbLine
 10
201.2993754725
 20
150.2178081782
 30
0.0
 11
201.2993754725
 21
142.4729445489
 31
0.0
  0
LINE
  5
220
330
1F
100
AcDbEntity
  8
0
  6
Continuous
 62
     7
370
    15
100
AcDbLine
 10
221.0993753652
 20
113.3511392172
 30
0.0
 11
221.0993753652
 21
100.2889614092
 31
0.0
  0
LINE
  5
221
330
1F
100
AcDbEntity
  8
0
  6
Continuous
 62
     7
370
    15
100
AcDbLine
 10
221.0993753652
 20
117.1829540753
 30
0.0
 11
228.09937465
 21
117.1829540753
 31
0.0
  0
LINE
  5
222
330
1F
100
AcDbEntity
  8
0
  6
Continuous
 62
     7
370
    15
100
AcDbLine
 10
221.0993753652
 20
117.1829540753
 30
0.0
 11
221.0993753652
 21
113.3511392172
 31
0.0
  0
LINE
  5
223
330
1F
100
AcDbEntity
  8
0
  6
Continuous
 62
     7
370
    15
100
AcDbLine
 10
222.0993773918
 20
166.0003320785
 30
0.0
 11
228.09937465
 21
166.0003320785
 31
0.0
  0
LINE
  5
224
330
1F
100
AcDbEntity
  8
0
  6
Continuous
 62
     7
370
    15
100
AcDbLine
 10
221.0993753652
 20
142.599610007
 30
0.0
 11
221.0993753652
 21
117.1829540753
 31
0.0
  0
LINE
  5
225
330
1F
100
AcDbEntity
  8
0
  6
Continuous
 62
     7
370
    15
100
AcDbLine
 10
221.0993753652
 20
95.084346226
 30
0.0
 11
216.0993801336
 21
95.084346226
 31
0.0
  0
LINE
  5
226
330
1F
100
AcDbEntity
  8
0
  6
Continuous
 62
     7
370
    15
100
AcDbLine
 10
216.0993801336
 20
141.3826172711
 30
0.0
 11
216.0993801336
 21
95.084346226
 31
0.0
  0
SPLINE
  5
227
330
1F
100
AcDbEntity
  8
0
  6
Continuous
 62
     7
370
    15
100
AcDbSpline
210
0.0
220
0.0
230
1.0
 70
     8
 71
     3
 72
    12
 73
     8
 74
     0
 42
0.00000001
 43
0.00000001
 40
0.0
 40
0.0
 40
0.0
 40
0.0
 40
0.2097270348486673
 40
0.4194040406547729
 40
0.6305469677193404
 40
0.8451729474079432
 40
1.0
 40
1.0
 40
1.0
 40
1.0
 10
211.5593762974293
 20
97.37086514995808
 30
0.0
 10
211.1155806187523
 20
97.41472930491553
 30
0.0
 10
210.2280951260186
 20
97.50244715131689
 30
0.0
 10
209.0433326554082
 20
98.18528179768013
 30
0.0
 10
208.1393038295475
 20
99.19358975373778
 30
0.0
 10
207.6360142791552
 20
100.3441584784077
 30
0.0
 10
207.5820080756282
 20
101.1237215247163
 30
0.0
 10
207.5593756417782
 20
101.4504137919974
 30
0.0
  0
LINE
  5
228
330
1F
100
AcDbEntity
  8
0
  6
Continuous
 62
     7
370
    15
100
AcDbLine
 10
207.5593756418
 20
101.450413792
 30
0.0
 11
207.5593756418
 21
138.1995820911
 31
0.0
  0
LINE
  5
229
330
1F
100
AcDbEntity
  8
0
  6
Continuous
 62
     7
370
    15
100
AcDbLine
 10
216.0993801336
 20
97.37086515
 30
0.0
 11
211.5593762974
 21
97.37086515
 31
0.0
  0
LINE
  5
22A
330
1F
100
AcDbEntity
  8
0
  6
Continuous
 62
     7
370
    15
100
AcDbLine
 10
225.9026305656
 20
186.4139580639
 30
0.0
 11
225.5816297512
 21
186.4033782394
 31
0.0
  0
ARC
  5
22B
330
1F
100
AcDbEntity
  8
0
  6
Continuous
 62
     7
370
    15
100
AcDbCircle
 10
227.0993780355
 20
181.4139614105
 30
0.0
 40
5.0
100
AcDbArc
 50
90.0
 51
180.0
  0
LINE
  5
22C
330
1F
100
AcDbEntity
  8
0
  6
Continuous
 62
     7
370
    15
100
AcDbLine
 10
205.4116861801
 20
186.4105605991
 30
0.0
 11
205.1843391637
 21
186.4139580639
 31
0.0
  0
LINE
  5
22D
330
1F
100
AcDbEntity
  8
0
  6
Continuous
 62
     7
370
    15
100
AcDbLine
 10
227.5474505405
 20
186.4139580639
 30
0.0
 11
225.9026305656
 21
186.4139580639
 31
0.0
  0
LINE
  5
22E
330
1F
100
AcDbEntity
  8
0
  6
Continuous
 62
     7
370
    15
100
AcDbLine
 10
221.6193811874
 20
92.6503588916
 30
0.0
 11
221.0993753652
 21
92.6503588916
 31
0.0
  0
LINE
  5
22F
330
1F
100
AcDbEntity
  8
0
  6
Continuous
 62
     7
370
    15
100
AcDbLine
 10
221.0993753652
 20
100.2889614092
 30
0.0
 11
221.0993753652
 21
92.6503588916
 31
0.0
  0
LINE
  5
230
330
1F
100
AcDbEntity
  8
0
  6
Continuous
 62
     7
370
    15
100
AcDbLine
 10
210.0393758993
 20
161.413959554
 30
0.0
 11
210.0393758993
 21
181.4139628323
 31
0.0
  0
LINE
  5
231
330
1F
100
AcDbEntity
  8
0
  6
Continuous
 62
     7
370
    15
100
AcDbLine
 10
222.0993773918
 20
181.4139628323
 30
0.0
 11
222.0993773918
 21
161.1874656291
 31
0.0
  0
ARC
  5
232
330
1F
100
AcDbEntity
  8
0
  6
Continuous
 62
     7
370
    15
100
AcDbCircle
 10
205.0393780355
 20
181.4139614105
 30
0.0
 40
5.0
100
AcDbArc
 50
0.0
 51
90.0
  0
LINE
  5
233
330
1F
100
AcDbEntity
  8
0
  6
Continuous
 62
     7
370
    15
100
AcDbLine
 10
241.8104322533
 20
186.4139580639
 30
0.0
 11
227.5474505405
 21
186.4139580639
 31
0.0
  0
LINE
  5
234
330
1F
100
AcDbEntity
  8
0
  6
Continuous
 62
     7
370
    15
100
AcDbLine
 10
237.5993790011
 20
194.4139593752
 30
0.0
 11
243.5474531631
 21
194.4139593752
 31
0.0
  0
LINE
  5
235
330
1F
100
AcDbEntity
  8
0
  6
Continuous
 62
     7
370
    15
100
AcDbLine
 10
205.1843391637
 20
186.4139580639
 30
0.0
 11
204.7653557639
 21
186.4139580639
 31
0.0
  0
LINE
  5
236
330
1F
100
AcDbEntity
  8
0
  6
Continuous
 62
     7
370
    15
100
AcDbLine
 10
204.7653557639
 20
186.4139580639
 30
0.0
 11
189.5990582089
 21
186.4139580639
 31
0.0
  0
LINE
  5
237
330
1F
100
AcDbEntity
  8
0
  6
Continuous
 62
     7
370
    15
100
AcDbLine
 10
183.5593791585
 20
117.1733987057
 30
0.0
 11
183.5593791585
 21
141.6545243473
 31
0.0
  0
LINE
  5
238
330
1F
100
AcDbEntity
  8
0
  6
Continuous
 62
     7
370
    15
100
AcDbLine
 10
203.549376307
 20
92.9036898078
 30
0.0
 11
201.2993754725
 21
92.9036898078
 31
0.0
  0
LINE
  5
239
330
1F
100
AcDbEntity
  8
0
  6
Continuous
 62
     7
370
    15
100
AcDbLine
 10
221.6193811874
 20
77.4139606865
 30
0.0
 11
221.6193811874
 21
71.413959703
 31
0.0
  0
LINE
  5
23A
330
1F
100
AcDbEntity
  8
0
  6
Continuous
 62
     7
370
    15
100
AcDbLine
 10
201.2993754725
 20
77.4139606865
 30
0.0
 11
201.2993754725
 21
71.413959703
 31
0.0
  0
LINE
  5
23B
330
1F
100
AcDbEntity
  8
0
  6
Continuous
 62
     7
370
    15
100
AcDbLine
 10
207.5593756418
 20
109.4139615079
 30
0.0
 11
203.549376307
 21
109.4139615079
 31
0.0
  0
LINE
  5
23C
330
1F
100
AcDbEntity
  8
0
  6
Continuous
 62
     7
370
    15
100
AcDbLine
 10
221.6193811874
 20
92.6503588916
 30
0.0
 11
221.6193811874
 21
77.4139606865
 31
0.0
  0
LINE
  5
23D
330
1F
100
AcDbEntity
  8
0
  6
Continuous
 62
     7
370
    15
100
AcDbLine
 10
203.549376307
 20
92.9036898078
 30
0.0
 11
203.549376307
 21
109.4139615079
 31
0.0
  0
LINE
  5
23E
330
1F
100
AcDbEntity
  8
0
  6
Continuous
 62
     7
370
    15
100
AcDbLine
 10
201.2993754725
 20
92.9036898078
 30
0.0
 11
201.2993754725
 21
77.4139606865
 31
0.0
  0
LINE
  5
23F
330
1F
100
AcDbEntity
  8
0
  6
Continuous
 62
     7
370
    15
100
AcDbLine
 10
189.5990582089
 20
186.4139580639
 30
0.0
 11
188.5993765573
 21
186.4139580639
 31
0.0
  0
LINE
  5
240
330
1F
100
AcDbEntity
  8
0
  6
Continuous
 62
     7
370
    15
100
AcDbLine
 10
242.5993816833
 20
186.4139580639
 30
0.0
 11
241.8104322533
 21
186.4139580639
 31
0.0
  0
LINE
  5
241
330
1F
100
AcDbEntity
  8
0
  6
Continuous
 62
     7
370
    15
100
AcDbLine
 10
168.7993766646
 20
150.2178081782
 30
0.0
 11
168.7993766646
 21
161.413959554
 31
0.0
  0
SPLINE
  5
242
330
1F
100
AcDbEntity
  8
0
  6
Continuous
 62
     7
370
    15
100
AcDbSpline
210
0.0
220
0.0
230
1.0
 70
     8
 71
     3
 72
    11
 73
     7
 74
     0
 42
0.00000001
 43
0.00000001
 40
0.0
 40
0.0
 40
0.0
 40
0.0
 40
0.3191677636904006
 40
0.6382938289158467
 40
0.9585930651371406
 40
1.0
 40
1.0
 40
1.0
 40
1.0
 10
172.799377320245
 20
147.0213191123437
 30
0.0
 10
173.1346359584233
 20
147.0048032094412
 30
0.0
 10
173.8051094340829
 20
146.9717735613972
 30
0.0
 10
174.6965508494843
 20
146.7143294973353
 30
0.0
 10
175.1832670255252
 20
146.4460842063219
 30
0.0
 10
175.3754535022001
 20
146.2832725638901
 30
0.0
 10
175.3974543790371
 20
146.2646344216298
 30
0.0
  0
LINE
  5
243
330
1F
100
AcDbEntity
  8
0
  6
Continuous
 62
     7
370
    15
100
AcDbLine
 10
172.7993773202
 20
147.0213191123
 30
0.0
 11
168.7993766646
 21
147.0213191123
 31
0.0
  0
LINE
  5
244
330
1F
100
AcDbEntity
  8
0
  6
Continuous
 62
     7
370
    15
100
AcDbLine
 10
175.397454379
 20
146.2646344216
 30
0.0
 11
201.2993754725
 21
146.2646344216
 31
0.0
  0
LINE
  5
245
330
1F
100
AcDbEntity
  8
0
  6
Continuous
 62
     7
370
    15
100
AcDbLine
 10
201.2993754725
 20
146.2646344216
 30
0.0
 11
201.2993754725
 21
150.2178081782
 31
0.0
  0
LINE
  5
246
330
1F
100
AcDbEntity
  8
0
  6
Continuous
 62
     7
370
    15
100
AcDbLine
 10
168.7993766646
 20
147.0213191123
 30
0.0
 11
168.7993766646
 21
150.2178081782
 31
0.0
  0
LINE
  5
247
330
1F
100
AcDbEntity
  8
0
  6
Continuous
 62
     7
370
    15
100
AcDbLine
 10
166.7993763368
 20
175.4139581235
 30
0.0
 11
166.7993763368
 21
83.41396167
 31
0.0
  0
LINE
  5
248
330
1F
100
AcDbEntity
  8
0
  6
Continuous
 62
     7
370
    15
100
AcDbLine
 10
168.7993766646
 20
83.8069444062
 30
0.0
 11
172.7993773202
 21
83.8069444062
 31
0.0
  0
LINE
  5
249
330
1F
100
AcDbEntity
  8
0
  6
Continuous
 62
     7
370
    15
100
AcDbLine
 10
175.7993796746
 20
146.2646344216
 30
0.0
 11
175.7993796746
 21
86.6004129411
 31
0.0
  0
SPLINE
  5
24A
330
1F
100
AcDbEntity
  8
0
  6
Continuous
 62
     7
370
    15
100
AcDbSpline
210
0.0
220
0.0
230
1.0
 70
     8
 71
     3
 72
     9
 73
     5
 74
     0
 42
0.00000001
 43
0.00000001
 40
0.0
 40
0.0
 40
0.0
 40
0.0
 40
0.7672338918328057
 40
1.0
 40
1.0
 40
1.0
 40
1.0
 10
175.7993796746285
 20
86.60041294114107
 30
0.0
 10
175.7749190451291
 20
86.25705738142949
 30
0.0
 10
175.7430374640886
 20
85.80953340814496
 30
0.0
 10
175.5467419255121
 20
85.41268482516837
 30
0.0
 10
175.501050976947
 20
85.32031192497725
 30
0.0
  0
SPLINE
  5
24B
330
1F
100
AcDbEntity
  8
0
  6
Continuous
 62
     7
370
    15
100
AcDbSpline
210
0.0
220
0.0
230
1.0
 70
     8
 71
     3
 72
    10
 73
     6
 74
     0
 42
0.00000001
 43
0.00000001
 40
0.0
 40
0.0
 40
0.0
 40
0.0
 40
0.3228193080852625
 40
0.6457223739378573
 40
1.0
 40
1.0
 40
1.0
 40
1.0
 10
175.3974543790371
 20
85.32031192497725
 30
0.0
 10
175.2004509461586
 20
85.04404627145021
 30
0.0
 10
174.8063929664588
 20
84.49144328530585
 30
0.0
 10
173.8795340108477
 20
83.92748749787349
 30
0.0
 10
173.1703815008816
 20
83.84834765013952
 30
0.0
 10
172.799377320245
 20
83.80694440619463
 30
0.0
  0
LINE
  5
24C
330
1F
100
AcDbEntity
  8
0
  6
Continuous
 62
     7
370
    15
100
AcDbLine
 10
175.7993796746
 20
141.5723593445
 30
0.0
 11
201.2993754725
 21
142.9736217024
 31
0.0
  0
LINE
  5
24D
330
1F
100
AcDbEntity
  8
0
  6
Continuous
 62
     7
370
    15
100
AcDbLine
 10
175.7993796746
 20
172.4139632197
 30
0.0
 11
175.7993796746
 21
161.413959554
 31
0.0
  0
LINE
  5
24E
330
1F
100
AcDbEntity
  8
0
  6
Continuous
 62
     7
370
    15
100
AcDbLine
 10
179.799376605
 20
141.8779076548
 30
0.0
 11
179.799376605
 21
112.4139614103
 31
0.0
  0
LINE
  5
24F
330
1F
100
AcDbEntity
  8
0
  6
Continuous
 62
     7
370
    15
100
AcDbLine
 10
168.7993766646
 20
77.4139606865
 30
0.0
 11
168.7993766646
 21
83.8069444062
 31
0.0
  0
LINE
  5
250
330
1F
100
AcDbEntity
  8
0
  6
Continuous
 62
     7
370
    15
100
AcDbLine
 10
175.397454379
 20
85.320311925
 30
0.0
 11
201.2993754725
 21
85.320311925
 31
0.0
  0
LINE
  5
251
330
1F
100
AcDbEntity
  8
0
  6
Continuous
 62
     7
370
    15
100
AcDbLine
 10
201.2993754725
 20
77.4139606865
 30
0.0
 11
201.2993754725
 21
85.320311925
 31
0.0
  0
LINE
  5
252
330
1F
100
AcDbEntity
  8
0
  6
Continuous
 62
     7
370
    15
100
AcDbLine
 10
168.7993766646
 20
71.413959703
 30
0.0
 11
168.7993766646
 21
77.4139606865
 31
0.0
  0
LWPOLYLINE
  5
253
330
1F
100
AcDbEntity
  8
0
  6
Continuous
 62
     7
370
    15
100
AcDbPolyline
 90
        3
 70
   128
 43
0.0
 10
203.2993795256
 20
95.1466293545
 10
179.0707545261
 20
97.8092051582
 10
175.7993796746
 20
98.1689620303
  0
LINE
  5
254
330
1F
100
AcDbEntity
  8
0
  6
Continuous
 62
     7
370
    15
100
AcDbLine
 10
203.2993795256
 20
95.1466293545
 30
0.0
 11
203.2993795256
 21
92.9036898078
 31
0.0
  0
LINE
  5
255
330
1F
100
AcDbEntity
  8
0
  6
Continuous
 62
     7
370
    15
100
AcDbLine
 10
40.2993770222
 20
84.4139618339
 30
0.0
 11
40.2993770222
 21
174.4139598222
 31
0.0
  0
LINE
  5
256
330
1F
100
AcDbEntity
  8
0
  6
Continuous
 62
     7
370
    15
100
AcDbLine
 10
46.7993752937
 20
83.41396167
 30
0.0
 11
46.7993752937
 21
175.4139581235
 31
0.0
  0
SPLINE
  5
257
330
1F
100
AcDbEntity
  8
0
  6
Continuous
 62
     7
370
    15
100
AcDbSpline
210
0.0
220
0.0
230
1.0
 70
    11
 71
     3
 72
    26
 73
    22
 74
     0
 42
0.00000001
 43
0.00000001
 40
0.0
 40
0.0
 40
0.0
 40
0.0
 40
0.0536526649676112
 40
0.1073040414538573
 40
0.1609889716872774
 40
0.2146949998164955
 40
0.2683652325346765
 40
0.3219979596203257
 40
0.3756504184030805
 40
0.4293487215781455
 40
0.4830478639961173
 40
0.5367011349526203
 40
0.590333729073952
 40
0.6440029613184551
 40
0.6977087700249021
 40
0.7513948012827205
 40
0.8050343621827928
 40
0.8586746725709707
 40
0.9123605453125794
 40
0.9660664282333574
 40
1.0
 40
1.0
 40
1.0
 40
1.0
 10
96.79937976403541
 20
153.6738270433378
 30
0.0
 10
97.02415234274885
 20
153.6552009402652
 30
0.0
 10
97.47369210220938
 20
153.6179491814304
 30
0.0
 10
98.07206762752831
 20
153.3267146021876
 30
0.0
 10
98.52724194374792
 20
152.8951396179964
 30
0.0
 10
98.78775185554973
 20
152.3518438328776
 30
0.0
 10
98.8240570444159
 20
151.7611312807568
 30
0.0
 10
98.63233179668197
 20
151.1882451923694
 30
0.0
 10
98.23428416671918
 20
150.6991033145736
 30
0.0
 10
97.67438228441088
 20
150.3510060200601
 30
0.0
 10
97.01569840001528
 20
150.185929888445
 30
0.0
 10
96.33287513806522
 20
150.2238450327414
 30
0.0
 10
95.70282606094236
 20
150.4598838637517
 30
0.0
 10
95.1961105636292
 20
150.8657052678194
 30
0.0
 10
94.86986985219461
 20
151.3933186268105
 30
0.0
 10
94.76118589494442
 20
151.9809831419321
 30
0.0
 10
94.88215633268112
 20
152.5611248448307
 30
0.0
 10
95.21897268399387
 20
153.070444452603
 30
0.0
 10
95.73364086443001
 20
153.4504572589321
 30
0.0
 10
96.29175235699137
 20
153.6467062037989
 30
0.0
 10
96.65769034862751
 20
153.6662570503738
 30
0.0
 10
96.79937976403541
 20
153.6738270433378
 30
0.0
  0
LINE
  5
258
330
1F
100
AcDbEntity
  8
0
  6
Continuous
 62
     7
370
    15
100
AcDbLine
 10
33.7993787508
 20
129.4139617594
 30
0.0
 11
33.7993787508
 21
144.4139623554
 31
0.0
  0
LINE
  5
259
330
1F
100
AcDbEntity
  8
0
  6
Continuous
 62
     7
370
    15
100
AcDbLine
 10
33.7993787508
 20
114.4139613962
 30
0.0
 11
33.7993787508
 21
129.4139617594
 31
0.0
  0
LINE
  5
25A
330
1F
100
AcDbEntity
  8
0
  6
Continuous
 62
     7
370
    15
100
AcDbLine
 10
94.7993794362
 20
69.4139631005
 30
0.0
 11
87.7993764262
 21
69.4139631005
 31
0.0
  0
LINE
  5
25B
330
1F
100
AcDbEntity
  8
0
  6
Continuous
 62
     7
370
    15
100
AcDbLine
 10
87.7993764262
 20
69.4139631005
 30
0.0
 11
87.7993764262
 21
72.0139624091
 31
0.0
  0
LINE
  5
25C
330
1F
100
AcDbEntity
  8
0
  6
Continuous
 62
     7
370
    15
100
AcDbLine
 10
87.7993764262
 20
72.0139624091
 30
0.0
 11
94.7993794362
 21
72.0139624091
 31
0.0
  0
LINE
  5
25D
330
1F
100
AcDbEntity
  8
0
  6
Continuous
 62
     7
370
    15
100
AcDbLine
 10
120.79937811
 20
72.0139624091
 30
0.0
 11
94.7993794362
 21
72.0139624091
 31
0.0
  0
LINE
  5
25E
330
1F
100
AcDbEntity
  8
0
  6
Continuous
 62
     7
370
    15
100
AcDbLine
 10
120.79937811
 20
69.4139631005
 30
0.0
 11
94.7993794362
 21
69.4139631005
 31
0.0
  0
LINE
  5
25F
330
1F
100
AcDbEntity
  8
0
  6
Continuous
 62
     7
370
    15
100
AcDbLine
 10
127.7993778604
 20
72.0139624091
 30
0.0
 11
127.7993778604
 21
69.4139631005
 31
0.0
  0
LINE
  5
260
330
1F
100
AcDbEntity
  8
0
  6
Continuous
 62
     7
370
    15
100
AcDbLine
 10
120.79937811
 20
72.0139624091
 30
0.0
 11
127.7993778604
 21
72.0139624091
 31
0.0
  0
LINE
  5
261
330
1F
100
AcDbEntity
  8
0
  6
Continuous
 62
     7
370
    15
100
AcDbLine
 10
127.7993778604
 20
69.4139631005
 30
0.0
 11
120.79937811
 21
69.4139631005
 31
0.0
  0
LINE
  5
262
330
1F
100
AcDbEntity
  8
0
  6
Continuous
 62
     7
370
    15
100
AcDbLine
 10
127.7993778604
 20
73.5087537678
 30
0.0
 11
127.7993778604
 21
72.0139624091
 31
0.0
  0
LINE
  5
263
330
1F
100
AcDbEntity
  8
0
  6
Continuous
 62
     7
370
    15
100
AcDbLine
 10
87.7993764262
 20
72.0139624091
 30
0.0
 11
87.7993764262
 21
73.5087537678
 31
0.0
  0
LINE
  5
264
330
1F
100
AcDbEntity
  8
0
  6
Continuous
 62
     7
370
    15
100
AcDbLine
 10
127.7993778604
 20
84.300029418
 30
0.0
 11
127.7993778604
 21
73.5087537678
 31
0.0
  0
LINE
  5
265
330
1F
100
AcDbEntity
  8
0
  6
Continuous
 62
     7
370
    15
100
AcDbLine
 10
87.7993764262
 20
84.300029418
 30
0.0
 11
87.7993764262
 21
73.5087537678
 31
0.0
  0
LINE
  5
266
330
1F
100
AcDbEntity
  8
0
  6
Continuous
 62
     7
370
    15
100
AcDbLine
 10
127.7993778604
 20
90.0798899593
 30
0.0
 11
127.7993778604
 21
84.300029418
 31
0.0
  0
LINE
  5
267
330
1F
100
AcDbEntity
  8
0
  6
Continuous
 62
     7
370
    15
100
AcDbLine
 10
87.7993764262
 20
84.300029418
 30
0.0
 11
87.7993764262
 21
90.0798899593
 31
0.0
  0
ENDSEC
  0
SECTION
  2
OBJECTS
  0
DICTIONARY
  5
C
330
0
100
AcDbDictionary
281
     1
  3
ACAD_GROUP
350
D
  3
ACAD_LAYOUT
350
1A
  3
ACAD_MLINESTYLE
350
17
  3
ACAD_PLOTSETTINGS
350
19
  3
ACAD_PLOTSTYLENAME
350
E
  0
DICTIONARY
  5
D
102
{ACAD_REACTORS
330
C
102
}
330
C
100
AcDbDictionary
281
     1
  0
DICTIONARY
  5
1A
102
{ACAD_REACTORS
330
C
102
}
330
C
100
AcDbDictionary
281
     1
  3
Layout1
350
1E
  3
Layout2
350
26
  3
Model
350
22
  0
DICTIONARY
  5
17
102
{ACAD_REACTORS
330
C
102
}
330
C
100
AcDbDictionary
281
     1
  3
Standard
350
18
  0
DICTIONARY
  5
19
102
{ACAD_REACTORS
330
C
102
}
330
C
100
AcDbDictionary
281
     1
  0
ACDBDICTIONARYWDFLT
  5
E
102
{ACAD_REACTORS
330
C
102
}
330
C
100
AcDbDictionary
281
     1
  3
Normal
350
F
100
AcDbDictionaryWithDefault
340
F
  0
LAYOUT
  5
1E
102
{ACAD_REACTORS
330
1A
102
}
330
1A
100
AcDbPlotSettings
  1

  2
none_device
  4

  6

 40
0.0
 41
0.0
 42
0.0
 43
0.0
 44
0.0
 45
0.0
 46
0.0
 47
0.0
 48
0.0
 49
0.0
140
0.0
141
0.0
142
1.0
143
1.0
 70
   688
 72
     0
 73
     0
 74
     5
  7

 75
    16
147
1.0
148
0.0
149
0.0
100
AcDbLayout
  1
Layout1
 70
     1
 71
     1
 10
0.0
 20
0.0
 11
420.0
 21
297.0
 12
0.0
 22
0.0
 32
0.0
 14
1.0000000000E+20
 24
1.0000000000E+20
 34
1.0000000000E+20
 15
-1.0000000000E+20
 25
-1.0000000000E+20
 35
-1.0000000000E+20
146
0.0
 13
0.0
 23
0.0
 33
0.0
 16
1.0
 26
0.0
 36
0.0
 17
0.0
 27
1.0
 37
0.0
 76
     0
330
1B
  0
LAYOUT
  5
26
102
{ACAD_REACTORS
330
1A
102
}
330
1A
100
AcDbPlotSettings
  1

  2
none_device
  4

  6

 40
0.0
 41
0.0
 42
0.0
 43
0.0
 44
0.0
 45
0.0
 46
0.0
 47
0.0
 48
0.0
 49
0.0
140
0.0
141
0.0
142
1.0
143
1.0
 70
   688
 72
     0
 73
     0
 74
     5
  7

 75
    16
147
1.0
148
0.0
149
0.0
100
AcDbLayout
  1
Layout2
 70
     1
 71
     2
 10
0.0
 20
0.0
 11
0.0
 21
0.0
 12
0.0
 22
0.0
 32
0.0
 14
0.0
 24
0.0
 34
0.0
 15
0.0
 25
0.0
 35
0.0
146
0.0
 13
0.0
 23
0.0
 33
0.0
 16
1.0
 26
0.0
 36
0.0
 17
0.0
 27
1.0
 37
0.0
 76
     0
330
23
  0
LAYOUT
  5
22
102
{ACAD_REACTORS
330
1A
102
}
330
1A
100
AcDbPlotSettings
  1

  2
none_device
  4

  6

 40
0.0
 41
0.0
 42
0.0
 43
0.0
 44
0.0
 45
0.0
 46
0.0
 47
0.0
 48
0.0
 49
0.0
140
0.0
141
0.0
142
1.0
143
1.0
 70
  1712
 72
     0
 73
     0
 74
     0
  7

 75
     0
147
1.0
148
0.0
149
0.0
100
AcDbLayout
  1
Model
 70
     1
 71
     0
 10
0.0
 20
0.0
 11
420.0
 21
297.0
 12
0.0
 22
0.0
 32
0.0
 14
0.0
 24
0.0
 34
0.0
 15
420.0
 25
297.0
 35
0.0
146
0.0
 13
0.0
 23
0.0
 33
0.0
 16
1.0
 26
0.0
 36
0.0
 17
0.0
 27
1.0
 37
0.0
 76
     0
330
1F
331
29
  0
MLINESTYLE
  5
18
102
{ACAD_REACTORS
330
17
102
}
330
17
100
AcDbMlineStyle
  2
Standard
 70
     0
  3

 62
   256
 51
90.0
 52
90.0
 71
     2
 49
0.5
 62
   256
  6
BYLAYER
 49
-0.5
 62
   256
  6
BYLAYER
  0
ACDBPLACEHOLDER
  5
F
102
{ACAD_REACTORS
330
E
102
}
330
E
  0
ENDSEC
  0
EOF
