  0
SECTION
  2
HEADER
  9
$ACADVER
  1
AC1015
  9
$ACADMAINTVER
 70
     6
  9
$DWGCODEPAGE
  3
DOS932
  9
$INSBASE
 10
0.0
 20
0.0
 30
0.0
  9
$EXTMIN
 10
0.0
 20
0.0
 30
0.0
  9
$EXTMAX
 10
841.0
 20
594.0
 30
0.0
  9
$LIMMIN
 10
0.0
 20
0.0
  9
$LIMMAX
 10
841.0
 20
594.0
  9
$ORTHOMODE
 70
     0
  9
$REGENMODE
 70
     1
  9
$FILLMODE
 70
     1
  9
$QTEXTMODE
 70
     0
  9
$MIRRTEXT
 70
     1
  9
$LTSCALE
 40
1.0
  9
$ATTMODE
 70
     1
  9
$TEXTSIZE
 40
3.5
  9
$TRACEWID
 40
1.0
  9
$TEXTSTYLE
  7
Standard
  9
$CLAYER
  8
0
  9
$CELTYPE
  6
ByLayer
  9
$CECOLOR
 62
   256
  9
$CELTSCALE
 40
1.0
  9
$DISPSILH
 70
     0
  9
$DIMSCALE
 40
1.0
  9
$DIMASZ
 40
3.8637032976
  9
$DIMEXO
 40
1.0
  9
$DIMDLI
 40
3.75
  9
$DIMRND
 40
0.0
  9
$DIMDLE
 40
0.0
  9
$DIMEXE
 40
1.0
  9
$DIMTP
 40
0.0
  9
$DIMTM
 40
0.0
  9
$DIMTXT
 40
2.7999999523
  9
$DIMCEN
 40
2.5
  9
$DIMTSZ
 40
0.0
  9
$DIMTOL
 70
     0
  9
$DIMLIM
 70
     0
  9
$DIMTIH
 70
     1
  9
$DIMTOH
 70
     1
  9
$DIMSE1
 70
     0
  9
$DIMSE2
 70
     0
  9
$DIMTAD
 70
     1
  9
$DIMZIN
 70
     1
  9
$DIMBLK
  1

  9
$DIMASO
 70
     1
  9
$DIMSHO
 70
     1
  9
$DIMPOST
  1

  9
$DIMAPOST
  1

  9
$DIMALT
 70
     0
  9
$DIMALTD
 70
     3
  9
$DIMALTF
 40
0.0393700787
  9
$DIMLFAC
 40
1.0
  9
$DIMTOFL
 70
     1
  9
$DIMTVP
 40
0.0
  9
$DIMTIX
 70
     0
  9
$DIMSOXD
 70
     0
  9
$DIMSAH
 70
     0
  9
$DIMBLK1
  1

  9
$DIMBLK2
  1

  9
$DIMSTYLE
  2
ISO-25
  9
$DIMCLRD
 70
     0
  9
$DIMCLRE
 70
     0
  9
$DIMCLRT
 70
     0
  9
$DIMTFAC
 40
1.0
  9
$DIMGAP
 40
1.524
  9
$DIMJUST
 70
     0
  9
$DIMSD1
 70
     0
  9
$DIMSD2
 70
     0
  9
$DIMTOLJ
 70
     0
  9
$DIMTZIN
 70
     1
  9
$DIMALTZ
 70
     0
  9
$DIMALTTZ
 70
     0
  9
$DIMUPT
 70
     0
  9
$DIMDEC
 70
     2
  9
$DIMTDEC
 70
     2
  9
$DIMALTU
 70
     2
  9
$DIMALTTD
 70
     3
  9
$DIMTXSTY
  7
Standard
  9
$DIMAUNIT
 70
     0
  9
$DIMADEC
 70
     0
  9
$DIMALTRND
 40
0.0
  9
$DIMAZIN
 70
     0
  9
$DIMDSEP
 70
    44
  9
$DIMATFIT
 70
     3
  9
$DIMFRAC
 70
     0
  9
$DIMLDRBLK
  1

  9
$DIMLUNIT
 70
     2
  9
$DIMLWD
 70
    -2
  9
$DIMLWE
 70
    -2
  9
$DIMTMOVE
 70
     0
  9
$LUNITS
 70
     2
  9
$LUPREC
 70
     3
  9
$SKETCHINC
 40
1.0
  9
$FILLETRAD
 40
10.0
  9
$AUNITS
 70
     0
  9
$AUPREC
 70
     0
  9
$MENU
  1
.
  9
$ELEVATION
 40
0.0
  9
$PELEVATION
 40
0.0
  9
$THICKNESS
 40
0.0
  9
$LIMCHECK
 70
     0
  9
$CHAMFERA
 40
10.0
  9
$CHAMFERB
 40
10.0
  9
$CHAMFERC
 40
20.0
  9
$CHAMFERD
 40
0.0
  9
$SKPOLY
 70
     0
  9
$TDCREATE
 40
2456413.906623079
  9
$TDUCREATE
 40
2456413.531623079
  9
$TDUPDATE
 40
2456413.90662309
  9
$TDUUPDATE
 40
2456413.53162309
  9
$TDINDWG
 40
0.0000000116
  9
$TDUSRTIMER
 40
0.0000000116
  9
$USRTIMER
 70
     1
  9
$ANGBASE
 50
0.0
  9
$ANGDIR
 70
     0
  9
$PDMODE
 70
     0
  9
$PDSIZE
 40
-1.0
  9
$PLINEWID
 40
0.0
  9
$SPLFRAME
 70
     0
  9
$SPLINETYPE
 70
     6
  9
$SPLINESEGS
 70
     8
  9
$HANDSEED
  5
283
  9
$SURFTAB1
 70
     6
  9
$SURFTAB2
 70
     6
  9
$SURFTYPE
 70
     6
  9
$SURFU
 70
     6
  9
$SURFV
 70
     6
  9
$UCSBASE
  2

  9
$UCSNAME
  2

  9
$UCSORG
 10
0.0
 20
0.0
 30
0.0
  9
$UCSXDIR
 10
1.0
 20
0.0
 30
0.0
  9
$UCSYDIR
 10
0.0
 20
1.0
 30
0.0
  9
$UCSORTHOREF
  2

  9
$UCSORTHOVIEW
 70
     0
  9
$UCSORGTOP
 10
0.0
 20
0.0
 30
0.0
  9
$UCSORGBOTTOM
 10
0.0
 20
0.0
 30
0.0
  9
$UCSORGLEFT
 10
0.0
 20
0.0
 30
0.0
  9
$UCSORGRIGHT
 10
0.0
 20
0.0
 30
0.0
  9
$UCSORGFRONT
 10
0.0
 20
0.0
 30
0.0
  9
$UCSORGBACK
 10
0.0
 20
0.0
 30
0.0
  9
$PUCSBASE
  2

  9
$PUCSNAME
  2

  9
$PUCSORG
 10
0.0
 20
0.0
 30
0.0
  9
$PUCSXDIR
 10
1.0
 20
0.0
 30
0.0
  9
$PUCSYDIR
 10
0.0
 20
1.0
 30
0.0
  9
$PUCSORTHOREF
  2

  9
$PUCSORTHOVIEW
 70
     0
  9
$PUCSORGTOP
 10
0.0
 20
0.0
 30
0.0
  9
$PUCSORGBOTTOM
 10
0.0
 20
0.0
 30
0.0
  9
$PUCSORGLEFT
 10
0.0
 20
0.0
 30
0.0
  9
$PUCSORGRIGHT
 10
0.0
 20
0.0
 30
0.0
  9
$PUCSORGFRONT
 10
0.0
 20
0.0
 30
0.0
  9
$PUCSORGBACK
 10
0.0
 20
0.0
 30
0.0
  9
$USERI1
 70
     0
  9
$USERI2
 70
     0
  9
$USERI3
 70
     0
  9
$USERI4
 70
     0
  9
$USERI5
 70
     0
  9
$USERR1
 40
0.0
  9
$USERR2
 40
0.0
  9
$USERR3
 40
0.0
  9
$USERR4
 40
0.0
  9
$USERR5
 40
0.0
  9
$WORLDVIEW
 70
     1
  9
$SHADEDGE
 70
     3
  9
$SHADEDIF
 70
    70
  9
$TILEMODE
 70
     1
  9
$MAXACTVP
 70
    64
  9
$PINSBASE
 10
0.0
 20
0.0
 30
0.0
  9
$PLIMCHECK
 70
     0
  9
$PEXTMIN
 10
1.0000000000E+20
 20
1.0000000000E+20
 30
1.0000000000E+20
  9
$PEXTMAX
 10
-1.0000000000E+20
 20
-1.0000000000E+20
 30
-1.0000000000E+20
  9
$PLIMMIN
 10
0.0
 20
0.0
  9
$PLIMMAX
 10
420.0
 20
297.0
  9
$UNITMODE
 70
     0
  9
$VISRETAIN
 70
     1
  9
$PLINEGEN
 70
     0
  9
$PSLTSCALE
 70
     1
  9
$TREEDEPTH
 70
  3020
  9
$CMLSTYLE
  2
Standard
  9
$CMLJUST
 70
     0
  9
$CMLSCALE
 40
20.0
  9
$PROXYGRAPHICS
 70
     1
  9
$MEASUREMENT
 70
     1
  9
$CELWEIGHT
370
    -1
  9
$ENDCAPS
280
     0
  9
$JOINSTYLE
280
     0
  9
$LWDISPLAY
290
     1
  9
$INSUNITS
 70
     4
  9
$HYPERLINKBASE
  1

  9
$STYLESHEET
  1

  9
$XEDIT
290
     1
  9
$CEPSNTYPE
380
     0
  9
$PSTYLEMODE
290
     1
  9
$FINGERPRINTGUID
  2
{9C8DF32A-ABC1-4DB5-B943-1C2D9C8FE3D5}
  9
$VERSIONGUID
  2
{FAEB1C32-E019-11D5-929B-00C0DF256EC4}
  9
$EXTNAMES
290
     1
  9
$PSVPSCALE
 40
0.0
  9
$OLESTARTUP
290
     0
  0
ENDSEC
  0
SECTION
  2
CLASSES
  0
CLASS
  1
ACDBDICTIONARYWDFLT
  2
AcDbDictionaryWithDefault
  3
ObjectDBX Classes
 90
        0
280
     0
281
     0
  0
CLASS
  1
VISUALSTYLE
  2
AcDbVisualStyle
  3
ObjectDBX Classes
 90
     4095
280
     0
281
     0
  0
CLASS
  1
DICTIONARYVAR
  2
AcDbDictionaryVar
  3
ObjectDBX Classes
 90
        0
280
     0
281
     0
  0
CLASS
  1
ACDBPLACEHOLDER
  2
AcDbPlaceHolder
  3
ObjectDBX Classes
 90
        0
280
     0
281
     0
  0
CLASS
  1
LAYOUT
  2
AcDbLayout
  3
ObjectDBX Classes
 90
        0
280
     0
281
     0
  0
ENDSEC
  0
SECTION
  2
TABLES
  0
TABLE
  2
VPORT
  5
8
330
0
100
AcDbSymbolTable
 70
     1
  0
VPORT
  5
29
330
8
100
AcDbSymbolTableRecord
100
AcDbViewportTableRecord
  2
*Active
 70
     0
 10
0.0
 20
0.0
 11
1.0
 21
1.0
 12
420.5
 22
297.0
 13
0.0
 23
0.0
 14
10.0
 24
10.0
 15
10.0
 25
10.0
 16
0.0
 26
0.0
 36
1.0
 17
0.0
 27
0.0
 37
0.0
 40
594.0
 41
1.4158249158
 42
50.0
 43
0.0
 44
0.0
 50
0.0
 51
0.0
 71
     0
 72
  2000
 73
     1
 74
     3
 75
     0
 76
     0
 77
     0
 78
     0
281
     0
 65
     1
110
0.0
120
0.0
130
0.0
111
1.0
121
0.0
131
0.0
112
0.0
122
1.0
132
0.0
 79
     0
146
0.0
  0
ENDTAB
  0
TABLE
  2
LTYPE
  5
5
330
0
100
AcDbSymbolTable
 70
     6
  0
LTYPE
  5
14
330
5
100
AcDbSymbolTableRecord
100
AcDbLinetypeTableRecord
  2
ByBlock
 70
     0
  3

 72
    65
 73
     0
 40
0.0
  0
LTYPE
  5
15
330
5
100
AcDbSymbolTableRecord
100
AcDbLinetypeTableRecord
  2
ByLayer
 70
     0
  3

 72
    65
 73
     0
 40
0.0
  0
LTYPE
  5
16
330
5
100
AcDbSymbolTableRecord
100
AcDbLinetypeTableRecord
  2
Continuous
 70
     0
  3
Solid line
 72
    65
 73
     0
 40
0.0
  0
LTYPE
  5
3B
330
5
100
AcDbSymbolTableRecord
100
AcDbLinetypeTableRecord
  2
HIDDEN
 70
     0
  3
Hidden __ __ __ __ __ __ __ __ __ __ __ __ __ __
 72
    65
 73
     2
 40
1.905
 49
1.27
 74
     0
 49
-0.635
 74
     0
  0
LTYPE
  5
3C
330
5
100
AcDbSymbolTableRecord
100
AcDbLinetypeTableRecord
  2
PHANTOM
 70
     0
  3
Phantom ______  __  __  ______  __  __  ______
 72
    65
 73
     6
 40
12.7
 49
6.35
 74
     0
 49
-1.27
 74
     0
 49
1.27
 74
     0
 49
-1.27
 74
     0
 49
1.27
 74
     0
 49
-1.27
 74
     0
  0
LTYPE
  5
3D
330
5
100
AcDbSymbolTableRecord
100
AcDbLinetypeTableRecord
  2
CENTER
 70
     0
  3
Center ____ _ ____ _ ____ _ ____ _ ____ _ ____
 72
    65
 73
     4
 40
10.16
 49
6.35
 74
     0
 49
-1.27
 74
     0
 49
1.27
 74
     0
 49
-1.27
 74
     0
  0
LTYPE
  5
3E
330
5
100
AcDbSymbolTableRecord
100
AcDbLinetypeTableRecord
  2
CENTERX2
 70
     0
  3
Center (2x) ________  __  ________  __  _____
 72
    65
 73
     4
 40
20.32
 49
12.7
 74
     0
 49
-2.54
 74
     0
 49
2.54
 74
     0
 49
-2.54
 74
     0
  0
LTYPE
  5
3F
330
5
100
AcDbSymbolTableRecord
100
AcDbLinetypeTableRecord
  2
DOT2
 70
     0
  3
Dot (.5x) ........................................
 72
    65
 73
     2
 40
0.635
 49
0.0
 74
     0
 49
-0.635
 74
     0
  0
ENDTAB
  0
TABLE
  2
LAYER
  5
2
330
0
100
AcDbSymbolTable
 70
     4
  0
LAYER
  5
10
330
2
100
AcDbSymbolTableRecord
100
AcDbLayerTableRecord
  2
0
 70
     0
 62
     7
  6
Continuous
370
    -3
390
F
  0
LAYER
  5
40
330
2
100
AcDbSymbolTableRecord
100
AcDbLayerTableRecord
  2
SLD-0
 70
     0
 62
     3
  6
Continuous
370
    -3
390
F
  0
LAYER
  5
41
330
2
100
AcDbSymbolTableRecord
100
AcDbLayerTableRecord
  2
SLD-DEFPOINTS
 70
     0
 62
   179
  6
Continuous
370
    -3
390
F
  0
LAYER
  5
42
330
2
100
AcDbSymbolTableRecord
100
AcDbLayerTableRecord
  2
AM_REFDIM
 70
     0
 62
     4
  6
Continuous
370
    15
390
F
  0
ENDTAB
  0
TABLE
  2
STYLE
  5
3
330
0
100
AcDbSymbolTable
 70
     1
  0
STYLE
  5
11
330
3
100
AcDbSymbolTableRecord
100
AcDbTextStyleTableRecord
  2
Standard
 70
     0
 40
0.0
 41
1.0
 50
0.0
 71
     0
 42
2.5
  3
txt
  4
bigfont
  0
ENDTAB
  0
TABLE
  2
VIEW
  5
6
330
0
100
AcDbSymbolTable
 70
     0
  0
ENDTAB
  0
TABLE
  2
UCS
  5
7
330
0
100
AcDbSymbolTable
 70
     0
  0
ENDTAB
  0
TABLE
  2
APPID
  5
9
330
0
100
AcDbSymbolTable
 70
     1
  0
APPID
  5
12
330
9
100
AcDbSymbolTableRecord
100
AcDbRegAppTableRecord
  2
ACAD
 70
     0
  0
ENDTAB
  0
TABLE
  2
DIMSTYLE
  5
A
330
0
100
AcDbSymbolTable
 70
     1
100
AcDbDimStyleTable
  0
DIMSTYLE
105
27
330
A
100
AcDbSymbolTableRecord
100
AcDbDimStyleTableRecord
  2
ISO-25
 70
     0
 41
2.5
 42
0.625
 43
3.75
 44
1.25
 73
     0
 74
     0
 77
     1
 78
     8
140
2.5
141
2.5
143
0.0393700787
147
0.625
171
     3
172
     1
271
     2
272
     2
274
     3
278
    44
283
     0
284
     8
340
11
  0
ENDTAB
  0
TABLE
  2
BLOCK_RECORD
  5
1
330
0
100
AcDbSymbolTable
 70
     2
  0
BLOCK_RECORD
  5
1F
330
1
100
AcDbSymbolTableRecord
100
AcDbBlockTableRecord
  2
*Model_Space
340
22
  0
BLOCK_RECORD
  5
1B
330
1
100
AcDbSymbolTableRecord
100
AcDbBlockTableRecord
  2
*Paper_Space
340
1E
  0
BLOCK_RECORD
  5
23
330
1
100
AcDbSymbolTableRecord
100
AcDbBlockTableRecord
  2
*Paper_Space0
340
26
  0
BLOCK_RECORD
  5
266
330
1
100
AcDbSymbolTableRecord
100
AcDbBlockTableRecord
  2
SW_CENTERMARKSYMBOL_0
340
0
102
{BLKREFS
331
271
102
}
  0
ENDTAB
  0
ENDSEC
  0
SECTION
  2
BLOCKS
  0
BLOCK
  5
20
330
1F
100
AcDbEntity
  8
0
100
AcDbBlockBegin
  2
*Model_Space
 70
     0
 10
0.0
 20
0.0
 30
0.0
  3
*Model_Space
  1

  0
ENDBLK
  5
21
330
1F
100
AcDbEntity
  8
0
100
AcDbBlockEnd
  0
BLOCK
  5
1C
330
1B
100
AcDbEntity
 67
     1
  8
0
100
AcDbBlockBegin
  2
*Paper_Space
 70
     0
 10
0.0
 20
0.0
 30
0.0
  3
*Paper_Space
  1

  0
ENDBLK
  5
1D
330
1B
100
AcDbEntity
 67
     1
  8
0
100
AcDbBlockEnd
  0
BLOCK
  5
24
330
23
100
AcDbEntity
  8
0
100
AcDbBlockBegin
  2
*Paper_Space0
 70
     0
 10
0.0
 20
0.0
 30
0.0
  3
*Paper_Space0
  1

  0
ENDBLK
  5
25
330
23
100
AcDbEntity
  8
0
100
AcDbBlockEnd
  0
BLOCK
  5
267
330
266
100
AcDbEntity
  8
0
100
AcDbBlockBegin
  2
SW_CENTERMARKSYMBOL_0
 70
     0
 10
0.0
 20
0.0
 30
0.0
  3
SW_CENTERMARKSYMBOL_0
  1

  0
LINE
  5
269
330
266
100
AcDbEntity
  8
SLD-0
 62
     0
100
AcDbLine
 10
0.0
 20
0.0
 30
0.0
 11
0.0
 21
2.5
 31
0.0
  0
LINE
  5
26A
330
266
100
AcDbEntity
  8
SLD-0
 62
     0
100
AcDbLine
 10
0.0
 20
0.0
 30
0.0
 11
-2.5
 21
0.0
 31
0.0
  0
LINE
  5
26B
330
266
100
AcDbEntity
  8
SLD-0
 62
     0
100
AcDbLine
 10
0.0
 20
0.0
 30
0.0
 11
0.0
 21
-2.5
 31
0.0
  0
LINE
  5
26C
330
266
100
AcDbEntity
  8
SLD-0
 62
     0
100
AcDbLine
 10
0.0
 20
0.0
 30
0.0
 11
2.5
 21
0.0
 31
0.0
  0
LINE
  5
26D
330
266
100
AcDbEntity
  8
SLD-0
 62
     0
100
AcDbLine
 10
0.0
 20
5.0
 30
0.0
 11
0.0
 21
149.8493977944
 31
0.0
  0
LINE
  5
26E
330
266
100
AcDbEntity
  8
SLD-0
 62
     0
100
AcDbLine
 10
-5.0
 20
0.0
 30
0.0
 11
-107.8289296589
 21
0.0
 31
0.0
  0
LINE
  5
26F
330
266
100
AcDbEntity
  8
SLD-0
 62
     0
100
AcDbLine
 10
0.0
 20
-5.0
 30
0.0
 11
0.0
 21
-142.9080221125
 31
0.0
  0
LINE
  5
270
330
266
100
AcDbEntity
  8
SLD-0
 62
     0
100
AcDbLine
 10
5.0
 20
0.0
 30
0.0
 11
87.0993274861
 21
0.0
 31
0.0
  0
ENDBLK
  5
268
330
266
100
AcDbEntity
  8
0
100
AcDbBlockEnd
  0
ENDSEC
  0
SECTION
  2
ENTITIES
  0
LINE
  5
43
330
1F
100
AcDbEntity
  8
0
  6
Continuous
 62
     7
370
    15
100
AcDbLine
 10
192.400535841
 20
208.5442053057
 30
0.0
 11
192.400535841
 21
211.4979470052
 31
0.0
  0
LINE
  5
44
330
1F
100
AcDbEntity
  8
0
  6
Continuous
 62
     7
370
    15
100
AcDbLine
 10
172.4005325628
 20
211.4979470052
 30
0.0
 11
172.4005325628
 21
208.5442053057
 31
0.0
  0
ARC
  5
45
330
1F
100
AcDbEntity
  8
0
  6
Continuous
 62
     7
370
    15
100
AcDbCircle
 10
190.8659903867
 20
205.8080417973
 30
0.0
 40
2.210905486765874
100
AcDbArc
 50
119.4462601958
 51
185.5256677624
  0
ARC
  5
46
330
1F
100
AcDbEntity
  8
0
  6
Continuous
 62
     7
370
    15
100
AcDbCircle
 10
173.7264183985
 20
205.6812288172
 30
0.0
 40
2.425809378827248
100
AcDbArc
 50
357.8556059064
 51
58.1202777866
  0
LWPOLYLINE
  5
47
330
1F
100
AcDbEntity
  8
0
  6
Continuous
 62
     7
370
    15
100
AcDbPolyline
 90
        6
 70
   128
 43
0.0
 10
186.8005304528
 20
203.0763583161
 10
187.6076145959
 20
203.3197725095
 10
188.0816056323
 20
203.5740682759
 10
188.4312092257
 20
203.921321211
 10
188.6357872677
 20
204.4213892795
 10
188.6217950773
 20
204.6035038211
  0
LWPOLYLINE
  5
48
330
1F
100
AcDbEntity
  8
0
  6
Continuous
 62
     7
370
    15
100
AcDbPolyline
 90
        6
 70
   128
 43
0.0
 10
176.1505289865
 20
204.605876831
 10
176.2945859623
 20
204.0430823244
 10
176.5616818261
 20
203.7022815921
 10
176.9181027007
 20
203.4499229767
 10
177.4541719747
 20
203.2242821433
 10
178.0005305004
 20
203.0875937917
  0
LINE
  5
49
330
1F
100
AcDbEntity
  8
0
  6
Continuous
 62
     7
370
    15
100
AcDbLine
 10
188.6505319667
 20
204.605876831
 30
0.0
 11
188.6505319667
 21
205.590459881
 31
0.0
  0
LINE
  5
4A
330
1F
100
AcDbEntity
  8
0
  6
Continuous
 62
     7
370
    15
100
AcDbLine
 10
176.1505289865
 20
205.590459881
 30
0.0
 11
176.1505289865
 21
204.605876831
 31
0.0
  0
LINE
  5
4B
330
1F
100
AcDbEntity
  8
0
  6
Continuous
 62
     7
370
    15
100
AcDbLine
 10
186.8005304528
 20
198.6983897068
 30
0.0
 11
186.8005304528
 21
203.6212975063
 31
0.0
  0
LINE
  5
4C
330
1F
100
AcDbEntity
  8
0
  6
Continuous
 62
     7
370
    15
100
AcDbLine
 10
178.0005305004
 20
203.6212975063
 30
0.0
 11
178.0005305004
 21
198.6983897068
 31
0.0
  0
ARC
  5
4D
330
1F
100
AcDbEntity
  8
0
  6
Continuous
 62
     7
370
    15
100
AcDbCircle
 10
197.4005325628
 20
260.2681549658
 30
0.0
 40
5.600000000000023
100
AcDbArc
 50
0.0
 51
90.0
  0
ARC
  5
4E
330
1F
100
AcDbEntity
  8
0
  6
Continuous
 62
     7
370
    15
100
AcDbCircle
 10
151.4005325628
 20
260.2681549658
 30
0.0
 40
5.600000000000023
100
AcDbArc
 50
90.0
 51
180.0
  0
LINE
  5
4F
330
1F
100
AcDbEntity
  8
0
  6
Continuous
 62
     7
370
    15
100
AcDbLine
 10
197.4005310726
 20
265.8681547173
 30
0.0
 11
151.4005347085
 21
265.8681547173
 31
0.0
  0
LINE
  5
50
330
1F
100
AcDbEntity
  8
0
  6
Continuous
 62
     7
370
    15
100
AcDbLine
 10
242.4005328608
 20
371.4868420638
 30
0.0
 11
237.4005339039
 21
371.4868420638
 31
0.0
  0
LINE
  5
51
330
1F
100
AcDbEntity
  8
0
  6
Continuous
 62
     7
370
    15
100
AcDbLine
 10
217.4005343509
 20
371.4868420638
 30
0.0
 11
182.4005304766
 21
371.4868420638
 31
0.0
  0
LINE
  5
52
330
1F
100
AcDbEntity
  8
0
  6
Continuous
 62
     7
370
    15
100
AcDbLine
 10
182.4005304766
 20
323.4868490972
 30
0.0
 11
217.4005343509
 21
323.4868490972
 31
0.0
  0
LINE
  5
53
330
1F
100
AcDbEntity
  8
0
  6
Continuous
 62
     7
370
    15
100
AcDbLine
 10
237.4005339039
 20
323.4868490972
 30
0.0
 11
242.4005328608
 21
323.4868490972
 31
0.0
  0
LINE
  5
54
330
1F
100
AcDbEntity
  8
0
  6
Continuous
 62
     7
370
    15
100
AcDbLine
 10
277.4005330098
 20
369.9868464746
 30
0.0
 11
242.4005328608
 21
369.9868464746
 31
0.0
  0
LINE
  5
55
330
1F
100
AcDbEntity
  8
0
  6
Continuous
 62
     7
370
    15
100
AcDbLine
 10
242.4005328608
 20
324.986852137
 30
0.0
 11
277.4005330098
 21
324.986852137
 31
0.0
  0
LINE
  5
56
330
1F
100
AcDbEntity
  8
0
  6
Continuous
 62
     7
370
    15
100
AcDbLine
 10
237.4005339039
 20
371.9368422307
 30
0.0
 11
217.4005343509
 21
371.9368422307
 31
0.0
  0
LWPOLYLINE
  5
57
330
1F
100
AcDbEntity
  8
0
  6
Continuous
 62
     7
370
    15
100
AcDbPolyline
 90
       27
 70
   128
 43
0.0
 10
391.1563291145
 20
179.9851203241
 10
391.1698668194
 20
180.4918343105
 10
391.1545484257
 20
182.1164334096
 10
391.1163418484
 20
183.7899865486
 10
391.0746260476
 20
185.3129969813
 10
391.0412027431
 20
186.5283282377
 10
390.9912689519
 20
188.6195460238
 10
390.9431903553
 20
191.1884764113
 10
390.9029199672
 20
194.2874336519
 10
390.8771186066
 20
197.9553917326
 10
390.8687143517
 20
202.2245744147
 10
390.8769770456
 20
207.0992136277
 10
390.9070997429
 20
214.7741628714
 10
390.9377365303
 20
222.5074520238
 10
390.9495904041
 20
227.6375530191
 10
390.9498362732
 20
232.7125206493
 10
390.9354268503
 20
237.7062438891
 10
390.9041344118
 20
242.594180293
 10
390.8533661556
 20
247.446450302
 10
390.7725571585
 20
252.8852367677
 10
390.6543164444
 20
259.0188536696
 10
390.4935999704
 20
265.814793659
 10
390.2872188878
 20
273.0640036889
 10
390.1020123554
 20
278.577226577
 10
389.8917271686
 20
284.027844099
 10
389.6586804581
 20
289.2738426008
 10
389.4067018223
 20
294.1448384799
  0
ARC
  5
58
330
1F
100
AcDbEntity
  8
0
  6
Continuous
 62
     7
370
    15
100
AcDbCircle
 10
198.1619449424
 20
191.1481005599
 30
0.0
 40
172.7478736409315
100
AcDbArc
 50
355.6419449667
 51
356.6979399191
  0
LWPOLYLINE
  5
59
330
1F
100
AcDbEntity
  8
0
  6
Continuous
 62
     7
370
    15
100
AcDbPolyline
 90
       17
 70
   128
 43
0.0
 10
372.1896394086
 20
288.0098404266
 10
372.0205186796
 20
284.0720744707
 10
371.7999665928
 20
278.118319241
 10
371.6042770934
 20
271.9879498609
 10
371.4356630039
 20
265.8030291923
 10
371.295249362
 20
259.7828837015
 10
371.1832298827
 20
254.0558934115
 10
371.0989787174
 20
248.6497216296
 10
371.027304132
 20
241.9726747457
 10
370.992822845
 20
235.9217008479
 10
370.9823696804
 20
230.4989801623
 10
370.9860428167
 20
225.6942571976
 10
370.9975763154
 20
221.4090185143
 10
371.0148914647
 20
217.3685165026
 10
371.0571958614
 20
209.9465871133
 10
371.0980324936
 20
203.3717365839
 10
371.1095957947
 20
201.2639338054
  0
LINE
  5
5A
330
1F
100
AcDbEntity
  8
0
  6
Continuous
 62
     7
370
    15
100
AcDbLine
 10
400.5306794238
 20
274.9509042032
 30
0.0
 11
400.177976389
 21
276.3224238433
 31
0.0
  0
LINE
  5
5B
330
1F
100
AcDbEntity
  8
0
  6
Continuous
 62
     7
370
    15
100
AcDbLine
 10
343.9005336654
 20
174.4509035625
 30
0.0
 11
353.1340717268
 21
174.4509035625
 31
0.0
  0
LINE
  5
5C
330
1F
100
AcDbEntity
  8
0
  6
Continuous
 62
     7
370
    15
100
AcDbLine
 10
353.1340717268
 20
315.4509061851
 30
0.0
 11
343.9005336654
 21
315.4509061851
 31
0.0
  0
LINE
  5
5D
330
1F
100
AcDbEntity
  8
0
  6
Continuous
 62
     7
370
    15
100
AcDbLine
 10
330.9005333972
 20
384.9509054698
 30
0.0
 11
330.9005333972
 21
382.9509014167
 31
0.0
  0
LINE
  5
5E
330
1F
100
AcDbEntity
  8
0
  6
Continuous
 62
     7
370
    15
100
AcDbLine
 10
410.9005316091
 20
382.9509014167
 30
0.0
 11
410.9005316091
 21
384.9509054698
 31
0.0
  0
LINE
  5
5F
330
1F
100
AcDbEntity
  8
0
  6
Continuous
 62
     7
370
    15
100
AcDbLine
 10
410.9005316091
 20
104.9509042777
 30
0.0
 11
410.9005316091
 21
106.9509083308
 31
0.0
  0
LINE
  5
60
330
1F
100
AcDbEntity
  8
0
  6
Continuous
 62
     7
370
    15
100
AcDbLine
 10
330.9005333972
 20
106.9509083308
 30
0.0
 11
330.9005333972
 21
104.9509042777
 31
0.0
  0
LINE
  5
61
330
1F
100
AcDbEntity
  8
0
  6
Continuous
 62
     7
370
    15
100
AcDbLine
 10
313.3994231862
 20
382.9509014167
 30
0.0
 11
313.3994231862
 21
366.9509062447
 31
0.0
  0
LINE
  5
62
330
1F
100
AcDbEntity
  8
0
  6
Continuous
 62
     7
370
    15
100
AcDbLine
 10
313.3994231862
 20
122.9509035029
 30
0.0
 11
313.3994231862
 21
106.9509083308
 31
0.0
  0
LINE
  5
63
330
1F
100
AcDbEntity
  8
0
  6
Continuous
 62
     7
370
    15
100
AcDbLine
 10
428.401647408
 20
366.9509062447
 30
0.0
 11
428.401647408
 21
382.9509014167
 31
0.0
  0
LINE
  5
64
330
1F
100
AcDbEntity
  8
0
  6
Continuous
 62
     7
370
    15
100
AcDbLine
 10
428.401647408
 20
106.9509083308
 30
0.0
 11
428.401647408
 21
122.9509035029
 31
0.0
  0
LINE
  5
65
330
1F
100
AcDbEntity
  8
0
  6
Continuous
 62
     7
370
    15
100
AcDbLine
 10
409.4005360198
 20
274.9509042032
 30
0.0
 11
400.5306794238
 21
274.9509042032
 31
0.0
  0
LWPOLYLINE
  5
66
330
1F
100
AcDbEntity
  8
0
  6
Continuous
 62
     7
370
    15
100
AcDbPolyline
 90
        3
 70
   128
 43
0.0
 10
416.2864296627
 20
271.8993792214
 10
412.8244577837
 20
271.9604572185
 10
409.3461616826
 20
271.9534704365
  0
LWPOLYLINE
  5
67
330
1F
100
AcDbEntity
  8
0
  6
Continuous
 62
     7
370
    15
100
AcDbPolyline
 90
       19
 70
   128
 43
0.0
 10
448.4005256486
 20
227.9271310099
 10
448.4005256486
 20
232.0084277444
 10
448.3759834361
 20
239.2535651006
 10
447.9664250207
 20
243.3935618164
 10
447.1965565276
 20
246.9435037483
 10
446.2257756782
 20
249.9327048563
 10
444.6673526359
 20
253.4458780565
 10
443.2682379079
 20
255.9117846094
 10
442.1853109193
 20
257.5414128505
 10
440.9499599529
 20
259.1824414112
 10
439.4001646829
 20
260.9852192827
 10
437.4588265014
 20
262.9284014829
 10
435.6436266494
 20
264.491076944
 10
433.2435413194
 20
266.2491904475
 10
430.179683764
 20
268.0701216586
 10
427.3991121841
 20
269.3737851359
 10
424.1715504718
 20
270.5235978492
 10
420.4727469874
 20
271.4092297383
 10
416.2864296627
 20
271.8993792214
  0
LWPOLYLINE
  5
68
330
1F
100
AcDbEntity
  8
0
  6
Continuous
 62
     7
370
    15
100
AcDbPolyline
 90
       18
 70
   128
 43
0.0
 10
396.6562881065
 20
122.9194173493
 10
398.977523942
 20
125.5900556125
 10
401.9722550106
 20
127.9443645753
 10
405.0455226493
 20
129.6671176233
 10
407.7688886714
 20
131.2834391274
 10
410.0871070218
 20
132.8535297789
 10
412.0317830634
 20
134.3249225892
 10
413.6328755808
 20
135.6542700805
 10
415.0431438279
 20
136.9232529678
 10
420.2211557818
 20
142.5660991945
 10
424.5536013437
 20
149.07076898
 10
426.7747982335
 20
153.5633349695
 10
429.2218967271
 20
159.2625746407
 10
432.1316613746
 20
166.040166644
 10
435.5043901992
 20
173.8959694185
 10
439.340083201
 20
182.8300053157
 10
443.6387403798
 20
192.8422743358
 10
447.5597127271
 20
201.9748793818
  0
LINE
  5
69
330
1F
100
AcDbEntity
  8
0
  6
Continuous
 62
     7
370
    15
100
AcDbLine
 10
394.5924102259
 20
354.8645222463
 30
0.0
 11
394.5275454712
 21
366.9512713231
 31
0.0
  0
LINE
  5
6A
330
1F
100
AcDbEntity
  8
0
  6
Continuous
 62
     7
370
    15
100
AcDbLine
 10
405.4005353642
 20
324.9509030856
 30
0.0
 11
405.9005289269
 21
324.9509030856
 31
0.0
  0
LINE
  5
6B
330
1F
100
AcDbEntity
  8
0
  6
Continuous
 62
     7
370
    15
100
AcDbLine
 10
405.9005289269
 20
354.9509042777
 30
0.0
 11
394.5370226097
 21
354.9509042777
 31
0.0
  0
LINE
  5
6C
330
1F
100
AcDbEntity
  8
0
  6
Continuous
 62
     7
370
    15
100
AcDbLine
 10
447.5432916475
 20
201.9509034135
 30
0.0
 11
454.400537808
 21
201.9509034135
 31
0.0
  0
LINE
  5
6D
330
1F
100
AcDbEntity
  8
0
  6
Continuous
 62
     7
370
    15
100
AcDbLine
 10
454.400537808
 20
227.9509039499
 30
0.0
 11
448.3842982841
 21
227.9509039499
 31
0.0
  0
LINE
  5
6E
330
1F
100
AcDbEntity
  8
0
  6
Continuous
 62
     7
370
    15
100
AcDbLine
 10
137.400536139
 20
313.9509031452
 30
0.0
 11
108.4005369735
 21
313.9509031452
 31
0.0
  0
LINE
  5
6F
330
1F
100
AcDbEntity
  8
0
  6
Continuous
 62
     7
370
    15
100
AcDbLine
 10
133.3472116781
 20
175.9509066023
 30
0.0
 11
137.400536139
 21
175.9509066023
 31
0.0
  0
ARC
  5
70
330
1F
100
AcDbEntity
  8
0
  6
Continuous
 62
     7
370
    15
100
AcDbCircle
 10
133.3472132808
 20
183.9509048738
 30
0.0
 40
8.000000000000028
100
AcDbArc
 50
195.2555633432
 51
270.0
  0
ARC
  5
71
330
1F
100
AcDbEntity
  8
0
  6
Continuous
 62
     7
370
    15
100
AcDbCircle
 10
241.4005325628
 20
213.4208928642
 30
0.0
 40
120.0
100
AcDbArc
 50
180.0
 51
195.2555633432
  0
ARC
  5
72
330
1F
100
AcDbEntity
  8
0
  6
Continuous
 62
     7
370
    15
100
AcDbCircle
 10
108.4005325628
 20
310.9509048738
 30
0.0
 40
3.0
100
AcDbArc
 50
90.0
 51
180.0
  0
LINE
  5
73
330
1F
100
AcDbEntity
  8
0
  6
Continuous
 62
     7
370
    15
100
AcDbLine
 10
110.4005261255
 20
221.9509048291
 30
0.0
 11
121.4005335164
 21
221.9509048291
 31
0.0
  0
LINE
  5
74
330
1F
100
AcDbEntity
  8
0
  6
Continuous
 62
     7
370
    15
100
AcDbLine
 10
297.4005325628
 20
313.5509038247
 30
0.0
 11
237.4005339039
 21
313.5509038247
 31
0.0
  0
LINE
  5
75
330
1F
100
AcDbEntity
  8
0
  6
Continuous
 62
     7
370
    15
100
AcDbLine
 10
217.4005343509
 20
313.5509038247
 30
0.0
 11
137.400536139
 21
313.5509038247
 31
0.0
  0
LINE
  5
76
330
1F
100
AcDbEntity
  8
0
  6
Continuous
 62
     7
370
    15
100
AcDbLine
 10
137.400536139
 20
176.3509059228
 30
0.0
 11
297.4005325628
 21
176.3509059228
 31
0.0
  0
LINE
  5
77
330
1F
100
AcDbEntity
  8
0
  6
Continuous
 62
     7
370
    15
100
AcDbLine
 10
297.4005325628
 20
174.9509045758
 30
0.0
 11
335.9005323541
 21
174.9509045758
 31
0.0
  0
LINE
  5
78
330
1F
100
AcDbEntity
  8
0
  6
Continuous
 62
     7
370
    15
100
AcDbLine
 10
335.9005323541
 20
314.9509051718
 30
0.0
 11
297.4005325628
 21
314.9509051718
 31
0.0
  0
LINE
  5
79
330
1F
100
AcDbEntity
  8
0
  6
Continuous
 62
     7
370
    15
100
AcDbLine
 10
313.4005333227
 20
224.9509053208
 30
0.0
 11
335.9005323541
 21
224.9509053208
 31
0.0
  0
LINE
  5
7A
330
1F
100
AcDbEntity
  8
0
  6
Continuous
 62
     7
370
    15
100
AcDbLine
 10
335.9005323541
 20
264.9509044267
 30
0.0
 11
313.4005333227
 21
264.9509044267
 31
0.0
  0
LINE
  5
7B
330
1F
100
AcDbEntity
  8
0
  6
Continuous
 62
     7
370
    15
100
AcDbLine
 10
343.9005336654
 20
315.4509061851
 30
0.0
 11
335.9005323541
 21
315.4509061851
 31
0.0
  0
LINE
  5
7C
330
1F
100
AcDbEntity
  8
0
  6
Continuous
 62
     7
370
    15
100
AcDbLine
 10
335.9005323541
 20
174.4509035625
 30
0.0
 11
343.9005336654
 21
174.4509035625
 31
0.0
  0
LINE
  5
7D
330
1F
100
AcDbEntity
  8
0
  6
Continuous
 62
     7
370
    15
100
AcDbLine
 10
335.9005323541
 20
182.2588810601
 30
0.0
 11
313.4005333227
 21
182.2588810601
 31
0.0
  0
LINE
  5
7E
330
1F
100
AcDbEntity
  8
0
  6
Continuous
 62
     7
370
    15
100
AcDbLine
 10
313.4005333227
 20
307.6429286875
 30
0.0
 11
335.9005323541
 21
307.6429286875
 31
0.0
  0
LINE
  5
7F
330
1F
100
AcDbEntity
  8
0
  6
Continuous
 62
     7
370
    15
100
AcDbLine
 10
321.3371301931
 20
295.2508920707
 30
0.0
 11
333.5055059684
 21
264.9509044267
 31
0.0
  0
LINE
  5
80
330
1F
100
AcDbEntity
  8
0
  6
Continuous
 62
     7
370
    15
100
AcDbLine
 10
317.2943669302
 20
299.9509045758
 30
0.0
 11
319.4812017423
 21
294.5055583395
 31
0.0
  0
LWPOLYLINE
  5
81
330
1F
100
AcDbEntity
  8
0
  6
Continuous
 62
     7
370
    15
100
AcDbPolyline
 90
       22
 70
   128
 43
0.0
 10
192.400535841
 20
208.5442053057
 10
192.2198220086
 20
208.8752569534
 10
191.6842146707
 20
209.1943429686
 10
190.8130704355
 20
209.4899298527
 10
189.6378754568
 20
209.7513409235
 10
188.2010980439
 20
209.969117669
 10
186.5546836448
 20
210.1353960015
 10
184.7581251455
 20
210.2441670276
 10
182.8763543558
 20
210.2914931156
 10
180.9773876262
 20
210.2756718077
 10
179.1298522544
 20
210.1972656228
 10
177.400535245
 20
210.0591169574
 10
175.8519246173
 20
209.8662139751
 10
174.5400040341
 20
209.6255304195
 10
173.5121815396
 20
209.3457648434
 10
172.8056057286
 20
209.0370314099
 10
172.445809741
 20
208.7104836382
 10
172.445809741
 20
208.3779269733
 10
172.8056057286
 20
208.0513792016
 10
173.5121815396
 20
207.7426420428
 10
174.5400040341
 20
207.4628764667
 10
175.3720774245
 20
207.2998726644
  0
LWPOLYLINE
  5
82
330
1F
100
AcDbEntity
  8
0
  6
Continuous
 62
     7
370
    15
100
AcDbPolyline
 90
        6
 70
   128
 43
0.0
 10
189.4065721822
 20
207.2960095383
 10
189.6378754568
 20
207.337069688
 10
190.8130704355
 20
207.5984770335
 10
191.6842146707
 20
207.8940639176
 10
192.2198220086
 20
208.2131536581
 10
192.400535841
 20
208.5442053057
  0
LWPOLYLINE
  5
83
330
1F
100
AcDbEntity
  8
0
  6
Continuous
 62
     7
370
    15
100
AcDbPolyline
 90
       18
 70
   128
 43
0.0
 10
192.400535841
 20
211.4979470052
 10
192.2198220086
 20
211.8289986529
 10
191.6842146707
 20
212.1480883934
 10
190.8130704355
 20
212.4436752774
 10
189.6378754568
 20
212.7050826229
 10
188.2010980439
 20
212.9228630938
 10
186.5546836448
 20
213.0891414263
 10
184.7581251455
 20
213.1979087271
 10
182.8763543558
 20
213.2452385403
 10
180.9773876262
 20
213.2294135072
 10
179.1298522544
 20
213.1510110475
 10
177.400535245
 20
213.0128623821
 10
175.8519246173
 20
212.8199593999
 10
174.5400040341
 20
212.5792758443
 10
173.5121815396
 20
212.2995102681
 10
172.8056057286
 20
211.9907731094
 10
172.445809741
 20
211.6642253377
 10
172.4005325628
 20
211.4979470052
  0
LWPOLYLINE
  5
84
330
1F
100
AcDbEntity
  8
0
  6
Continuous
 62
     7
370
    15
100
AcDbPolyline
 90
       12
 70
   128
 43
0.0
 10
186.8005304528
 20
203.6212975063
 10
186.6223051143
 20
203.838139204
 10
186.1020459724
 20
204.0374161579
 10
185.2819233132
 20
204.2029829599
 10
184.2283590627
 20
204.3214211144
 10
183.0267145229
 20
204.383141724
 10
181.7743464303
 20
204.383141724
 10
180.5727093411
 20
204.3214211144
 10
179.5191450906
 20
204.2029829599
 10
178.6990149808
 20
204.0374161579
 10
178.1787632895
 20
203.838139204
 10
178.0005305004
 20
203.6212975063
  0
LWPOLYLINE
  5
85
330
1F
100
AcDbEntity
  8
0
  6
Continuous
 62
     7
370
    15
100
AcDbPolyline
 90
       23
 70
   128
 43
0.0
 10
186.8005304528
 20
198.6983897068
 10
186.6223051143
 20
198.9152351298
 10
186.1020459724
 20
199.1145083584
 10
185.2819233132
 20
199.2800751604
 10
184.2283590627
 20
199.3985133149
 10
183.0267145229
 20
199.4602339246
 10
181.7743464303
 20
199.4602339246
 10
180.5727093411
 20
199.3985133149
 10
179.5191450906
 20
199.2800751604
 10
178.6990149808
 20
199.1145083584
 10
178.1787632895
 20
198.9152351298
 10
178.0005305004
 20
198.6983897068
 10
178.1787632895
 20
198.4815480091
 10
178.6990149808
 20
198.2822710552
 10
179.5191450906
 20
198.1167042531
 10
180.5727093411
 20
197.9982660987
 10
181.7743464303
 20
197.936545489
 10
183.0267145229
 20
197.936545489
 10
184.2283590627
 20
197.9982660987
 10
185.2819233132
 20
198.1167042531
 10
186.1020459724
 20
198.2822710552
 10
186.6223051143
 20
198.4815480091
 10
186.8005304528
 20
198.6983897068
  0
LINE
  5
86
330
1F
100
AcDbEntity
  8
0
  6
Continuous
 62
     7
370
    15
100
AcDbLine
 10
203.0005290103
 20
260.2681549169
 30
0.0
 11
203.0005290103
 21
219.7886681088
 31
0.0
  0
LINE
  5
87
330
1F
100
AcDbEntity
  8
0
  6
Continuous
 62
     7
370
    15
100
AcDbLine
 10
145.8005293203
 20
219.7886681088
 30
0.0
 11
145.8005293203
 21
260.2681549169
 31
0.0
  0
LINE
  5
88
330
1F
100
AcDbEntity
  8
0
  6
Continuous
 62
     7
370
    15
100
AcDbLine
 10
203.0005290103
 20
219.7886681088
 30
0.0
 11
203.0005290103
 21
215.1505792417
 31
0.0
  0
LWPOLYLINE
  5
89
330
1F
100
AcDbEntity
  8
0
  6
Continuous
 62
     7
370
    15
100
AcDbPolyline
 90
       28
 70
   128
 43
0.0
 10
166.9005288673
 20
211.4979470052
 10
166.725321014
 20
211.2357312717
 10
166.2091447902
 20
210.9876530148
 10
165.379820664
 20
210.7670823015
 10
164.28206702
 20
210.5859139838
 10
162.9750563693
 20
210.4539120473
 10
161.5292414022
 20
210.378195522
 10
160.0225849939
 20
210.362847326
 10
158.5363133741
 20
210.4086907484
 10
157.1505351854
 20
210.5132559218
 10
155.93996485
 20
210.6709064819
 10
154.9698545528
 20
210.8731413163
 10
154.2925371719
 20
211.1090639509
 10
153.9444758487
 20
211.3659487941
 10
153.9444758487
 20
211.6299489416
 10
154.2925371719
 20
211.8868337848
 10
154.9698545528
 20
212.1227526941
 10
155.93996485
 20
212.3249912538
 10
157.1505351854
 20
212.4826418139
 10
158.5363133741
 20
212.5872069873
 10
160.0225849939
 20
212.6330504097
 10
161.5292414022
 20
212.6177022137
 10
162.9750563693
 20
212.5419856884
 10
164.28206702
 20
212.4099837519
 10
165.379820664
 20
212.2288154342
 10
166.2091447902
 20
212.0082447209
 10
166.725321014
 20
211.7601627387
 10
166.9005288673
 20
211.4979470052
  0
LWPOLYLINE
  5
8A
330
1F
100
AcDbEntity
  8
0
  6
Continuous
 62
     7
370
    15
100
AcDbPolyline
 90
        3
 70
   128
 43
0.0
 10
145.8005293203
 20
215.1505792417
 10
146.0629983735
 20
213.2223578073
 10
146.2028457713
 20
212.7819539882
  0
LINE
  5
8B
330
1F
100
AcDbEntity
  8
0
  6
Continuous
 62
     7
370
    15
100
AcDbLine
 10
145.8005293203
 20
215.1505792417
 30
0.0
 11
145.8005293203
 21
219.7886681088
 31
0.0
  0
ARC
  5
8C
330
1F
100
AcDbEntity
  8
0
  6
Continuous
 62
     7
370
    15
100
AcDbCircle
 10
174.4005328906
 20
258.0628204633
 30
0.0
 40
4.64168007541598
100
AcDbArc
 50
178.0086050167
 51
1.9913949833
  0
ARC
  5
8D
330
1F
100
AcDbEntity
  8
0
  6
Continuous
 62
     7
370
    15
100
AcDbCircle
 10
174.4005366159
 20
258.162805663
 30
0.0
 40
3.500241624587581
100
AcDbArc
 50
180.6737252807
 51
359.3262747193
  0
ARC
  5
8E
330
1F
100
AcDbEntity
  8
0
  6
Continuous
 62
     7
370
    15
100
AcDbCircle
 10
177.999409368
 20
263.4029365831
 30
0.0
 40
5.282213788635397
100
AcDbArc
 50
268.9274681069
 51
281.3549897616
  0
ARC
  5
8F
330
1F
100
AcDbEntity
  8
0
  6
Continuous
 62
     7
370
    15
100
AcDbCircle
 10
170.8016607914
 20
263.4029780561
 30
0.0
 40
5.282255311837114
100
AcDbArc
 50
258.6450522473
 51
271.0725567917
  0
CIRCLE
  5
90
330
1F
100
AcDbEntity
  8
0
  6
Continuous
 62
     7
370
    15
100
AcDbCircle
 10
174.4240794708
 20
258.1121352147
 30
0.0
 40
2.376472108513062
  0
ARC
  5
91
330
1F
100
AcDbEntity
  8
0
  6
Continuous
 62
     7
370
    15
100
AcDbCircle
 10
174.4005328906
 20
257.9858476146
 30
0.0
 40
2.400857353183978
100
AcDbArc
 50
1.9888661533
 51
178.0111338467
  0
LWPOLYLINE
  5
92
330
1F
100
AcDbEntity
  8
0
  6
Continuous
 62
     7
370
    15
100
AcDbPolyline
 90
       13
 70
   128
 43
0.0
 10
166.6773839784
 20
211.7933215477
 10
166.2091447902
 20
211.5784020998
 10
165.379820664
 20
211.3578313865
 10
164.28206702
 20
211.1766630687
 10
162.9750563693
 20
211.0446611323
 10
161.5292414022
 20
210.968944607
 10
160.0225849939
 20
210.9535926856
 10
158.5363133741
 20
210.999436108
 10
157.1505351854
 20
211.1040050067
 10
155.93996485
 20
211.2616555669
 10
154.9698545528
 20
211.4638904013
 10
154.2925371719
 20
211.6998093106
 10
154.1236921144
 20
211.7933215477
  0
LINE
  5
93
330
1F
100
AcDbEntity
  8
0
  6
Continuous
 62
     7
370
    15
100
AcDbLine
 10
204.4005303574
 20
257.5117800288
 30
0.0
 11
204.4005303574
 21
216.1187393494
 31
0.0
  0
LINE
  5
94
330
1F
100
AcDbEntity
  8
0
  6
Continuous
 62
     7
370
    15
100
AcDbLine
 10
144.4005354238
 20
257.5117800288
 30
0.0
 11
144.4005354238
 21
216.1187393494
 31
0.0
  0
ARC
  5
95
330
1F
100
AcDbEntity
  8
0
  6
Continuous
 62
     7
370
    15
100
AcDbCircle
 10
149.8906197431
 20
258.0922544889
 30
0.0
 40
5.494936974250959
100
AcDbArc
 50
132.8513182105
 51
182.4081189926
  0
ARC
  5
96
330
1F
100
AcDbEntity
  8
0
  6
Continuous
 62
     7
370
    15
100
AcDbCircle
 10
199.0129530897
 20
258.2020181225
 30
0.0
 40
5.398335696494447
100
AcDbArc
 50
356.3821191161
 51
48.8144617479
  0
LINE
  5
97
330
1F
100
AcDbEntity
  8
0
  6
Continuous
 62
     7
370
    15
100
AcDbLine
 10
204.4005303574
 20
257.8613724463
 30
0.0
 11
204.4005303574
 21
257.5117800288
 31
0.0
  0
LINE
  5
98
330
1F
100
AcDbEntity
  8
0
  6
Continuous
 62
     7
370
    15
100
AcDbLine
 10
144.4005354238
 20
257.8613724463
 30
0.0
 11
144.4005354238
 21
257.5117800288
 31
0.0
  0
LINE
  5
99
330
1F
100
AcDbEntity
  8
0
  6
Continuous
 62
     7
370
    15
100
AcDbLine
 10
204.4005303574
 20
216.1187393494
 30
0.0
 11
204.4005303574
 21
212.9093887188
 31
0.0
  0
LINE
  5
9A
330
1F
100
AcDbEntity
  8
0
  6
Continuous
 62
     7
370
    15
100
AcDbLine
 10
144.4005354238
 20
216.1187393494
 30
0.0
 11
144.4005354238
 21
212.9093887188
 31
0.0
  0
LWPOLYLINE
  5
9B
330
1F
100
AcDbEntity
  8
0
  6
Continuous
 62
     7
370
    15
100
AcDbPolyline
 90
        3
 70
   128
 43
0.0
 10
203.7047727895
 20
210.1890960612
 10
204.2265220475
 20
211.5126283743
 10
204.4005303574
 20
212.9093887188
  0
LWPOLYLINE
  5
9C
330
1F
100
AcDbEntity
  8
0
  6
Continuous
 62
     7
370
    15
100
AcDbPolyline
 90
        3
 70
   128
 43
0.0
 10
144.4005354238
 20
212.9093887188
 10
144.7913928819
 20
210.8399862327
 10
145.0963004422
 20
210.1890960612
  0
ARC
  5
9D
330
1F
100
AcDbEntity
  8
0
  6
Continuous
 62
     7
370
    15
100
AcDbCircle
 10
197.690947447
 20
213.7535843412
 30
0.0
 40
6.990827701226221
100
AcDbArc
 50
267.6191056284
 51
329.3441149367
  0
ARC
  5
9E
330
1F
100
AcDbEntity
  8
0
  6
Continuous
 62
     7
370
    15
100
AcDbCircle
 10
151.1618919509
 20
213.8489992967
 30
0.0
 40
7.084228401375599
100
AcDbArc
 50
211.1062639954
 51
271.9304586732
  0
LINE
  5
9F
330
1F
100
AcDbEntity
  8
0
  6
Continuous
 62
     7
370
    15
100
AcDbLine
 10
197.4005310726
 20
206.7687915541
 30
0.0
 11
188.9440922928
 21
206.7687915541
 31
0.0
  0
LINE
  5
A0
330
1F
100
AcDbEntity
  8
0
  6
Continuous
 62
     7
370
    15
100
AcDbLine
 10
175.8531241608
 20
206.7687915541
 30
0.0
 11
151.4005347085
 21
206.7687915541
 31
0.0
  0
LINE
  5
A1
330
1F
100
AcDbEntity
  8
0
  6
Continuous
 62
     7
370
    15
100
AcDbLine
 10
182.4005304766
 20
371.4868420638
 30
0.0
 11
182.4005304766
 21
323.4868490972
 31
0.0
  0
LINE
  5
A2
330
1F
100
AcDbEntity
  8
0
  6
Continuous
 62
     7
370
    15
100
AcDbLine
 10
242.4005328608
 20
371.4868420638
 30
0.0
 11
242.4005328608
 21
323.4868490972
 31
0.0
  0
LINE
  5
A3
330
1F
100
AcDbEntity
  8
0
  6
Continuous
 62
     7
370
    15
100
AcDbLine
 10
277.4005330098
 20
369.9868464746
 30
0.0
 11
277.4005330098
 21
324.986852137
 31
0.0
  0
LINE
  5
A4
330
1F
100
AcDbEntity
  8
0
  6
Continuous
 62
     7
370
    15
100
AcDbLine
 10
237.4005339039
 20
325.1931959667
 30
0.0
 11
237.4005339039
 21
371.9368422307
 31
0.0
  0
LINE
  5
A5
330
1F
100
AcDbEntity
  8
0
  6
Continuous
 62
     7
370
    15
100
AcDbLine
 10
217.4005343509
 20
325.1931959667
 30
0.0
 11
217.4005343509
 21
371.9368422307
 31
0.0
  0
LINE
  5
A6
330
1F
100
AcDbEntity
  8
0
  6
Continuous
 62
     7
370
    15
100
AcDbLine
 10
229.8005356384
 20
305.0796272136
 30
0.0
 11
237.4005339039
 21
305.0796272136
 31
0.0
  0
LINE
  5
A7
330
1F
100
AcDbEntity
  8
0
  6
Continuous
 62
     7
370
    15
100
AcDbLine
 10
229.8005356384
 20
305.0796272136
 30
0.0
 11
229.8005356384
 21
307.9884866156
 31
0.0
  0
LWPOLYLINE
  5
A8
330
1F
100
AcDbEntity
  8
0
  6
Continuous
 62
     7
370
    15
100
AcDbPolyline
 90
        9
 70
   128
 43
0.0
 10
229.8005356384
 20
307.9884866156
 10
229.6178399515
 20
308.4337556638
 10
229.0975882602
 20
308.8112318792
 10
228.3189727855
 20
309.0634563841
 10
227.4005322647
 20
309.1520288863
 10
226.482091744
 20
309.0634563841
 10
225.7034762693
 20
308.8112318792
 10
225.1832245779
 20
308.4337556638
 10
225.0005288911
 20
307.9884866156
  0
LINE
  5
A9
330
1F
100
AcDbEntity
  8
0
  6
Continuous
 62
     7
370
    15
100
AcDbLine
 10
225.0005288911
 20
307.9884866156
 30
0.0
 11
225.0005288911
 21
305.0796272136
 31
0.0
  0
LINE
  5
AA
330
1F
100
AcDbEntity
  8
0
  6
Continuous
 62
     7
370
    15
100
AcDbLine
 10
217.4005343509
 20
305.0796272136
 30
0.0
 11
225.0005288911
 21
305.0796272136
 31
0.0
  0
LINE
  5
AB
330
1F
100
AcDbEntity
  8
0
  6
Continuous
 62
     7
370
    15
100
AcDbLine
 10
237.4005339039
 20
305.0796272136
 30
0.0
 11
237.4005339039
 21
311.1880266942
 31
0.0
  0
LINE
  5
AC
330
1F
100
AcDbEntity
  8
0
  6
Continuous
 62
     7
370
    15
100
AcDbLine
 10
217.4005343509
 20
305.0796272136
 30
0.0
 11
217.4005343509
 21
311.1880266942
 31
0.0
  0
LINE
  5
AD
330
1F
100
AcDbEntity
  8
0
  6
Continuous
 62
     7
370
    15
100
AcDbLine
 10
229.8005356384
 20
304.0300862767
 30
0.0
 11
237.4005339039
 21
304.0300862767
 31
0.0
  0
LINE
  5
AE
330
1F
100
AcDbEntity
  8
0
  6
Continuous
 62
     7
370
    15
100
AcDbLine
 10
229.8005356384
 20
305.0796272136
 30
0.0
 11
229.8005356384
 21
304.0300862767
 31
0.0
  0
LINE
  5
AF
330
1F
100
AcDbEntity
  8
0
  6
Continuous
 62
     7
370
    15
100
AcDbLine
 10
237.4005339039
 20
304.0300862767
 30
0.0
 11
237.4005339039
 21
305.0796272136
 31
0.0
  0
LINE
  5
B0
330
1F
100
AcDbEntity
  8
0
  6
Continuous
 62
     7
370
    15
100
AcDbLine
 10
217.4005343509
 20
304.0300862767
 30
0.0
 11
225.0005288911
 21
304.0300862767
 31
0.0
  0
LINE
  5
B1
330
1F
100
AcDbEntity
  8
0
  6
Continuous
 62
     7
370
    15
100
AcDbLine
 10
225.0005288911
 20
304.0300862767
 30
0.0
 11
225.0005288911
 21
305.0796272136
 31
0.0
  0
LINE
  5
B2
330
1F
100
AcDbEntity
  8
0
  6
Continuous
 62
     7
370
    15
100
AcDbLine
 10
217.4005343509
 20
304.0300862767
 30
0.0
 11
217.4005343509
 21
305.0796272136
 31
0.0
  0
LWPOLYLINE
  5
B3
330
1F
100
AcDbEntity
  8
0
  6
Continuous
 62
     7
370
    15
100
AcDbPolyline
 90
        9
 70
   128
 43
0.0
 10
229.8005356384
 20
306.9389419534
 10
229.6178399515
 20
307.3842110016
 10
229.0975882602
 20
307.7616909422
 10
228.3189727855
 20
308.0139154472
 10
227.4005322647
 20
308.1024879493
 10
226.482091744
 20
308.0139154472
 10
225.7034762693
 20
307.7616909422
 10
225.1832245779
 20
307.3842110016
 10
225.0005288911
 20
306.9389419534
  0
LINE
  5
B4
330
1F
100
AcDbEntity
  8
0
  6
Continuous
 62
     7
370
    15
100
AcDbLine
 10
237.4005339039
 20
325.1931959667
 30
0.0
 11
237.4005339039
 21
323.6824566402
 31
0.0
  0
LINE
  5
B5
330
1F
100
AcDbEntity
  8
0
  6
Continuous
 62
     7
370
    15
100
AcDbLine
 10
217.4005343509
 20
323.6824566402
 30
0.0
 11
217.4005343509
 21
325.1931959667
 31
0.0
  0
ARC
  5
B6
330
1F
100
AcDbEntity
  8
0
  6
Continuous
 62
     7
370
    15
100
AcDbCircle
 10
227.4005322647
 20
316.9123875285
 30
0.0
 40
2.400122662240325
100
AcDbArc
 50
180.5712447382
 51
359.4287552618
  0
LINE
  5
B7
330
1F
100
AcDbEntity
  8
0
  6
Continuous
 62
     7
370
    15
100
AcDbLine
 10
229.8005356384
 20
318.863830892
 30
0.0
 11
229.8005356384
 21
316.8884584584
 31
0.0
  0
ARC
  5
B8
330
1F
100
AcDbEntity
  8
0
  6
Continuous
 62
     7
370
    15
100
AcDbCircle
 10
227.4005322647
 20
318.8399018219
 30
0.0
 40
2.400122662240326
100
AcDbArc
 50
0.5712447382
 51
179.4287552618
  0
LINE
  5
B9
330
1F
100
AcDbEntity
  8
0
  6
Continuous
 62
     7
370
    15
100
AcDbLine
 10
225.0005288911
 20
316.8884584584
 30
0.0
 11
225.0005288911
 21
318.863830892
 31
0.0
  0
LINE
  5
BA
330
1F
100
AcDbEntity
  8
0
  6
Continuous
 62
     7
370
    15
100
AcDbLine
 10
237.4005339039
 20
313.2501387872
 30
0.0
 11
237.4005339039
 21
323.6824566402
 31
0.0
  0
LINE
  5
BB
330
1F
100
AcDbEntity
  8
0
  6
Continuous
 62
     7
370
    15
100
AcDbLine
 10
217.4005343509
 20
313.2501387872
 30
0.0
 11
217.4005343509
 21
323.6824566402
 31
0.0
  0
LINE
  5
BC
330
1F
100
AcDbEntity
  8
0
  6
Continuous
 62
     7
370
    15
100
AcDbLine
 10
237.4005339039
 20
313.2501387872
 30
0.0
 11
237.4005339039
 21
311.1880266942
 31
0.0
  0
LINE
  5
BD
330
1F
100
AcDbEntity
  8
0
  6
Continuous
 62
     7
370
    15
100
AcDbLine
 10
217.4005343509
 20
311.1880266942
 30
0.0
 11
217.4005343509
 21
313.2501387872
 31
0.0
  0
ARC
  5
BE
330
1F
100
AcDbEntity
  8
0
  6
Continuous
 62
     7
370
    15
100
AcDbCircle
 10
227.4005322647
 20
317.1001074213
 30
0.0
 40
2.400122687312865
100
AcDbArc
 50
180.5713047657
 51
359.4286952343
  0
ARC
  5
BF
330
1F
100
AcDbEntity
  8
0
  6
Continuous
 62
     7
370
    15
100
AcDbCircle
 10
227.4005322647
 20
320.6464745387
 30
0.0
 40
2.408943789061758
100
AcDbArc
 50
202.1630226289
 51
337.8369773711
  0
ARC
  5
C0
330
1F
100
AcDbEntity
  8
0
  6
Continuous
 62
     7
370
    15
100
AcDbCircle
 10
227.4005322647
 20
320.8353934803
 30
0.0
 40
2.409906153554994
100
AcDbArc
 50
204.6163159355
 51
335.3836840645
  0
LWPOLYLINE
  5
C1
330
1F
100
AcDbEntity
  8
0
  6
Continuous
 62
     7
370
    15
100
AcDbPolyline
 90
        3
 70
   128
 43
0.0
 10
323.5324512166
 20
315.8674606957
 10
322.3216536385
 20
315.3897592701
 10
321.4715591562
 20
314.9509051718
  0
ARC
  5
C2
330
1F
100
AcDbEntity
  8
0
  6
Continuous
 62
     7
370
    15
100
AcDbCircle
 10
325.6661008386
 20
311.4703135516
 30
0.0
 40
4.887470073176853
100
AcDbArc
 50
68.5441342642
 51
115.8842839058
  0
LINE
  5
C3
330
1F
100
AcDbEntity
  8
0
  6
Continuous
 62
     7
370
    15
100
AcDbLine
 10
327.0589078707
 20
317.8449043907
 30
0.0
 11
320.0059945625
 21
315.5183637418
 31
0.0
  0
LINE
  5
C4
330
1F
100
AcDbEntity
  8
0
  6
Continuous
 62
     7
370
    15
100
AcDbLine
 10
329.5700422418
 20
316.7171398081
 30
0.0
 11
327.0589078707
 21
317.8449043907
 31
0.0
  0
LINE
  5
C5
330
1F
100
AcDbEntity
  8
0
  6
Continuous
 62
     7
370
    15
100
AcDbLine
 10
320.0059945625
 20
315.5183637418
 30
0.0
 11
319.4942365331
 21
314.9509051718
 31
0.0
  0
LINE
  5
C6
330
1F
100
AcDbEntity
  8
0
  6
Continuous
 62
     7
370
    15
100
AcDbLine
 10
315.1370699448
 20
314.9509051718
 30
0.0
 11
312.7173169446
 21
320.976234404
 31
0.0
  0
LINE
  5
C7
330
1F
100
AcDbEntity
  8
0
  6
Continuous
 62
     7
370
    15
100
AcDbLine
 10
316.2437735987
 20
324.8865226187
 30
0.0
 11
312.7173169446
 21
320.976234404
 31
0.0
  0
LINE
  5
C8
330
1F
100
AcDbEntity
  8
0
  6
Continuous
 62
     7
370
    15
100
AcDbLine
 10
320.0059945625
 20
315.5183637418
 30
0.0
 11
316.2437735987
 21
324.8865226187
 31
0.0
  0
LINE
  5
C9
330
1F
100
AcDbEntity
  8
0
  6
Continuous
 62
     7
370
    15
100
AcDbLine
 10
323.2966869068
 20
327.2130632676
 30
0.0
 11
316.2437735987
 21
324.8865226187
 31
0.0
  0
LINE
  5
CA
330
1F
100
AcDbEntity
  8
0
  6
Continuous
 62
     7
370
    15
100
AcDbLine
 10
327.0589078707
 20
317.8449043907
 30
0.0
 11
323.2966869068
 21
327.2130632676
 31
0.0
  0
LINE
  5
CB
330
1F
100
AcDbEntity
  8
0
  6
Continuous
 62
     7
370
    15
100
AcDbLine
 10
326.8231435609
 20
325.6293082513
 30
0.0
 11
323.2966869068
 21
327.2130632676
 31
0.0
  0
LINE
  5
CC
330
1F
100
AcDbEntity
  8
0
  6
Continuous
 62
     7
370
    15
100
AcDbLine
 10
330.3048930061
 20
316.9595444478
 30
0.0
 11
326.8231435609
 21
325.6293082513
 31
0.0
  0
LINE
  5
CD
330
1F
100
AcDbEntity
  8
0
  6
Continuous
 62
     7
370
    15
100
AcDbLine
 10
313.5076130671
 20
331.6997283973
 30
0.0
 11
309.981156413
 21
327.7894401826
 31
0.0
  0
LINE
  5
CE
330
1F
100
AcDbEntity
  8
0
  6
Continuous
 62
     7
370
    15
100
AcDbLine
 10
315.5597339314
 20
326.5898222007
 30
0.0
 11
313.5076130671
 21
331.6997283973
 31
0.0
  0
LINE
  5
CF
330
1F
100
AcDbEntity
  8
0
  6
Continuous
 62
     7
370
    15
100
AcDbLine
 10
312.0332772774
 20
322.679533986
 30
0.0
 11
315.5597339314
 21
326.5898222007
 31
0.0
  0
LINE
  5
D0
330
1F
100
AcDbEntity
  8
0
  6
Continuous
 62
     7
370
    15
100
AcDbLine
 10
312.0332772774
 20
322.679533986
 30
0.0
 11
309.981156413
 21
327.7894401826
 31
0.0
  0
LINE
  5
D1
330
1F
100
AcDbEntity
  8
0
  6
Continuous
 62
     7
370
    15
100
AcDbLine
 10
315.5597339314
 20
326.5898222007
 30
0.0
 11
322.6126472396
 21
328.9163628496
 31
0.0
  0
LINE
  5
D2
330
1F
100
AcDbEntity
  8
0
  6
Continuous
 62
     7
370
    15
100
AcDbLine
 10
322.6126472396
 20
328.9163628496
 30
0.0
 11
326.1391038937
 21
327.3326152839
 31
0.0
  0
LINE
  5
D3
330
1F
100
AcDbEntity
  8
0
  6
Continuous
 62
     7
370
    15
100
AcDbLine
 10
326.1391038937
 20
327.3326152839
 30
0.0
 11
325.2429927629
 21
326.3389686026
 31
0.0
  0
LINE
  5
D4
330
1F
100
AcDbEntity
  8
0
  6
Continuous
 62
     7
370
    15
100
AcDbLine
 10
313.6134280753
 20
321.9698810853
 30
0.0
 11
312.0332772774
 21
322.679533986
 31
0.0
  0
LWPOLYLINE
  5
D5
330
1F
100
AcDbEntity
  8
0
  6
Continuous
 62
     7
370
    15
100
AcDbPolyline
 90
       11
 70
   128
 43
0.0
 10
315.3354621423
 20
323.879345683
 10
315.4216597718
 20
324.1734275498
 10
315.8310002578
 20
324.7775206246
 10
316.5295760077
 20
325.4019314327
 10
317.4553199601
 20
325.9911680497
 10
318.5259739799
 20
326.4928677954
 10
319.6464053285
 20
326.8624612965
 10
320.7170593482
 20
327.0671138443
 10
321.6428033006
 20
327.0886236705
 10
322.3413809133
 20
326.9250983276
 10
322.375512023
 20
326.909191338
  0
LINE
  5
D6
330
1F
100
AcDbEntity
  8
0
  6
Continuous
 62
     7
370
    15
100
AcDbLine
 10
320.5605263752
 20
334.0262690462
 30
0.0
 11
313.5076130671
 21
331.6997283973
 31
0.0
  0
LINE
  5
D7
330
1F
100
AcDbEntity
  8
0
  6
Continuous
 62
     7
370
    15
100
AcDbLine
 10
322.6126472396
 20
328.9163628496
 30
0.0
 11
320.5605263752
 21
334.0262690462
 31
0.0
  0
LINE
  5
D8
330
1F
100
AcDbEntity
  8
0
  6
Continuous
 62
     7
370
    15
100
AcDbLine
 10
324.0869830293
 20
332.4425140299
 30
0.0
 11
320.5605263752
 21
334.0262690462
 31
0.0
  0
LINE
  5
D9
330
1F
100
AcDbEntity
  8
0
  6
Continuous
 62
     7
370
    15
100
AcDbLine
 10
326.1391038937
 20
327.3326152839
 30
0.0
 11
324.0869830293
 21
332.4425140299
 31
0.0
  0
LWPOLYLINE
  5
DA
330
1F
100
AcDbEntity
  8
0
  6
Continuous
 62
     7
370
    15
100
AcDbPolyline
 90
        6
 70
   128
 43
0.0
 10
380.900530417
 20
194.1520491518
 10
377.7362315846
 20
194.5987785138
 10
374.9272062373
 20
195.8840669967
 10
372.7122976375
 20
197.8866824784
 10
371.2993397308
 20
200.501709608
 10
370.9269075585
 20
202.6749880888
  0
LWPOLYLINE
  5
DB
330
1F
100
AcDbEntity
  8
0
  6
Continuous
 62
     7
370
    15
100
AcDbPolyline
 90
       16
 70
   128
 43
0.0
 10
370.9269075585
 20
202.6749880888
 10
370.9147407603
 20
210.3789741077
 10
370.8926870418
 20
218.821437461
 10
370.8844616008
 20
224.3482688345
 10
370.8858697605
 20
230.0171287634
 10
370.9012179566
 20
235.9582738854
 10
370.9345518542
 20
241.9649808571
 10
370.9885983658
 20
247.8218007736
 10
371.0655628634
 20
253.6585874759
 10
371.1684479308
 20
259.6016166635
 10
371.2948544812
 20
265.4373584219
 10
371.4423387242
 20
270.9617646314
 10
371.6121821594
 20
276.3066956677
 10
371.8042208743
 20
281.5799744703
 10
372.0176204038
 20
286.5859785952
 10
372.0479666186
 20
287.2268216588
  0
LWPOLYLINE
  5
DC
330
1F
100
AcDbEntity
  8
0
  6
Continuous
 62
     7
370
    15
100
AcDbPolyline
 90
        6
 70
   128
 43
0.0
 10
372.2764610243
 20
287.9939520635
 10
372.7636395884
 20
289.6295482196
 10
374.3987067533
 20
291.7003216125
 10
376.7748980713
 20
293.2141156771
 10
379.6256317687
 20
293.9843976774
 10
380.900530417
 20
294.0601998843
  0
LWPOLYLINE
  5
DD
330
1F
100
AcDbEntity
  8
0
  6
Continuous
 62
     7
370
    15
100
AcDbPolyline
 90
        5
 70
   128
 43
0.0
 10
380.900530417
 20
299.7693674542
 10
383.9365228009
 20
299.3745574631
 10
386.6023181868
 20
298.2231968917
 10
388.4648292256
 20
296.5217040755
 10
389.3410026026
 20
294.5881107725
  0
LINE
  5
DE
330
1F
100
AcDbEntity
  8
0
  6
Continuous
 62
     7
370
    15
100
AcDbLine
 10
389.3410026026
 20
294.5881107725
 30
0.0
 11
389.4255294395
 21
293.7517905511
 31
0.0
  0
ARC
  5
DF
330
1F
100
AcDbEntity
  8
0
  6
Continuous
 62
     7
370
    15
100
AcDbCircle
 10
380.5833708878
 20
177.0923780263
 30
0.0
 40
10.85594042051149
100
AcDbArc
 50
271.6741514599
 51
15.3515173809
  0
LWPOLYLINE
  5
E0
330
1F
100
AcDbEntity
  8
0
  6
Continuous
 62
     7
370
    15
100
AcDbPolyline
 90
        3
 70
   128
 43
0.0
 10
380.900530417
 20
167.8208777584
 10
377.4506284786
 20
168.3508003034
 10
374.9005331588
 20
169.539801208
  0
ARC
  5
E1
330
1F
100
AcDbEntity
  8
0
  6
Continuous
 62
     7
370
    15
100
AcDbCircle
 10
380.9307715065
 20
173.5613965943
 30
0.0
 40
10.97011266646169
100
AcDbArc
 50
175.0143779509
 51
236.6537695788
  0
ARC
  5
E2
330
1F
100
AcDbEntity
  8
0
  6
Continuous
 62
     7
370
    15
100
AcDbCircle
 10
318.6880334014
 20
182.3047375258
 30
0.0
 40
51.90205867222426
100
AcDbArc
 50
351.3678633015
 51
358.7779758351
  0
LINE
  5
E3
330
1F
100
AcDbEntity
  8
0
  6
Continuous
 62
     7
370
    15
100
AcDbLine
 10
400.5306794238
 20
229.3263574966
 30
0.0
 11
400.5306794238
 21
274.9509042032
 31
0.0
  0
ARC
  5
E4
330
1F
100
AcDbEntity
  8
0
  6
Continuous
 62
     7
370
    15
100
AcDbCircle
 10
-36.2589445786
 20
292.7455067752
 30
0.0
 40
441.3696456842428
100
AcDbArc
 50
345.5476127609
 51
351.7387372911
  0
LINE
  5
E5
330
1F
100
AcDbEntity
  8
0
  6
Continuous
 62
     7
370
    15
100
AcDbLine
 10
390.4975040746
 20
265.6904490568
 30
0.0
 11
390.4975040746
 21
313.900544671
 31
0.0
  0
LINE
  5
E6
330
1F
100
AcDbEntity
  8
0
  6
Continuous
 62
     7
370
    15
100
AcDbLine
 10
400.1670985413
 20
276.2211406507
 30
0.0
 11
390.4975040746
 21
313.900544671
 31
0.0
  0
LINE
  5
E7
330
1F
100
AcDbEntity
  8
0
  6
Continuous
 62
     7
370
    15
100
AcDbLine
 10
370.9269075585
 20
202.6749880888
 30
0.0
 11
343.9005336654
 21
202.6749880888
 31
0.0
  0
LINE
  5
E8
330
1F
100
AcDbEntity
  8
0
  6
Continuous
 62
     7
370
    15
100
AcDbLine
 10
343.9005336654
 20
204.7285543658
 30
0.0
 11
343.9005336654
 21
285.1732553818
 31
0.0
  0
LINE
  5
E9
330
1F
100
AcDbEntity
  8
0
  6
Continuous
 62
     7
370
    15
100
AcDbLine
 10
372.0479666186
 20
287.2268216588
 30
0.0
 11
343.9005336654
 21
287.2268216588
 31
0.0
  0
LWPOLYLINE
  5
EA
330
1F
100
AcDbEntity
  8
0
  6
Continuous
 62
     7
370
    15
100
AcDbPolyline
 90
        6
 70
   128
 43
0.0
 10
389.4255294395
 20
293.7517905511
 10
389.4863932324
 20
299.7171724119
 10
389.5221932721
 20
302.9921868719
 10
389.5631565643
 20
305.8728234746
 10
389.6127476287
 20
308.4023589172
 10
389.6684928727
 20
310.4757809915
  0
ARC
  5
EB
330
1F
100
AcDbEntity
  8
0
  6
Continuous
 62
     7
370
    15
100
AcDbCircle
 10
353.9935507475
 20
310.7859830865
 30
0.0
 40
35.67629074023715
100
AcDbArc
 50
359.501812144
 51
5.0083314611
  0
LINE
  5
EC
330
1F
100
AcDbEntity
  8
0
  6
Continuous
 62
     7
370
    15
100
AcDbLine
 10
390.4975040746
 20
313.900544671
 30
0.0
 11
389.5336299134
 21
313.900544671
 31
0.0
  0
LINE
  5
ED
330
1F
100
AcDbEntity
  8
0
  6
Continuous
 62
     7
370
    15
100
AcDbLine
 10
380.900530417
 20
191.8044419863
 30
0.0
 11
343.9005336654
 21
191.8044419863
 31
0.0
  0
LINE
  5
EE
330
1F
100
AcDbEntity
  8
0
  6
Continuous
 62
     7
370
    15
100
AcDbLine
 10
380.900530417
 20
191.8044419863
 30
0.0
 11
380.900530417
 21
194.1520491518
 31
0.0
  0
LINE
  5
EF
330
1F
100
AcDbEntity
  8
0
  6
Continuous
 62
     7
370
    15
100
AcDbLine
 10
380.900530417
 20
181.1978364267
 30
0.0
 11
343.9005336654
 21
181.1978364267
 31
0.0
  0
LINE
  5
F0
330
1F
100
AcDbEntity
  8
0
  6
Continuous
 62
     7
370
    15
100
AcDbLine
 10
380.900530417
 20
181.1978364267
 30
0.0
 11
380.900530417
 21
191.8044419863
 31
0.0
  0
LINE
  5
F1
330
1F
100
AcDbEntity
  8
0
  6
Continuous
 62
     7
370
    15
100
AcDbLine
 10
343.9005336654
 20
181.1978364267
 30
0.0
 11
343.9005336654
 21
191.8044419863
 31
0.0
  0
LINE
  5
F2
330
1F
100
AcDbEntity
  8
0
  6
Continuous
 62
     7
370
    15
100
AcDbLine
 10
380.900530417
 20
298.0973677613
 30
0.0
 11
343.9005336654
 21
298.0973677613
 31
0.0
  0
LINE
  5
F3
330
1F
100
AcDbEntity
  8
0
  6
Continuous
 62
     7
370
    15
100
AcDbLine
 10
380.900530417
 20
294.0601998843
 30
0.0
 11
380.900530417
 21
298.0973677613
 31
0.0
  0
LINE
  5
F4
330
1F
100
AcDbEntity
  8
0
  6
Continuous
 62
     7
370
    15
100
AcDbLine
 10
380.900530417
 20
308.7039733209
 30
0.0
 11
343.9005336654
 21
308.7039733209
 31
0.0
  0
LINE
  5
F5
330
1F
100
AcDbEntity
  8
0
  6
Continuous
 62
     7
370
    15
100
AcDbLine
 10
380.900530417
 20
298.0973677613
 30
0.0
 11
380.900530417
 21
308.7039733209
 31
0.0
  0
LINE
  5
F6
330
1F
100
AcDbEntity
  8
0
  6
Continuous
 62
     7
370
    15
100
AcDbLine
 10
343.9005336654
 20
298.0973677613
 30
0.0
 11
343.9005336654
 21
308.7039733209
 31
0.0
  0
LINE
  5
F7
330
1F
100
AcDbEntity
  8
0
  6
Continuous
 62
     7
370
    15
100
AcDbLine
 10
410.849264164
 20
382.9509014167
 30
0.0
 11
370.9005325032
 21
382.9509014167
 31
0.0
  0
LINE
  5
F8
330
1F
100
AcDbEntity
  8
0
  6
Continuous
 62
     7
370
    15
100
AcDbLine
 10
370.9005325032
 20
366.9509062447
 30
0.0
 11
410.849264164
 21
366.9509062447
 31
0.0
  0
LINE
  5
F9
330
1F
100
AcDbEntity
  8
0
  6
Continuous
 62
     7
370
    15
100
AcDbLine
 10
370.9005325032
 20
382.9509014167
 30
0.0
 11
330.9518045676
 21
382.9509014167
 31
0.0
  0
LINE
  5
FA
330
1F
100
AcDbEntity
  8
0
  6
Continuous
 62
     7
370
    15
100
AcDbLine
 10
330.9518045676
 20
366.9509062447
 30
0.0
 11
370.9005325032
 21
366.9509062447
 31
0.0
  0
LINE
  5
FB
330
1F
100
AcDbEntity
  8
0
  6
Continuous
 62
     7
370
    15
100
AcDbLine
 10
330.9518045676
 20
122.9509035029
 30
0.0
 11
370.9005325032
 21
122.9509035029
 31
0.0
  0
LINE
  5
FC
330
1F
100
AcDbEntity
  8
0
  6
Continuous
 62
     7
370
    15
100
AcDbLine
 10
370.9005325032
 20
106.9509083308
 30
0.0
 11
330.9518045676
 21
106.9509083308
 31
0.0
  0
LINE
  5
FD
330
1F
100
AcDbEntity
  8
0
  6
Continuous
 62
     7
370
    15
100
AcDbLine
 10
410.849264164
 20
106.9509083308
 30
0.0
 11
370.9005325032
 21
106.9509083308
 31
0.0
  0
LINE
  5
FE
330
1F
100
AcDbEntity
  8
0
  6
Continuous
 62
     7
370
    15
100
AcDbLine
 10
370.9005325032
 20
122.9509035029
 30
0.0
 11
410.849264164
 21
122.9509035029
 31
0.0
  0
LWPOLYLINE
  5
FF
330
1F
100
AcDbEntity
  8
0
  6
Continuous
 62
     7
370
    15
100
AcDbPolyline
 90
        5
 70
   128
 43
0.0
 10
389.6684928727
 20
310.4757809915
 10
389.5767985773
 20
307.2881208636
 10
389.4851042819
 20
303.1084867098
 10
389.413049717
 20
299.1426208891
 10
389.3410026026
 20
294.5881107725
  0
LWPOLYLINE
  5
100
330
1F
100
AcDbEntity
  8
0
  6
Continuous
 62
     7
370
    15
100
AcDbPolyline
 90
        3
 70
   128
 43
0.0
 10
375.1168831182
 20
311.9748229064
 10
374.1924150777
 20
310.3836322107
 10
373.667089541
 20
308.7039733209
  0
ARC
  5
101
330
1F
100
AcDbEntity
  8
0
  6
Continuous
 62
     7
370
    15
100
AcDbCircle
 10
380.8174884436
 20
295.102390176
 30
0.0
 40
17.80943253781528
100
AcDbArc
 50
89.7328397843
 51
108.6683136747
  0
LWPOLYLINE
  5
102
330
1F
100
AcDbEntity
  8
0
  6
Continuous
 62
     7
370
    15
100
AcDbPolyline
 90
        5
 70
   128
 43
0.0
 10
388.5531409574
 20
313.9488765873
 10
386.1337064696
 20
314.0220487394
 10
383.9627562952
 20
314.1433516421
 10
381.81848665
 20
314.2122173585
 10
380.900530417
 20
314.2155403175
  0
LINE
  5
103
330
1F
100
AcDbEntity
  8
0
  6
Continuous
 62
     7
370
    15
100
AcDbLine
 10
389.5336299134
 20
313.900544671
 30
0.0
 11
388.5531409574
 21
313.9488765873
 31
0.0
  0
LINE
  5
104
330
1F
100
AcDbEntity
  8
0
  6
Continuous
 62
     7
370
    15
100
AcDbLine
 10
330.9518045676
 20
382.9509014167
 30
0.0
 11
318.6587861669
 21
382.9509014167
 31
0.0
  0
LINE
  5
105
330
1F
100
AcDbEntity
  8
0
  6
Continuous
 62
     7
370
    15
100
AcDbLine
 10
318.6587861669
 20
366.9509062447
 30
0.0
 11
330.9518045676
 21
366.9509062447
 31
0.0
  0
LINE
  5
106
330
1F
100
AcDbEntity
  8
0
  6
Continuous
 62
     7
370
    15
100
AcDbLine
 10
330.9518045676
 20
106.9509083308
 30
0.0
 11
318.6587861669
 21
106.9509083308
 31
0.0
  0
LINE
  5
107
330
1F
100
AcDbEntity
  8
0
  6
Continuous
 62
     7
370
    15
100
AcDbLine
 10
318.6587861669
 20
122.9509035029
 30
0.0
 11
330.9518045676
 21
122.9509035029
 31
0.0
  0
LINE
  5
108
330
1F
100
AcDbEntity
  8
0
  6
Continuous
 62
     7
370
    15
100
AcDbLine
 10
423.1422825647
 20
382.9509014167
 30
0.0
 11
410.849264164
 21
382.9509014167
 31
0.0
  0
LINE
  5
109
330
1F
100
AcDbEntity
  8
0
  6
Continuous
 62
     7
370
    15
100
AcDbLine
 10
410.849264164
 20
366.9509062447
 30
0.0
 11
423.1422825647
 21
366.9509062447
 31
0.0
  0
LINE
  5
10A
330
1F
100
AcDbEntity
  8
0
  6
Continuous
 62
     7
370
    15
100
AcDbLine
 10
423.1422825647
 20
106.9509083308
 30
0.0
 11
410.849264164
 21
106.9509083308
 31
0.0
  0
LINE
  5
10B
330
1F
100
AcDbEntity
  8
0
  6
Continuous
 62
     7
370
    15
100
AcDbLine
 10
410.849264164
 20
122.9509035029
 30
0.0
 11
423.1422825647
 21
122.9509035029
 31
0.0
  0
LINE
  5
10C
330
1F
100
AcDbEntity
  8
0
  6
Continuous
 62
     7
370
    15
100
AcDbLine
 10
374.9005331588
 20
311.9748229064
 30
0.0
 11
375.1168831182
 21
311.9748229064
 31
0.0
  0
LINE
  5
10D
330
1F
100
AcDbEntity
  8
0
  6
Continuous
 62
     7
370
    15
100
AcDbLine
 10
380.900530417
 20
366.9509062447
 30
0.0
 11
380.900530417
 21
312.9116291084
 31
0.0
  0
LINE
  5
10E
330
1F
100
AcDbEntity
  8
0
  6
Continuous
 62
     7
370
    15
100
AcDbLine
 10
374.9005331588
 20
366.9509062447
 30
0.0
 11
374.9005331588
 21
311.9748229064
 31
0.0
  0
LINE
  5
10F
330
1F
100
AcDbEntity
  8
0
  6
Continuous
 62
     7
370
    15
100
AcDbLine
 10
374.9005331588
 20
122.9509035029
 30
0.0
 11
374.9005331588
 21
169.539801208
 31
0.0
  0
LINE
  5
110
330
1F
100
AcDbEntity
  8
0
  6
Continuous
 62
     7
370
    15
100
AcDbLine
 10
380.900530417
 20
122.9509035029
 30
0.0
 11
380.900530417
 21
167.8208777584
 31
0.0
  0
LINE
  5
111
330
1F
100
AcDbEntity
  8
0
  6
Continuous
 62
     7
370
    15
100
AcDbLine
 10
353.1709409249
 20
174.5147624888
 30
0.0
 11
370.0021638465
 21
174.5147624888
 31
0.0
  0
LINE
  5
112
330
1F
100
AcDbEntity
  8
0
  6
Continuous
 62
     7
370
    15
100
AcDbLine
 10
343.9005336654
 20
174.4509035625
 30
0.0
 11
343.9005336654
 21
181.1978364267
 31
0.0
  0
LINE
  5
113
330
1F
100
AcDbEntity
  8
0
  6
Continuous
 62
     7
370
    15
100
AcDbLine
 10
371.3546677423
 20
315.3870472588
 30
0.0
 11
353.1709409249
 21
315.3870472588
 31
0.0
  0
ARC
  5
114
330
1F
100
AcDbEntity
  8
0
  6
Continuous
 62
     7
370
    15
100
AcDbCircle
 10
354.8990313419
 20
138.4529668114
 30
0.0
 40
177.6976555644874
100
AcDbArc
 50
83.5371379725
 51
84.6865291433
  0
LINE
  5
115
330
1F
100
AcDbEntity
  8
0
  6
Continuous
 62
     7
370
    15
100
AcDbLine
 10
343.9005336654
 20
308.7039733209
 30
0.0
 11
343.9005336654
 21
315.4509061851
 31
0.0
  0
LINE
  5
116
330
1F
100
AcDbEntity
  8
0
  6
Continuous
 62
     7
370
    15
100
AcDbLine
 10
330.9005333972
 20
384.9509054698
 30
0.0
 11
410.9005316091
 21
384.9509054698
 31
0.0
  0
LINE
  5
117
330
1F
100
AcDbEntity
  8
0
  6
Continuous
 62
     7
370
    15
100
AcDbLine
 10
330.9005333972
 20
104.9509042777
 30
0.0
 11
410.9005316091
 21
104.9509042777
 31
0.0
  0
LINE
  5
118
330
1F
100
AcDbEntity
  8
0
  6
Continuous
 62
     7
370
    15
100
AcDbLine
 10
318.6587861669
 20
382.9509014167
 30
0.0
 11
313.3994231862
 21
382.9509014167
 31
0.0
  0
LINE
  5
119
330
1F
100
AcDbEntity
  8
0
  6
Continuous
 62
     7
370
    15
100
AcDbLine
 10
313.3994231862
 20
366.9509062447
 30
0.0
 11
318.6587861669
 21
366.9509062447
 31
0.0
  0
LINE
  5
11A
330
1F
100
AcDbEntity
  8
0
  6
Continuous
 62
     7
370
    15
100
AcDbLine
 10
318.6587861669
 20
106.9509083308
 30
0.0
 11
313.3994231862
 21
106.9509083308
 31
0.0
  0
LINE
  5
11B
330
1F
100
AcDbEntity
  8
0
  6
Continuous
 62
     7
370
    15
100
AcDbLine
 10
313.3994231862
 20
122.9509035029
 30
0.0
 11
318.6587861669
 21
122.9509035029
 31
0.0
  0
LINE
  5
11C
330
1F
100
AcDbEntity
  8
0
  6
Continuous
 62
     7
370
    15
100
AcDbLine
 10
428.401647408
 20
382.9509014167
 30
0.0
 11
423.1422825647
 21
382.9509014167
 31
0.0
  0
LINE
  5
11D
330
1F
100
AcDbEntity
  8
0
  6
Continuous
 62
     7
370
    15
100
AcDbLine
 10
423.1422825647
 20
366.9509062447
 30
0.0
 11
428.401647408
 21
366.9509062447
 31
0.0
  0
LINE
  5
11E
330
1F
100
AcDbEntity
  8
0
  6
Continuous
 62
     7
370
    15
100
AcDbLine
 10
428.401647408
 20
106.9509083308
 30
0.0
 11
423.1422825647
 21
106.9509083308
 31
0.0
  0
LINE
  5
11F
330
1F
100
AcDbEntity
  8
0
  6
Continuous
 62
     7
370
    15
100
AcDbLine
 10
423.1422825647
 20
122.9509035029
 30
0.0
 11
428.401647408
 21
122.9509035029
 31
0.0
  0
LINE
  5
120
330
1F
100
AcDbEntity
  8
0
  6
Continuous
 62
     7
370
    15
100
AcDbLine
 10
409.4005360198
 20
274.9509042032
 30
0.0
 11
409.4005360198
 21
229.3263574966
 31
0.0
  0
LINE
  5
121
330
1F
100
AcDbEntity
  8
0
  6
Continuous
 62
     7
370
    15
100
AcDbLine
 10
400.5306794238
 20
229.3263574966
 30
0.0
 11
409.4005360198
 21
229.3263574966
 31
0.0
  0
LWPOLYLINE
  5
122
330
1F
100
AcDbEntity
  8
0
  6
Continuous
 62
     7
370
    15
100
AcDbPolyline
 90
        6
 70
   128
 43
0.0
 10
409.4005360198
 20
193.2668419458
 10
408.2183523965
 20
189.1256788649
 10
406.90331002
 20
185.0284853854
 10
405.6017457438
 20
182.3624739327
 10
403.9356990648
 20
179.8743972458
 10
402.1750002098
 20
177.4490022935
  0
LWPOLYLINE
  5
123
330
1F
100
AcDbEntity
  8
0
  6
Continuous
 62
     7
370
    15
100
AcDbPolyline
 90
        3
 70
   128
 43
0.0
 10
402.1750002098
 20
177.4490022935
 10
396.8622370553
 20
171.7429378905
 10
392.175464232
 20
166.2114256896
  0
LINE
  5
124
330
1F
100
AcDbEntity
  8
0
  6
Continuous
 62
     7
370
    15
100
AcDbLine
 10
392.175464232
 20
166.2114256896
 30
0.0
 11
380.900530417
 21
166.2114256896
 31
0.0
  0
LINE
  5
125
330
1F
100
AcDbEntity
  8
0
  6
Continuous
 62
     7
370
    15
100
AcDbLine
 10
409.4005360198
 20
229.3263574966
 30
0.0
 11
409.4005360198
 21
193.2668419458
 31
0.0
  0
LWPOLYLINE
  5
126
330
1F
100
AcDbEntity
  8
0
  6
Continuous
 62
     7
370
    15
100
AcDbPolyline
 90
        8
 70
   128
 43
0.0
 10
444.4005324435
 20
219.9431447216
 10
445.6353171659
 20
223.1392314561
 10
446.41905864
 20
224.7084969558
 10
447.1741004777
 20
226.0439092197
 10
447.8078617645
 20
227.0663337685
 10
448.2506944728
 20
227.734425468
 10
448.3973666024
 20
227.9464112498
 10
448.3839406562
 20
227.9271310099
  0
ARC
  5
127
330
1F
100
AcDbEntity
  8
0
  6
Continuous
 62
     7
370
    15
100
AcDbCircle
 10
463.5107210074
 20
215.2896363177
 30
0.0
 40
20.13459346008665
100
AcDbArc
 50
198.3552697586
 51
216.3822935334
  0
ARC
  5
128
330
1F
100
AcDbEntity
  8
0
  6
Continuous
 62
     7
370
    15
100
AcDbCircle
 10
400.6308954687
 20
92.8534539973
 30
0.0
 40
73.84366139492776
100
AcDbArc
 50
96.5750459757
 51
105.4971857937
  0
LWPOLYLINE
  5
129
330
1F
100
AcDbEntity
  8
0
  6
Continuous
 62
     7
370
    15
100
AcDbPolyline
 90
        4
 70
   128
 43
0.0
 10
447.5422783685
 20
201.9823672153
 10
447.5480898214
 20
201.9572401323
 10
447.491107781
 20
202.2126087822
 10
447.3008199525
 20
203.3463971593
  0
ARC
  5
12A
330
1F
100
AcDbEntity
  8
0
  6
Continuous
 62
     7
370
    15
100
AcDbCircle
 10
414.6662665058
 20
109.8136242588
 30
0.0
 40
65.09572980247553
100
AcDbArc
 50
127.6532198777
 51
168.3568985042
  0
LWPOLYLINE
  5
12B
330
1F
100
AcDbEntity
  8
0
  6
Continuous
 62
     7
370
    15
100
AcDbPolyline
 90
       18
 70
   128
 43
0.0
 10
391.2328465772
 20
326.7850497641
 10
389.8132949066
 20
328.2052198328
 10
388.2471828652
 20
329.9700165071
 10
386.5531518054
 20
332.1421736755
 10
384.9550767732
 20
334.7157681264
 10
384.1058744979
 20
337.0413178481
 10
384.0065582586
 20
339.1422549166
 10
384.6900074673
 20
341.6565054931
 10
385.7198714209
 20
343.748658327
 10
386.9369535637
 20
345.7322040476
 10
388.7352480483
 20
348.2898840584
 10
390.5418499303
 20
350.6140479721
 10
391.8181194854
 20
352.1500298657
 10
392.955495317
 20
353.4428769626
 10
393.6845048261
 20
354.2188400306
 10
394.2303567124
 20
354.7413343467
 10
394.5303319884
 20
354.9473727025
 10
394.5370226097
 20
354.9296924748
  0
ARC
  5
12C
330
1F
100
AcDbEntity
  8
0
  6
Continuous
 62
     7
370
    15
100
AcDbCircle
 10
379.8509191838
 20
341.6172171767
 30
0.0
 40
18.69602795633445
100
AcDbArc
 50
273.2183268788
 51
307.5019573183
  0
LWPOLYLINE
  5
12D
330
1F
100
AcDbEntity
  8
0
  6
Continuous
 62
     7
370
    15
100
AcDbPolyline
 90
        3
 70
   128
 43
0.0
 10
354.3890288961
 20
366.9509062447
 10
359.6886827541
 20
346.4548433103
 10
364.0164642525
 20
330.3298870005
  0
LWPOLYLINE
  5
12E
330
1F
100
AcDbEntity
  8
0
  6
Continuous
 62
     7
370
    15
100
AcDbPolyline
 90
        6
 70
   128
 43
0.0
 10
374.9005331588
 20
324.1228083052
 10
372.5044189883
 20
325.075499145
 10
370.4040779662
 20
325.9906614103
 10
368.4912978602
 20
326.9722977557
 10
365.9316061926
 20
328.6099651732
 10
364.0164642525
 20
330.3298870005
  0
LINE
  5
12F
330
1F
100
AcDbEntity
  8
0
  6
Continuous
 62
     7
370
    15
100
AcDbLine
 10
405.4330795002
 20
325.253962902
 30
0.0
 11
393.0995969963
 21
325.253962902
 31
0.0
  0
LWPOLYLINE
  5
130
330
1F
100
AcDbEntity
  8
0
  6
Continuous
 62
     7
370
    15
100
AcDbPolyline
 90
        3
 70
   128
 43
0.0
 10
393.0995969963
 20
325.253962902
 10
392.3672719789
 20
325.792252449
 10
391.2328465772
 20
326.7850497641
  0
LINE
  5
131
330
1F
100
AcDbEntity
  8
0
  6
Continuous
 62
     7
370
    15
100
AcDbLine
 10
405.9005289269
 20
354.9509042777
 30
0.0
 11
405.9005289269
 21
324.9509030856
 31
0.0
  0
ARC
  5
132
330
1F
100
AcDbEntity
  8
0
  6
Continuous
 62
     7
370
    15
100
AcDbCircle
 10
371.3738801813
 20
327.4244369863
 30
0.0
 40
21.83386655814596
100
AcDbArc
 50
321.8890566564
 51
354.2948839969
  0
LINE
  5
133
330
1F
100
AcDbEntity
  8
0
  6
Continuous
 62
     7
370
    15
100
AcDbLine
 10
444.4005324435
 20
219.9431447216
 30
0.0
 11
444.4005324435
 21
208.9490884818
 31
0.0
  0
LINE
  5
134
330
1F
100
AcDbEntity
  8
0
  6
Continuous
 62
     7
370
    15
100
AcDbLine
 10
454.400537808
 20
227.9509039499
 30
0.0
 11
454.400537808
 21
201.9509034135
 31
0.0
  0
ARC
  5
135
330
1F
100
AcDbEntity
  8
0
  6
Continuous
 62
     7
370
    15
100
AcDbCircle
 10
402.1659953945
 20
339.7912865739
 30
0.0
 40
39.30527710429265
100
AcDbArc
 50
193.9287888204
 51
218.3811297756
  0
LINE
  5
136
330
1F
100
AcDbEntity
  8
0
  6
Continuous
 62
     7
370
    15
100
AcDbLine
 10
323.4005330992
 20
366.9509062447
 30
0.0
 11
353.1709409249
 21
315.3870472588
 31
0.0
  0
LINE
  5
137
330
1F
100
AcDbEntity
  8
0
  6
Continuous
 62
     7
370
    15
100
AcDbLine
 10
405.4330795002
 20
325.253962902
 30
0.0
 11
400.1670985413
 21
276.2211406507
 31
0.0
  0
LINE
  5
138
330
1F
100
AcDbEntity
  8
0
  6
Continuous
 62
     7
370
    15
100
AcDbLine
 10
323.4005330992
 20
122.9509035029
 30
0.0
 11
353.1709409249
 21
174.5147624888
 31
0.0
  0
LINE
  5
139
330
1F
100
AcDbEntity
  8
0
  6
Continuous
 62
     7
370
    15
100
AcDbLine
 10
133.3472116781
 20
307.3267819263
 30
0.0
 11
108.4005369735
 21
307.3267819263
 31
0.0
  0
LINE
  5
13A
330
1F
100
AcDbEntity
  8
0
  6
Continuous
 62
     7
370
    15
100
AcDbLine
 10
137.400536139
 20
313.9509031452
 30
0.0
 11
137.400536139
 21
175.9509066023
 31
0.0
  0
ARC
  5
13B
330
1F
100
AcDbEntity
  8
0
  6
Continuous
 62
     7
370
    15
100
AcDbCircle
 10
133.6131719814
 20
299.2008072129
 30
0.0
 40
8.130325942198978
100
AcDbArc
 50
91.8746015899
 51
169.1149974348
  0
LINE
  5
13C
330
1F
100
AcDbEntity
  8
0
  6
Continuous
 62
     7
370
    15
100
AcDbLine
 10
121.4005335164
 20
265.9509045907
 30
0.0
 11
121.4005335164
 21
213.4208934285
 31
0.0
  0
ARC
  5
13D
330
1F
100
AcDbEntity
  8
0
  6
Continuous
 62
     7
370
    15
100
AcDbCircle
 10
280.6769050328
 20
264.6565699506
 30
0.0
 40
159.1902894335348
100
AcDbArc
 50
166.9004183863
 51
179.5341378576
  0
LINE
  5
13E
330
1F
100
AcDbEntity
  8
0
  6
Continuous
 62
     7
370
    15
100
AcDbLine
 10
105.4005308938
 20
268.9509050824
 30
0.0
 11
105.4005308938
 21
305.3971635081
 31
0.0
  0
LWPOLYLINE
  5
13F
330
1F
100
AcDbEntity
  8
0
  6
Continuous
 62
     7
370
    15
100
AcDbPolyline
 90
        7
 70
   128
 43
0.0
 10
108.4005369735
 20
307.3267819263
 10
107.5212343526
 20
307.2432907202
 10
106.743736465
 20
307.0099869646
 10
106.0973836971
 20
306.6405834533
 10
105.6127532315
 20
306.1171093859
 10
105.400545795
 20
305.4034219958
 10
105.4005308938
 20
305.3971635081
  0
ARC
  5
140
330
1F
100
AcDbEntity
  8
0
  6
Continuous
 62
     7
370
    15
100
AcDbCircle
 10
108.4005325628
 20
268.9509048738
 30
0.0
 40
3.0
100
AcDbArc
 50
180.0
 51
270.0000000022
  0
LINE
  5
141
330
1F
100
AcDbEntity
  8
0
  6
Continuous
 62
     7
370
    15
100
AcDbLine
 10
105.4005308938
 20
305.3971635081
 30
0.0
 11
105.4005308938
 21
310.9509045162
 31
0.0
  0
LINE
  5
142
330
1F
100
AcDbEntity
  8
0
  6
Continuous
 62
     7
370
    15
100
AcDbLine
 10
121.4918776345
 20
265.9509045907
 30
0.0
 11
108.4005369735
 21
265.9509045907
 31
0.0
  0
LINE
  5
143
330
1F
100
AcDbEntity
  8
0
  6
Continuous
 62
     7
370
    15
100
AcDbLine
 10
113.4005322051
 20
244.9509048738
 30
0.0
 11
113.4005322051
 21
265.9509045907
 31
0.0
  0
LINE
  5
144
330
1F
100
AcDbEntity
  8
0
  6
Continuous
 62
     7
370
    15
100
AcDbLine
 10
110.4005261255
 20
221.9509048291
 30
0.0
 11
110.4005261255
 21
244.9509048738
 31
0.0
  0
LINE
  5
145
330
1F
100
AcDbEntity
  8
0
  6
Continuous
 62
     7
370
    15
100
AcDbLine
 10
110.4005261255
 20
244.9509048738
 30
0.0
 11
113.4005322051
 21
244.9509048738
 31
0.0
  0
LWPOLYLINE
  5
146
330
1F
100
AcDbEntity
  8
0
  6
Continuous
 62
     7
370
    15
100
AcDbPolyline
 90
       20
 70
   128
 43
0.0
 10
227.4005322647
 20
305.7052263893
 10
228.0623822403
 20
305.7574922122
 10
228.6496146512
 20
305.9074612238
 10
229.0962024522
 20
306.1359034755
 10
229.3516754103
 20
306.41430187
 10
229.3871252728
 20
306.7091623225
 10
229.1987522435
 20
306.9869274177
 10
228.8077681256
 20
307.2179401197
 10
228.2580046845
 20
307.3788614847
 10
227.6115103555
 20
307.4541086234
 10
226.9414572907
 20
307.4366817154
 10
226.3232602668
 20
307.3282608666
 10
225.826306541
 20
307.1389863171
 10
225.506684084
 20
306.8873057045
 10
225.4006325197
 20
306.5993146874
 10
225.5199759197
 20
306.3066856839
 10
225.8511691284
 20
306.0432890333
 10
226.3570859027
 20
305.8411398806
 10
226.9807740045
 20
305.7259054758
 10
227.4005322647
 20
305.7052263893
  0
LWPOLYLINE
  5
147
330
1F
100
AcDbEntity
  8
0
  6
Continuous
 62
     7
370
    15
100
AcDbPolyline
 90
        6
 70
   128
 43
0.0
 10
152.4005367351
 20
194.7078363873
 10
152.541322906
 20
195.274892626
 10
152.9479904962
 20
195.7841472604
 10
153.5745694232
 20
196.1749935426
 10
154.3506517005
 20
196.40010911
 10
154.9005343509
 20
196.4433783569
  0
LINE
  5
148
330
1F
100
AcDbEntity
  8
0
  6
Continuous
 62
     7
370
    15
100
AcDbLine
 10
152.4005367351
 20
193.3261746444
 30
0.0
 11
152.4005367351
 21
194.7078363873
 31
0.0
  0
LWPOLYLINE
  5
149
330
1F
100
AcDbEntity
  8
0
  6
Continuous
 62
     7
370
    15
100
AcDbPolyline
 90
        6
 70
   128
 43
0.0
 10
154.9005343509
 20
191.714122323
 10
154.0730281663
 20
191.8031120576
 10
153.338818152
 20
192.0613082029
 10
152.7807249618
 20
192.462790189
 10
152.461631496
 20
192.9658794679
 10
152.4005367351
 20
193.3261746444
  0
LINE
  5
14A
330
1F
100
AcDbEntity
  8
0
  6
Continuous
 62
     7
370
    15
100
AcDbLine
 10
174.9005301786
 20
191.714122323
 30
0.0
 11
154.9005343509
 21
191.714122323
 31
0.0
  0
LWPOLYLINE
  5
14B
330
1F
100
AcDbEntity
  8
0
  6
Continuous
 62
     7
370
    15
100
AcDbPolyline
 90
        6
 70
   128
 43
0.0
 10
177.400535245
 20
193.3261746444
 10
177.259749074
 20
192.785005448
 10
176.8530665827
 20
192.3111336209
 10
176.2264951062
 20
191.9549809672
 10
175.4504128289
 20
191.7527535834
 10
174.9005301786
 20
191.714122323
  0
LINE
  5
14C
330
1F
100
AcDbEntity
  8
0
  6
Continuous
 62
     7
370
    15
100
AcDbLine
 10
177.400535245
 20
194.7078363873
 30
0.0
 11
177.400535245
 21
193.3261746444
 31
0.0
  0
LWPOLYLINE
  5
14D
330
1F
100
AcDbEntity
  8
0
  6
Continuous
 62
     7
370
    15
100
AcDbPolyline
 90
        6
 70
   128
 43
0.0
 10
174.9005301786
 20
196.4433783569
 10
175.7280363631
 20
196.3438348748
 10
176.4622463775
 20
196.0575649418
 10
177.0203470183
 20
195.619847057
 10
177.3394330335
 20
195.083673475
 10
177.400535245
 20
194.7078363873
  0
LINE
  5
14E
330
1F
100
AcDbEntity
  8
0
  6
Continuous
 62
     7
370
    15
100
AcDbLine
 10
174.9005301786
 20
196.4433783569
 30
0.0
 11
154.9005343509
 21
196.4433783569
 31
0.0
  0
ARC
  5
14F
330
1F
100
AcDbEntity
  8
0
  6
Continuous
 62
     7
370
    15
100
AcDbCircle
 10
280.4265025101
 20
181.3574825064
 30
0.0
 40
3.860901242858401
100
AcDbArc
 50
262.1702574688
 51
300.7496248846
  0
LINE
  5
150
330
1F
100
AcDbEntity
  8
0
  6
Continuous
 62
     7
370
    15
100
AcDbLine
 10
282.400532898
 20
178.0393863
 30
0.0
 11
282.400532898
 21
178.5244488992
 31
0.0
  0
LWPOLYLINE
  5
151
330
1F
100
AcDbEntity
  8
0
  6
Continuous
 62
     7
370
    15
100
AcDbPolyline
 90
        6
 70
   128
 43
0.0
 10
279.9005324883
 20
179.1929000892
 10
280.7280368102
 20
179.152897922
 10
281.4622486872
 20
179.0389487423
 10
282.020346534
 20
178.8679206647
 10
282.3394297552
 20
178.6638418116
 10
282.400532898
 20
178.5244488992
  0
LINE
  5
152
330
1F
100
AcDbEntity
  8
0
  6
Continuous
 62
     7
370
    15
100
AcDbLine
 10
271.9005330396
 20
179.1929000892
 30
0.0
 11
279.9005324883
 21
179.1929000892
 31
0.0
  0
ARC
  5
153
330
1F
100
AcDbEntity
  8
0
  6
Continuous
 62
     7
370
    15
100
AcDbCircle
 10
271.4246172237
 20
175.9636042128
 30
0.0
 40
3.264176423127394
100
AcDbArc
 50
81.6164114796
 51
128.3227600065
  0
LINE
  5
154
330
1F
100
AcDbEntity
  8
0
  6
Continuous
 62
     7
370
    15
100
AcDbLine
 10
269.4005316985
 20
178.0393863
 30
0.0
 11
269.4005316985
 21
178.5244488992
 31
0.0
  0
LWPOLYLINE
  5
155
330
1F
100
AcDbEntity
  8
0
  6
Continuous
 62
     7
370
    15
100
AcDbPolyline
 90
        6
 70
   128
 43
0.0
 10
271.9005330396
 20
177.5325754561
 10
271.0730287177
 20
177.5587642469
 10
270.3388168407
 20
177.635967163
 10
269.7807180625
 20
177.759557394
 10
269.4616357726
 20
177.9203409232
 10
269.4005316985
 20
178.0393863
  0
LINE
  5
156
330
1F
100
AcDbEntity
  8
0
  6
Continuous
 62
     7
370
    15
100
AcDbLine
 10
271.9005330396
 20
177.5325754561
 30
0.0
 11
279.9005324883
 21
177.5325754561
 31
0.0
  0
ARC
  5
157
330
1F
100
AcDbEntity
  8
0
  6
Continuous
 62
     7
370
    15
100
AcDbCircle
 10
259.8001501734
 20
221.0974018641
 30
0.0
 40
2.4006800285459
100
AcDbArc
 50
181.7053631524
 51
272.3964372815
  0
LINE
  5
158
330
1F
100
AcDbEntity
  8
0
  6
Continuous
 62
     7
370
    15
100
AcDbLine
 10
259.9005310726
 20
218.6988213934
 30
0.0
 11
279.9005324883
 21
218.6988213934
 31
0.0
  0
ARC
  5
159
330
1F
100
AcDbEntity
  8
0
  6
Continuous
 62
     7
370
    15
100
AcDbCircle
 10
279.9750280767
 20
221.1252128613
 30
0.0
 40
2.42753478824045
100
AcDbArc
 50
268.241445169
 51
357.6566905281
  0
LINE
  5
15A
330
1F
100
AcDbEntity
  8
0
  6
Continuous
 62
     7
370
    15
100
AcDbLine
 10
282.400532898
 20
221.0259580888
 30
0.0
 11
282.400532898
 21
222.9698946603
 31
0.0
  0
ARC
  5
15B
330
1F
100
AcDbEntity
  8
0
  6
Continuous
 62
     7
370
    15
100
AcDbCircle
 10
279.9634508819
 20
222.9158135918
 30
0.0
 40
2.437681996334309
100
AcDbArc
 50
1.271236866
 51
91.4790111276
  0
LINE
  5
15C
330
1F
100
AcDbEntity
  8
0
  6
Continuous
 62
     7
370
    15
100
AcDbLine
 10
259.9005310726
 20
225.3526834674
 30
0.0
 11
279.9005324883
 21
225.3526834674
 31
0.0
  0
ARC
  5
15D
330
1F
100
AcDbEntity
  8
0
  6
Continuous
 62
     7
370
    15
100
AcDbCircle
 10
259.854979865
 20
222.8975949756
 30
0.0
 40
2.455511029342195
100
AcDbArc
 50
88.9370678335
 51
178.3127481322
  0
LINE
  5
15E
330
1F
100
AcDbEntity
  8
0
  6
Continuous
 62
     7
370
    15
100
AcDbLine
 10
257.4005334568
 20
222.9698946603
 30
0.0
 11
257.4005334568
 21
221.0259580888
 31
0.0
  0
ARC
  5
15F
330
1F
100
AcDbEntity
  8
0
  6
Continuous
 62
     7
370
    15
100
AcDbCircle
 10
259.6494470195
 20
206.1988335708
 30
0.0
 40
2.259010014409514
100
AcDbArc
 50
185.419070808
 51
276.3814869572
  0
LINE
  5
160
330
1F
100
AcDbEntity
  8
0
  6
Continuous
 62
     7
370
    15
100
AcDbLine
 10
259.9005310726
 20
203.9538206436
 30
0.0
 11
279.9005324883
 21
203.9538206436
 31
0.0
  0
ARC
  5
161
330
1F
100
AcDbEntity
  8
0
  6
Continuous
 62
     7
370
    15
100
AcDbCircle
 10
280.086098718
 20
206.279457219
 30
0.0
 40
2.333028140996066
100
AcDbArc
 50
265.4379442668
 51
352.7614352882
  0
LINE
  5
162
330
1F
100
AcDbEntity
  8
0
  6
Continuous
 62
     7
370
    15
100
AcDbLine
 10
282.400532898
 20
205.9854933895
 30
0.0
 11
282.400532898
 21
207.7006989993
 31
0.0
  0
ARC
  5
163
330
1F
100
AcDbEntity
  8
0
  6
Continuous
 62
     7
370
    15
100
AcDbCircle
 10
280.0956465511
 20
207.521141035
 30
0.0
 40
2.311869835169047
100
AcDbArc
 50
4.4545263087
 51
94.8413306316
  0
LINE
  5
164
330
1F
100
AcDbEntity
  8
0
  6
Continuous
 62
     7
370
    15
100
AcDbLine
 10
259.9005310726
 20
209.82476267
 30
0.0
 11
279.9005324883
 21
209.82476267
 31
0.0
  0
ARC
  5
165
330
1F
100
AcDbEntity
  8
0
  6
Continuous
 62
     7
370
    15
100
AcDbCircle
 10
259.7584576995
 20
207.4587158074
 30
0.0
 40
2.370308545165993
100
AcDbArc
 50
86.5637019131
 51
174.1405043387
  0
LINE
  5
166
330
1F
100
AcDbEntity
  8
0
  6
Continuous
 62
     7
370
    15
100
AcDbLine
 10
257.4005334568
 20
207.7006989993
 30
0.0
 11
257.4005334568
 21
205.9854933895
 31
0.0
  0
LWPOLYLINE
  5
167
330
1F
100
AcDbEntity
  8
0
  6
Continuous
 62
     7
370
    15
100
AcDbPolyline
 90
        6
 70
   128
 43
0.0
 10
259.9005310726
 20
191.714122323
 10
259.0730286134
 20
191.8031120576
 10
258.338818599
 20
192.0613082029
 10
257.7807179582
 20
192.462790189
 10
257.4616356683
 20
192.9658794679
 10
257.4005334568
 20
193.3261746444
  0
LINE
  5
168
330
1F
100
AcDbEntity
  8
0
  6
Continuous
 62
     7
370
    15
100
AcDbLine
 10
259.9005310726
 20
191.714122323
 30
0.0
 11
279.9005324883
 21
191.714122323
 31
0.0
  0
LWPOLYLINE
  5
169
330
1F
100
AcDbEntity
  8
0
  6
Continuous
 62
     7
370
    15
100
AcDbPolyline
 90
        6
 70
   128
 43
0.0
 10
282.400532898
 20
193.3261746444
 10
282.2597467271
 20
192.785005448
 10
281.8530688924
 20
192.3111336209
 10
281.2264974159
 20
191.9549809672
 10
280.4504095507
 20
191.7527535834
 10
279.9005324883
 20
191.714122323
  0
LINE
  5
16A
330
1F
100
AcDbEntity
  8
0
  6
Continuous
 62
     7
370
    15
100
AcDbLine
 10
282.400532898
 20
193.3261746444
 30
0.0
 11
282.400532898
 21
194.7078363873
 31
0.0
  0
LWPOLYLINE
  5
16B
330
1F
100
AcDbEntity
  8
0
  6
Continuous
 62
     7
370
    15
100
AcDbPolyline
 90
        6
 70
   128
 43
0.0
 10
279.9005324883
 20
196.4433783569
 10
280.7280368102
 20
196.3438348748
 10
281.4622486872
 20
196.0575649418
 10
282.020346534
 20
195.619847057
 10
282.3394297552
 20
195.083673475
 10
282.400532898
 20
194.7078363873
  0
LINE
  5
16C
330
1F
100
AcDbEntity
  8
0
  6
Continuous
 62
     7
370
    15
100
AcDbLine
 10
259.9005310726
 20
196.4433783569
 30
0.0
 11
279.9005324883
 21
196.4433783569
 31
0.0
  0
LWPOLYLINE
  5
16D
330
1F
100
AcDbEntity
  8
0
  6
Continuous
 62
     7
370
    15
100
AcDbPolyline
 90
        6
 70
   128
 43
0.0
 10
257.4005334568
 20
194.7078363873
 10
257.5413196278
 20
195.274892626
 10
257.9479946685
 20
195.7841472604
 10
258.574566145
 20
196.1749935426
 10
259.3506558728
 20
196.40010911
 10
259.9005310726
 20
196.4433783569
  0
LINE
  5
16E
330
1F
100
AcDbEntity
  8
0
  6
Continuous
 62
     7
370
    15
100
AcDbLine
 10
257.4005334568
 20
194.7078363873
 30
0.0
 11
257.4005334568
 21
193.3261746444
 31
0.0
  0
LWPOLYLINE
  5
16F
330
1F
100
AcDbEntity
  8
0
  6
Continuous
 62
     7
370
    15
100
AcDbPolyline
 90
        6
 70
   128
 43
0.0
 10
282.400532898
 20
183.8216068126
 10
282.2597467271
 20
183.4505380966
 10
281.8530688924
 20
183.1287437953
 10
281.2264974159
 20
182.8888947048
 10
280.4504095507
 20
182.753487853
 10
279.9005324883
 20
182.7276864924
  0
LINE
  5
170
330
1F
100
AcDbEntity
  8
0
  6
Continuous
 62
     7
370
    15
100
AcDbLine
 10
282.400532898
 20
183.8216068126
 30
0.0
 11
282.400532898
 21
184.7852909841
 31
0.0
  0
LWPOLYLINE
  5
171
330
1F
100
AcDbEntity
  8
0
  6
Continuous
 62
     7
370
    15
100
AcDbPolyline
 90
        6
 70
   128
 43
0.0
 10
279.9005324883
 20
186.026255963
 10
280.7280368102
 20
185.9542200245
 10
281.4622486872
 20
185.747634051
 10
282.020346534
 20
185.4333946385
 10
282.3394297552
 20
185.0512655355
 10
282.400532898
 20
184.7852909841
  0
LINE
  5
172
330
1F
100
AcDbEntity
  8
0
  6
Continuous
 62
     7
370
    15
100
AcDbLine
 10
271.9005330396
 20
186.026255963
 30
0.0
 11
279.9005324883
 21
186.026255963
 31
0.0
  0
LWPOLYLINE
  5
173
330
1F
100
AcDbEntity
  8
0
  6
Continuous
 62
     7
370
    15
100
AcDbPolyline
 90
        6
 70
   128
 43
0.0
 10
269.4005316985
 20
184.7852909841
 10
269.5413197321
 20
185.1871864774
 10
269.9479966355
 20
185.5511100866
 10
270.5745662493
 20
185.8322726466
 10
271.3506541145
 20
185.9949299969
 10
271.9005330396
 20
186.026255963
  0
LINE
  5
174
330
1F
100
AcDbEntity
  8
0
  6
Continuous
 62
     7
370
    15
100
AcDbLine
 10
269.4005316985
 20
183.8216068126
 30
0.0
 11
269.4005316985
 21
184.7852909841
 31
0.0
  0
LWPOLYLINE
  5
175
330
1F
100
AcDbEntity
  8
0
  6
Continuous
 62
     7
370
    15
100
AcDbPolyline
 90
        6
 70
   128
 43
0.0
 10
271.9005330396
 20
182.7276864924
 10
271.0730287177
 20
182.7871495761
 10
270.3388168407
 20
182.9603159704
 10
269.7807180625
 20
183.2314053454
 10
269.4616357726
 20
183.5741432287
 10
269.4005316985
 20
183.8216068126
  0
LINE
  5
176
330
1F
100
AcDbEntity
  8
0
  6
Continuous
 62
     7
370
    15
100
AcDbLine
 10
271.9005330396
 20
182.7276864924
 30
0.0
 11
279.9005324883
 21
182.7276864924
 31
0.0
  0
ARC
  5
177
330
1F
100
AcDbEntity
  8
0
  6
Continuous
 62
     7
370
    15
100
AcDbCircle
 10
154.4246167987
 20
175.9636219869
 30
0.0
 40
3.264159092109444
100
AcDbArc
 50
81.6163358396
 51
128.3228782567
  0
LINE
  5
178
330
1F
100
AcDbEntity
  8
0
  6
Continuous
 62
     7
370
    15
100
AcDbLine
 10
152.4005367351
 20
178.0393863
 30
0.0
 11
152.4005367351
 21
178.5244488992
 31
0.0
  0
LWPOLYLINE
  5
179
330
1F
100
AcDbEntity
  8
0
  6
Continuous
 62
     7
370
    15
100
AcDbPolyline
 90
        6
 70
   128
 43
0.0
 10
154.9005343509
 20
177.5325754561
 10
154.0730281663
 20
177.5587642469
 10
153.338818152
 20
177.635967163
 10
152.7807249618
 20
177.759557394
 10
152.461631496
 20
177.9203409232
 10
152.4005367351
 20
178.0393863
  0
LINE
  5
17A
330
1F
100
AcDbEntity
  8
0
  6
Continuous
 62
     7
370
    15
100
AcDbLine
 10
162.9005356622
 20
177.5325754561
 30
0.0
 11
154.9005343509
 21
177.5325754561
 31
0.0
  0
ARC
  5
17B
330
1F
100
AcDbEntity
  8
0
  6
Continuous
 62
     7
370
    15
100
AcDbCircle
 10
163.4265031081
 20
181.3574843301
 30
0.0
 40
3.860902698741558
100
AcDbArc
 50
262.1702990255
 51
300.7496082651
  0
LINE
  5
17C
330
1F
100
AcDbEntity
  8
0
  6
Continuous
 62
     7
370
    15
100
AcDbLine
 10
165.400533278
 20
178.0393863
 30
0.0
 11
165.400533278
 21
178.5244488992
 31
0.0
  0
LWPOLYLINE
  5
17D
330
1F
100
AcDbEntity
  8
0
  6
Continuous
 62
     7
370
    15
100
AcDbPolyline
 90
        6
 70
   128
 43
0.0
 10
162.9005356622
 20
179.1929000892
 10
163.7280418468
 20
179.152897922
 10
164.4622518611
 20
179.0389487423
 10
165.0203450513
 20
178.8679206647
 10
165.339423616
 20
178.6638418116
 10
165.400533278
 20
178.5244488992
  0
LINE
  5
17E
330
1F
100
AcDbEntity
  8
0
  6
Continuous
 62
     7
370
    15
100
AcDbLine
 10
162.9005356622
 20
179.1929000892
 30
0.0
 11
154.9005343509
 21
179.1929000892
 31
0.0
  0
LWPOLYLINE
  5
17F
330
1F
100
AcDbEntity
  8
0
  6
Continuous
 62
     7
370
    15
100
AcDbPolyline
 90
        6
 70
   128
 43
0.0
 10
152.4005367351
 20
184.7852909841
 10
152.541322906
 20
185.1871864774
 10
152.9479904962
 20
185.5511100866
 10
153.5745694232
 20
185.8322726466
 10
154.3506517005
 20
185.9949299969
 10
154.9005343509
 20
186.026255963
  0
LINE
  5
180
330
1F
100
AcDbEntity
  8
0
  6
Continuous
 62
     7
370
    15
100
AcDbLine
 10
152.4005367351
 20
183.8216068126
 30
0.0
 11
152.4005367351
 21
184.7852909841
 31
0.0
  0
LWPOLYLINE
  5
181
330
1F
100
AcDbEntity
  8
0
  6
Continuous
 62
     7
370
    15
100
AcDbPolyline
 90
        6
 70
   128
 43
0.0
 10
154.9005343509
 20
182.7276864924
 10
154.0730281663
 20
182.7871495761
 10
153.338818152
 20
182.9603159704
 10
152.7807249618
 20
183.2314053454
 10
152.461631496
 20
183.5741432287
 10
152.4005367351
 20
183.8216068126
  0
LINE
  5
182
330
1F
100
AcDbEntity
  8
0
  6
Continuous
 62
     7
370
    15
100
AcDbLine
 10
162.9005356622
 20
182.7276864924
 30
0.0
 11
154.9005343509
 21
182.7276864924
 31
0.0
  0
LWPOLYLINE
  5
183
330
1F
100
AcDbEntity
  8
0
  6
Continuous
 62
     7
370
    15
100
AcDbPolyline
 90
        6
 70
   128
 43
0.0
 10
165.400533278
 20
183.8216068126
 10
165.2597471071
 20
183.4505380966
 10
164.8530646157
 20
183.1287437953
 10
164.2265005899
 20
182.8888947048
 10
163.4504034114
 20
182.753487853
 10
162.9005356622
 20
182.7276864924
  0
LINE
  5
184
330
1F
100
AcDbEntity
  8
0
  6
Continuous
 62
     7
370
    15
100
AcDbLine
 10
165.400533278
 20
183.8216068126
 30
0.0
 11
165.400533278
 21
184.7852909841
 31
0.0
  0
LWPOLYLINE
  5
185
330
1F
100
AcDbEntity
  8
0
  6
Continuous
 62
     7
370
    15
100
AcDbPolyline
 90
        6
 70
   128
 43
0.0
 10
162.9005356622
 20
186.026255963
 10
163.7280418468
 20
185.9542200245
 10
164.4622518611
 20
185.747634051
 10
165.0203450513
 20
185.4333946385
 10
165.339423616
 20
185.0512655355
 10
165.400533278
 20
184.7852909841
  0
LINE
  5
186
330
1F
100
AcDbEntity
  8
0
  6
Continuous
 62
     7
370
    15
100
AcDbLine
 10
162.9005356622
 20
186.026255963
 30
0.0
 11
154.9005343509
 21
186.026255963
 31
0.0
  0
LINE
  5
187
330
1F
100
AcDbEntity
  8
0
  6
Continuous
 62
     7
370
    15
100
AcDbLine
 10
152.4005367351
 20
205.9854933895
 30
0.0
 11
152.4005367351
 21
206.7687915541
 31
0.0
  0
ARC
  5
188
330
1F
100
AcDbEntity
  8
0
  6
Continuous
 62
     7
370
    15
100
AcDbCircle
 10
154.6494409835
 20
206.1988221095
 30
0.0
 40
2.258999659405408
100
AcDbArc
 50
185.4188037208
 51
276.3817540444
  0
LINE
  5
189
330
1F
100
AcDbEntity
  8
0
  6
Continuous
 62
     7
370
    15
100
AcDbLine
 10
174.9005301786
 20
203.9538206436
 30
0.0
 11
154.9005343509
 21
203.9538206436
 31
0.0
  0
ARC
  5
18A
330
1F
100
AcDbEntity
  8
0
  6
Continuous
 62
     7
370
    15
100
AcDbCircle
 10
175.0546175864
 20
206.3032304538
 30
0.0
 40
2.354457344189688
100
AcDbArc
 50
266.2475971255
 51
300.150387812
  0
ARC
  5
18B
330
1F
100
AcDbEntity
  8
0
  6
Continuous
 62
     7
370
    15
100
AcDbCircle
 10
174.4656586139
 20
257.0059229373
 30
0.0
 40
1.910154225657664
100
AcDbArc
 50
358.305694413
 51
91.9539605234
  0
ARC
  5
18C
330
1F
100
AcDbEntity
  8
0
  6
Continuous
 62
     7
370
    15
100
AcDbCircle
 10
174.2867236117
 20
257.0336667208
 30
0.0
 40
1.884738857169111
100
AcDbArc
 50
86.5382223606
 51
182.5016773841
  0
ARC
  5
18D
330
1F
100
AcDbEntity
  8
0
  6
Continuous
 62
     7
370
    15
100
AcDbCircle
 10
174.3084595595
 20
256.7624542919
 30
0.0
 40
1.874769407272588
100
AcDbArc
 50
87.1850817754
 51
177.4886964323
  0
ARC
  5
18E
330
1F
100
AcDbEntity
  8
0
  6
Continuous
 62
     7
370
    15
100
AcDbCircle
 10
174.4425190888
 20
256.7015559954
 30
0.0
 40
1.93386149489894
100
AcDbArc
 50
4.5535768487
 51
91.2441607051
  0
ARC
  5
18F
330
1F
100
AcDbEntity
  8
0
  6
Continuous
 62
     7
370
    15
100
AcDbCircle
 10
227.4165572739
 20
302.4521905774
 30
0.0
 40
3.595085736043084
100
AcDbArc
 50
72.1434011498
 51
108.2218344099
  0
LWPOLYLINE
  5
190
330
1F
100
AcDbEntity
  8
0
  6
Continuous
 62
     7
370
    15
100
AcDbPolyline
 90
        6
 70
   128
 43
0.0
 10
152.4005367351
 20
194.5686930694
 10
152.5413080049
 20
194.0270693876
 10
152.947975595
 20
193.5529405155
 10
153.5745247197
 20
193.1966910042
 10
154.350606997
 20
192.9944375433
 10
154.9005343509
 20
192.9557951071
  0
LWPOLYLINE
  5
191
330
1F
100
AcDbEntity
  8
0
  6
Continuous
 62
     7
370
    15
100
AcDbPolyline
 90
        6
 70
   128
 43
0.0
 10
174.9005301786
 20
192.9557951071
 10
175.7280363631
 20
193.044788567
 10
176.4622463775
 20
193.3030219652
 10
177.0203470183
 20
193.7046455123
 10
177.3394255829
 20
194.2080514409
 10
177.400535245
 20
194.5686930694
  0
LINE
  5
192
330
1F
100
AcDbEntity
  8
0
  6
Continuous
 62
     7
370
    15
100
AcDbLine
 10
174.9005301786
 20
192.9557951071
 30
0.0
 11
154.9005343509
 21
192.9557951071
 31
0.0
  0
LWPOLYLINE
  5
193
330
1F
100
AcDbEntity
  8
0
  6
Continuous
 62
     7
370
    15
100
AcDbPolyline
 90
        3
 70
   128
 43
0.0
 10
279.9005324883
 20
179.1050204911
 10
280.7280368102
 20
179.1312092819
 10
280.7826830936
 20
179.1369536795
  0
LINE
  5
194
330
1F
100
AcDbEntity
  8
0
  6
Continuous
 62
     7
370
    15
100
AcDbLine
 10
271.9005330396
 20
179.1050204911
 30
0.0
 11
279.9005324883
 21
179.1050204911
 31
0.0
  0
LWPOLYLINE
  5
195
330
1F
100
AcDbEntity
  8
0
  6
Continuous
 62
     7
370
    15
100
AcDbPolyline
 90
        3
 70
   128
 43
0.0
 10
271.0083148372
 20
179.1428545393
 10
271.3506019604
 20
179.1163602747
 10
271.9005330396
 20
179.1050204911
  0
ARC
  5
196
330
1F
100
AcDbEntity
  8
0
  6
Continuous
 62
     7
370
    15
100
AcDbCircle
 10
280.2792500622
 20
187.0399169575
 30
0.0
 40
2.885919038241052
100
AcDbArc
 50
262.4593565864
 51
313.4418021225
  0
LINE
  5
197
330
1F
100
AcDbEntity
  8
0
  6
Continuous
 62
     7
370
    15
100
AcDbLine
 10
271.9005330396
 20
184.1789552845
 30
0.0
 11
279.9005324883
 21
184.1789552845
 31
0.0
  0
ARC
  5
198
330
1F
100
AcDbEntity
  8
0
  6
Continuous
 62
     7
370
    15
100
AcDbCircle
 10
271.4774301639
 20
186.962677773
 30
0.0
 40
2.815692976171853
100
AcDbArc
 50
226.2916876688
 51
278.6423410306
  0
ARC
  5
199
330
1F
100
AcDbEntity
  8
0
  6
Continuous
 62
     7
370
    15
100
AcDbCircle
 10
280.0007898112
 20
221.7098190084
 30
0.0
 40
2.400797600311646
100
AcDbArc
 50
267.6066319089
 51
358.3017491864
  0
LINE
  5
19A
330
1F
100
AcDbEntity
  8
0
  6
Continuous
 62
     7
370
    15
100
AcDbLine
 10
259.9005310726
 20
219.3111156948
 30
0.0
 11
279.9005324883
 21
219.3111156948
 31
0.0
  0
ARC
  5
19B
330
1F
100
AcDbEntity
  8
0
  6
Continuous
 62
     7
370
    15
100
AcDbCircle
 10
259.8261048048
 20
221.7375609528
 30
0.0
 40
2.427586426704333
100
AcDbArc
 50
182.3346744942
 51
271.7568805407
  0
LWPOLYLINE
  5
19C
330
1F
100
AcDbEntity
  8
0
  6
Continuous
 62
     7
370
    15
100
AcDbPolyline
 90
        6
 70
   128
 43
0.0
 10
279.9005324883
 20
192.9557951071
 10
280.7280368102
 20
193.044788567
 10
281.4622468245
 20
193.3030219652
 10
282.02034374
 20
193.7046455123
 10
282.3394241673
 20
194.2080514409
 10
282.400532898
 20
194.5686930694
  0
LINE
  5
19D
330
1F
100
AcDbEntity
  8
0
  6
Continuous
 62
     7
370
    15
100
AcDbLine
 10
259.9005310726
 20
192.9557951071
 30
0.0
 11
279.9005324883
 21
192.9557951071
 31
0.0
  0
LWPOLYLINE
  5
19E
330
1F
100
AcDbEntity
  8
0
  6
Continuous
 62
     7
370
    15
100
AcDbPolyline
 90
        6
 70
   128
 43
0.0
 10
257.4005334568
 20
194.5686930694
 10
257.5413121772
 20
194.0270693876
 10
257.9479797673
 20
193.5529405155
 10
258.5745288921
 20
193.1966910042
 10
259.3506037188
 20
192.9944375433
 10
259.9005310726
 20
192.9557951071
  0
ARC
  5
19F
330
1F
100
AcDbEntity
  8
0
  6
Continuous
 62
     7
370
    15
100
AcDbCircle
 10
280.1514628547
 20
207.1551578385
 30
0.0
 40
2.259116373409084
100
AcDbArc
 50
263.6227368236
 51
354.594534201
  0
LINE
  5
1A0
330
1F
100
AcDbEntity
  8
0
  6
Continuous
 62
     7
370
    15
100
AcDbLine
 10
259.9005310726
 20
204.9100207068
 30
0.0
 11
279.9005324883
 21
204.9100207068
 31
0.0
  0
ARC
  5
1A1
330
1F
100
AcDbEntity
  8
0
  6
Continuous
 62
     7
370
    15
100
AcDbCircle
 10
259.7150474949
 20
207.2356621172
 30
0.0
 40
2.333026387986918
100
AcDbArc
 50
187.2226433873
 51
274.5600229043
  0
LWPOLYLINE
  5
1A2
330
1F
100
AcDbEntity
  8
0
  6
Continuous
 62
     7
370
    15
100
AcDbPolyline
 90
        3
 70
   128
 43
0.0
 10
154.0083124233
 20
179.1428545393
 10
154.350606997
 20
179.1163602747
 10
154.9005343509
 20
179.1050204911
  0
LWPOLYLINE
  5
1A3
330
1F
100
AcDbEntity
  8
0
  6
Continuous
 62
     7
370
    15
100
AcDbPolyline
 90
        3
 70
   128
 43
0.0
 10
162.9005356622
 20
179.1050204911
 10
163.7280418468
 20
179.1312092819
 10
163.7826844049
 20
179.1369536795
  0
LINE
  5
1A4
330
1F
100
AcDbEntity
  8
0
  6
Continuous
 62
     7
370
    15
100
AcDbLine
 10
162.9005356622
 20
179.1050204911
 30
0.0
 11
154.9005343509
 21
179.1050204911
 31
0.0
  0
ARC
  5
1A5
330
1F
100
AcDbEntity
  8
0
  6
Continuous
 62
     7
370
    15
100
AcDbCircle
 10
154.4774436876
 20
186.9627357989
 30
0.0
 40
2.815748508268034
100
AcDbArc
 50
226.2922143133
 51
278.6419179252
  0
ARC
  5
1A6
330
1F
100
AcDbEntity
  8
0
  6
Continuous
 62
     7
370
    15
100
AcDbCircle
 10
163.27926345
 20
187.0398588758
 30
0.0
 40
2.885862799227361
100
AcDbArc
 50
262.4590042275
 51
313.4423001333
  0
LINE
  5
1A7
330
1F
100
AcDbEntity
  8
0
  6
Continuous
 62
     7
370
    15
100
AcDbLine
 10
162.9005356622
 20
184.1789552845
 30
0.0
 11
154.9005343509
 21
184.1789552845
 31
0.0
  0
ARC
  5
1A8
330
1F
100
AcDbEntity
  8
0
  6
Continuous
 62
     7
370
    15
100
AcDbCircle
 10
154.6948615722
 20
207.1999085133
 30
0.0
 40
2.299105795311465
100
AcDbArc
 50
190.8078012791
 51
275.1324113013
  0
LWPOLYLINE
  5
1A9
330
1F
100
AcDbEntity
  8
0
  6
Continuous
 62
     7
370
    15
100
AcDbPolyline
 90
        3
 70
   128
 43
0.0
 10
174.9005301786
 20
204.9100207068
 10
175.7280363631
 20
205.0230981685
 10
176.1505289865
 20
205.2115457036
  0
LINE
  5
1AA
330
1F
100
AcDbEntity
  8
0
  6
Continuous
 62
     7
370
    15
100
AcDbLine
 10
174.9005301786
 20
204.9100207068
 30
0.0
 11
154.9005343509
 21
204.9100207068
 31
0.0
  0
LINE
  5
1AB
330
1F
100
AcDbEntity
  8
0
  6
Continuous
 62
     7
370
    15
100
AcDbLine
 10
335.9005323541
 20
285.1732553818
 30
0.0
 11
343.9005336654
 21
285.1732553818
 31
0.0
  0
LINE
  5
1AC
330
1F
100
AcDbEntity
  8
0
  6
Continuous
 62
     7
370
    15
100
AcDbLine
 10
335.9005323541
 20
204.7285543658
 30
0.0
 11
343.9005336654
 21
204.7285543658
 31
0.0
  0
LINE
  5
1AD
330
1F
100
AcDbEntity
  8
0
  6
Continuous
 62
     7
370
    15
100
AcDbLine
 10
343.9005336654
 20
204.7285543658
 30
0.0
 11
343.9005336654
 21
285.1732553818
 31
0.0
  0
LINE
  5
1AE
330
1F
100
AcDbEntity
  8
0
  6
Continuous
 62
     7
370
    15
100
AcDbLine
 10
335.9005323541
 20
204.7285543658
 30
0.0
 11
335.9005323541
 21
285.1732553818
 31
0.0
  0
LINE
  5
1AF
330
1F
100
AcDbEntity
  8
0
  6
Continuous
 62
     7
370
    15
100
AcDbLine
 10
297.4005325628
 20
244.9509048738
 30
0.0
 11
297.4005325628
 21
314.9509051718
 31
0.0
  0
LINE
  5
1B0
330
1F
100
AcDbEntity
  8
0
  6
Continuous
 62
     7
370
    15
100
AcDbLine
 10
297.4005325628
 20
174.9509045758
 30
0.0
 11
297.4005325628
 21
244.9509048738
 31
0.0
  0
LINE
  5
1B1
330
1F
100
AcDbEntity
  8
0
  6
Continuous
 62
     7
370
    15
100
AcDbLine
 10
313.4005333227
 20
263.0990533062
 30
0.0
 11
313.4005333227
 21
312.5574508585
 31
0.0
  0
LINE
  5
1B2
330
1F
100
AcDbEntity
  8
0
  6
Continuous
 62
     7
370
    15
100
AcDbLine
 10
313.4005333227
 20
177.344358889
 30
0.0
 11
313.4005333227
 21
226.8027564414
 31
0.0
  0
LINE
  5
1B3
330
1F
100
AcDbEntity
  8
0
  6
Continuous
 62
     7
370
    15
100
AcDbLine
 10
335.9005323541
 20
308.7039733209
 30
0.0
 11
343.9005336654
 21
308.7039733209
 31
0.0
  0
LINE
  5
1B4
330
1F
100
AcDbEntity
  8
0
  6
Continuous
 62
     7
370
    15
100
AcDbLine
 10
335.9005323541
 20
298.0973677613
 30
0.0
 11
343.9005336654
 21
298.0973677613
 31
0.0
  0
LINE
  5
1B5
330
1F
100
AcDbEntity
  8
0
  6
Continuous
 62
     7
370
    15
100
AcDbLine
 10
343.9005336654
 20
308.7039733209
 30
0.0
 11
343.9005336654
 21
298.0973677613
 31
0.0
  0
LINE
  5
1B6
330
1F
100
AcDbEntity
  8
0
  6
Continuous
 62
     7
370
    15
100
AcDbLine
 10
335.9005323541
 20
298.0973677613
 30
0.0
 11
335.9005323541
 21
308.7039733209
 31
0.0
  0
LINE
  5
1B7
330
1F
100
AcDbEntity
  8
0
  6
Continuous
 62
     7
370
    15
100
AcDbLine
 10
343.9005336654
 20
298.0973677613
 30
0.0
 11
343.9005336654
 21
285.1732553818
 31
0.0
  0
LINE
  5
1B8
330
1F
100
AcDbEntity
  8
0
  6
Continuous
 62
     7
370
    15
100
AcDbLine
 10
335.9005323541
 20
285.1732553818
 30
0.0
 11
335.9005323541
 21
298.0973677613
 31
0.0
  0
LINE
  5
1B9
330
1F
100
AcDbEntity
  8
0
  6
Continuous
 62
     7
370
    15
100
AcDbLine
 10
335.9005323541
 20
191.8044419863
 30
0.0
 11
343.9005336654
 21
191.8044419863
 31
0.0
  0
LINE
  5
1BA
330
1F
100
AcDbEntity
  8
0
  6
Continuous
 62
     7
370
    15
100
AcDbLine
 10
343.9005336654
 20
204.7285543658
 30
0.0
 11
343.9005336654
 21
191.8044419863
 31
0.0
  0
LINE
  5
1BB
330
1F
100
AcDbEntity
  8
0
  6
Continuous
 62
     7
370
    15
100
AcDbLine
 10
335.9005323541
 20
191.8044419863
 30
0.0
 11
335.9005323541
 21
204.7285543658
 31
0.0
  0
LINE
  5
1BC
330
1F
100
AcDbEntity
  8
0
  6
Continuous
 62
     7
370
    15
100
AcDbLine
 10
335.9005323541
 20
181.1978364267
 30
0.0
 11
343.9005336654
 21
181.1978364267
 31
0.0
  0
LINE
  5
1BD
330
1F
100
AcDbEntity
  8
0
  6
Continuous
 62
     7
370
    15
100
AcDbLine
 10
343.9005336654
 20
191.8044419863
 30
0.0
 11
343.9005336654
 21
181.1978364267
 31
0.0
  0
LINE
  5
1BE
330
1F
100
AcDbEntity
  8
0
  6
Continuous
 62
     7
370
    15
100
AcDbLine
 10
335.9005323541
 20
181.1978364267
 30
0.0
 11
335.9005323541
 21
191.8044419863
 31
0.0
  0
LINE
  5
1BF
330
1F
100
AcDbEntity
  8
0
  6
Continuous
 62
     7
370
    15
100
AcDbLine
 10
343.9005336654
 20
308.7039733209
 30
0.0
 11
343.9005336654
 21
315.4509061851
 31
0.0
  0
LINE
  5
1C0
330
1F
100
AcDbEntity
  8
0
  6
Continuous
 62
     7
370
    15
100
AcDbLine
 10
335.9005323541
 20
308.7039733209
 30
0.0
 11
335.9005323541
 21
315.4509061851
 31
0.0
  0
LINE
  5
1C1
330
1F
100
AcDbEntity
  8
0
  6
Continuous
 62
     7
370
    15
100
AcDbLine
 10
343.9005336654
 20
174.4509035625
 30
0.0
 11
343.9005336654
 21
181.1978364267
 31
0.0
  0
LINE
  5
1C2
330
1F
100
AcDbEntity
  8
0
  6
Continuous
 62
     7
370
    15
100
AcDbLine
 10
335.9005323541
 20
174.4509035625
 30
0.0
 11
335.9005323541
 21
181.1978364267
 31
0.0
  0
LINE
  5
1C3
330
1F
100
AcDbEntity
  8
0
  6
Continuous
 62
     7
370
    15
100
AcDbLine
 10
335.9005323541
 20
189.9509051718
 30
0.0
 11
313.4005333227
 21
189.9509051718
 31
0.0
  0
LINE
  5
1C4
330
1F
100
AcDbEntity
  8
0
  6
Continuous
 62
     7
370
    15
100
AcDbLine
 10
335.9005323541
 20
299.9509045758
 30
0.0
 11
313.4005333227
 21
299.9509045758
 31
0.0
  0
LWPOLYLINE
  5
1C5
330
1F
100
AcDbEntity
  8
0
  6
Continuous
 62
     7
370
    15
100
AcDbPolyline
 90
        7
 70
   128
 43
0.0
 10
321.3371301931
 20
295.2508920707
 10
321.2779111159
 20
295.432824073
 10
321.2779111159
 20
296.2279835619
 10
321.6455078614
 20
297.1270302214
 10
322.364636038
 20
298.0906622388
 10
323.4038653714
 20
299.0767726578
 10
324.5801220578
 20
299.9509045758
  0
LWPOLYLINE
  5
1C6
330
1F
100
AcDbEntity
  8
0
  6
Continuous
 62
     7
370
    15
100
AcDbPolyline
 90
       11
 70
   128
 43
0.0
 10
322.2731522215
 20
292.9201418437
 10
321.4400152606
 20
293.0823484339
 10
320.4358520848
 20
293.4804851093
 10
319.7467888636
 20
294.0531292834
 10
319.3962893379
 20
294.7807790615
 10
319.3962893379
 20
295.6386538126
 10
319.7467888636
 20
296.5975398101
 10
320.4358520848
 20
297.6247848846
 10
321.4400152606
 20
298.6854048349
 10
322.7250802261
 20
299.7432866968
 10
323.0114786816
 20
299.9509045758
  0
LINE
  5
1C7
330
1F
100
AcDbEntity
  8
0
  6
Continuous
 62
     7
370
    15
100
AcDbLine
 10
324.2441344005
 20
314.9509051718
 30
0.0
 11
324.9005324137
 21
315.1768142261
 31
0.0
  0
LINE
  5
1C8
330
1F
100
AcDbEntity
  8
0
  6
Continuous
 62
     7
370
    15
100
AcDbLine
 10
335.9005323541
 20
318.8053736367
 30
0.0
 11
324.9005324137
 21
315.1768142261
 31
0.0
  0
LINE
  5
1C9
330
1F
100
AcDbEntity
  8
0
  6
Continuous
 62
     7
370
    15
100
AcDbLine
 10
335.9005323541
 20
318.8053736367
 30
0.0
 11
335.9005323541
 21
315.4509061851
 31
0.0
  0
LINE
  5
1CA
330
1F
100
AcDbEntity
  8
SLD-0
  6
CENTERX2
370
     0
100
AcDbLine
 10
370.9005325628
 20
400.0561227128
 30
0.0
 11
370.9005325628
 21
152.6167087751
 31
0.0
  0
LINE
  5
1CB
330
1F
100
AcDbEntity
  8
SLD-0
  6
CENTERX2
370
     0
100
AcDbLine
 10
381.9005325628
 20
93.7562380414
 30
0.0
 11
381.9005325628
 21
148.8051183425
 31
0.0
  0
LINE
  5
1CC
330
1F
100
AcDbEntity
  8
SLD-0
  6
CENTERX2
370
     0
100
AcDbLine
 10
456.9240135572
 20
244.9509048738
 30
0.0
 11
123.820421208
 21
244.9509048738
 31
0.0
  0
LINE
  5
1CD
330
1F
100
AcDbEntity
  8
0
  6
Continuous
 62
     7
370
    15
100
AcDbLine
 10
578.4433125388
 20
206.7949319162
 30
0.0
 11
578.6485834848
 21
207.9503046252
 31
0.0
  0
LINE
  5
1CE
330
1F
100
AcDbEntity
  8
0
  6
Continuous
 62
     7
370
    15
100
AcDbLine
 10
559.2764629852
 20
213.2472203948
 30
0.0
 11
558.7516813409
 21
210.29347497
 31
0.0
  0
ARC
  5
1CF
330
1F
100
AcDbEntity
  8
0
  6
Continuous
 62
     7
370
    15
100
AcDbCircle
 10
558.9653375679
 20
207.208535627
 30
0.0
 40
3.000000000000075
100
AcDbArc
 50
349.925583395
 51
79.925583395
  0
ARC
  5
1D0
330
1F
100
AcDbEntity
  8
0
  6
Continuous
 62
     7
370
    15
100
AcDbCircle
 10
577.1800932017
 20
203.9723840235
 30
0.0
 40
3.000000000000079
100
AcDbArc
 50
79.925583395
 51
169.925583395
  0
ARC
  5
1D1
330
1F
100
AcDbEntity
  8
0
  6
Continuous
 62
     7
370
    15
100
AcDbCircle
 10
562.7287359966
 20
205.5242457866
 30
0.0
 40
1.000000000000135
100
AcDbArc
 50
169.925583395
 51
259.925583395
  0
ARC
  5
1D2
330
1F
100
AcDbEntity
  8
0
  6
Continuous
 62
     7
370
    15
100
AcDbCircle
 10
573.0668405455
 20
203.6875110927
 30
0.0
 40
1.000000000000028
100
AcDbArc
 50
259.925583395
 51
349.925583395
  0
LINE
  5
1D3
330
1F
100
AcDbEntity
  8
0
  6
Continuous
 62
     7
370
    15
100
AcDbLine
 10
574.0514187943
 20
203.5125823595
 30
0.0
 11
574.2263509762
 21
204.4971654095
 31
0.0
  0
LINE
  5
1D4
330
1F
100
AcDbEntity
  8
0
  6
Continuous
 62
     7
370
    15
100
AcDbLine
 10
561.9190796148
 20
206.6837543525
 30
0.0
 11
561.7441548836
 21
205.6991713025
 31
0.0
  0
LINE
  5
1D5
330
1F
100
AcDbEntity
  8
0
  6
Continuous
 62
     7
370
    15
100
AcDbLine
 10
571.1803822648
 20
197.9287112035
 30
0.0
 11
572.0550208222
 21
202.851619003
 31
0.0
  0
LINE
  5
1D6
330
1F
100
AcDbEntity
  8
0
  6
Continuous
 62
     7
370
    15
100
AcDbLine
 10
563.3907033932
 20
204.3909760095
 30
0.0
 11
562.5160648357
 21
199.4680682101
 31
0.0
  0
LWPOLYLINE
  5
1D7
330
1F
100
AcDbEntity
  8
0
  6
Continuous
 62
     7
370
    15
100
AcDbPolyline
 90
        4
 70
   128
 43
0.0
 10
556.3425137531
 20
251.7518772647
 10
556.2620996367
 20
251.5583093181
 10
556.1580671799
 20
251.3047902748
 10
556.1537458431
 20
251.2942174353
  0
LWPOLYLINE
  5
1D8
330
1F
100
AcDbEntity
  8
0
  6
Continuous
 62
     7
370
    15
100
AcDbPolyline
 90
       13
 70
   128
 43
0.0
 10
673.9410119932
 20
184.0529920437
 10
674.0928268861
 20
187.9698963739
 10
674.2423022967
 20
192.1257967033
 10
674.3894140106
 20
196.7129664399
 10
674.534139676
 20
201.2563006856
 10
674.723343445
 20
207.1953484692
 10
674.9081793111
 20
212.9438253023
 10
675.0885709059
 20
218.3262290336
 10
675.2644325476
 20
223.2770057298
 10
675.4356655162
 20
227.7477154412
 10
675.602172954
 20
231.6997893058
 10
675.84282857
 20
236.5939732544
 10
676.0722002816
 20
240.1955759987
  0
LWPOLYLINE
  5
1D9
330
1F
100
AcDbEntity
  8
0
  6
Continuous
 62
     7
370
    15
100
AcDbPolyline
 90
       14
 70
   128
 43
0.0
 10
622.958460344
 20
240.1813132592
 10
623.1299298685
 20
237.592333825
 10
623.3287765514
 20
233.8333478101
 10
623.4764768612
 20
230.5817328297
 10
623.6362359356
 20
226.6816900946
 10
623.8080127966
 20
222.1055788823
 10
623.9917646032
 20
216.8454782941
 10
624.1874522399
 20
210.9178559758
 10
624.3950347286
 20
204.4149631538
 10
624.525278328
 20
200.3261664786
 10
624.6597836595
 20
196.1030768134
 10
624.7985414099
 20
191.7928079047
 10
624.9415441286
 20
187.8504933693
 10
625.088784365
 20
184.0506972648
  0
LWPOLYLINE
  5
1DA
330
1F
100
AcDbEntity
  8
0
  6
Continuous
 62
     7
370
    15
100
AcDbPolyline
 90
       12
 70
   128
 43
0.0
 10
672.0601725262
 20
133.3633059539
 10
672.0764073413
 20
133.7582165279
 10
672.2046057563
 20
137.040815679
 10
672.3243105095
 20
140.2335384764
 10
672.4952417296
 20
144.9777180232
 10
672.6451716256
 20
149.2796385564
 10
672.774081571
 20
152.9695683994
 10
672.9396204334
 20
157.6445767559
 10
673.1382082086
 20
163.1497809567
 10
673.3712139409
 20
169.4524282493
 10
673.6385295969
 20
176.4543125309
 10
673.9400322419
 20
184.0275259592
  0
LWPOLYLINE
  5
1DB
330
1F
100
AcDbEntity
  8
0
  6
Continuous
 62
     7
370
    15
100
AcDbPolyline
 90
       15
 70
   128
 43
0.0
 10
625.0901403707
 20
184.0158732511
 10
625.3174650353
 20
178.338758079
 10
625.5214600694
 20
173.0725759544
 10
625.7018796038
 20
168.2902941384
 10
625.8585224729
 20
164.0501165666
 10
625.9912284892
 20
160.3978568591
 10
626.0998728555
 20
157.3689127244
 10
626.1947206091
 20
154.6970600166
 10
626.3093664181
 20
151.4348531045
 10
626.448509736
 20
147.4317530073
 10
626.6121431124
 20
142.7943700828
 10
626.8002646845
 20
137.6915270366
 10
626.908571912
 20
134.8847964682
 10
627.0235977005
 20
132.0235052981
 10
627.1017598789
 20
130.1739955224
  0
LINE
  5
1DC
330
1F
100
AcDbEntity
  8
0
  6
Continuous
 62
     7
370
    15
100
AcDbLine
 10
676.0665043127
 20
240.1113686055
 30
0.0
 11
676.1223184746
 21
240.877679912
 31
0.0
  0
LINE
  5
1DD
330
1F
100
AcDbEntity
  8
0
  6
Continuous
 62
     7
370
    15
100
AcDbLine
 10
622.9073586744
 20
240.8781544209
 30
0.0
 11
622.9632063639
 21
240.1113686055
 31
0.0
  0
LINE
  5
1DE
330
1F
100
AcDbEntity
  8
0
  6
Continuous
 62
     7
370
    15
100
AcDbLine
 10
609.5148562323
 20
384.9509054698
 30
0.0
 11
609.5148562323
 21
382.9509014167
 31
0.0
  0
LINE
  5
1DF
330
1F
100
AcDbEntity
  8
0
  6
Continuous
 62
     7
370
    15
100
AcDbLine
 10
689.5148544442
 20
382.9509014167
 30
0.0
 11
689.5148544442
 21
384.9509054698
 31
0.0
  0
LINE
  5
1E0
330
1F
100
AcDbEntity
  8
0
  6
Continuous
 62
     7
370
    15
100
AcDbLine
 10
689.5148544442
 20
104.9509042777
 30
0.0
 11
689.5148544442
 21
106.9509083308
 31
0.0
  0
LINE
  5
1E1
330
1F
100
AcDbEntity
  8
0
  6
Continuous
 62
     7
370
    15
100
AcDbLine
 10
609.5148562323
 20
106.9509083308
 30
0.0
 11
609.5148562323
 21
104.9509042777
 31
0.0
  0
LINE
  5
1E2
330
1F
100
AcDbEntity
  8
0
  6
Continuous
 62
     7
370
    15
100
AcDbLine
 10
707.0159627926
 20
106.9509083308
 30
0.0
 11
707.0159627926
 21
109.9988216438
 31
0.0
  0
LINE
  5
1E3
330
1F
100
AcDbEntity
  8
0
  6
Continuous
 62
     7
370
    15
100
AcDbLine
 10
707.0159627926
 20
379.9254292526
 30
0.0
 11
707.0159627926
 21
382.9509014167
 31
0.0
  0
LINE
  5
1E4
330
1F
100
AcDbEntity
  8
0
  6
Continuous
 62
     7
370
    15
100
AcDbLine
 10
592.013747884
 20
122.9509035029
 30
0.0
 11
592.013747884
 21
106.9509083308
 31
0.0
  0
LINE
  5
1E5
330
1F
100
AcDbEntity
  8
0
  6
Continuous
 62
     7
370
    15
100
AcDbLine
 10
592.013747884
 20
382.9509014167
 30
0.0
 11
592.013747884
 21
366.9509062447
 31
0.0
  0
ARC
  5
1E6
330
1F
100
AcDbEntity
  8
0
  6
Continuous
 62
     7
370
    15
100
AcDbCircle
 10
641.1859448136
 20
244.3675193758
 30
0.0
 40
93.96918012987695
100
AcDbArc
 50
1.7984067064
 51
62.5233305055
  0
ARC
  5
1E7
330
1F
100
AcDbEntity
  8
0
  6
Continuous
 62
     7
370
    15
100
AcDbCircle
 10
641.9875861459
 20
249.6240628264
 30
0.0
 40
93.14981567186375
100
AcDbArc
 50
318.6972736895
 51
358.5805205281
  0
ARC
  5
1E8
330
1F
100
AcDbEntity
  8
0
  6
Continuous
 62
     7
370
    15
100
AcDbCircle
 10
654.9199752601
 20
240.9384890112
 30
0.0
 40
77.7277990732785
100
AcDbArc
 50
290.2520821218
 51
317.2147538579
  0
ARC
  5
1E9
330
1F
100
AcDbEntity
  8
0
  6
Continuous
 62
     7
370
    15
100
AcDbCircle
 10
649.0193095102
 20
239.4437303787
 30
0.0
 40
76.16638200130083
100
AcDbArc
 50
228.5858659357
 51
249.7270554805
  0
LWPOLYLINE
  5
1EA
330
1F
100
AcDbEntity
  8
0
  6
Continuous
 62
     7
370
    15
100
AcDbPolyline
 90
       19
 70
   128
 43
0.0
 10
588.288938148
 20
293.7572890796
 10
586.0993801486
 20
291.4120288469
 10
582.7571465504
 20
287.1346132733
 10
578.7798776161
 20
280.8269703664
 10
575.8709176313
 20
274.8399333932
 10
573.8353072535
 20
269.3394584485
 10
572.4642961156
 20
264.486148385
 10
571.5034021866
 20
260.1340025567
 10
570.7615627777
 20
255.5969258674
 10
570.154198898
 20
249.2202947751
 10
570.0529306065
 20
242.4974417217
 10
570.5344765317
 20
235.4685323216
 10
571.675711764
 20
228.1856195905
 10
573.4818889629
 20
220.9668582209
 10
575.764761759
 20
214.3727796056
 10
578.3991305959
 20
208.4136972107
 10
581.2736614477
 20
203.0737692394
 10
584.2869966161
 20
198.3296232201
 10
587.2032842469
 20
194.4857867338
  0
ARC
  5
1EB
330
1F
100
AcDbEntity
  8
0
  6
Continuous
 62
     7
370
    15
100
AcDbCircle
 10
641.5247783157
 20
231.6427813958
 30
0.0
 40
82.51512846863521
100
AcDbArc
 50
100.2303512079
 51
117.8586624903
  0
LINE
  5
1EC
330
1F
100
AcDbEntity
  8
0
  6
Continuous
 62
     7
370
    15
100
AcDbLine
 10
694.5148571264
 20
349.9509015955
 30
0.0
 11
709.5148539972
 21
349.9509015955
 31
0.0
  0
LINE
  5
1ED
330
1F
100
AcDbEntity
  8
0
  6
Continuous
 62
     7
370
    15
100
AcDbLine
 10
709.5148539972
 20
379.9509102382
 30
0.0
 11
707.0159627926
 21
379.9509102382
 31
0.0
  0
LINE
  5
1EE
330
1F
100
AcDbEntity
  8
0
  6
Continuous
 62
     7
370
    15
100
AcDbLine
 10
707.0159627926
 20
109.9508995094
 30
0.0
 11
709.5148539972
 21
109.9508995094
 31
0.0
  0
LINE
  5
1EF
330
1F
100
AcDbEntity
  8
0
  6
Continuous
 62
     7
370
    15
100
AcDbLine
 10
709.5148539972
 20
139.950908152
 30
0.0
 11
694.5148571264
 21
139.950908152
 31
0.0
  0
LWPOLYLINE
  5
1F0
330
1F
100
AcDbEntity
  8
0
  6
Continuous
 62
     7
370
    15
100
AcDbPolyline
 90
       10
 70
   128
 43
0.0
 10
568.5974969398
 20
208.5442053057
 10
566.7341663372
 20
208.8752569534
 10
564.938174082
 20
209.1943429686
 10
563.2744445335
 20
209.4899298527
 10
561.8031038773
 20
209.7513409235
 10
560.5773343574
 20
209.969117669
 10
559.6414296758
 20
210.1353960015
 10
559.0292229187
 20
210.2441670276
 10
558.76283486
 20
210.2914931156
 10
558.7516813409
 20
210.29347497
  0
LWPOLYLINE
  5
1F1
330
1F
100
AcDbEntity
  8
0
  6
Continuous
 62
     7
370
    15
100
AcDbPolyline
 90
       10
 70
   128
 43
0.0
 10
578.4433125388
 20
206.7949319162
 10
578.4321590197
 20
206.7969137706
 10
578.165770961
 20
206.8442435839
 10
577.5535642039
 20
206.9530108847
 10
576.6176595222
 20
207.1192892172
 10
575.3918825519
 20
207.337069688
 10
573.9205418956
 20
207.5984770335
 10
572.2568197977
 20
207.8940639176
 10
570.4608275425
 20
208.2131536581
 10
568.5974969398
 20
208.5442053057
  0
LWPOLYLINE
  5
1F2
330
1F
100
AcDbEntity
  8
0
  6
Continuous
 62
     7
370
    15
100
AcDbPolyline
 90
       13
 70
   128
 43
0.0
 10
572.8919147384
 20
202.7029314913
 10
572.7157830131
 20
202.7342239298
 10
572.1993907225
 20
202.825966654
 10
571.3779344093
 20
202.971912352
 10
570.3073902857
 20
203.1621144988
 10
569.0607069861
 20
203.3836053588
 10
567.7228583824
 20
203.6212975063
 10
566.3850097787
 20
203.8589896538
 10
565.1383339297
 20
204.0804805137
 10
564.0677898061
 20
204.2706826605
 10
563.2463334929
 20
204.4166283585
 10
562.7299412023
 20
204.5083710827
 10
562.553809477
 20
204.5396635212
  0
LWPOLYLINE
  5
1F3
330
1F
100
AcDbEntity
  8
0
  6
Continuous
 62
     7
370
    15
100
AcDbPolyline
 90
        7
 70
   128
 43
0.0
 10
566.8482272756
 20
198.6983897068
 10
565.6277178657
 20
198.9152351298
 10
564.5060851108
 20
199.1145083584
 10
563.5741962921
 20
199.2800751604
 10
562.9075555932
 20
199.3985133149
 10
562.5601648223
 20
199.4602339246
 10
562.5160648357
 20
199.4680682101
  0
LWPOLYLINE
  5
1F4
330
1F
100
AcDbEntity
  8
0
  6
Continuous
 62
     7
370
    15
100
AcDbPolyline
 90
        7
 70
   128
 43
0.0
 10
571.1803822648
 20
197.9287112035
 10
571.1362897288
 20
197.936545489
 10
570.7888915073
 20
197.9982660987
 10
570.1222508084
 20
198.1167042531
 10
569.1903694403
 20
198.2822710552
 10
568.0687366855
 20
198.4815480091
 10
566.8482272756
 20
198.6983897068
  0
LINE
  5
1F5
330
1F
100
AcDbEntity
  8
0
  6
Continuous
 62
     7
370
    15
100
AcDbLine
 10
577.7101679575
 20
209.9721686818
 30
0.0
 11
553.4915118348
 21
214.2750112243
 31
0.0
  0
LINE
  5
1F6
330
1F
100
AcDbEntity
  8
0
  6
Continuous
 62
     7
370
    15
100
AcDbLine
 10
567.710944904
 20
265.7818099387
 30
0.0
 11
572.5856511723
 21
264.915739549
 31
0.0
  0
ARC
  5
1F7
330
1F
100
AcDbEntity
  8
0
  6
Continuous
 62
     7
370
    15
100
AcDbCircle
 10
566.7313518959
 20
260.2681549658
 30
0.0
 40
5.600000000000081
100
AcDbArc
 50
79.925583395
 51
150.3695827411
  0
ARC
  5
1F8
330
1F
100
AcDbEntity
  8
0
  6
Continuous
 62
     7
370
    15
100
AcDbCircle
 10
649.8299867811
 20
213.0031903492
 30
0.0
 40
101.2000000000001
100
AcDbArc
 50
150.3695827411
 51
175.9298493727
  0
ARC
  5
1F9
330
1F
100
AcDbEntity
  8
0
  6
Continuous
 62
     7
370
    15
100
AcDbCircle
 10
554.4710999634
 20
219.7886678471
 30
0.0
 40
5.599999999999989
100
AcDbArc
 50
175.9298493727
 51
259.925583395
  0
ARC
  5
1FA
330
1F
100
AcDbEntity
  8
0
  6
Continuous
 62
     7
370
    15
100
AcDbCircle
 10
633.2747572348
 20
347.486848873
 30
0.0
 40
22.50000000000005
100
AcDbArc
 50
178.3247815853
 51
231.6752184147
  0
ARC
  5
1FB
330
1F
100
AcDbEntity
  8
0
  6
Continuous
 62
     7
370
    15
100
AcDbCircle
 10
633.2747572348
 20
347.486848873
 30
0.0
 40
24.00000000000002
100
AcDbArc
 50
171.8999029446
 51
238.1000970554
  0
ARC
  5
1FC
330
1F
100
AcDbEntity
  8
0
  6
Continuous
 62
     7
370
    15
100
AcDbCircle
 10
624.0661290054
 20
312.9372675928
 30
0.0
 40
2.000000000000093
100
AcDbArc
 50
351.407837206
 51
9.0
  0
LINE
  5
1FD
330
1F
100
AcDbEntity
  8
0
  6
Continuous
 62
     7
370
    15
100
AcDbLine
 10
626.0415050071
 20
313.2501387872
 30
0.0
 11
625.5197203588
 21
316.5445620097
 31
0.0
  0
ARC
  5
1FE
330
1F
100
AcDbEntity
  8
0
  6
Continuous
 62
     7
370
    15
100
AcDbCircle
 10
633.2747572348
 20
347.486848873
 30
0.0
 40
24.45000000000002
100
AcDbArc
 50
170.3156668178
 51
239.6843331822
  0
LINE
  5
1FF
330
1F
100
AcDbEntity
  8
0
  6
Continuous
 62
     7
370
    15
100
AcDbLine
 10
695.6614232492
 20
328.5322258152
 30
0.0
 11
690.3128637802
 21
332.4425140299
 31
0.0
  0
LINE
  5
200
330
1F
100
AcDbEntity
  8
0
  6
Continuous
 62
     7
370
    15
100
AcDbLine
 10
693.278634442
 20
323.4223270692
 30
0.0
 11
695.6614232492
 21
328.5322258152
 31
0.0
  0
LINE
  5
201
330
1F
100
AcDbEntity
  8
0
  6
Continuous
 62
     7
370
    15
100
AcDbLine
 10
687.9300749731
 20
327.3326152839
 30
0.0
 11
693.278634442
 21
323.4223270692
 31
0.0
  0
LINE
  5
202
330
1F
100
AcDbEntity
  8
0
  6
Continuous
 62
     7
370
    15
100
AcDbLine
 10
687.9300749731
 20
327.3326152839
 30
0.0
 11
690.3128637802
 21
332.4425140299
 31
0.0
  0
LINE
  5
203
330
1F
100
AcDbEntity
  8
0
  6
Continuous
 62
     7
370
    15
100
AcDbLine
 10
684.3757792246
 20
328.2075891175
 30
0.0
 11
687.9300749731
 21
327.3326152839
 31
0.0
  0
LINE
  5
204
330
1F
100
AcDbEntity
  8
0
  6
Continuous
 62
     7
370
    15
100
AcDbLine
 10
693.278634442
 20
323.4223270692
 30
0.0
 11
692.9573132526
 21
322.7332452215
 31
0.0
  0
LINE
  5
205
330
1F
100
AcDbEntity
  8
0
  6
Continuous
 62
     7
370
    15
100
AcDbLine
 10
690.3128637802
 20
332.4425140299
 30
0.0
 11
686.7585680317
 21
333.3174953141
 31
0.0
  0
CIRCLE
  5
206
330
1F
100
AcDbEntity
  8
0
  6
Continuous
 62
     7
370
    15
100
AcDbCircle
 10
649.5148553383
 20
214.9509048738
 30
0.0
 40
13.0
  0
LWPOLYLINE
  5
207
330
1F
100
AcDbEntity
  8
0
  6
Continuous
 62
     7
370
    15
100
AcDbPolyline
 90
       19
 70
   128
 43
0.0
 10
676.0085648727
 20
240.1989534401
 10
676.1431670618
 20
242.3363226835
 10
675.6314239335
 20
248.0661947184
 10
674.116212396
 20
253.5816099398
 10
671.6554141473
 20
258.6754005306
 10
668.3439141941
 20
263.154558269
 10
664.308689056
 20
266.8467735775
 10
659.7050553989
 20
269.6059936561
 10
654.7097507734
 20
271.317151738
 10
649.5148553383
 20
271.8993792214
 10
644.3199599032
 20
271.317151738
 10
639.3246552777
 20
269.6059936561
 10
634.7210216206
 20
266.8467735775
 10
630.6857964825
 20
263.154558269
 10
627.3742965292
 20
258.6754005306
 10
624.9134982806
 20
253.5816099398
 10
623.3982867431
 20
248.0661947184
 10
622.8865436148
 20
242.3363226835
 10
623.0220491868
 20
240.1846115381
  0
LWPOLYLINE
  5
208
330
1F
100
AcDbEntity
  8
0
  6
Continuous
 62
     7
370
    15
100
AcDbPolyline
 90
        6
 70
   128
 43
0.0
 10
672.0587755423
 20
133.3634028115
 10
671.8969656956
 20
131.5275723018
 10
671.4915777426
 20
129.4832149424
 10
670.8591352087
 20
127.599112121
 10
669.9182796162
 20
125.7165515699
 10
668.6510885935
 20
122.9509035029
  0
LWPOLYLINE
  5
209
330
1F
100
AcDbEntity
  8
0
  6
Continuous
 62
     7
370
    15
100
AcDbPolyline
 90
        3
 70
   128
 43
0.0
 10
628.2849120777
 20
122.9509035029
 10
627.4841516148
 20
126.783392755
 10
627.1334993523
 20
130.1772737779
  0
LINE
  5
20A
330
1F
100
AcDbEntity
  8
0
  6
Continuous
 62
     7
370
    15
100
AcDbLine
 10
689.4635832738
 20
382.9509014167
 30
0.0
 11
649.5148553383
 21
382.9509014167
 31
0.0
  0
LINE
  5
20B
330
1F
100
AcDbEntity
  8
0
  6
Continuous
 62
     7
370
    15
100
AcDbLine
 10
649.5148553383
 20
366.9509062447
 30
0.0
 11
689.4635832738
 21
366.9509062447
 31
0.0
  0
LINE
  5
20C
330
1F
100
AcDbEntity
  8
0
  6
Continuous
 62
     7
370
    15
100
AcDbLine
 10
649.5148553383
 20
122.9509035029
 30
0.0
 11
689.4635832738
 21
122.9509035029
 31
0.0
  0
LINE
  5
20D
330
1F
100
AcDbEntity
  8
0
  6
Continuous
 62
     7
370
    15
100
AcDbLine
 10
689.4635832738
 20
106.9509083308
 30
0.0
 11
649.5148553383
 21
106.9509083308
 31
0.0
  0
LINE
  5
20E
330
1F
100
AcDbEntity
  8
0
  6
Continuous
 62
     7
370
    15
100
AcDbLine
 10
609.5661274027
 20
122.9509035029
 30
0.0
 11
649.5148553383
 21
122.9509035029
 31
0.0
  0
LINE
  5
20F
330
1F
100
AcDbEntity
  8
0
  6
Continuous
 62
     7
370
    15
100
AcDbLine
 10
649.5148553383
 20
106.9509083308
 30
0.0
 11
609.5661274027
 21
106.9509083308
 31
0.0
  0
LINE
  5
210
330
1F
100
AcDbEntity
  8
0
  6
Continuous
 62
     7
370
    15
100
AcDbLine
 10
649.5148553383
 20
382.9509014167
 30
0.0
 11
609.5661274027
 21
382.9509014167
 31
0.0
  0
LINE
  5
211
330
1F
100
AcDbEntity
  8
0
  6
Continuous
 62
     7
370
    15
100
AcDbLine
 10
609.5661274027
 20
366.9509062447
 30
0.0
 11
649.5148553383
 21
366.9509062447
 31
0.0
  0
LINE
  5
212
330
1F
100
AcDbEntity
  8
0
  6
Continuous
 62
     7
370
    15
100
AcDbLine
 10
701.7566016745
 20
382.9509014167
 30
0.0
 11
689.4635832738
 21
382.9509014167
 31
0.0
  0
LINE
  5
213
330
1F
100
AcDbEntity
  8
0
  6
Continuous
 62
     7
370
    15
100
AcDbLine
 10
689.4635832738
 20
366.9509062447
 30
0.0
 11
701.7566016745
 21
366.9509062447
 31
0.0
  0
LINE
  5
214
330
1F
100
AcDbEntity
  8
0
  6
Continuous
 62
     7
370
    15
100
AcDbLine
 10
689.4635832738
 20
122.9509035029
 30
0.0
 11
701.7566016745
 21
122.9509035029
 31
0.0
  0
LINE
  5
215
330
1F
100
AcDbEntity
  8
0
  6
Continuous
 62
     7
370
    15
100
AcDbLine
 10
701.7566016745
 20
106.9509083308
 30
0.0
 11
689.4635832738
 21
106.9509083308
 31
0.0
  0
LINE
  5
216
330
1F
100
AcDbEntity
  8
0
  6
Continuous
 62
     7
370
    15
100
AcDbLine
 10
609.5661274027
 20
382.9509014167
 30
0.0
 11
597.2731090021
 21
382.9509014167
 31
0.0
  0
LINE
  5
217
330
1F
100
AcDbEntity
  8
0
  6
Continuous
 62
     7
370
    15
100
AcDbLine
 10
597.2731090021
 20
366.9509062447
 30
0.0
 11
609.5661274027
 21
366.9509062447
 31
0.0
  0
LINE
  5
218
330
1F
100
AcDbEntity
  8
0
  6
Continuous
 62
     7
370
    15
100
AcDbLine
 10
597.2731090021
 20
122.9509035029
 30
0.0
 11
609.5661274027
 21
122.9509035029
 31
0.0
  0
LINE
  5
219
330
1F
100
AcDbEntity
  8
0
  6
Continuous
 62
     7
370
    15
100
AcDbLine
 10
609.5661274027
 20
106.9509083308
 30
0.0
 11
597.2731090021
 21
106.9509083308
 31
0.0
  0
LWPOLYLINE
  5
21A
330
1F
100
AcDbEntity
  8
0
  6
Continuous
 62
     7
370
    15
100
AcDbPolyline
 90
       21
 70
   128
 43
0.0
 10
676.0713565033
 20
240.8779364914
 10
676.0987038594
 20
246.3153735871
 10
675.3073087763
 20
251.1810426504
 10
673.6759948414
 20
255.9764183961
 10
671.2891715449
 20
260.2947991245
 10
668.0429591667
 20
264.2332458772
 10
664.577613106
 20
267.1558571883
 10
660.5352894273
 20
269.5022778489
 10
656.4204618205
 20
271.0180276908
 10
651.9797921516
 20
271.8360120334
 10
647.6476951372
 20
271.8861674793
 10
643.2437612545
 20
271.1843991555
 10
639.1607201528
 20
269.8021674432
 10
635.2563486304
 20
267.7018357344
 10
631.8198735696
 20
265.0320747771
 10
628.7891710978
 20
261.7401568122
 10
626.3718525749
 20
258.0451438107
 10
624.5321887415
 20
253.9012463667
 10
623.3492153567
 20
249.448050642
 10
622.8374200743
 20
244.7590115762
 10
622.9777033311
 20
240.8806987941
  0
LINE
  5
21B
330
1F
100
AcDbEntity
  8
0
  6
Continuous
 62
     7
370
    15
100
AcDbLine
 10
649.5148553383
 20
384.9509054698
 30
0.0
 11
689.5148544442
 21
384.9509054698
 31
0.0
  0
LINE
  5
21C
330
1F
100
AcDbEntity
  8
0
  6
Continuous
 62
     7
370
    15
100
AcDbLine
 10
609.5148562323
 20
384.9509054698
 30
0.0
 11
649.5148553383
 21
384.9509054698
 31
0.0
  0
LINE
  5
21D
330
1F
100
AcDbEntity
  8
0
  6
Continuous
 62
     7
370
    15
100
AcDbLine
 10
649.5148553383
 20
104.9509042777
 30
0.0
 11
689.5148544442
 21
104.9509042777
 31
0.0
  0
LINE
  5
21E
330
1F
100
AcDbEntity
  8
0
  6
Continuous
 62
     7
370
    15
100
AcDbLine
 10
609.5148562323
 20
104.9509042777
 30
0.0
 11
649.5148553383
 21
104.9509042777
 31
0.0
  0
ARC
  5
21F
330
1F
100
AcDbEntity
  8
0
  6
Continuous
 62
     7
370
    15
100
AcDbCircle
 10
908.2746445981
 20
127.0360478857
 30
0.0
 40
201.9821578705704
100
AcDbArc
 50
181.15890183
 51
184.8386572685
  0
LINE
  5
220
330
1F
100
AcDbEntity
  8
0
  6
Continuous
 62
     7
370
    15
100
AcDbLine
 10
701.7566016745
 20
122.9509035029
 30
0.0
 11
706.3338025343
 21
122.9509035029
 31
0.0
  0
LINE
  5
221
330
1F
100
AcDbEntity
  8
0
  6
Continuous
 62
     7
370
    15
100
AcDbLine
 10
707.0159627926
 20
106.9509083308
 30
0.0
 11
701.7566016745
 21
106.9509083308
 31
0.0
  0
ARC
  5
222
330
1F
100
AcDbEntity
  8
0
  6
Continuous
 62
     7
370
    15
100
AcDbCircle
 10
934.9937580694
 20
361.4590038864
 30
0.0
 40
228.7258976522312
100
AcDbArc
 50
175.3691248806
 51
178.6241476254
  0
LINE
  5
223
330
1F
100
AcDbEntity
  8
0
  6
Continuous
 62
     7
370
    15
100
AcDbLine
 10
707.0159627926
 20
382.9509014167
 30
0.0
 11
701.7566016745
 21
382.9509014167
 31
0.0
  0
LINE
  5
224
330
1F
100
AcDbEntity
  8
0
  6
Continuous
 62
     7
370
    15
100
AcDbLine
 10
701.7566016745
 20
366.9509062447
 30
0.0
 11
706.3338025343
 21
366.9509062447
 31
0.0
  0
LINE
  5
225
330
1F
100
AcDbEntity
  8
0
  6
Continuous
 62
     7
370
    15
100
AcDbLine
 10
592.013747884
 20
122.9509035029
 30
0.0
 11
597.2731090021
 21
122.9509035029
 31
0.0
  0
LINE
  5
226
330
1F
100
AcDbEntity
  8
0
  6
Continuous
 62
     7
370
    15
100
AcDbLine
 10
597.2731090021
 20
106.9509083308
 30
0.0
 11
592.013747884
 21
106.9509083308
 31
0.0
  0
LINE
  5
227
330
1F
100
AcDbEntity
  8
0
  6
Continuous
 62
     7
370
    15
100
AcDbLine
 10
597.2731090021
 20
382.9509014167
 30
0.0
 11
592.013747884
 21
382.9509014167
 31
0.0
  0
LINE
  5
228
330
1F
100
AcDbEntity
  8
0
  6
Continuous
 62
     7
370
    15
100
AcDbLine
 10
592.013747884
 20
366.9509062447
 30
0.0
 11
597.2731090021
 21
366.9509062447
 31
0.0
  0
ARC
  5
229
330
1F
100
AcDbEntity
  8
0
  6
Continuous
 62
     7
370
    15
100
AcDbCircle
 10
649.5148553383
 20
244.9509048738
 30
0.0
 40
30.00000000000006
100
AcDbArc
 50
330.4756187477
 51
209.7026303623
  0
CIRCLE
  5
22A
330
1F
100
AcDbEntity
  8
0
  6
Continuous
 62
     7
370
    15
100
AcDbCircle
 10
649.5148553383
 20
339.9509048738
 30
0.0
 40
15.00000000000011
  0
LINE
  5
22B
330
1F
100
AcDbEntity
  8
0
  6
Continuous
 62
     7
370
    15
100
AcDbLine
 10
652.5148553644
 20
325.253962902
 30
0.0
 11
652.5148553644
 21
276.2211406507
 31
0.0
  0
ELLIPSE
  5
22C
330
1F
100
AcDbEntity
  8
0
  6
Continuous
 62
     7
370
    15
100
AcDbEllipse
 10
649.5148553383
 20
222.4543805869
 30
0.0
 11
-1.136868377216160E-13
 21
53.86804141353261
 31
0.0
210
0.0
220
0.0
230
1.0
 40
0.9086204741
 41
6.221854334771312
 42
6.344516279587886
  0
LINE
  5
22D
330
1F
100
AcDbEntity
  8
0
  6
Continuous
 62
     7
370
    15
100
AcDbLine
 10
646.5148553122
 20
325.253962902
 30
0.0
 11
646.5148553122
 21
276.2211406507
 31
0.0
  0
LWPOLYLINE
  5
22E
330
1F
100
AcDbEntity
  8
0
  6
Continuous
 62
     7
370
    15
100
AcDbPolyline
 90
       14
 70
   128
 43
0.0
 10
715.5281319153
 20
246.759870336
 10
714.578540517
 20
254.4750081279
 10
712.7695320975
 20
262.0606286355
 10
710.1393951904
 20
269.3763686247
 10
706.7230618429
 20
276.3384612181
 10
702.584055705
 20
282.9239549019
 10
697.8187612128
 20
289.047773359
 10
691.9880523216
 20
295.1520005144
 10
685.5269721579
 20
300.6185324766
 10
678.5190082025
 20
305.310900686
 10
672.519327594
 20
308.4355363526
 10
666.2089782637
 20
310.9204316415
 10
659.6817527767
 20
312.6735383548
 10
654.5462170486
 20
313.4805256404
  0
ARC
  5
22F
330
1F
100
AcDbEntity
  8
0
  6
Continuous
 62
     7
370
    15
100
AcDbCircle
 10
644.4810030439
 20
246.0909619605
 30
0.0
 40
71.0502776861458
100
AcDbArc
 50
319.7784165785
 51
0.5394235495
  0
ARC
  5
230
330
1F
100
AcDbEntity
  8
0
  6
Continuous
 62
     7
370
    15
100
AcDbCircle
 10
650.0334189324
 20
243.510983218
 30
0.0
 40
65.16473345027342
100
AcDbArc
 50
291.4788766464
 51
318.3578532622
  0
LWPOLYLINE
  5
231
330
1F
100
AcDbEntity
  8
0
  6
Continuous
 62
     7
370
    15
100
AcDbPolyline
 90
       14
 70
   128
 43
0.0
 10
583.033928169
 20
263.4803386308
 10
581.7799731028
 20
254.2135244139
 10
581.570060445
 20
244.8620954083
 10
582.3518275153
 20
235.8179580324
 10
584.1403021347
 20
226.891436977
 10
586.9768946301
 20
218.2795455583
 10
590.0231092107
 20
211.7451237418
 10
593.7699354124
 20
205.5615665294
 10
598.1745025944
 20
199.85888469
 10
603.2326309812
 20
194.7045171537
 10
608.8712490034
 20
190.1523614206
 10
614.97029428
 20
186.2820977248
 10
620.6831014585
 20
183.4641689338
 10
625.1802439671
 20
181.7656675257
  0
ARC
  5
232
330
1F
100
AcDbEntity
  8
0
  6
Continuous
 62
     7
370
    15
100
AcDbCircle
 10
649.5148553383
 20
244.9509048738
 30
0.0
 40
69.01487673260795
100
AcDbArc
 50
92.4913688789
 51
164.4258863536
  0
LINE
  5
233
330
1F
100
AcDbEntity
  8
0
  6
Continuous
 62
     7
370
    15
100
AcDbLine
 10
654.5459590722
 20
313.4803542771
 30
0.0
 11
652.5148553644
 21
313.7781912364
 31
0.0
  0
LINE
  5
234
330
1F
100
AcDbEntity
  8
0
  6
Continuous
 62
     7
370
    15
100
AcDbLine
 10
691.8010241222
 20
260.3418113567
 30
0.0
 11
690.07667665
 21
257.1364952155
 31
0.0
  0
LINE
  5
235
330
1F
100
AcDbEntity
  8
0
  6
Continuous
 62
     7
370
    15
100
AcDbLine
 10
695.0063384008
 20
258.6174648158
 30
0.0
 11
691.8010241222
 21
260.3418113567
 31
0.0
  0
LINE
  5
236
330
1F
100
AcDbEntity
  8
0
  6
Continuous
 62
     7
370
    15
100
AcDbLine
 10
693.8091940116
 20
258.2578187712
 30
0.0
 11
695.0063384008
 21
258.6174648158
 31
0.0
  0
ARC
  5
237
330
1F
100
AcDbEntity
  8
0
  6
Continuous
 62
     7
370
    15
100
AcDbCircle
 10
649.5148553383
 20
244.9509048738
 30
0.0
 40
46.24999999999986
100
AcDbArc
 50
1.526179454
 51
16.7213289831
  0
LINE
  5
238
330
1F
100
AcDbEntity
  8
0
  6
Continuous
 62
     7
370
    15
100
AcDbLine
 10
697.0148547422
 20
244.9510466304
 30
0.0
 11
695.7484497559
 21
246.1827137877
 31
0.0
  0
ARC
  5
239
330
1F
100
AcDbEntity
  8
0
  6
Continuous
 62
     7
370
    15
100
AcDbCircle
 10
649.5148553383
 20
244.9509048738
 30
0.0
 40
47.4999999999999
100
AcDbArc
 50
340.0
 51
0.0001709907
  0
LINE
  5
23A
330
1F
100
AcDbEntity
  8
0
  6
Continuous
 62
     7
370
    15
100
AcDbLine
 10
692.5904876422
 20
231.9320751257
 30
0.0
 11
694.1502555143
 21
228.7049474098
 31
0.0
  0
LINE
  5
23B
330
1F
100
AcDbEntity
  8
0
  6
Continuous
 62
     7
370
    15
100
AcDbLine
 10
689.45179273
 20
230.4150484406
 30
0.0
 11
692.5904876422
 21
231.9320751257
 31
0.0
  0
ARC
  5
23C
330
1F
100
AcDbEntity
  8
0
  6
Continuous
 62
     7
370
    15
100
AcDbCircle
 10
649.5148553383
 20
244.9509048738
 30
0.0
 40
42.49999999999989
100
AcDbArc
 50
340.0
 51
0.0
  0
LINE
  5
23D
330
1F
100
AcDbEntity
  8
0
  6
Continuous
 62
     7
370
    15
100
AcDbLine
 10
693.2465224397
 20
246.2173116064
 30
0.0
 11
692.0148557853
 21
244.9509048738
 31
0.0
  0
ARC
  5
23E
330
1F
100
AcDbEntity
  8
0
  6
Continuous
 62
     7
370
    15
100
AcDbCircle
 10
649.5148553383
 20
244.9509048738
 30
0.0
 40
43.74999999999993
100
AcDbArc
 50
1.6587405132
 51
16.7213289831
  0
LINE
  5
23F
330
1F
100
AcDbEntity
  8
0
  6
Continuous
 62
     7
370
    15
100
AcDbLine
 10
690.07667665
 20
257.1364952155
 30
0.0
 11
691.4149052333
 21
257.5385266818
 31
0.0
  0
ARC
  5
240
330
1F
100
AcDbEntity
  8
0
  6
Continuous
 62
     7
370
    15
100
AcDbCircle
 10
686.5007818611
 20
348.7049177356
 30
0.0
 40
19.77769696405436
100
AcDbArc
 50
202.7635251525
 51
247.0412770268
  0
LINE
  5
241
330
1F
100
AcDbEntity
  8
0
  6
Continuous
 62
     7
370
    15
100
AcDbLine
 10
678.7861375939
 20
330.4938891806
 30
0.0
 11
678.7800039035
 21
330.5046254672
 31
0.0
  0
LWPOLYLINE
  5
242
330
1F
100
AcDbEntity
  8
0
  6
Continuous
 62
     7
370
    15
100
AcDbPolyline
 90
        3
 70
   128
 43
0.0
 10
678.7800039035
 20
330.5046254672
 10
679.6332369428
 20
330.1267618217
 10
684.2360920143
 20
327.9080236234
  0
LWPOLYLINE
  5
243
330
1F
100
AcDbEntity
  8
0
  6
Continuous
 62
     7
370
    15
100
AcDbPolyline
 90
        6
 70
   128
 43
0.0
 10
667.1680207234
 20
354.2759040274
 10
666.8781018686
 20
356.5255546846
 10
666.5214984548
 20
359.2020118512
 10
666.3163932841
 20
361.5718031205
 10
666.2941942793
 20
364.1273373641
 10
666.5739803445
 20
366.9509062447
  0
ARC
  5
244
330
1F
100
AcDbEntity
  8
0
  6
Continuous
 62
     7
370
    15
100
AcDbCircle
 10
689.5654883098
 20
349.474354356
 30
0.0
 40
22.90636229370437
100
AcDbArc
 50
167.900125538
 51
201.5720236489
  0
LINE
  5
245
330
1F
100
AcDbEntity
  8
0
  6
Continuous
 62
     7
370
    15
100
AcDbLine
 10
630.2003632169
 20
366.9509062447
 30
0.0
 11
635.542744292
 21
322.9506755151
 31
0.0
  0
ARC
  5
246
330
1F
100
AcDbEntity
  8
0
  6
Continuous
 62
     7
370
    15
100
AcDbCircle
 10
649.5467116064
 20
323.9659068561
 30
0.0
 40
14.04071918450459
100
AcDbArc
 50
184.1464597281
 51
223.9822094613
  0
LWPOLYLINE
  5
247
330
1F
100
AcDbEntity
  8
0
  6
Continuous
 62
     7
370
    15
100
AcDbPolyline
 90
        5
 70
   128
 43
0.0
 10
646.5148553122
 20
313.9488765873
 10
642.7953597028
 20
314.0220487394
 10
640.7437720206
 20
314.1433516421
 10
639.6569548976
 20
314.2122173585
 10
639.4436354619
 20
314.2155403175
  0
LWPOLYLINE
  5
248
330
1F
100
AcDbEntity
  8
0
  6
Continuous
 62
     7
370
    15
100
AcDbPolyline
 90
        3
 70
   128
 43
0.0
 10
681.5267330837
 20
167.8040245451
 10
673.996233834
 20
165.3305062928
 10
673.2126823496
 20
165.1642614879
  0
LINE
  5
249
330
1F
100
AcDbEntity
  8
0
  6
Continuous
 62
     7
370
    15
100
AcDbLine
 10
588.4859091472
 20
294.0601998843
 30
0.0
 11
594.6963927578
 21
299.7693674542
 31
0.0
  0
LINE
  5
24A
330
1F
100
AcDbEntity
  8
0
  6
Continuous
 62
     7
370
    15
100
AcDbLine
 10
625.7553021293
 20
166.8441662468
 30
0.0
 11
622.9380662423
 21
167.8208777584
 31
0.0
  0
ARC
  5
24B
330
1F
100
AcDbEntity
  8
0
  6
Continuous
 62
     7
370
    15
100
AcDbCircle
 10
653.4249348338
 20
245.8213664997
 30
0.0
 40
83.88183465110745
100
AcDbArc
 50
218.0229768314
 51
228.9710700253
  0
LINE
  5
24C
330
1F
100
AcDbEntity
  8
0
  6
Continuous
 62
     7
370
    15
100
AcDbLine
 10
594.6963927578
 20
299.7693674542
 30
0.0
 11
602.626261754
 21
304.4814089217
 31
0.0
  0
LWPOLYLINE
  5
24D
330
1F
100
AcDbEntity
  8
0
  6
Continuous
 62
     7
370
    15
100
AcDbPolyline
 90
        3
 70
   128
 43
0.0
 10
639.4436354619
 20
314.2155403175
 10
633.3211134058
 20
313.785358695
 10
627.2137830835
 20
312.9116291084
  0
LINE
  5
24E
330
1F
100
AcDbEntity
  8
0
  6
Continuous
 62
     7
370
    15
100
AcDbLine
 10
709.5148539972
 20
379.9509102382
 30
0.0
 11
709.5148539972
 21
349.9509015955
 31
0.0
  0
LINE
  5
24F
330
1F
100
AcDbEntity
  8
0
  6
Continuous
 62
     7
370
    15
100
AcDbLine
 10
667.2333865296
 20
353.7705683984
 30
0.0
 11
696.2959929239
 21
353.7705683984
 31
0.0
  0
ARC
  5
250
330
1F
100
AcDbEntity
  8
0
  6
Continuous
 62
     7
370
    15
100
AcDbCircle
 10
572.6214192551
 20
341.7892855072
 30
0.0
 40
95.36758092391642
100
AcDbArc
 50
7.2172925686
 51
7.5234222892
  0
LINE
  5
251
330
1F
100
AcDbEntity
  8
0
  6
Continuous
 62
     7
370
    15
100
AcDbLine
 10
672.1690832507
 20
136.1312413492
 30
0.0
 11
696.2959929239
 21
136.1312413492
 31
0.0
  0
LINE
  5
252
330
1F
100
AcDbEntity
  8
0
  6
Continuous
 62
     7
370
    15
100
AcDbLine
 10
709.5148539972
 20
109.9508995094
 30
0.0
 11
709.5148539972
 21
139.950908152
 31
0.0
  0
ARC
  5
253
330
1F
100
AcDbEntity
  8
0
  6
Continuous
 62
     7
370
    15
100
AcDbCircle
 10
688.6246433627
 20
349.2497396683
 30
0.0
 40
21.86375451074517
100
AcDbArc
 50
168.0667059057
 51
201.9295207326
  0
ARC
  5
254
330
1F
100
AcDbEntity
  8
0
  6
Continuous
 62
     7
370
    15
100
AcDbCircle
 10
686.7877280831
 20
348.828551222
 30
0.0
 40
20.00463152692432
100
AcDbArc
 50
202.7753624125
 51
246.4226406537
  0
LWPOLYLINE
  5
255
330
1F
100
AcDbEntity
  8
0
  6
Continuous
 62
     7
370
    15
100
AcDbPolyline
 90
        2
 70
   128
 43
0.0
 10
678.7861375939
 20
330.4938891806
 10
678.7861375939
 20
330.4938891806
  0
ARC
  5
256
330
1F
100
AcDbEntity
  8
0
  6
Continuous
 62
     7
370
    15
100
AcDbCircle
 10
649.5148553383
 20
244.9509048738
 30
0.0
 40
83.0
100
AcDbArc
 50
129.8155988641
 51
140.1844011359
  0
LINE
  5
257
330
1F
100
AcDbEntity
  8
0
  6
Continuous
 62
     7
370
    15
100
AcDbLine
 10
596.3683924508
 20
308.7039733209
 30
0.0
 11
602.626261754
 21
304.4814089217
 31
0.0
  0
LINE
  5
258
330
1F
100
AcDbEntity
  8
0
  6
Continuous
 62
     7
370
    15
100
AcDbLine
 10
588.4859091472
 20
294.0601998843
 30
0.0
 11
585.7617868912
 21
298.0973677613
 31
0.0
  0
LINE
  5
259
330
1F
100
AcDbEntity
  8
0
  6
Continuous
 62
     7
370
    15
100
AcDbLine
 10
696.2959929239
 20
353.7705683984
 30
0.0
 11
684.2360920143
 21
327.9080236234
 31
0.0
  0
LINE
  5
25A
330
1F
100
AcDbEntity
  8
0
  6
Continuous
 62
     7
370
    15
100
AcDbLine
 10
602.0148559343
 20
366.9509062447
 30
0.0
 11
627.2137830835
 21
312.9116291084
 31
0.0
  0
LINE
  5
25B
330
1F
100
AcDbEntity
  8
0
  6
Continuous
 62
     7
370
    15
100
AcDbLine
 10
696.2959929239
 20
136.1312413492
 30
0.0
 11
681.5267330837
 21
167.8040245451
 31
0.0
  0
LINE
  5
25C
330
1F
100
AcDbEntity
  8
0
  6
Continuous
 62
     7
370
    15
100
AcDbLine
 10
602.0148559343
 20
122.9509035029
 30
0.0
 11
622.9380662423
 21
167.8208777584
 31
0.0
  0
ARC
  5
25D
330
1F
100
AcDbEntity
  8
0
  6
Continuous
 62
     7
370
    15
100
AcDbCircle
 10
649.5148553383
 20
244.9509048738
 30
0.0
 40
82.99999999999999
100
AcDbArc
 50
219.8155988641
 51
230.1844011359
  0
LINE
  5
25E
330
1F
100
AcDbEntity
  8
0
  6
Continuous
 62
     7
370
    15
100
AcDbLine
 10
585.7617868912
 20
191.8044419863
 30
0.0
 11
587.3458622825
 21
194.1520491518
 31
0.0
  0
LINE
  5
25F
330
1F
100
AcDbEntity
  8
0
  6
Continuous
 62
     7
370
    15
100
AcDbLine
 10
598.3615419697
 20
182.5427370049
 30
0.0
 11
596.3683924508
 21
181.1978364267
 31
0.0
  0
ARC
  5
260
330
1F
100
AcDbEntity
  8
0
  6
Continuous
 62
     7
370
    15
100
AcDbCircle
 10
649.5148553383
 20
244.9509048738
 30
0.0
 40
70.5
100
AcDbArc
 50
235.2128207973
 51
249.8775604649
  0
LINE
  5
261
330
1F
100
AcDbEntity
  8
0
  6
Continuous
 62
     7
370
    15
100
AcDbLine
 10
596.3683924508
 20
181.1978364267
 30
0.0
 11
598.7093723249
 21
182.2580167927
 31
0.0
  0
LINE
  5
262
330
1F
100
AcDbEntity
  8
0
  6
Continuous
 62
     7
370
    15
100
AcDbLine
 10
587.0610265862
 20
194.6732880451
 30
0.0
 11
585.7617868912
 21
191.8044419863
 31
0.0
  0
LINE
  5
263
330
1F
100
AcDbEntity
  8
0
  6
Continuous
 62
     7
370
    15
100
AcDbLine
 10
585.7617868912
 20
298.0973677613
 30
0.0
 11
587.910761578
 21
293.352219639
 31
0.0
  0
LINE
  5
264
330
1F
100
AcDbEntity
  8
0
  6
Continuous
 62
     7
370
    15
100
AcDbLine
 10
604.1738702785
 20
305.1690416314
 30
0.0
 11
596.3683924508
 21
308.7039733209
 31
0.0
  0
ARC
  5
265
330
1F
100
AcDbEntity
  8
0
  6
Continuous
 62
     7
370
    15
100
AcDbCircle
 10
649.5148553383
 20
244.9509048738
 30
0.0
 40
70.5
100
AcDbArc
 50
92.438854691
 51
124.7871792027
  0
INSERT
  5
271
330
1F
100
AcDbEntity
  8
SLD-0
100
AcDbBlockReference
  2
SW_CENTERMARKSYMBOL_0
 10
649.5148553383
 20
244.9509048738
 30
0.0
  0
LINE
  5
272
330
1F
100
AcDbEntity
  8
0
  6
Continuous
 62
     7
370
     0
100
AcDbLine
 10
579.0148542017
 20
454.2709084522
 30
0.0
 11
729.9666941852
 21
454.2709084522
 31
0.0
  0
ARC
  5
273
330
1F
100
AcDbEntity
  8
0
  6
Continuous
 62
     7
370
    15
100
AcDbCircle
 10
649.514855513
 20
454.3039151597
 30
0.0
 40
39.96703274018764
100
AcDbArc
 50
359.9526823704
 51
180.0473176296
  0
ARC
  5
274
330
1F
100
AcDbEntity
  8
0
  6
Continuous
 62
     7
370
    15
100
AcDbCircle
 10
649.514855513
 20
454.2709065896
 30
0.0
 40
17.50000007450591
100
AcDbArc
 50
0.0000060984
 51
179.9999939016
  0
CIRCLE
  5
275
330
1F
100
AcDbEntity
  8
0
  6
Continuous
 62
     7
370
    15
100
AcDbCircle
 10
684.8701956831
 20
489.6262503682
 30
0.0
 40
7.499999391807906
  0
CIRCLE
  5
276
330
1F
100
AcDbEntity
  8
0
  6
Continuous
 62
     7
370
    15
100
AcDbCircle
 10
614.1595148486
 20
489.626249485
 30
0.0
 40
7.499999213077693
  0
ARC
  5
277
330
1F
100
AcDbEntity
  8
0
  6
Continuous
 62
     7
370
    15
100
AcDbCircle
 10
557.015955666
 20
454.8477152997
 30
0.0
 40
150.0000099145977
100
AcDbArc
 50
359.7796754852
 51
15.2172360699
  0
ARC
  5
278
330
1F
100
AcDbEntity
  8
0
  6
Continuous
 62
     7
370
    15
100
AcDbCircle
 10
742.0135532205
 20
454.8477279187
 30
0.0
 40
149.9998115502873
100
AcDbArc
 50
164.7827483147
 51
180.2203296263
  0
ARC
  5
279
330
1F
100
AcDbEntity
  8
0
  6
Continuous
 62
     7
370
    15
100
AcDbCircle
 10
614.1595066931
 20
489.6262584951
 30
0.0
 40
17.49998739010376
100
AcDbArc
 50
105.2172079694
 51
164.7827898602
  0
ARC
  5
27A
330
1F
100
AcDbEntity
  8
0
  6
Continuous
 62
     7
370
    15
100
AcDbCircle
 10
684.870204333
 20
489.6262584951
 30
0.0
 40
17.49998739010376
100
AcDbArc
 50
15.2172101398
 51
74.7827920306
  0
ARC
  5
27B
330
1F
100
AcDbEntity
  8
0
  6
Continuous
 62
     7
370
    15
100
AcDbCircle
 10
648.9380231602
 20
361.7721645874
 30
0.0
 40
149.9998535659734
100
AcDbArc
 50
89.7796655131
 51
105.2172414813
  0
ARC
  5
27C
330
1F
100
AcDbEntity
  8
0
  6
Continuous
 62
     7
370
    15
100
AcDbCircle
 10
650.0916878659
 20
361.7721645874
 30
0.0
 40
149.9998535659735
100
AcDbArc
 50
74.7827585187
 51
90.2203344869
  0
ARC
  5
27D
330
1F
100
AcDbEntity
  8
SLD-0
  6
CENTERX2
370
     0
100
AcDbCircle
 10
649.5148553383
 20
454.2709098055
 30
0.0
 40
50.00000000000068
100
AcDbArc
 50
358.6323025525
 51
180.0
  0
ENDSEC
  0
SECTION
  2
OBJECTS
  0
DICTIONARY
  5
C
330
0
100
AcDbDictionary
281
     1
  3
ACAD_GROUP
350
D
  3
ACAD_LAYOUT
350
1A
  3
ACAD_MLEADERSTYLE
350
27F
  3
ACAD_MLINESTYLE
350
17
  3
ACAD_PLOTSETTINGS
350
19
  3
ACAD_PLOTSTYLENAME
350
E
  3
ACAD_TABLESTYLE
350
27E
  3
ACAD_VISUALSTYLE
350
2A
  3
AcDbVariableDictionary
350
280
  0
DICTIONARY
  5
D
102
{ACAD_REACTORS
330
C
102
}
330
C
100
AcDbDictionary
281
     1
  0
DICTIONARY
  5
1A
102
{ACAD_REACTORS
330
C
102
}
330
C
100
AcDbDictionary
281
     1
  3
Layout1
350
1E
  3
Layout2
350
26
  3
Model
350
22
  0
DICTIONARY
  5
27F
102
{ACAD_REACTORS
330
C
102
}
330
C
100
AcDbDictionary
281
     1
  0
DICTIONARY
  5
17
102
{ACAD_REACTORS
330
C
102
}
330
C
100
AcDbDictionary
281
     1
  3
Standard
350
18
  0
DICTIONARY
  5
19
102
{ACAD_REACTORS
330
C
102
}
330
C
100
AcDbDictionary
281
     1
  0
ACDBDICTIONARYWDFLT
  5
E
102
{ACAD_REACTORS
330
C
102
}
330
C
100
AcDbDictionary
281
     1
  3
Normal
350
F
100
AcDbDictionaryWithDefault
340
F
  0
DICTIONARY
  5
27E
102
{ACAD_REACTORS
330
C
102
}
330
C
100
AcDbDictionary
281
     1
  0
DICTIONARY
  5
2A
102
{ACAD_REACTORS
330
C
102
}
330
C
100
AcDbDictionary
281
     1
  3
2dWireframe
350
2F
  3
3D Hidden
350
31
  3
3dWireframe
350
30
  3
Basic
350
32
  3
Brighten
350
36
  3
ColorChange
350
3A
  3
Conceptual
350
34
  3
Dim
350
35
  3
Facepattern
350
39
  3
Flat
350
2B
  3
FlatWithEdges
350
2C
  3
Gouraud
350
2D
  3
GouraudWithEdges
350
2E
  3
Linepattern
350
38
  3
Realistic
350
33
  3
Thicken
350
37
  0
DICTIONARY
  5
280
102
{ACAD_REACTORS
330
C
102
}
330
C
100
AcDbDictionary
281
     1
  3
PSOLHEIGHT
350
282
  3
PSOLWIDTH
350
281
  0
LAYOUT
  5
1E
102
{ACAD_REACTORS
330
1A
102
}
330
1A
100
AcDbPlotSettings
  1

  2
none_device
  4

  6

 40
0.0
 41
0.0
 42
0.0
 43
0.0
 44
0.0
 45
0.0
 46
0.0
 47
0.0
 48
0.0
 49
0.0
140
0.0
141
0.0
142
1.0
143
1.0
 70
   688
 72
     0
 73
     0
 74
     5
  7

 75
    16
147
1.0
148
0.0
149
0.0
100
AcDbLayout
  1
Layout1
 70
     1
 71
     1
 10
0.0
 20
0.0
 11
420.0
 21
297.0
 12
0.0
 22
0.0
 32
0.0
 14
1.0000000000E+20
 24
1.0000000000E+20
 34
1.0000000000E+20
 15
-1.0000000000E+20
 25
-1.0000000000E+20
 35
-1.0000000000E+20
146
0.0
 13
0.0
 23
0.0
 33
0.0
 16
1.0
 26
0.0
 36
0.0
 17
0.0
 27
1.0
 37
0.0
 76
     0
330
1B
  0
LAYOUT
  5
26
102
{ACAD_REACTORS
330
1A
102
}
330
1A
100
AcDbPlotSettings
  1

  2
none_device
  4

  6

 40
0.0
 41
0.0
 42
0.0
 43
0.0
 44
0.0
 45
0.0
 46
0.0
 47
0.0
 48
0.0
 49
0.0
140
0.0
141
0.0
142
1.0
143
1.0
 70
   688
 72
     0
 73
     0
 74
     5
  7

 75
    16
147
1.0
148
0.0
149
0.0
100
AcDbLayout
  1
Layout2
 70
     1
 71
     2
 10
0.0
 20
0.0
 11
0.0
 21
0.0
 12
0.0
 22
0.0
 32
0.0
 14
0.0
 24
0.0
 34
0.0
 15
0.0
 25
0.0
 35
0.0
146
0.0
 13
0.0
 23
0.0
 33
0.0
 16
1.0
 26
0.0
 36
0.0
 17
0.0
 27
1.0
 37
0.0
 76
     0
330
23
  0
LAYOUT
  5
22
102
{ACAD_REACTORS
330
1A
102
}
330
1A
100
AcDbPlotSettings
  1

  2
none_device
  4

  6

 40
0.0
 41
0.0
 42
0.0
 43
0.0
 44
0.0
 45
0.0
 46
0.0
 47
0.0
 48
0.0
 49
0.0
140
0.0
141
0.0
142
1.0
143
1.0
 70
  1712
 72
     0
 73
     0
 74
     0
  7

 75
     0
147
1.0
148
0.0
149
0.0
100
AcDbLayout
  1
Model
 70
     1
 71
     0
 10
0.0
 20
0.0
 11
841.0
 21
594.0
 12
0.0
 22
0.0
 32
0.0
 14
0.0
 24
0.0
 34
0.0
 15
841.0
 25
594.0
 35
0.0
146
0.0
 13
0.0
 23
0.0
 33
0.0
 16
1.0
 26
0.0
 36
0.0
 17
0.0
 27
1.0
 37
0.0
 76
     0
330
1F
331
29
  0
MLINESTYLE
  5
18
102
{ACAD_REACTORS
330
17
102
}
330
17
100
AcDbMlineStyle
  2
Standard
 70
     0
  3

 62
   256
 51
90.0
 52
90.0
 71
     2
 49
0.5
 62
   256
  6
BYLAYER
 49
-0.5
 62
   256
  6
BYLAYER
  0
ACDBPLACEHOLDER
  5
F
102
{ACAD_REACTORS
330
E
102
}
330
E
  0
VISUALSTYLE
  5
2F
102
{ACAD_REACTORS
330
2A
102
}
330
2A
100
AcDbVisualStyle
  2
2dWireframe
 70
     4
 71
     0
 72
     2
 73
     0
 90
        0
 40
-0.6
 41
-30.0
 62
     5
 63
     7
 74
     1
 91
        4
 64
     7
 65
   257
 75
     1
175
     1
 42
1.0
 92
        0
 66
   257
 43
1.0
 76
     1
 77
     6
 78
     2
 67
     7
 79
     5
170
     0
171
     0
290
     0
174
     0
 93
        1
 44
0.0
173
     0
291
     0
 45
0.0
1001
ACAD
1000
AcDbSavedByObjectVersion
1070
     0
  0
VISUALSTYLE
  5
31
102
{ACAD_REACTORS
330
2A
102
}
330
2A
100
AcDbVisualStyle
  2
3D Hidden
 70
     6
 71
     1
 72
     2
 73
     2
 90
        0
 40
-0.6
 41
-30.0
 62
     5
 63
     7
 74
     2
 91
        2
 64
     7
 65
   257
 75
     2
175
     1
 42
40.0
 92
        0
 66
   257
 43
1.0
 76
     1
 77
     6
 78
     2
 67
     7
 79
     3
170
     0
171
     0
290
     0
174
     0
 93
        1
 44
0.0
173
     0
291
     0
 45
0.0
1001
ACAD
1000
AcDbSavedByObjectVersion
1070
     0
  0
VISUALSTYLE
  5
30
102
{ACAD_REACTORS
330
2A
102
}
330
2A
100
AcDbVisualStyle
  2
3dWireframe
 70
     5
 71
     0
 72
     2
 73
     0
 90
        0
 40
-0.6
 41
-30.0
 62
     5
 63
     7
 74
     1
 91
        4
 64
     7
 65
   257
 75
     1
175
     1
 42
1.0
 92
        0
 66
   257
 43
1.0
 76
     1
 77
     6
 78
     2
 67
     7
 79
     5
170
     0
171
     0
290
     0
174
     0
 93
        1
 44
0.0
173
     0
291
     0
 45
0.0
1001
ACAD
1000
AcDbSavedByObjectVersion
1070
     0
  0
VISUALSTYLE
  5
32
102
{ACAD_REACTORS
330
2A
102
}
330
2A
100
AcDbVisualStyle
  2
Basic
 70
     7
 71
     1
 72
     0
 73
     1
 90
        0
 40
-0.6
 41
-30.0
 62
     5
 63
     7
 74
     0
 91
        4
 64
     7
 65
   257
 75
     1
175
     1
 42
1.0
 92
        8
 66
     7
 43
1.0
 76
     1
 77
     6
 78
     2
 67
     7
 79
     5
170
     0
171
     0
290
     0
174
     0
 93
        1
 44
0.0
173
     0
291
     1
 45
0.0
1001
ACAD
1000
AcDbSavedByObjectVersion
1070
     0
  0
VISUALSTYLE
  5
36
102
{ACAD_REACTORS
330
2A
102
}
330
2A
100
AcDbVisualStyle
  2
Brighten
 70
    12
 71
     2
 72
     2
 73
     0
 90
        0
 40
-0.6
 41
-30.0
 62
     5
 63
     7
 74
     1
 91
        4
 64
     7
 65
   257
 75
     1
175
     1
 42
1.0
 92
        8
 66
     7
 43
1.0
 76
     1
 77
     6
 78
     2
 67
     7
 79
     5
170
     0
171
     0
290
     0
174
     0
 93
        1
 44
50.0
173
     0
291
     1
 45
0.0
1001
ACAD
1000
AcDbSavedByObjectVersion
1070
     0
  0
VISUALSTYLE
  5
3A
102
{ACAD_REACTORS
330
2A
102
}
330
2A
100
AcDbVisualStyle
  2
ColorChange
 70
    16
 71
     2
 72
     2
 73
     3
 90
        0
 40
-0.6
 41
-30.0
 62
     5
 63
     8
 74
     1
 91
        4
 64
     7
 65
   257
 75
     1
175
     1
 42
1.0
 92
        8
 66
     8
 43
1.0
 76
     1
 77
     6
 78
     2
 67
     7
 79
     5
170
     0
171
     0
290
     0
174
     0
 93
        1
 44
0.0
173
     0
291
     1
 45
0.0
1001
ACAD
1000
AcDbSavedByObjectVersion
1070
     0
  0
VISUALSTYLE
  5
34
102
{ACAD_REACTORS
330
2A
102
}
330
2A
100
AcDbVisualStyle
  2
Conceptual
 70
     9
 71
     3
 72
     2
 73
     0
 90
        0
 40
-0.6
 41
-30.0
 62
     5
 63
     7
 74
     2
 91
        2
 64
     7
 65
   257
 75
     1
175
     1
 42
40.0
 92
        8
 66
     7
 43
1.0
 76
     1
 77
     6
 78
     2
 67
     7
 79
     3
170
     0
171
     0
290
     0
174
     0
 93
        1
 44
0.0
173
     0
291
     0
 45
0.0
1001
ACAD
1000
AcDbSavedByObjectVersion
1070
     0
  0
VISUALSTYLE
  5
35
102
{ACAD_REACTORS
330
2A
102
}
330
2A
100
AcDbVisualStyle
  2
Dim
 70
    11
 71
     2
 72
     2
 73
     0
 90
        0
 40
-0.6
 41
-30.0
 62
     5
 63
     7
 74
     1
 91
        4
 64
     7
 65
   257
 75
     1
175
     1
 42
1.0
 92
        8
 66
     7
 43
1.0
 76
     1
 77
     6
 78
     2
 67
     7
 79
     5
170
     0
171
     0
290
     0
174
     0
 93
        1
 44
-50.0
173
     0
291
     1
 45
0.0
1001
ACAD
1000
AcDbSavedByObjectVersion
1070
     0
  0
VISUALSTYLE
  5
39
102
{ACAD_REACTORS
330
2A
102
}
330
2A
100
AcDbVisualStyle
  2
Facepattern
 70
    15
 71
     2
 72
     2
 73
     0
 90
        0
 40
-0.6
 41
-30.0
 62
     5
 63
     7
 74
     1
 91
        4
 64
     7
 65
   257
 75
     1
175
     1
 42
1.0
 92
        8
 66
     7
 43
1.0
 76
     1
 77
     6
 78
     2
 67
     7
 79
     5
170
     0
171
     0
290
     0
174
     0
 93
        1
 44
0.0
173
     0
291
     1
 45
0.0
1001
ACAD
1000
AcDbSavedByObjectVersion
1070
     0
  0
VISUALSTYLE
  5
2B
102
{ACAD_REACTORS
330
2A
102
}
330
2A
100
AcDbVisualStyle
  2
Flat
 70
     0
 71
     2
 72
     1
 73
     1
 90
        2
 40
-0.6
 41
30.0
 62
     5
 63
     7
 74
     0
 91
        4
 64
     7
 65
   257
 75
     1
175
     1
 42
1.0
 92
        8
 66
     7
 43
1.0
 76
     1
 77
     6
 78
     2
 67
     7
 79
     5
170
     0
171
     0
290
     0
174
     0
 93
       13
 44
0.0
173
     0
291
     1
 45
0.0
1001
ACAD
1000
AcDbSavedByObjectVersion
1070
     0
  0
VISUALSTYLE
  5
2C
102
{ACAD_REACTORS
330
2A
102
}
330
2A
100
AcDbVisualStyle
  2
FlatWithEdges
 70
     1
 71
     2
 72
     1
 73
     1
 90
        2
 40
-0.6
 41
30.0
 62
     5
 63
     7
 74
     1
 91
        4
 64
     7
 65
   257
 75
     1
175
     1
 42
1.0
 92
        0
 66
   257
 43
1.0
 76
     1
 77
     6
 78
     2
 67
     7
 79
     5
170
     0
171
     0
290
     0
174
     0
 93
       13
 44
0.0
173
     0
291
     1
 45
0.0
1001
ACAD
1000
AcDbSavedByObjectVersion
1070
     0
  0
VISUALSTYLE
  5
2D
102
{ACAD_REACTORS
330
2A
102
}
330
2A
100
AcDbVisualStyle
  2
Gouraud
 70
     2
 71
     2
 72
     2
 73
     1
 90
        2
 40
-0.6
 41
30.0
 62
     5
 63
     7
 74
     0
 91
        4
 64
     7
 65
   257
 75
     1
175
     1
 42
1.0
 92
        0
 66
     7
 43
1.0
 76
     1
 77
     6
 78
     2
 67
     7
 79
     5
170
     0
171
     0
290
     0
174
     0
 93
       13
 44
0.0
173
     0
291
     1
 45
0.0
1001
ACAD
1000
AcDbSavedByObjectVersion
1070
     0
  0
VISUALSTYLE
  5
2E
102
{ACAD_REACTORS
330
2A
102
}
330
2A
100
AcDbVisualStyle
  2
GouraudWithEdges
 70
     3
 71
     2
 72
     2
 73
     1
 90
        2
 40
-0.6
 41
30.0
 62
     5
 63
     7
 74
     1
 91
        4
 64
     7
 65
   257
 75
     1
175
     1
 42
1.0
 92
        0
 66
   257
 43
1.0
 76
     1
 77
     6
 78
     2
 67
     7
 79
     5
170
     0
171
     0
290
     0
174
     0
 93
       13
 44
0.0
173
     0
291
     1
 45
0.0
1001
ACAD
1000
AcDbSavedByObjectVersion
1070
     0
  0
VISUALSTYLE
  5
38
102
{ACAD_REACTORS
330
2A
102
}
330
2A
100
AcDbVisualStyle
  2
Linepattern
 70
    14
 71
     2
 72
     2
 73
     0
 90
        0
 40
-0.6
 41
-30.0
 62
     5
 63
     7
 74
     1
 91
        4
 64
     7
 65
   257
 75
     7
175
     7
 42
1.0
 92
        8
 66
     7
 43
1.0
 76
     1
 77
     6
 78
     2
 67
     7
 79
     5
170
     0
171
     0
290
     0
174
     0
 93
        1
 44
0.0
173
     0
291
     1
 45
0.0
1001
ACAD
1000
AcDbSavedByObjectVersion
1070
     0
  0
VISUALSTYLE
  5
33
102
{ACAD_REACTORS
330
2A
102
}
330
2A
100
AcDbVisualStyle
  2
Realistic
 70
     8
 71
     2
 72
     2
 73
     0
 90
        0
 40
-0.6
 41
-30.0
 62
     5
 63
     7
 74
     1
 91
        0
 64
     7
 65
   257
 75
     1
175
     1
 42
1.0
 92
        8
 66
     8
 43
1.0
 76
     1
 77
     6
 78
     2
 67
     7
 79
     5
170
     0
171
     0
290
     0
174
     0
 93
       13
 44
0.0
173
     0
291
     0
 45
0.0
1001
ACAD
1000
AcDbSavedByObjectVersion
1070
     0
  0
VISUALSTYLE
  5
37
102
{ACAD_REACTORS
330
2A
102
}
330
2A
100
AcDbVisualStyle
  2
Thicken
 70
    13
 71
     2
 72
     2
 73
     0
 90
        0
 40
-0.6
 41
-30.0
 62
     5
 63
     7
 74
     1
 91
        4
 64
     7
 65
   257
 75
     1
175
     1
 42
1.0
 92
       12
 66
     7
 43
1.0
 76
     1
 77
     6
 78
     2
 67
     7
 79
     5
170
     0
171
     0
290
     0
174
     0
 93
        1
 44
0.0
173
     0
291
     1
 45
0.0
1001
ACAD
1000
AcDbSavedByObjectVersion
1070
     0
  0
DICTIONARYVAR
  5
282
102
{ACAD_REACTORS
330
280
102
}
330
280
100
DictionaryVariables
280
     0
  1
80.000000
  0
DICTIONARYVAR
  5
281
102
{ACAD_REACTORS
330
280
102
}
330
280
100
DictionaryVariables
280
     0
  1
5.000000
  0
ENDSEC
  0
EOF
