  0
SECTION
  2
HEADER
  9
$ACADVER
  1
AC1015
  9
$ACADMAINTVER
 70
     6
  9
$DWGCODEPAGE
  3
DOS932
  9
$INSBASE
 10
0.0
 20
0.0
 30
0.0
  9
$EXTMIN
 10
0.0
 20
0.0
 30
0.0
  9
$EXTMAX
 10
841.0
 20
594.0
 30
0.0
  9
$LIMMIN
 10
0.0
 20
0.0
  9
$LIMMAX
 10
841.0
 20
594.0
  9
$ORTHOMODE
 70
     0
  9
$REGENMODE
 70
     1
  9
$FILLMODE
 70
     1
  9
$QTEXTMODE
 70
     0
  9
$MIRRTEXT
 70
     1
  9
$LTSCALE
 40
1.0
  9
$ATTMODE
 70
     1
  9
$TEXTSIZE
 40
3.5
  9
$TRACEWID
 40
1.0
  9
$TEXTSTYLE
  7
Standard
  9
$CLAYER
  8
0
  9
$CELTYPE
  6
ByLayer
  9
$CECOLOR
 62
   256
  9
$CELTSCALE
 40
1.0
  9
$DISPSILH
 70
     0
  9
$DIMSCALE
 40
1.0
  9
$DIMASZ
 40
3.8637032976
  9
$DIMEXO
 40
1.0
  9
$DIMDLI
 40
3.75
  9
$DIMRND
 40
0.0
  9
$DIMDLE
 40
0.0
  9
$DIMEXE
 40
1.0
  9
$DIMTP
 40
0.0
  9
$DIMTM
 40
0.0
  9
$DIMTXT
 40
2.7999999523
  9
$DIMCEN
 40
2.5
  9
$DIMTSZ
 40
0.0
  9
$DIMTOL
 70
     0
  9
$DIMLIM
 70
     0
  9
$DIMTIH
 70
     1
  9
$DIMTOH
 70
     1
  9
$DIMSE1
 70
     0
  9
$DIMSE2
 70
     0
  9
$DIMTAD
 70
     1
  9
$DIMZIN
 70
     1
  9
$DIMBLK
  1

  9
$DIMASO
 70
     1
  9
$DIMSHO
 70
     1
  9
$DIMPOST
  1

  9
$DIMAPOST
  1

  9
$DIMALT
 70
     0
  9
$DIMALTD
 70
     3
  9
$DIMALTF
 40
0.0393700787
  9
$DIMLFAC
 40
1.0
  9
$DIMTOFL
 70
     1
  9
$DIMTVP
 40
0.0
  9
$DIMTIX
 70
     0
  9
$DIMSOXD
 70
     0
  9
$DIMSAH
 70
     0
  9
$DIMBLK1
  1

  9
$DIMBLK2
  1

  9
$DIMSTYLE
  2
ISO-25
  9
$DIMCLRD
 70
     0
  9
$DIMCLRE
 70
     0
  9
$DIMCLRT
 70
     0
  9
$DIMTFAC
 40
1.0
  9
$DIMGAP
 40
1.524
  9
$DIMJUST
 70
     0
  9
$DIMSD1
 70
     0
  9
$DIMSD2
 70
     0
  9
$DIMTOLJ
 70
     0
  9
$DIMTZIN
 70
     1
  9
$DIMALTZ
 70
     0
  9
$DIMALTTZ
 70
     0
  9
$DIMUPT
 70
     0
  9
$DIMDEC
 70
     2
  9
$DIMTDEC
 70
     2
  9
$DIMALTU
 70
     2
  9
$DIMALTTD
 70
     3
  9
$DIMTXSTY
  7
Standard
  9
$DIMAUNIT
 70
     0
  9
$DIMADEC
 70
     0
  9
$DIMALTRND
 40
0.0
  9
$DIMAZIN
 70
     0
  9
$DIMDSEP
 70
    44
  9
$DIMATFIT
 70
     3
  9
$DIMFRAC
 70
     0
  9
$DIMLDRBLK
  1

  9
$DIMLUNIT
 70
     2
  9
$DIMLWD
 70
    -2
  9
$DIMLWE
 70
    -2
  9
$DIMTMOVE
 70
     0
  9
$LUNITS
 70
     2
  9
$LUPREC
 70
     3
  9
$SKETCHINC
 40
1.0
  9
$FILLETRAD
 40
10.0
  9
$AUNITS
 70
     0
  9
$AUPREC
 70
     0
  9
$MENU
  1
.
  9
$ELEVATION
 40
0.0
  9
$PELEVATION
 40
0.0
  9
$THICKNESS
 40
0.0
  9
$LIMCHECK
 70
     0
  9
$CHAMFERA
 40
10.0
  9
$CHAMFERB
 40
10.0
  9
$CHAMFERC
 40
20.0
  9
$CHAMFERD
 40
0.0
  9
$SKPOLY
 70
     0
  9
$TDCREATE
 40
2456413.917611933
  9
$TDUCREATE
 40
2456413.542611933
  9
$TDUPDATE
 40
2456413.917611944
  9
$TDUUPDATE
 40
2456413.542611944
  9
$TDINDWG
 40
0.0000000116
  9
$TDUSRTIMER
 40
0.0000000116
  9
$USRTIMER
 70
     1
  9
$ANGBASE
 50
0.0
  9
$ANGDIR
 70
     0
  9
$PDMODE
 70
     0
  9
$PDSIZE
 40
-1.0
  9
$PLINEWID
 40
0.0
  9
$SPLFRAME
 70
     0
  9
$SPLINETYPE
 70
     6
  9
$SPLINESEGS
 70
     8
  9
$HANDSEED
  5
27F
  9
$SURFTAB1
 70
     6
  9
$SURFTAB2
 70
     6
  9
$SURFTYPE
 70
     6
  9
$SURFU
 70
     6
  9
$SURFV
 70
     6
  9
$UCSBASE
  2

  9
$UCSNAME
  2

  9
$UCSORG
 10
0.0
 20
0.0
 30
0.0
  9
$UCSXDIR
 10
1.0
 20
0.0
 30
0.0
  9
$UCSYDIR
 10
0.0
 20
1.0
 30
0.0
  9
$UCSORTHOREF
  2

  9
$UCSORTHOVIEW
 70
     0
  9
$UCSORGTOP
 10
0.0
 20
0.0
 30
0.0
  9
$UCSORGBOTTOM
 10
0.0
 20
0.0
 30
0.0
  9
$UCSORGLEFT
 10
0.0
 20
0.0
 30
0.0
  9
$UCSORGRIGHT
 10
0.0
 20
0.0
 30
0.0
  9
$UCSORGFRONT
 10
0.0
 20
0.0
 30
0.0
  9
$UCSORGBACK
 10
0.0
 20
0.0
 30
0.0
  9
$PUCSBASE
  2

  9
$PUCSNAME
  2

  9
$PUCSORG
 10
0.0
 20
0.0
 30
0.0
  9
$PUCSXDIR
 10
1.0
 20
0.0
 30
0.0
  9
$PUCSYDIR
 10
0.0
 20
1.0
 30
0.0
  9
$PUCSORTHOREF
  2

  9
$PUCSORTHOVIEW
 70
     0
  9
$PUCSORGTOP
 10
0.0
 20
0.0
 30
0.0
  9
$PUCSORGBOTTOM
 10
0.0
 20
0.0
 30
0.0
  9
$PUCSORGLEFT
 10
0.0
 20
0.0
 30
0.0
  9
$PUCSORGRIGHT
 10
0.0
 20
0.0
 30
0.0
  9
$PUCSORGFRONT
 10
0.0
 20
0.0
 30
0.0
  9
$PUCSORGBACK
 10
0.0
 20
0.0
 30
0.0
  9
$USERI1
 70
     0
  9
$USERI2
 70
     0
  9
$USERI3
 70
     0
  9
$USERI4
 70
     0
  9
$USERI5
 70
     0
  9
$USERR1
 40
0.0
  9
$USERR2
 40
0.0
  9
$USERR3
 40
0.0
  9
$USERR4
 40
0.0
  9
$USERR5
 40
0.0
  9
$WORLDVIEW
 70
     1
  9
$SHADEDGE
 70
     3
  9
$SHADEDIF
 70
    70
  9
$TILEMODE
 70
     1
  9
$MAXACTVP
 70
    64
  9
$PINSBASE
 10
0.0
 20
0.0
 30
0.0
  9
$PLIMCHECK
 70
     0
  9
$PEXTMIN
 10
1.0000000000E+20
 20
1.0000000000E+20
 30
1.0000000000E+20
  9
$PEXTMAX
 10
-1.0000000000E+20
 20
-1.0000000000E+20
 30
-1.0000000000E+20
  9
$PLIMMIN
 10
0.0
 20
0.0
  9
$PLIMMAX
 10
420.0
 20
297.0
  9
$UNITMODE
 70
     0
  9
$VISRETAIN
 70
     1
  9
$PLINEGEN
 70
     0
  9
$PSLTSCALE
 70
     1
  9
$TREEDEPTH
 70
  3020
  9
$CMLSTYLE
  2
Standard
  9
$CMLJUST
 70
     0
  9
$CMLSCALE
 40
20.0
  9
$PROXYGRAPHICS
 70
     1
  9
$MEASUREMENT
 70
     1
  9
$CELWEIGHT
370
    -1
  9
$ENDCAPS
280
     0
  9
$JOINSTYLE
280
     0
  9
$LWDISPLAY
290
     1
  9
$INSUNITS
 70
     4
  9
$HYPERLINKBASE
  1

  9
$STYLESHEET
  1

  9
$XEDIT
290
     1
  9
$CEPSNTYPE
380
     0
  9
$PSTYLEMODE
290
     1
  9
$FINGERPRINTGUID
  2
{E86D1A35-12F9-4D7E-B1A8-A2A81BFA545D}
  9
$VERSIONGUID
  2
{FAEB1C32-E019-11D5-929B-00C0DF256EC4}
  9
$EXTNAMES
290
     1
  9
$PSVPSCALE
 40
0.0
  9
$OLESTARTUP
290
     0
  0
ENDSEC
  0
SECTION
  2
CLASSES
  0
CLASS
  1
ACDBDICTIONARYWDFLT
  2
AcDbDictionaryWithDefault
  3
ObjectDBX Classes
 90
        0
280
     0
281
     0
  0
CLASS
  1
VISUALSTYLE
  2
AcDbVisualStyle
  3
ObjectDBX Classes
 90
     4095
280
     0
281
     0
  0
CLASS
  1
DICTIONARYVAR
  2
AcDbDictionaryVar
  3
ObjectDBX Classes
 90
        0
280
     0
281
     0
  0
CLASS
  1
ACDBPLACEHOLDER
  2
AcDbPlaceHolder
  3
ObjectDBX Classes
 90
        0
280
     0
281
     0
  0
CLASS
  1
LAYOUT
  2
AcDbLayout
  3
ObjectDBX Classes
 90
        0
280
     0
281
     0
  0
ENDSEC
  0
SECTION
  2
TABLES
  0
TABLE
  2
VPORT
  5
8
330
0
100
AcDbSymbolTable
 70
     1
  0
VPORT
  5
29
330
8
100
AcDbSymbolTableRecord
100
AcDbViewportTableRecord
  2
*Active
 70
     0
 10
0.0
 20
0.0
 11
1.0
 21
1.0
 12
420.5
 22
297.0
 13
0.0
 23
0.0
 14
10.0
 24
10.0
 15
10.0
 25
10.0
 16
0.0
 26
0.0
 36
1.0
 17
0.0
 27
0.0
 37
0.0
 40
594.0
 41
1.4158249158
 42
50.0
 43
0.0
 44
0.0
 50
0.0
 51
0.0
 71
     0
 72
  2000
 73
     1
 74
     3
 75
     0
 76
     0
 77
     0
 78
     0
281
     0
 65
     1
110
0.0
120
0.0
130
0.0
111
1.0
121
0.0
131
0.0
112
0.0
122
1.0
132
0.0
 79
     0
146
0.0
  0
ENDTAB
  0
TABLE
  2
LTYPE
  5
5
330
0
100
AcDbSymbolTable
 70
     6
  0
LTYPE
  5
14
330
5
100
AcDbSymbolTableRecord
100
AcDbLinetypeTableRecord
  2
ByBlock
 70
     0
  3

 72
    65
 73
     0
 40
0.0
  0
LTYPE
  5
15
330
5
100
AcDbSymbolTableRecord
100
AcDbLinetypeTableRecord
  2
ByLayer
 70
     0
  3

 72
    65
 73
     0
 40
0.0
  0
LTYPE
  5
16
330
5
100
AcDbSymbolTableRecord
100
AcDbLinetypeTableRecord
  2
Continuous
 70
     0
  3
Solid line
 72
    65
 73
     0
 40
0.0
  0
LTYPE
  5
3B
330
5
100
AcDbSymbolTableRecord
100
AcDbLinetypeTableRecord
  2
HIDDEN
 70
     0
  3
Hidden __ __ __ __ __ __ __ __ __ __ __ __ __ __
 72
    65
 73
     2
 40
1.905
 49
1.27
 74
     0
 49
-0.635
 74
     0
  0
LTYPE
  5
3C
330
5
100
AcDbSymbolTableRecord
100
AcDbLinetypeTableRecord
  2
PHANTOM
 70
     0
  3
Phantom ______  __  __  ______  __  __  ______
 72
    65
 73
     6
 40
12.7
 49
6.35
 74
     0
 49
-1.27
 74
     0
 49
1.27
 74
     0
 49
-1.27
 74
     0
 49
1.27
 74
     0
 49
-1.27
 74
     0
  0
LTYPE
  5
3D
330
5
100
AcDbSymbolTableRecord
100
AcDbLinetypeTableRecord
  2
CENTER
 70
     0
  3
Center ____ _ ____ _ ____ _ ____ _ ____ _ ____
 72
    65
 73
     4
 40
10.16
 49
6.35
 74
     0
 49
-1.27
 74
     0
 49
1.27
 74
     0
 49
-1.27
 74
     0
  0
LTYPE
  5
3E
330
5
100
AcDbSymbolTableRecord
100
AcDbLinetypeTableRecord
  2
CENTERX2
 70
     0
  3
Center (2x) ________  __  ________  __  _____
 72
    65
 73
     4
 40
20.32
 49
12.7
 74
     0
 49
-2.54
 74
     0
 49
2.54
 74
     0
 49
-2.54
 74
     0
  0
LTYPE
  5
3F
330
5
100
AcDbSymbolTableRecord
100
AcDbLinetypeTableRecord
  2
DOT2
 70
     0
  3
Dot (.5x) ........................................
 72
    65
 73
     2
 40
0.635
 49
0.0
 74
     0
 49
-0.635
 74
     0
  0
ENDTAB
  0
TABLE
  2
LAYER
  5
2
330
0
100
AcDbSymbolTable
 70
     4
  0
LAYER
  5
10
330
2
100
AcDbSymbolTableRecord
100
AcDbLayerTableRecord
  2
0
 70
     0
 62
     7
  6
Continuous
370
    -3
390
F
  0
LAYER
  5
40
330
2
100
AcDbSymbolTableRecord
100
AcDbLayerTableRecord
  2
SLD-0
 70
     0
 62
     3
  6
Continuous
370
    -3
390
F
  0
LAYER
  5
41
330
2
100
AcDbSymbolTableRecord
100
AcDbLayerTableRecord
  2
SLD-DEFPOINTS
 70
     0
 62
   179
  6
Continuous
370
    -3
390
F
  0
LAYER
  5
42
330
2
100
AcDbSymbolTableRecord
100
AcDbLayerTableRecord
  2
AM_REFDIM
 70
     0
 62
     4
  6
Continuous
370
    15
390
F
  0
ENDTAB
  0
TABLE
  2
STYLE
  5
3
330
0
100
AcDbSymbolTable
 70
     1
  0
STYLE
  5
11
330
3
100
AcDbSymbolTableRecord
100
AcDbTextStyleTableRecord
  2
Standard
 70
     0
 40
0.0
 41
1.0
 50
0.0
 71
     0
 42
2.5
  3
txt
  4
bigfont
  0
ENDTAB
  0
TABLE
  2
VIEW
  5
6
330
0
100
AcDbSymbolTable
 70
     0
  0
ENDTAB
  0
TABLE
  2
UCS
  5
7
330
0
100
AcDbSymbolTable
 70
     0
  0
ENDTAB
  0
TABLE
  2
APPID
  5
9
330
0
100
AcDbSymbolTable
 70
     1
  0
APPID
  5
12
330
9
100
AcDbSymbolTableRecord
100
AcDbRegAppTableRecord
  2
ACAD
 70
     0
  0
ENDTAB
  0
TABLE
  2
DIMSTYLE
  5
A
330
0
100
AcDbSymbolTable
 70
     1
100
AcDbDimStyleTable
  0
DIMSTYLE
105
27
330
A
100
AcDbSymbolTableRecord
100
AcDbDimStyleTableRecord
  2
ISO-25
 70
     0
 41
2.5
 42
0.625
 43
3.75
 44
1.25
 73
     0
 74
     0
 77
     1
 78
     8
140
2.5
141
2.5
143
0.0393700787
147
0.625
171
     3
172
     1
271
     2
272
     2
274
     3
278
    44
283
     0
284
     8
340
11
  0
ENDTAB
  0
TABLE
  2
BLOCK_RECORD
  5
1
330
0
100
AcDbSymbolTable
 70
     1
  0
BLOCK_RECORD
  5
1F
330
1
100
AcDbSymbolTableRecord
100
AcDbBlockTableRecord
  2
*Model_Space
340
22
  0
BLOCK_RECORD
  5
1B
330
1
100
AcDbSymbolTableRecord
100
AcDbBlockTableRecord
  2
*Paper_Space
340
1E
  0
BLOCK_RECORD
  5
23
330
1
100
AcDbSymbolTableRecord
100
AcDbBlockTableRecord
  2
*Paper_Space0
340
26
  0
ENDTAB
  0
ENDSEC
  0
SECTION
  2
BLOCKS
  0
BLOCK
  5
20
330
1F
100
AcDbEntity
  8
0
100
AcDbBlockBegin
  2
*Model_Space
 70
     0
 10
0.0
 20
0.0
 30
0.0
  3
*Model_Space
  1

  0
ENDBLK
  5
21
330
1F
100
AcDbEntity
  8
0
100
AcDbBlockEnd
  0
BLOCK
  5
1C
330
1B
100
AcDbEntity
 67
     1
  8
0
100
AcDbBlockBegin
  2
*Paper_Space
 70
     0
 10
0.0
 20
0.0
 30
0.0
  3
*Paper_Space
  1

  0
ENDBLK
  5
1D
330
1B
100
AcDbEntity
 67
     1
  8
0
100
AcDbBlockEnd
  0
BLOCK
  5
24
330
23
100
AcDbEntity
  8
0
100
AcDbBlockBegin
  2
*Paper_Space0
 70
     0
 10
0.0
 20
0.0
 30
0.0
  3
*Paper_Space0
  1

  0
ENDBLK
  5
25
330
23
100
AcDbEntity
  8
0
100
AcDbBlockEnd
  0
ENDSEC
  0
SECTION
  2
ENTITIES
  0
LINE
  5
43
330
1F
100
AcDbEntity
  8
0
  6
Continuous
 62
     7
370
    15
100
AcDbLine
 10
192.400535841
 20
208.5442053057
 30
0.0
 11
192.400535841
 21
211.4979470052
 31
0.0
  0
LINE
  5
44
330
1F
100
AcDbEntity
  8
0
  6
Continuous
 62
     7
370
    15
100
AcDbLine
 10
172.4005325628
 20
211.4979470052
 30
0.0
 11
172.4005325628
 21
208.5442053057
 31
0.0
  0
ARC
  5
45
330
1F
100
AcDbEntity
  8
0
  6
Continuous
 62
     7
370
    15
100
AcDbCircle
 10
190.8659903867
 20
205.8080417973
 30
0.0
 40
2.210905486765874
100
AcDbArc
 50
119.4462601958
 51
185.5256677624
  0
ARC
  5
46
330
1F
100
AcDbEntity
  8
0
  6
Continuous
 62
     7
370
    15
100
AcDbCircle
 10
173.7264183985
 20
205.6812288172
 30
0.0
 40
2.425809378827248
100
AcDbArc
 50
357.8556059064
 51
58.1202777866
  0
LWPOLYLINE
  5
47
330
1F
100
AcDbEntity
  8
0
  6
Continuous
 62
     7
370
    15
100
AcDbPolyline
 90
        6
 70
   128
 43
0.0
 10
186.8005304528
 20
203.0763583161
 10
187.6076145959
 20
203.3197725095
 10
188.0816056323
 20
203.5740682759
 10
188.4312092257
 20
203.921321211
 10
188.6357872677
 20
204.4213892795
 10
188.6217950773
 20
204.6035038211
  0
LWPOLYLINE
  5
48
330
1F
100
AcDbEntity
  8
0
  6
Continuous
 62
     7
370
    15
100
AcDbPolyline
 90
        6
 70
   128
 43
0.0
 10
176.1505289865
 20
204.605876831
 10
176.2945859623
 20
204.0430823244
 10
176.5616818261
 20
203.7022815921
 10
176.9181027007
 20
203.4499229767
 10
177.4541719747
 20
203.2242821433
 10
178.0005305004
 20
203.0875937917
  0
LINE
  5
49
330
1F
100
AcDbEntity
  8
0
  6
Continuous
 62
     7
370
    15
100
AcDbLine
 10
188.6505319667
 20
204.605876831
 30
0.0
 11
188.6505319667
 21
205.590459881
 31
0.0
  0
LINE
  5
4A
330
1F
100
AcDbEntity
  8
0
  6
Continuous
 62
     7
370
    15
100
AcDbLine
 10
176.1505289865
 20
205.590459881
 30
0.0
 11
176.1505289865
 21
204.605876831
 31
0.0
  0
LINE
  5
4B
330
1F
100
AcDbEntity
  8
0
  6
Continuous
 62
     7
370
    15
100
AcDbLine
 10
186.8005304528
 20
198.6983897068
 30
0.0
 11
186.8005304528
 21
203.6212975063
 31
0.0
  0
LINE
  5
4C
330
1F
100
AcDbEntity
  8
0
  6
Continuous
 62
     7
370
    15
100
AcDbLine
 10
178.0005305004
 20
203.6212975063
 30
0.0
 11
178.0005305004
 21
198.6983897068
 31
0.0
  0
ARC
  5
4D
330
1F
100
AcDbEntity
  8
0
  6
Continuous
 62
     7
370
    15
100
AcDbCircle
 10
197.4005325628
 20
260.2681549658
 30
0.0
 40
5.600000000000023
100
AcDbArc
 50
0.0
 51
90.0
  0
ARC
  5
4E
330
1F
100
AcDbEntity
  8
0
  6
Continuous
 62
     7
370
    15
100
AcDbCircle
 10
151.4005325628
 20
260.2681549658
 30
0.0
 40
5.600000000000023
100
AcDbArc
 50
90.0
 51
180.0
  0
LINE
  5
4F
330
1F
100
AcDbEntity
  8
0
  6
Continuous
 62
     7
370
    15
100
AcDbLine
 10
197.4005310726
 20
265.8681547173
 30
0.0
 11
151.4005347085
 21
265.8681547173
 31
0.0
  0
LINE
  5
50
330
1F
100
AcDbEntity
  8
0
  6
Continuous
 62
     7
370
    15
100
AcDbLine
 10
242.4005328608
 20
371.4868420638
 30
0.0
 11
237.4005339039
 21
371.4868420638
 31
0.0
  0
LINE
  5
51
330
1F
100
AcDbEntity
  8
0
  6
Continuous
 62
     7
370
    15
100
AcDbLine
 10
217.4005343509
 20
371.4868420638
 30
0.0
 11
182.4005304766
 21
371.4868420638
 31
0.0
  0
LINE
  5
52
330
1F
100
AcDbEntity
  8
0
  6
Continuous
 62
     7
370
    15
100
AcDbLine
 10
182.4005304766
 20
323.4868490972
 30
0.0
 11
217.4005343509
 21
323.4868490972
 31
0.0
  0
LINE
  5
53
330
1F
100
AcDbEntity
  8
0
  6
Continuous
 62
     7
370
    15
100
AcDbLine
 10
237.4005339039
 20
323.4868490972
 30
0.0
 11
242.4005328608
 21
323.4868490972
 31
0.0
  0
LINE
  5
54
330
1F
100
AcDbEntity
  8
0
  6
Continuous
 62
     7
370
    15
100
AcDbLine
 10
277.4005330098
 20
369.9868464746
 30
0.0
 11
242.4005328608
 21
369.9868464746
 31
0.0
  0
LINE
  5
55
330
1F
100
AcDbEntity
  8
0
  6
Continuous
 62
     7
370
    15
100
AcDbLine
 10
242.4005328608
 20
324.986852137
 30
0.0
 11
277.4005330098
 21
324.986852137
 31
0.0
  0
LINE
  5
56
330
1F
100
AcDbEntity
  8
0
  6
Continuous
 62
     7
370
    15
100
AcDbLine
 10
237.4005339039
 20
371.9368422307
 30
0.0
 11
217.4005343509
 21
371.9368422307
 31
0.0
  0
LWPOLYLINE
  5
57
330
1F
100
AcDbEntity
  8
0
  6
Continuous
 62
     7
370
    15
100
AcDbPolyline
 90
       16
 70
   128
 43
0.0
 10
398.7885846687
 20
226.6048969604
 10
398.4958960605
 20
233.1351287566
 10
398.198185761
 20
239.1682862208
 10
397.9013099265
 20
244.6048512493
 10
397.614276309
 20
249.3839830995
 10
397.3496614886
 20
253.4650772713
 10
397.1180601907
 20
256.8307503961
 10
396.8962340546
 20
259.8990885444
 10
396.6606913996
 20
263.0035536267
 10
396.3253109646
 20
267.1644160427
 10
395.9657608462
 20
271.2998719789
 10
395.5746277166
 20
275.4287844427
 10
395.233093102
 20
278.7316659369
 10
394.8449327541
 20
282.1557106354
 10
394.409751792
 20
285.5863714494
 10
393.9284442854
 20
288.8793567099
  0
LWPOLYLINE
  5
58
330
1F
100
AcDbEntity
  8
0
  6
Continuous
 62
     7
370
    15
100
AcDbPolyline
 90
       11
 70
   128
 43
0.0
 10
400.600670178
 20
186.2722592332
 10
400.6008191896
 20
186.2772175946
 10
400.4877119255
 20
187.956269262
 10
400.3452717257
 20
190.1371547856
 10
400.0577165675
 20
195.2032254912
 10
399.8657896114
 20
199.0382106878
 10
399.6698542428
 20
203.188411323
 10
399.4729801011
 20
207.8436346628
 10
399.2783932877
 20
213.1788166143
 10
399.0664838743
 20
219.3478973486
 10
398.7955882144
 20
226.5216609366
  0
ARC
  5
59
330
1F
100
AcDbEntity
  8
0
  6
Continuous
 62
     7
370
    15
100
AcDbCircle
 10
404.3217817067
 20
563.3069236559
 30
0.0
 40
258.8501375469794
100
AcDbArc
 50
265.4751087176
 51
267.0232273894
  0
LINE
  5
5A
330
1F
100
AcDbEntity
  8
0
  6
Continuous
 62
     7
370
    15
100
AcDbLine
 10
333.9005320263
 20
399.9509060659
 30
0.0
 11
333.9005320263
 21
397.9509020128
 31
0.0
  0
LINE
  5
5B
330
1F
100
AcDbEntity
  8
0
  6
Continuous
 62
     7
370
    15
100
AcDbLine
 10
433.9005335164
 20
397.9509020128
 30
0.0
 11
433.9005335164
 21
399.9509060659
 31
0.0
  0
LINE
  5
5C
330
1F
100
AcDbEntity
  8
0
  6
Continuous
 62
     7
370
    15
100
AcDbLine
 10
433.9005335164
 20
89.9509036817
 30
0.0
 11
433.9005335164
 21
91.9509077348
 31
0.0
  0
LINE
  5
5D
330
1F
100
AcDbEntity
  8
0
  6
Continuous
 62
     7
370
    15
100
AcDbLine
 10
333.9005320263
 20
91.9509077348
 30
0.0
 11
333.9005320263
 21
89.9509036817
 31
0.0
  0
ARC
  5
5E
330
1F
100
AcDbEntity
  8
0
  6
Continuous
 62
     7
370
    15
100
AcDbCircle
 10
-18.9224281084
 20
277.068574824
 30
0.0
 40
413.0615998860969
100
AcDbArc
 50
1.550108329
 51
3.407364812
  0
LINE
  5
5F
330
1F
100
AcDbEntity
  8
0
  6
Continuous
 62
     7
370
    15
100
AcDbLine
 10
343.9005336654
 20
174.4509035625
 30
0.0
 11
357.409993459
 21
174.4509035625
 31
0.0
  0
LINE
  5
60
330
1F
100
AcDbEntity
  8
0
  6
Continuous
 62
     7
370
    15
100
AcDbLine
 10
357.409993459
 20
315.4509061851
 30
0.0
 11
343.9005336654
 21
315.4509061851
 31
0.0
  0
LINE
  5
61
330
1F
100
AcDbEntity
  8
0
  6
Continuous
 62
     7
370
    15
100
AcDbLine
 10
411.9005336356
 20
279.9509050228
 30
0.0
 11
407.3235823703
 21
279.9509050228
 31
0.0
  0
LWPOLYLINE
  5
62
330
1F
100
AcDbEntity
  8
0
  6
Continuous
 62
     7
370
    15
100
AcDbPolyline
 90
        3
 70
   128
 43
0.0
 10
418.9438282442
 20
276.8391439595
 10
415.4313116265
 20
277.2486129679
 10
411.8447362375
 20
277.3974159636
  0
LWPOLYLINE
  5
63
330
1F
100
AcDbEntity
  8
0
  6
Continuous
 62
     7
370
    15
100
AcDbPolyline
 90
       16
 70
   128
 43
0.0
 10
455.9005333972
 20
226.3905381687
 10
455.9005333972
 20
232.7074225895
 10
455.6043579173
 20
238.5285453774
 10
454.7736032796
 20
243.3300139519
 10
453.6374493432
 20
247.3570752327
 10
452.146334846
 20
251.1997543179
 10
450.3055944038
 20
254.8758195617
 10
448.1302930904
 20
258.3625916295
 10
445.6360771251
 20
261.6368004956
 10
442.6945432019
 20
264.8169914164
 10
440.1897176099
 20
267.0917263158
 10
437.167598207
 20
269.4178553201
 10
433.575464685
 20
271.6931117602
 10
429.3653502059
 20
273.7931435831
 10
424.4974537683
 20
275.5681494154
 10
418.9438282442
 20
276.8391439595
  0
LINE
  5
64
330
1F
100
AcDbEntity
  8
0
  6
Continuous
 62
     7
370
    15
100
AcDbLine
 10
455.9005333972
 20
200.5458878257
 30
0.0
 11
455.9005333972
 21
206.600348828
 31
0.0
  0
LWPOLYLINE
  5
65
330
1F
100
AcDbEntity
  8
0
  6
Continuous
 62
     7
370
    15
100
AcDbPolyline
 90
       20
 70
   128
 43
0.0
 10
412.9005282116
 20
107.9509103574
 10
412.9005282116
 20
111.8731344022
 10
413.3395462227
 20
115.9635031499
 10
414.601831038
 20
119.4199019946
 10
416.3801356149
 20
122.2026491441
 10
419.1526307655
 20
124.9284142532
 10
421.7725380254
 20
126.8620857872
 10
423.9219262195
 20
128.5980561652
 10
425.9836359811
 20
130.4205128826
 10
427.9687239719
 20
132.3390373864
 10
431.6299690795
 20
136.3796362557
 10
434.9503203225
 20
140.7672012128
 10
437.4029322458
 20
144.6224892415
 10
439.9758561445
 20
149.5020309367
 10
442.4328788114
 20
155.5072585024
 10
444.6324094129
 20
162.6629376687
 10
447.040824492
 20
170.7601020016
 10
449.7216327977
 20
179.7729724922
 10
452.6748343301
 20
189.7015454151
 10
455.9003992868
 20
200.5458170451
  0
LINE
  5
66
330
1F
100
AcDbEntity
  8
0
  6
Continuous
 62
     7
370
    15
100
AcDbLine
 10
423.4005345893
 20
339.9509036817
 30
0.0
 11
423.900528152
 21
339.9509036817
 31
0.0
  0
LINE
  5
67
330
1F
100
AcDbEntity
  8
0
  6
Continuous
 62
     7
370
    15
100
AcDbLine
 10
455.8573200298
 20
206.5009059288
 30
0.0
 11
461.9005306554
 21
206.5009059288
 31
0.0
  0
LINE
  5
68
330
1F
100
AcDbEntity
  8
0
  6
Continuous
 62
     7
370
    15
100
AcDbLine
 10
461.9005306554
 20
226.5009054817
 30
0.0
 11
455.8601661515
 21
226.5009054817
 31
0.0
  0
LINE
  5
69
330
1F
100
AcDbEntity
  8
0
  6
Continuous
 62
     7
370
    15
100
AcDbLine
 10
137.400536139
 20
313.9509031452
 30
0.0
 11
108.4005369735
 21
313.9509031452
 31
0.0
  0
LINE
  5
6A
330
1F
100
AcDbEntity
  8
0
  6
Continuous
 62
     7
370
    15
100
AcDbLine
 10
133.3472116781
 20
175.9509066023
 30
0.0
 11
137.400536139
 21
175.9509066023
 31
0.0
  0
ARC
  5
6B
330
1F
100
AcDbEntity
  8
0
  6
Continuous
 62
     7
370
    15
100
AcDbCircle
 10
133.3472132808
 20
183.9509048738
 30
0.0
 40
8.000000000000028
100
AcDbArc
 50
195.2555633432
 51
270.0
  0
ARC
  5
6C
330
1F
100
AcDbEntity
  8
0
  6
Continuous
 62
     7
370
    15
100
AcDbCircle
 10
241.4005325628
 20
213.4208928642
 30
0.0
 40
120.0
100
AcDbArc
 50
180.0
 51
195.2555633432
  0
ARC
  5
6D
330
1F
100
AcDbEntity
  8
0
  6
Continuous
 62
     7
370
    15
100
AcDbCircle
 10
108.4005325628
 20
310.9509048738
 30
0.0
 40
3.0
100
AcDbArc
 50
90.0
 51
180.0
  0
LINE
  5
6E
330
1F
100
AcDbEntity
  8
0
  6
Continuous
 62
     7
370
    15
100
AcDbLine
 10
110.4005261255
 20
221.9509048291
 30
0.0
 11
121.4005335164
 21
221.9509048291
 31
0.0
  0
LINE
  5
6F
330
1F
100
AcDbEntity
  8
0
  6
Continuous
 62
     7
370
    15
100
AcDbLine
 10
297.4005325628
 20
313.5509038247
 30
0.0
 11
237.4005339039
 21
313.5509038247
 31
0.0
  0
LINE
  5
70
330
1F
100
AcDbEntity
  8
0
  6
Continuous
 62
     7
370
    15
100
AcDbLine
 10
217.4005343509
 20
313.5509038247
 30
0.0
 11
137.400536139
 21
313.5509038247
 31
0.0
  0
LINE
  5
71
330
1F
100
AcDbEntity
  8
0
  6
Continuous
 62
     7
370
    15
100
AcDbLine
 10
137.400536139
 20
176.3509059228
 30
0.0
 11
297.4005325628
 21
176.3509059228
 31
0.0
  0
LINE
  5
72
330
1F
100
AcDbEntity
  8
0
  6
Continuous
 62
     7
370
    15
100
AcDbLine
 10
297.4005325628
 20
174.9509045758
 30
0.0
 11
335.9005323541
 21
174.9509045758
 31
0.0
  0
LINE
  5
73
330
1F
100
AcDbEntity
  8
0
  6
Continuous
 62
     7
370
    15
100
AcDbLine
 10
335.9005323541
 20
314.9509051718
 30
0.0
 11
297.4005325628
 21
314.9509051718
 31
0.0
  0
LINE
  5
74
330
1F
100
AcDbEntity
  8
0
  6
Continuous
 62
     7
370
    15
100
AcDbLine
 10
313.4005333227
 20
224.9509053208
 30
0.0
 11
335.9005323541
 21
224.9509053208
 31
0.0
  0
LINE
  5
75
330
1F
100
AcDbEntity
  8
0
  6
Continuous
 62
     7
370
    15
100
AcDbLine
 10
335.9005323541
 20
264.9509044267
 30
0.0
 11
313.4005333227
 21
264.9509044267
 31
0.0
  0
LINE
  5
76
330
1F
100
AcDbEntity
  8
0
  6
Continuous
 62
     7
370
    15
100
AcDbLine
 10
343.9005336654
 20
315.4509061851
 30
0.0
 11
335.9005323541
 21
315.4509061851
 31
0.0
  0
LINE
  5
77
330
1F
100
AcDbEntity
  8
0
  6
Continuous
 62
     7
370
    15
100
AcDbLine
 10
335.9005323541
 20
174.4509035625
 30
0.0
 11
343.9005336654
 21
174.4509035625
 31
0.0
  0
LINE
  5
78
330
1F
100
AcDbEntity
  8
0
  6
Continuous
 62
     7
370
    15
100
AcDbLine
 10
313.4005333227
 20
307.6429286875
 30
0.0
 11
335.9005323541
 21
307.6429286875
 31
0.0
  0
LINE
  5
79
330
1F
100
AcDbEntity
  8
0
  6
Continuous
 62
     7
370
    15
100
AcDbLine
 10
335.9005323541
 20
182.2588810601
 30
0.0
 11
313.4005333227
 21
182.2588810601
 31
0.0
  0
LINE
  5
7A
330
1F
100
AcDbEntity
  8
0
  6
Continuous
 62
     7
370
    15
100
AcDbLine
 10
321.3371301931
 20
295.2508920707
 30
0.0
 11
333.5055059684
 21
264.9509044267
 31
0.0
  0
LINE
  5
7B
330
1F
100
AcDbEntity
  8
0
  6
Continuous
 62
     7
370
    15
100
AcDbLine
 10
317.2943669302
 20
299.9509045758
 30
0.0
 11
319.4812017423
 21
294.5055583395
 31
0.0
  0
LWPOLYLINE
  5
7C
330
1F
100
AcDbEntity
  8
0
  6
Continuous
 62
     7
370
    15
100
AcDbPolyline
 90
       22
 70
   128
 43
0.0
 10
192.400535841
 20
208.5442053057
 10
192.2198220086
 20
208.8752569534
 10
191.6842146707
 20
209.1943429686
 10
190.8130704355
 20
209.4899298527
 10
189.6378754568
 20
209.7513409235
 10
188.2010980439
 20
209.969117669
 10
186.5546836448
 20
210.1353960015
 10
184.7581251455
 20
210.2441670276
 10
182.8763543558
 20
210.2914931156
 10
180.9773876262
 20
210.2756718077
 10
179.1298522544
 20
210.1972656228
 10
177.400535245
 20
210.0591169574
 10
175.8519246173
 20
209.8662139751
 10
174.5400040341
 20
209.6255304195
 10
173.5121815396
 20
209.3457648434
 10
172.8056057286
 20
209.0370314099
 10
172.445809741
 20
208.7104836382
 10
172.445809741
 20
208.3779269733
 10
172.8056057286
 20
208.0513792016
 10
173.5121815396
 20
207.7426420428
 10
174.5400040341
 20
207.4628764667
 10
175.3720774245
 20
207.2998726644
  0
LWPOLYLINE
  5
7D
330
1F
100
AcDbEntity
  8
0
  6
Continuous
 62
     7
370
    15
100
AcDbPolyline
 90
        6
 70
   128
 43
0.0
 10
189.4065721822
 20
207.2960095383
 10
189.6378754568
 20
207.337069688
 10
190.8130704355
 20
207.5984770335
 10
191.6842146707
 20
207.8940639176
 10
192.2198220086
 20
208.2131536581
 10
192.400535841
 20
208.5442053057
  0
LWPOLYLINE
  5
7E
330
1F
100
AcDbEntity
  8
0
  6
Continuous
 62
     7
370
    15
100
AcDbPolyline
 90
       18
 70
   128
 43
0.0
 10
192.400535841
 20
211.4979470052
 10
192.2198220086
 20
211.8289986529
 10
191.6842146707
 20
212.1480883934
 10
190.8130704355
 20
212.4436752774
 10
189.6378754568
 20
212.7050826229
 10
188.2010980439
 20
212.9228630938
 10
186.5546836448
 20
213.0891414263
 10
184.7581251455
 20
213.1979087271
 10
182.8763543558
 20
213.2452385403
 10
180.9773876262
 20
213.2294135072
 10
179.1298522544
 20
213.1510110475
 10
177.400535245
 20
213.0128623821
 10
175.8519246173
 20
212.8199593999
 10
174.5400040341
 20
212.5792758443
 10
173.5121815396
 20
212.2995102681
 10
172.8056057286
 20
211.9907731094
 10
172.445809741
 20
211.6642253377
 10
172.4005325628
 20
211.4979470052
  0
LWPOLYLINE
  5
7F
330
1F
100
AcDbEntity
  8
0
  6
Continuous
 62
     7
370
    15
100
AcDbPolyline
 90
       12
 70
   128
 43
0.0
 10
186.8005304528
 20
203.6212975063
 10
186.6223051143
 20
203.838139204
 10
186.1020459724
 20
204.0374161579
 10
185.2819233132
 20
204.2029829599
 10
184.2283590627
 20
204.3214211144
 10
183.0267145229
 20
204.383141724
 10
181.7743464303
 20
204.383141724
 10
180.5727093411
 20
204.3214211144
 10
179.5191450906
 20
204.2029829599
 10
178.6990149808
 20
204.0374161579
 10
178.1787632895
 20
203.838139204
 10
178.0005305004
 20
203.6212975063
  0
LWPOLYLINE
  5
80
330
1F
100
AcDbEntity
  8
0
  6
Continuous
 62
     7
370
    15
100
AcDbPolyline
 90
       23
 70
   128
 43
0.0
 10
186.8005304528
 20
198.6983897068
 10
186.6223051143
 20
198.9152351298
 10
186.1020459724
 20
199.1145083584
 10
185.2819233132
 20
199.2800751604
 10
184.2283590627
 20
199.3985133149
 10
183.0267145229
 20
199.4602339246
 10
181.7743464303
 20
199.4602339246
 10
180.5727093411
 20
199.3985133149
 10
179.5191450906
 20
199.2800751604
 10
178.6990149808
 20
199.1145083584
 10
178.1787632895
 20
198.9152351298
 10
178.0005305004
 20
198.6983897068
 10
178.1787632895
 20
198.4815480091
 10
178.6990149808
 20
198.2822710552
 10
179.5191450906
 20
198.1167042531
 10
180.5727093411
 20
197.9982660987
 10
181.7743464303
 20
197.936545489
 10
183.0267145229
 20
197.936545489
 10
184.2283590627
 20
197.9982660987
 10
185.2819233132
 20
198.1167042531
 10
186.1020459724
 20
198.2822710552
 10
186.6223051143
 20
198.4815480091
 10
186.8005304528
 20
198.6983897068
  0
LINE
  5
81
330
1F
100
AcDbEntity
  8
0
  6
Continuous
 62
     7
370
    15
100
AcDbLine
 10
203.0005290103
 20
260.2681549169
 30
0.0
 11
203.0005290103
 21
219.7886681088
 31
0.0
  0
LINE
  5
82
330
1F
100
AcDbEntity
  8
0
  6
Continuous
 62
     7
370
    15
100
AcDbLine
 10
145.8005293203
 20
219.7886681088
 30
0.0
 11
145.8005293203
 21
260.2681549169
 31
0.0
  0
LINE
  5
83
330
1F
100
AcDbEntity
  8
0
  6
Continuous
 62
     7
370
    15
100
AcDbLine
 10
203.0005290103
 20
219.7886681088
 30
0.0
 11
203.0005290103
 21
215.1505792417
 31
0.0
  0
LWPOLYLINE
  5
84
330
1F
100
AcDbEntity
  8
0
  6
Continuous
 62
     7
370
    15
100
AcDbPolyline
 90
       28
 70
   128
 43
0.0
 10
166.9005288673
 20
211.4979470052
 10
166.725321014
 20
211.2357312717
 10
166.2091447902
 20
210.9876530148
 10
165.379820664
 20
210.7670823015
 10
164.28206702
 20
210.5859139838
 10
162.9750563693
 20
210.4539120473
 10
161.5292414022
 20
210.378195522
 10
160.0225849939
 20
210.362847326
 10
158.5363133741
 20
210.4086907484
 10
157.1505351854
 20
210.5132559218
 10
155.93996485
 20
210.6709064819
 10
154.9698545528
 20
210.8731413163
 10
154.2925371719
 20
211.1090639509
 10
153.9444758487
 20
211.3659487941
 10
153.9444758487
 20
211.6299489416
 10
154.2925371719
 20
211.8868337848
 10
154.9698545528
 20
212.1227526941
 10
155.93996485
 20
212.3249912538
 10
157.1505351854
 20
212.4826418139
 10
158.5363133741
 20
212.5872069873
 10
160.0225849939
 20
212.6330504097
 10
161.5292414022
 20
212.6177022137
 10
162.9750563693
 20
212.5419856884
 10
164.28206702
 20
212.4099837519
 10
165.379820664
 20
212.2288154342
 10
166.2091447902
 20
212.0082447209
 10
166.725321014
 20
211.7601627387
 10
166.9005288673
 20
211.4979470052
  0
LWPOLYLINE
  5
85
330
1F
100
AcDbEntity
  8
0
  6
Continuous
 62
     7
370
    15
100
AcDbPolyline
 90
        3
 70
   128
 43
0.0
 10
145.8005293203
 20
215.1505792417
 10
146.0629983735
 20
213.2223578073
 10
146.2028457713
 20
212.7819539882
  0
LINE
  5
86
330
1F
100
AcDbEntity
  8
0
  6
Continuous
 62
     7
370
    15
100
AcDbLine
 10
145.8005293203
 20
215.1505792417
 30
0.0
 11
145.8005293203
 21
219.7886681088
 31
0.0
  0
ARC
  5
87
330
1F
100
AcDbEntity
  8
0
  6
Continuous
 62
     7
370
    15
100
AcDbCircle
 10
174.4005328906
 20
258.0628204633
 30
0.0
 40
4.64168007541598
100
AcDbArc
 50
178.0086050167
 51
1.9913949833
  0
ARC
  5
88
330
1F
100
AcDbEntity
  8
0
  6
Continuous
 62
     7
370
    15
100
AcDbCircle
 10
174.4005366159
 20
258.162805663
 30
0.0
 40
3.500241624587581
100
AcDbArc
 50
180.6737252807
 51
359.3262747193
  0
ARC
  5
89
330
1F
100
AcDbEntity
  8
0
  6
Continuous
 62
     7
370
    15
100
AcDbCircle
 10
177.999409368
 20
263.4029365831
 30
0.0
 40
5.282213788635397
100
AcDbArc
 50
268.9274681069
 51
281.3549897616
  0
ARC
  5
8A
330
1F
100
AcDbEntity
  8
0
  6
Continuous
 62
     7
370
    15
100
AcDbCircle
 10
170.8016607914
 20
263.4029780561
 30
0.0
 40
5.282255311837114
100
AcDbArc
 50
258.6450522473
 51
271.0725567917
  0
CIRCLE
  5
8B
330
1F
100
AcDbEntity
  8
0
  6
Continuous
 62
     7
370
    15
100
AcDbCircle
 10
174.4240794708
 20
258.1121352147
 30
0.0
 40
2.376472108513062
  0
ARC
  5
8C
330
1F
100
AcDbEntity
  8
0
  6
Continuous
 62
     7
370
    15
100
AcDbCircle
 10
174.4005328906
 20
257.9858476146
 30
0.0
 40
2.400857353183978
100
AcDbArc
 50
1.9888661533
 51
178.0111338467
  0
LWPOLYLINE
  5
8D
330
1F
100
AcDbEntity
  8
0
  6
Continuous
 62
     7
370
    15
100
AcDbPolyline
 90
       13
 70
   128
 43
0.0
 10
166.6773839784
 20
211.7933215477
 10
166.2091447902
 20
211.5784020998
 10
165.379820664
 20
211.3578313865
 10
164.28206702
 20
211.1766630687
 10
162.9750563693
 20
211.0446611323
 10
161.5292414022
 20
210.968944607
 10
160.0225849939
 20
210.9535926856
 10
158.5363133741
 20
210.999436108
 10
157.1505351854
 20
211.1040050067
 10
155.93996485
 20
211.2616555669
 10
154.9698545528
 20
211.4638904013
 10
154.2925371719
 20
211.6998093106
 10
154.1236921144
 20
211.7933215477
  0
LINE
  5
8E
330
1F
100
AcDbEntity
  8
0
  6
Continuous
 62
     7
370
    15
100
AcDbLine
 10
204.4005303574
 20
257.5117800288
 30
0.0
 11
204.4005303574
 21
216.1187393494
 31
0.0
  0
LINE
  5
8F
330
1F
100
AcDbEntity
  8
0
  6
Continuous
 62
     7
370
    15
100
AcDbLine
 10
144.4005354238
 20
257.5117800288
 30
0.0
 11
144.4005354238
 21
216.1187393494
 31
0.0
  0
ARC
  5
90
330
1F
100
AcDbEntity
  8
0
  6
Continuous
 62
     7
370
    15
100
AcDbCircle
 10
149.8906197431
 20
258.0922544889
 30
0.0
 40
5.494936974250959
100
AcDbArc
 50
132.8513182105
 51
182.4081189926
  0
ARC
  5
91
330
1F
100
AcDbEntity
  8
0
  6
Continuous
 62
     7
370
    15
100
AcDbCircle
 10
199.0129530897
 20
258.2020181225
 30
0.0
 40
5.398335696494447
100
AcDbArc
 50
356.3821191161
 51
48.8144617479
  0
LINE
  5
92
330
1F
100
AcDbEntity
  8
0
  6
Continuous
 62
     7
370
    15
100
AcDbLine
 10
204.4005303574
 20
257.8613724463
 30
0.0
 11
204.4005303574
 21
257.5117800288
 31
0.0
  0
LINE
  5
93
330
1F
100
AcDbEntity
  8
0
  6
Continuous
 62
     7
370
    15
100
AcDbLine
 10
144.4005354238
 20
257.8613724463
 30
0.0
 11
144.4005354238
 21
257.5117800288
 31
0.0
  0
LINE
  5
94
330
1F
100
AcDbEntity
  8
0
  6
Continuous
 62
     7
370
    15
100
AcDbLine
 10
204.4005303574
 20
216.1187393494
 30
0.0
 11
204.4005303574
 21
212.9093887188
 31
0.0
  0
LINE
  5
95
330
1F
100
AcDbEntity
  8
0
  6
Continuous
 62
     7
370
    15
100
AcDbLine
 10
144.4005354238
 20
216.1187393494
 30
0.0
 11
144.4005354238
 21
212.9093887188
 31
0.0
  0
LWPOLYLINE
  5
96
330
1F
100
AcDbEntity
  8
0
  6
Continuous
 62
     7
370
    15
100
AcDbPolyline
 90
        3
 70
   128
 43
0.0
 10
203.7047727895
 20
210.1890960612
 10
204.2265220475
 20
211.5126283743
 10
204.4005303574
 20
212.9093887188
  0
LWPOLYLINE
  5
97
330
1F
100
AcDbEntity
  8
0
  6
Continuous
 62
     7
370
    15
100
AcDbPolyline
 90
        3
 70
   128
 43
0.0
 10
144.4005354238
 20
212.9093887188
 10
144.7913928819
 20
210.8399862327
 10
145.0963004422
 20
210.1890960612
  0
ARC
  5
98
330
1F
100
AcDbEntity
  8
0
  6
Continuous
 62
     7
370
    15
100
AcDbCircle
 10
197.690947447
 20
213.7535843412
 30
0.0
 40
6.990827701226221
100
AcDbArc
 50
267.6191056284
 51
329.3441149367
  0
ARC
  5
99
330
1F
100
AcDbEntity
  8
0
  6
Continuous
 62
     7
370
    15
100
AcDbCircle
 10
151.1618919509
 20
213.8489992967
 30
0.0
 40
7.084228401375599
100
AcDbArc
 50
211.1062639954
 51
271.9304586732
  0
LINE
  5
9A
330
1F
100
AcDbEntity
  8
0
  6
Continuous
 62
     7
370
    15
100
AcDbLine
 10
197.4005310726
 20
206.7687915541
 30
0.0
 11
188.9440922928
 21
206.7687915541
 31
0.0
  0
LINE
  5
9B
330
1F
100
AcDbEntity
  8
0
  6
Continuous
 62
     7
370
    15
100
AcDbLine
 10
175.8531241608
 20
206.7687915541
 30
0.0
 11
151.4005347085
 21
206.7687915541
 31
0.0
  0
LINE
  5
9C
330
1F
100
AcDbEntity
  8
0
  6
Continuous
 62
     7
370
    15
100
AcDbLine
 10
242.4005328608
 20
371.4868420638
 30
0.0
 11
242.4005328608
 21
323.4868490972
 31
0.0
  0
LINE
  5
9D
330
1F
100
AcDbEntity
  8
0
  6
Continuous
 62
     7
370
    15
100
AcDbLine
 10
182.4005304766
 20
371.4868420638
 30
0.0
 11
182.4005304766
 21
323.4868490972
 31
0.0
  0
LINE
  5
9E
330
1F
100
AcDbEntity
  8
0
  6
Continuous
 62
     7
370
    15
100
AcDbLine
 10
277.4005330098
 20
369.9868464746
 30
0.0
 11
277.4005330098
 21
324.986852137
 31
0.0
  0
LINE
  5
9F
330
1F
100
AcDbEntity
  8
0
  6
Continuous
 62
     7
370
    15
100
AcDbLine
 10
237.4005339039
 20
325.1931959667
 30
0.0
 11
237.4005339039
 21
371.9368422307
 31
0.0
  0
LINE
  5
A0
330
1F
100
AcDbEntity
  8
0
  6
Continuous
 62
     7
370
    15
100
AcDbLine
 10
217.4005343509
 20
325.1931959667
 30
0.0
 11
217.4005343509
 21
371.9368422307
 31
0.0
  0
LINE
  5
A1
330
1F
100
AcDbEntity
  8
0
  6
Continuous
 62
     7
370
    15
100
AcDbLine
 10
229.8005356384
 20
305.0796272136
 30
0.0
 11
237.4005339039
 21
305.0796272136
 31
0.0
  0
LINE
  5
A2
330
1F
100
AcDbEntity
  8
0
  6
Continuous
 62
     7
370
    15
100
AcDbLine
 10
229.8005356384
 20
305.0796272136
 30
0.0
 11
229.8005356384
 21
307.9884866156
 31
0.0
  0
LWPOLYLINE
  5
A3
330
1F
100
AcDbEntity
  8
0
  6
Continuous
 62
     7
370
    15
100
AcDbPolyline
 90
        9
 70
   128
 43
0.0
 10
229.8005356384
 20
307.9884866156
 10
229.6178399515
 20
308.4337556638
 10
229.0975882602
 20
308.8112318792
 10
228.3189727855
 20
309.0634563841
 10
227.4005322647
 20
309.1520288863
 10
226.482091744
 20
309.0634563841
 10
225.7034762693
 20
308.8112318792
 10
225.1832245779
 20
308.4337556638
 10
225.0005288911
 20
307.9884866156
  0
LINE
  5
A4
330
1F
100
AcDbEntity
  8
0
  6
Continuous
 62
     7
370
    15
100
AcDbLine
 10
225.0005288911
 20
307.9884866156
 30
0.0
 11
225.0005288911
 21
305.0796272136
 31
0.0
  0
LINE
  5
A5
330
1F
100
AcDbEntity
  8
0
  6
Continuous
 62
     7
370
    15
100
AcDbLine
 10
217.4005343509
 20
305.0796272136
 30
0.0
 11
225.0005288911
 21
305.0796272136
 31
0.0
  0
LINE
  5
A6
330
1F
100
AcDbEntity
  8
0
  6
Continuous
 62
     7
370
    15
100
AcDbLine
 10
237.4005339039
 20
305.0796272136
 30
0.0
 11
237.4005339039
 21
311.1880266942
 31
0.0
  0
LINE
  5
A7
330
1F
100
AcDbEntity
  8
0
  6
Continuous
 62
     7
370
    15
100
AcDbLine
 10
217.4005343509
 20
305.0796272136
 30
0.0
 11
217.4005343509
 21
311.1880266942
 31
0.0
  0
LINE
  5
A8
330
1F
100
AcDbEntity
  8
0
  6
Continuous
 62
     7
370
    15
100
AcDbLine
 10
217.4005343509
 20
304.0300862767
 30
0.0
 11
225.0005288911
 21
304.0300862767
 31
0.0
  0
LINE
  5
A9
330
1F
100
AcDbEntity
  8
0
  6
Continuous
 62
     7
370
    15
100
AcDbLine
 10
225.0005288911
 20
304.0300862767
 30
0.0
 11
225.0005288911
 21
305.0796272136
 31
0.0
  0
LINE
  5
AA
330
1F
100
AcDbEntity
  8
0
  6
Continuous
 62
     7
370
    15
100
AcDbLine
 10
217.4005343509
 20
304.0300862767
 30
0.0
 11
217.4005343509
 21
305.0796272136
 31
0.0
  0
LINE
  5
AB
330
1F
100
AcDbEntity
  8
0
  6
Continuous
 62
     7
370
    15
100
AcDbLine
 10
229.8005356384
 20
304.0300862767
 30
0.0
 11
237.4005339039
 21
304.0300862767
 31
0.0
  0
LINE
  5
AC
330
1F
100
AcDbEntity
  8
0
  6
Continuous
 62
     7
370
    15
100
AcDbLine
 10
229.8005356384
 20
305.0796272136
 30
0.0
 11
229.8005356384
 21
304.0300862767
 31
0.0
  0
LINE
  5
AD
330
1F
100
AcDbEntity
  8
0
  6
Continuous
 62
     7
370
    15
100
AcDbLine
 10
237.4005339039
 20
304.0300862767
 30
0.0
 11
237.4005339039
 21
305.0796272136
 31
0.0
  0
LWPOLYLINE
  5
AE
330
1F
100
AcDbEntity
  8
0
  6
Continuous
 62
     7
370
    15
100
AcDbPolyline
 90
        9
 70
   128
 43
0.0
 10
229.8005356384
 20
306.9389419534
 10
229.6178399515
 20
307.3842110016
 10
229.0975882602
 20
307.7616909422
 10
228.3189727855
 20
308.0139154472
 10
227.4005322647
 20
308.1024879493
 10
226.482091744
 20
308.0139154472
 10
225.7034762693
 20
307.7616909422
 10
225.1832245779
 20
307.3842110016
 10
225.0005288911
 20
306.9389419534
  0
LINE
  5
AF
330
1F
100
AcDbEntity
  8
0
  6
Continuous
 62
     7
370
    15
100
AcDbLine
 10
237.4005339039
 20
325.1931959667
 30
0.0
 11
237.4005339039
 21
323.6824566402
 31
0.0
  0
LINE
  5
B0
330
1F
100
AcDbEntity
  8
0
  6
Continuous
 62
     7
370
    15
100
AcDbLine
 10
217.4005343509
 20
323.6824566402
 30
0.0
 11
217.4005343509
 21
325.1931959667
 31
0.0
  0
ARC
  5
B1
330
1F
100
AcDbEntity
  8
0
  6
Continuous
 62
     7
370
    15
100
AcDbCircle
 10
227.4005322647
 20
316.9123875285
 30
0.0
 40
2.400122662240325
100
AcDbArc
 50
180.5712447382
 51
359.4287552618
  0
LINE
  5
B2
330
1F
100
AcDbEntity
  8
0
  6
Continuous
 62
     7
370
    15
100
AcDbLine
 10
229.8005356384
 20
318.863830892
 30
0.0
 11
229.8005356384
 21
316.8884584584
 31
0.0
  0
ARC
  5
B3
330
1F
100
AcDbEntity
  8
0
  6
Continuous
 62
     7
370
    15
100
AcDbCircle
 10
227.4005322647
 20
318.8399018219
 30
0.0
 40
2.400122662240326
100
AcDbArc
 50
0.5712447382
 51
179.4287552618
  0
LINE
  5
B4
330
1F
100
AcDbEntity
  8
0
  6
Continuous
 62
     7
370
    15
100
AcDbLine
 10
225.0005288911
 20
316.8884584584
 30
0.0
 11
225.0005288911
 21
318.863830892
 31
0.0
  0
LINE
  5
B5
330
1F
100
AcDbEntity
  8
0
  6
Continuous
 62
     7
370
    15
100
AcDbLine
 10
237.4005339039
 20
313.2501387872
 30
0.0
 11
237.4005339039
 21
323.6824566402
 31
0.0
  0
LINE
  5
B6
330
1F
100
AcDbEntity
  8
0
  6
Continuous
 62
     7
370
    15
100
AcDbLine
 10
217.4005343509
 20
313.2501387872
 30
0.0
 11
217.4005343509
 21
323.6824566402
 31
0.0
  0
LINE
  5
B7
330
1F
100
AcDbEntity
  8
0
  6
Continuous
 62
     7
370
    15
100
AcDbLine
 10
237.4005339039
 20
313.2501387872
 30
0.0
 11
237.4005339039
 21
311.1880266942
 31
0.0
  0
LINE
  5
B8
330
1F
100
AcDbEntity
  8
0
  6
Continuous
 62
     7
370
    15
100
AcDbLine
 10
217.4005343509
 20
311.1880266942
 30
0.0
 11
217.4005343509
 21
313.2501387872
 31
0.0
  0
ARC
  5
B9
330
1F
100
AcDbEntity
  8
0
  6
Continuous
 62
     7
370
    15
100
AcDbCircle
 10
227.4005322647
 20
317.1001074213
 30
0.0
 40
2.400122687312865
100
AcDbArc
 50
180.5713047657
 51
359.4286952343
  0
ARC
  5
BA
330
1F
100
AcDbEntity
  8
0
  6
Continuous
 62
     7
370
    15
100
AcDbCircle
 10
227.4005322647
 20
320.6464745387
 30
0.0
 40
2.408943789061758
100
AcDbArc
 50
202.1630226289
 51
337.8369773711
  0
ARC
  5
BB
330
1F
100
AcDbEntity
  8
0
  6
Continuous
 62
     7
370
    15
100
AcDbCircle
 10
227.4005322647
 20
320.8353934803
 30
0.0
 40
2.409906153554994
100
AcDbArc
 50
204.6163159355
 51
335.3836840645
  0
LWPOLYLINE
  5
BC
330
1F
100
AcDbEntity
  8
0
  6
Continuous
 62
     7
370
    15
100
AcDbPolyline
 90
        3
 70
   128
 43
0.0
 10
323.5324512166
 20
315.8674606957
 10
322.3216536385
 20
315.3897592701
 10
321.4715591562
 20
314.9509051718
  0
ARC
  5
BD
330
1F
100
AcDbEntity
  8
0
  6
Continuous
 62
     7
370
    15
100
AcDbCircle
 10
325.6661008386
 20
311.4703135516
 30
0.0
 40
4.887470073176853
100
AcDbArc
 50
68.5441342642
 51
115.8842839058
  0
LINE
  5
BE
330
1F
100
AcDbEntity
  8
0
  6
Continuous
 62
     7
370
    15
100
AcDbLine
 10
320.0059945625
 20
315.5183637418
 30
0.0
 11
319.4942365331
 21
314.9509051718
 31
0.0
  0
LINE
  5
BF
330
1F
100
AcDbEntity
  8
0
  6
Continuous
 62
     7
370
    15
100
AcDbLine
 10
315.1370699448
 20
314.9509051718
 30
0.0
 11
312.7173169446
 21
320.976234404
 31
0.0
  0
LINE
  5
C0
330
1F
100
AcDbEntity
  8
0
  6
Continuous
 62
     7
370
    15
100
AcDbLine
 10
316.2437735987
 20
324.8865226187
 30
0.0
 11
312.7173169446
 21
320.976234404
 31
0.0
  0
LINE
  5
C1
330
1F
100
AcDbEntity
  8
0
  6
Continuous
 62
     7
370
    15
100
AcDbLine
 10
320.0059945625
 20
315.5183637418
 30
0.0
 11
316.2437735987
 21
324.8865226187
 31
0.0
  0
LINE
  5
C2
330
1F
100
AcDbEntity
  8
0
  6
Continuous
 62
     7
370
    15
100
AcDbLine
 10
327.0589078707
 20
317.8449043907
 30
0.0
 11
320.0059945625
 21
315.5183637418
 31
0.0
  0
LINE
  5
C3
330
1F
100
AcDbEntity
  8
0
  6
Continuous
 62
     7
370
    15
100
AcDbLine
 10
329.5700422418
 20
316.7171398081
 30
0.0
 11
327.0589078707
 21
317.8449043907
 31
0.0
  0
LINE
  5
C4
330
1F
100
AcDbEntity
  8
0
  6
Continuous
 62
     7
370
    15
100
AcDbLine
 10
323.2966869068
 20
327.2130632676
 30
0.0
 11
316.2437735987
 21
324.8865226187
 31
0.0
  0
LINE
  5
C5
330
1F
100
AcDbEntity
  8
0
  6
Continuous
 62
     7
370
    15
100
AcDbLine
 10
327.0589078707
 20
317.8449043907
 30
0.0
 11
323.2966869068
 21
327.2130632676
 31
0.0
  0
LINE
  5
C6
330
1F
100
AcDbEntity
  8
0
  6
Continuous
 62
     7
370
    15
100
AcDbLine
 10
326.8231435609
 20
325.6293082513
 30
0.0
 11
323.2966869068
 21
327.2130632676
 31
0.0
  0
LINE
  5
C7
330
1F
100
AcDbEntity
  8
0
  6
Continuous
 62
     7
370
    15
100
AcDbLine
 10
330.3048930061
 20
316.9595444478
 30
0.0
 11
326.8231435609
 21
325.6293082513
 31
0.0
  0
LINE
  5
C8
330
1F
100
AcDbEntity
  8
0
  6
Continuous
 62
     7
370
    15
100
AcDbLine
 10
312.0332772774
 20
322.679533986
 30
0.0
 11
315.5597339314
 21
326.5898222007
 31
0.0
  0
LINE
  5
C9
330
1F
100
AcDbEntity
  8
0
  6
Continuous
 62
     7
370
    15
100
AcDbLine
 10
315.5597339314
 20
326.5898222007
 30
0.0
 11
322.6126472396
 21
328.9163628496
 31
0.0
  0
LINE
  5
CA
330
1F
100
AcDbEntity
  8
0
  6
Continuous
 62
     7
370
    15
100
AcDbLine
 10
322.6126472396
 20
328.9163628496
 30
0.0
 11
326.1391038937
 21
327.3326152839
 31
0.0
  0
LINE
  5
CB
330
1F
100
AcDbEntity
  8
0
  6
Continuous
 62
     7
370
    15
100
AcDbLine
 10
326.1391038937
 20
327.3326152839
 30
0.0
 11
325.2429927629
 21
326.3389686026
 31
0.0
  0
LINE
  5
CC
330
1F
100
AcDbEntity
  8
0
  6
Continuous
 62
     7
370
    15
100
AcDbLine
 10
313.6134280753
 20
321.9698810853
 30
0.0
 11
312.0332772774
 21
322.679533986
 31
0.0
  0
LWPOLYLINE
  5
CD
330
1F
100
AcDbEntity
  8
0
  6
Continuous
 62
     7
370
    15
100
AcDbPolyline
 90
       11
 70
   128
 43
0.0
 10
315.3354621423
 20
323.879345683
 10
315.4216597718
 20
324.1734275498
 10
315.8310002578
 20
324.7775206246
 10
316.5295760077
 20
325.4019314327
 10
317.4553199601
 20
325.9911680497
 10
318.5259739799
 20
326.4928677954
 10
319.6464053285
 20
326.8624612965
 10
320.7170593482
 20
327.0671138443
 10
321.6428033006
 20
327.0886236705
 10
322.3413809133
 20
326.9250983276
 10
322.375512023
 20
326.909191338
  0
LINE
  5
CE
330
1F
100
AcDbEntity
  8
0
  6
Continuous
 62
     7
370
    15
100
AcDbLine
 10
313.5076130671
 20
331.6997283973
 30
0.0
 11
309.981156413
 21
327.7894401826
 31
0.0
  0
LINE
  5
CF
330
1F
100
AcDbEntity
  8
0
  6
Continuous
 62
     7
370
    15
100
AcDbLine
 10
315.5597339314
 20
326.5898222007
 30
0.0
 11
313.5076130671
 21
331.6997283973
 31
0.0
  0
LINE
  5
D0
330
1F
100
AcDbEntity
  8
0
  6
Continuous
 62
     7
370
    15
100
AcDbLine
 10
312.0332772774
 20
322.679533986
 30
0.0
 11
309.981156413
 21
327.7894401826
 31
0.0
  0
LINE
  5
D1
330
1F
100
AcDbEntity
  8
0
  6
Continuous
 62
     7
370
    15
100
AcDbLine
 10
320.5605263752
 20
334.0262690462
 30
0.0
 11
313.5076130671
 21
331.6997283973
 31
0.0
  0
LINE
  5
D2
330
1F
100
AcDbEntity
  8
0
  6
Continuous
 62
     7
370
    15
100
AcDbLine
 10
322.6126472396
 20
328.9163628496
 30
0.0
 11
320.5605263752
 21
334.0262690462
 31
0.0
  0
LINE
  5
D3
330
1F
100
AcDbEntity
  8
0
  6
Continuous
 62
     7
370
    15
100
AcDbLine
 10
324.0869830293
 20
332.4425140299
 30
0.0
 11
320.5605263752
 21
334.0262690462
 31
0.0
  0
LINE
  5
D4
330
1F
100
AcDbEntity
  8
0
  6
Continuous
 62
     7
370
    15
100
AcDbLine
 10
326.1391038937
 20
327.3326152839
 30
0.0
 11
324.0869830293
 21
332.4425140299
 31
0.0
  0
LWPOLYLINE
  5
D5
330
1F
100
AcDbEntity
  8
0
  6
Continuous
 62
     7
370
    15
100
AcDbPolyline
 90
       13
 70
   128
 43
0.0
 10
398.7281008554
 20
226.6025798299
 10
398.7966909003
 20
226.4729229637
 10
398.2642053557
 20
225.4191333331
 10
396.7617063713
 20
224.471898181
 10
394.4316415978
 20
223.6691428252
 10
391.416466136
 20
223.0487925835
 10
387.8586127353
 20
222.6487709113
 10
383.9005290461
 20
222.5070012637
 10
379.9424528074
 20
222.6487709113
 10
376.3845994067
 20
223.0487925835
 10
373.369423945
 20
223.6691428252
 10
371.600305934
 20
224.2364374824
 10
370.2474816633
 20
224.8854724594
  0
LWPOLYLINE
  5
D6
330
1F
100
AcDbEntity
  8
0
  6
Continuous
 62
     7
370
    15
100
AcDbPolyline
 90
       11
 70
   128
 43
0.0
 10
370.2474816633
 20
224.8854724594
 10
370.4042716813
 20
231.2530180343
 10
370.6552668405
 20
237.7501524888
 10
370.9934412432
 20
244.2912134129
 10
371.4159413171
 20
250.8322539643
 10
371.9289957476
 20
257.3306238182
 10
372.5390865398
 20
263.7005591668
 10
373.1748967362
 20
269.2162630983
 10
373.9294319344
 20
274.5553752311
 10
375.143355031
 20
281.1233507373
 10
376.7655475927
 20
287.2268216588
  0
ARC
  5
D7
330
1F
100
AcDbEntity
  8
0
  6
Continuous
 62
     7
370
    15
100
AcDbCircle
 10
383.810447637
 20
276.6733991666
 30
0.0
 40
12.68878807970573
100
AcDbArc
 50
89.5932371257
 51
123.7249523325
  0
LWPOLYLINE
  5
D8
330
1F
100
AcDbEntity
  8
0
  6
Continuous
 62
     7
370
    15
100
AcDbPolyline
 90
        5
 70
   128
 43
0.0
 10
383.9005290461
 20
295.219096718
 10
387.5207140041
 20
294.7445282616
 10
390.6898631644
 20
293.3629410245
 10
392.8934245301
 20
291.3202786722
 10
393.9079104853
 20
288.995339898
  0
LWPOLYLINE
  5
D9
330
1F
100
AcDbEntity
  8
0
  6
Continuous
 62
     7
370
    15
100
AcDbPolyline
 90
       11
 70
   128
 43
0.0
 10
386.9005351258
 20
165.2633095063
 10
389.0479265642
 20
165.8523822107
 10
391.4037703467
 20
166.9097984113
 10
393.6159222317
 20
168.3735618271
 10
395.5860792589
 20
170.1836729326
 10
397.2964643431
 20
172.325096456
 10
398.7513764692
 20
174.8630622305
 10
399.8278810573
 20
177.6590043582
 10
400.5134685827
 20
180.7999754228
 10
400.723902781
 20
184.0839715578
 10
400.5357607198
 20
186.2666303195
  0
LWPOLYLINE
  5
DA
330
1F
100
AcDbEntity
  8
0
  6
Continuous
 62
     7
370
    15
100
AcDbPolyline
 90
        3
 70
   128
 43
0.0
 10
386.9005351258
 20
165.3786146917
 10
383.9476539684
 20
165.1391157784
 10
380.900530417
 20
165.3786146917
  0
LINE
  5
DB
330
1F
100
AcDbEntity
  8
0
  6
Continuous
 62
     7
370
    15
100
AcDbLine
 10
380.900530417
 20
158.7841579594
 30
0.0
 11
380.2447303128
 21
158.4682458915
 31
0.0
  0
ARC
  5
DC
330
1F
100
AcDbEntity
  8
0
  6
Continuous
 62
     7
370
    15
100
AcDbCircle
 10
383.9290338593
 20
176.0177153205
 30
0.0
 40
17.9320375267768
100
AcDbArc
 50
184.8078192075
 51
258.1436137329
  0
ARC
  5
DD
330
1F
100
AcDbEntity
  8
0
  6
Continuous
 62
     7
370
    15
100
AcDbCircle
 10
334.437426916
 20
183.1286111801
 30
0.0
 40
32.77485776972294
100
AcDbArc
 50
344.7626144464
 51
356.6227365069
  0
LWPOLYLINE
  5
DE
330
1F
100
AcDbEntity
  8
0
  6
Continuous
 62
     7
370
    15
100
AcDbPolyline
 90
        8
 70
   128
 43
0.0
 10
379.3960495782
 20
181.1978364267
 10
380.2122830343
 20
182.9184735097
 10
381.2789752078
 20
184.6338989116
 10
381.9252758217
 20
185.4026684441
 10
382.7749772859
 20
186.0853465177
 10
383.2882775855
 20
186.316273538
 10
383.7754039955
 20
186.4090928711
 10
383.9005290461
 20
186.4131310858
  0
ARC
  5
DF
330
1F
100
AcDbEntity
  8
0
  6
Continuous
 62
     7
370
    15
100
AcDbCircle
 10
383.2991392028
 20
207.7755343024
 30
0.0
 40
15.43062365932161
100
AcDbArc
 50
199.3019789475
 51
272.2335992199
  0
LWPOLYLINE
  5
E0
330
1F
100
AcDbEntity
  8
0
  6
Continuous
 62
     7
370
    15
100
AcDbPolyline
 90
        6
 70
   128
 43
0.0
 10
368.7358780694
 20
202.6749880888
 10
368.9728661371
 20
206.4211064853
 10
369.2532240343
 20
210.7477070667
 10
369.5555611444
 20
215.2485245742
 10
369.889011879
 20
220.00116053
 10
370.2474816633
 20
224.8854724594
  0
LINE
  5
E1
330
1F
100
AcDbEntity
  8
0
  6
Continuous
 62
     7
370
    15
100
AcDbLine
 10
368.7358780694
 20
202.6749880888
 30
0.0
 11
343.9005336654
 21
202.6749880888
 31
0.0
  0
LINE
  5
E2
330
1F
100
AcDbEntity
  8
0
  6
Continuous
 62
     7
370
    15
100
AcDbLine
 10
376.7655475927
 20
287.2268216588
 30
0.0
 11
343.9005336654
 21
287.2268216588
 31
0.0
  0
LINE
  5
E3
330
1F
100
AcDbEntity
  8
0
  6
Continuous
 62
     7
370
    15
100
AcDbLine
 10
343.9005336654
 20
204.7285543658
 30
0.0
 11
343.9005336654
 21
285.1732553818
 31
0.0
  0
LINE
  5
E4
330
1F
100
AcDbEntity
  8
0
  6
Continuous
 62
     7
370
    15
100
AcDbLine
 10
383.9005290461
 20
91.9509077348
 30
0.0
 11
335.6385177863
 21
91.9509077348
 31
0.0
  0
LINE
  5
E5
330
1F
100
AcDbEntity
  8
0
  6
Continuous
 62
     7
370
    15
100
AcDbLine
 10
335.6385177863
 20
107.9509103574
 30
0.0
 11
383.9005290461
 21
107.9509103574
 31
0.0
  0
LINE
  5
E6
330
1F
100
AcDbEntity
  8
0
  6
Continuous
 62
     7
370
    15
100
AcDbLine
 10
383.9005290461
 20
107.9509103574
 30
0.0
 11
383.9005290461
 21
91.9509077348
 31
0.0
  0
LINE
  5
E7
330
1F
100
AcDbEntity
  8
0
  6
Continuous
 62
     7
370
    15
100
AcDbLine
 10
432.1625514817
 20
91.9509077348
 30
0.0
 11
383.9005290461
 21
91.9509077348
 31
0.0
  0
LINE
  5
E8
330
1F
100
AcDbEntity
  8
0
  6
Continuous
 62
     7
370
    15
100
AcDbLine
 10
383.9005290461
 20
107.9509103574
 30
0.0
 11
432.1625514817
 21
107.9509103574
 31
0.0
  0
LINE
  5
E9
330
1F
100
AcDbEntity
  8
0
  6
Continuous
 62
     7
370
    15
100
AcDbLine
 10
383.9005290461
 20
381.9508993902
 30
0.0
 11
383.9005290461
 21
397.9509020128
 31
0.0
  0
LINE
  5
EA
330
1F
100
AcDbEntity
  8
0
  6
Continuous
 62
     7
370
    15
100
AcDbLine
 10
432.1625514817
 20
397.9509020128
 30
0.0
 11
383.9005290461
 21
397.9509020128
 31
0.0
  0
LINE
  5
EB
330
1F
100
AcDbEntity
  8
0
  6
Continuous
 62
     7
370
    15
100
AcDbLine
 10
383.9005290461
 20
381.9508993902
 30
0.0
 11
432.1625514817
 21
381.9508993902
 31
0.0
  0
LINE
  5
EC
330
1F
100
AcDbEntity
  8
0
  6
Continuous
 62
     7
370
    15
100
AcDbLine
 10
383.9005290461
 20
397.9509020128
 30
0.0
 11
335.6385177863
 21
397.9509020128
 31
0.0
  0
LINE
  5
ED
330
1F
100
AcDbEntity
  8
0
  6
Continuous
 62
     7
370
    15
100
AcDbLine
 10
335.6385177863
 20
381.9508993902
 30
0.0
 11
383.9005290461
 21
381.9508993902
 31
0.0
  0
LINE
  5
EE
330
1F
100
AcDbEntity
  8
0
  6
Continuous
 62
     7
370
    15
100
AcDbLine
 10
383.9005290461
 20
191.8044419863
 30
0.0
 11
383.9005290461
 21
192.3566343166
 31
0.0
  0
LINE
  5
EF
330
1F
100
AcDbEntity
  8
0
  6
Continuous
 62
     7
370
    15
100
AcDbLine
 10
383.9005290461
 20
191.8044419863
 30
0.0
 11
343.9005336654
 21
191.8044419863
 31
0.0
  0
LINE
  5
F0
330
1F
100
AcDbEntity
  8
0
  6
Continuous
 62
     7
370
    15
100
AcDbLine
 10
379.3960495782
 20
181.1978364267
 30
0.0
 11
343.9005336654
 21
181.1978364267
 31
0.0
  0
LINE
  5
F1
330
1F
100
AcDbEntity
  8
0
  6
Continuous
 62
     7
370
    15
100
AcDbLine
 10
383.9005290461
 20
186.4131310858
 30
0.0
 11
383.9005290461
 21
191.8044419863
 31
0.0
  0
LINE
  5
F2
330
1F
100
AcDbEntity
  8
0
  6
Continuous
 62
     7
370
    15
100
AcDbLine
 10
343.9005336654
 20
181.1978364267
 30
0.0
 11
343.9005336654
 21
191.8044419863
 31
0.0
  0
LINE
  5
F3
330
1F
100
AcDbEntity
  8
0
  6
Continuous
 62
     7
370
    15
100
AcDbLine
 10
383.9005290461
 20
289.3618674852
 30
0.0
 11
383.9005290461
 21
298.0973677613
 31
0.0
  0
LINE
  5
F4
330
1F
100
AcDbEntity
  8
0
  6
Continuous
 62
     7
370
    15
100
AcDbLine
 10
383.9005290461
 20
298.0973677613
 30
0.0
 11
343.9005336654
 21
298.0973677613
 31
0.0
  0
LINE
  5
F5
330
1F
100
AcDbEntity
  8
0
  6
Continuous
 62
     7
370
    15
100
AcDbLine
 10
383.9005290461
 20
298.0973677613
 30
0.0
 11
383.9005290461
 21
308.7039733209
 31
0.0
  0
LINE
  5
F6
330
1F
100
AcDbEntity
  8
0
  6
Continuous
 62
     7
370
    15
100
AcDbLine
 10
383.9005290461
 20
308.7039733209
 30
0.0
 11
343.9005336654
 21
308.7039733209
 31
0.0
  0
LINE
  5
F7
330
1F
100
AcDbEntity
  8
0
  6
Continuous
 62
     7
370
    15
100
AcDbLine
 10
343.9005336654
 20
298.0973677613
 30
0.0
 11
343.9005336654
 21
308.7039733209
 31
0.0
  0
ARC
  5
F8
330
1F
100
AcDbEntity
  8
0
  6
Continuous
 62
     7
370
    15
100
AcDbCircle
 10
194.1346602052
 20
249.8714518776
 30
0.0
 40
208.5809510818377
100
AcDbArc
 50
349.6311148914
 51
354.6710888733
  0
LINE
  5
F9
330
1F
100
AcDbEntity
  8
0
  6
Continuous
 62
     7
370
    15
100
AcDbLine
 10
396.0310502839
 20
270.5700037904
 30
0.0
 11
396.0310502839
 21
303.9708280839
 31
0.0
  0
LINE
  5
FA
330
1F
100
AcDbEntity
  8
0
  6
Continuous
 62
     7
370
    15
100
AcDbLine
 10
401.8141164375
 20
279.8220956601
 30
0.0
 11
396.0310502839
 21
303.9708280839
 31
0.0
  0
LINE
  5
FB
330
1F
100
AcDbEntity
  8
0
  6
Continuous
 62
     7
370
    15
100
AcDbLine
 10
401.8141164375
 20
230.4999105536
 30
0.0
 11
401.8141164375
 21
279.8220956601
 31
0.0
  0
ARC
  5
FC
330
1F
100
AcDbEntity
  8
0
  6
Continuous
 62
     7
370
    15
100
AcDbCircle
 10
448.3646679287
 20
-106.8270212757
 30
0.0
 40
414.1408179516831
100
AcDbArc
 50
97.2848788003
 51
97.6728026976
  0
LINE
  5
FD
330
1F
100
AcDbEntity
  8
0
  6
Continuous
 62
     7
370
    15
100
AcDbLine
 10
396.0310502839
 20
303.9708280839
 30
0.0
 11
395.8504407597
 21
303.9708280839
 31
0.0
  0
LINE
  5
FE
330
1F
100
AcDbEntity
  8
0
  6
Continuous
 62
     7
370
    15
100
AcDbLine
 10
335.6385177863
 20
397.9509020128
 30
0.0
 11
324.9757721019
 21
397.9509020128
 31
0.0
  0
LINE
  5
FF
330
1F
100
AcDbEntity
  8
0
  6
Continuous
 62
     7
370
    15
100
AcDbLine
 10
324.9757721019
 20
381.9508993902
 30
0.0
 11
335.6385177863
 21
381.9508993902
 31
0.0
  0
LINE
  5
100
330
1F
100
AcDbEntity
  8
0
  6
Continuous
 62
     7
370
    15
100
AcDbLine
 10
324.9757721019
 20
107.9509103574
 30
0.0
 11
335.6385177863
 21
107.9509103574
 31
0.0
  0
LINE
  5
101
330
1F
100
AcDbEntity
  8
0
  6
Continuous
 62
     7
370
    15
100
AcDbLine
 10
335.6385177863
 20
91.9509077348
 30
0.0
 11
324.9757721019
 21
91.9509077348
 31
0.0
  0
LINE
  5
102
330
1F
100
AcDbEntity
  8
0
  6
Continuous
 62
     7
370
    15
100
AcDbLine
 10
442.8253008914
 20
397.9509020128
 30
0.0
 11
432.1625514817
 21
397.9509020128
 31
0.0
  0
LINE
  5
103
330
1F
100
AcDbEntity
  8
0
  6
Continuous
 62
     7
370
    15
100
AcDbLine
 10
432.1625514817
 20
381.9508993902
 30
0.0
 11
442.8253008914
 21
381.9508993902
 31
0.0
  0
LINE
  5
104
330
1F
100
AcDbEntity
  8
0
  6
Continuous
 62
     7
370
    15
100
AcDbLine
 10
432.1625514817
 20
107.9509103574
 30
0.0
 11
442.8253008914
 21
107.9509103574
 31
0.0
  0
LINE
  5
105
330
1F
100
AcDbEntity
  8
0
  6
Continuous
 62
     7
370
    15
100
AcDbLine
 10
442.8253008914
 20
91.9509077348
 30
0.0
 11
432.1625514817
 21
91.9509077348
 31
0.0
  0
LINE
  5
106
330
1F
100
AcDbEntity
  8
0
  6
Continuous
 62
     7
370
    15
100
AcDbLine
 10
380.900530417
 20
311.0753217615
 30
0.0
 11
383.9005290461
 21
311.0753217615
 31
0.0
  0
LINE
  5
107
330
1F
100
AcDbEntity
  8
0
  6
Continuous
 62
     7
370
    15
100
AcDbLine
 10
380.900530417
 20
381.9508993902
 30
0.0
 11
380.900530417
 21
311.0753217615
 31
0.0
  0
LINE
  5
108
330
1F
100
AcDbEntity
  8
0
  6
Continuous
 62
     7
370
    15
100
AcDbLine
 10
386.9005351258
 20
381.9508993902
 30
0.0
 11
386.9005351258
 21
305.1627011873
 31
0.0
  0
LINE
  5
109
330
1F
100
AcDbEntity
  8
0
  6
Continuous
 62
     7
370
    15
100
AcDbLine
 10
380.900530417
 20
107.9509103574
 30
0.0
 11
380.900530417
 21
165.3786146917
 31
0.0
  0
LINE
  5
10A
330
1F
100
AcDbEntity
  8
0
  6
Continuous
 62
     7
370
    15
100
AcDbLine
 10
386.9005351258
 20
107.9509103574
 30
0.0
 11
386.9005351258
 21
165.3786146917
 31
0.0
  0
LWPOLYLINE
  5
10B
330
1F
100
AcDbEntity
  8
0
  6
Continuous
 62
     7
370
    15
100
AcDbPolyline
 90
        3
 70
   128
 43
0.0
 10
393.0951042962
 20
304.3601693489
 10
391.5067895246
 20
304.6794714309
 10
390.8832057309
 20
304.8215055742
  0
ARC
  5
10C
330
1F
100
AcDbEntity
  8
0
  6
Continuous
 62
     7
370
    15
100
AcDbCircle
 10
247.9704404503
 20
288.9790976167
 30
0.0
 40
145.9374709387942
100
AcDbArc
 50
0.0063768007
 51
6.0499215047
  0
LINE
  5
10D
330
1F
100
AcDbEntity
  8
0
  6
Continuous
 62
     7
370
    15
100
AcDbLine
 10
333.9005320263
 20
399.9509060659
 30
0.0
 11
433.9005335164
 21
399.9509060659
 31
0.0
  0
LINE
  5
10E
330
1F
100
AcDbEntity
  8
0
  6
Continuous
 62
     7
370
    15
100
AcDbLine
 10
333.9005320263
 20
89.9509036817
 30
0.0
 11
433.9005335164
 21
89.9509036817
 31
0.0
  0
LINE
  5
10F
330
1F
100
AcDbEntity
  8
0
  6
Continuous
 62
     7
370
    15
100
AcDbLine
 10
316.4005319518
 20
381.9508993902
 30
0.0
 11
316.4005319518
 21
397.9509020128
 31
0.0
  0
LINE
  5
110
330
1F
100
AcDbEntity
  8
0
  6
Continuous
 62
     7
370
    15
100
AcDbLine
 10
324.9757721019
 20
397.9509020128
 30
0.0
 11
316.4005319518
 21
397.9509020128
 31
0.0
  0
LINE
  5
111
330
1F
100
AcDbEntity
  8
0
  6
Continuous
 62
     7
370
    15
100
AcDbLine
 10
316.4005319518
 20
381.9508993902
 30
0.0
 11
324.9757721019
 21
381.9508993902
 31
0.0
  0
LINE
  5
112
330
1F
100
AcDbEntity
  8
0
  6
Continuous
 62
     7
370
    15
100
AcDbLine
 10
316.4005319518
 20
107.9509103574
 30
0.0
 11
316.4005319518
 21
91.9509077348
 31
0.0
  0
LINE
  5
113
330
1F
100
AcDbEntity
  8
0
  6
Continuous
 62
     7
370
    15
100
AcDbLine
 10
316.4005319518
 20
107.9509103574
 30
0.0
 11
324.9757721019
 21
107.9509103574
 31
0.0
  0
LINE
  5
114
330
1F
100
AcDbEntity
  8
0
  6
Continuous
 62
     7
370
    15
100
AcDbLine
 10
324.9757721019
 20
91.9509077348
 30
0.0
 11
316.4005319518
 21
91.9509077348
 31
0.0
  0
LINE
  5
115
330
1F
100
AcDbEntity
  8
0
  6
Continuous
 62
     7
370
    15
100
AcDbLine
 10
451.4005317283
 20
381.9508993902
 30
0.0
 11
451.4005317283
 21
397.9509020128
 31
0.0
  0
LINE
  5
116
330
1F
100
AcDbEntity
  8
0
  6
Continuous
 62
     7
370
    15
100
AcDbLine
 10
451.4005317283
 20
397.9509020128
 30
0.0
 11
442.8253008914
 21
397.9509020128
 31
0.0
  0
LINE
  5
117
330
1F
100
AcDbEntity
  8
0
  6
Continuous
 62
     7
370
    15
100
AcDbLine
 10
442.8253008914
 20
381.9508993902
 30
0.0
 11
451.4005317283
 21
381.9508993902
 31
0.0
  0
LINE
  5
118
330
1F
100
AcDbEntity
  8
0
  6
Continuous
 62
     7
370
    15
100
AcDbLine
 10
451.4005317283
 20
107.9509103574
 30
0.0
 11
451.4005317283
 21
91.9509077348
 31
0.0
  0
LINE
  5
119
330
1F
100
AcDbEntity
  8
0
  6
Continuous
 62
     7
370
    15
100
AcDbLine
 10
442.8253008914
 20
107.9509103574
 30
0.0
 11
451.4005317283
 21
107.9509103574
 31
0.0
  0
LINE
  5
11A
330
1F
100
AcDbEntity
  8
0
  6
Continuous
 62
     7
370
    15
100
AcDbLine
 10
451.4005317283
 20
91.9509077348
 30
0.0
 11
442.8253008914
 21
91.9509077348
 31
0.0
  0
LINE
  5
11B
330
1F
100
AcDbEntity
  8
0
  6
Continuous
 62
     7
370
    15
100
AcDbLine
 10
357.4397697044
 20
174.5147624888
 30
0.0
 11
366.060091455
 21
174.5147624888
 31
0.0
  0
LINE
  5
11C
330
1F
100
AcDbEntity
  8
0
  6
Continuous
 62
     7
370
    15
100
AcDbLine
 10
343.9005336654
 20
174.4509035625
 30
0.0
 11
343.9005336654
 21
181.1978364267
 31
0.0
  0
LINE
  5
11D
330
1F
100
AcDbEntity
  8
0
  6
Continuous
 62
     7
370
    15
100
AcDbLine
 10
362.8900482249
 20
315.3870472588
 30
0.0
 11
357.4397697044
 21
315.3870472588
 31
0.0
  0
LWPOLYLINE
  5
11E
330
1F
100
AcDbEntity
  8
0
  6
Continuous
 62
     7
370
    15
100
AcDbPolyline
 90
        9
 70
   128
 43
0.0
 10
380.900530417
 20
312.3458767213
 10
377.9215051723
 20
312.5743562259
 10
375.1562817884
 20
312.9144975819
 10
372.597208519
 20
313.3288690724
 10
369.9519469333
 20
313.84586486
 10
367.64857759
 20
314.3541434683
 10
365.4086126876
 20
314.8736873545
 10
363.6777236057
 20
315.2515733518
 10
362.8900482249
 20
315.3870472588
  0
LINE
  5
11F
330
1F
100
AcDbEntity
  8
0
  6
Continuous
 62
     7
370
    15
100
AcDbLine
 10
383.9005290461
 20
308.7039733209
 30
0.0
 11
383.9005290461
 21
311.0753217615
 31
0.0
  0
LINE
  5
120
330
1F
100
AcDbEntity
  8
0
  6
Continuous
 62
     7
370
    15
100
AcDbLine
 10
343.9005336654
 20
308.7039733209
 30
0.0
 11
343.9005336654
 21
315.4509061851
 31
0.0
  0
LINE
  5
121
330
1F
100
AcDbEntity
  8
0
  6
Continuous
 62
     7
370
    15
100
AcDbLine
 10
401.8141164375
 20
230.4999105536
 30
0.0
 11
411.9005336356
 21
230.4999105536
 31
0.0
  0
LINE
  5
122
330
1F
100
AcDbEntity
  8
0
  6
Continuous
 62
     7
370
    15
100
AcDbLine
 10
401.8141164375
 20
279.8220956601
 30
0.0
 11
407.2890638304
 21
279.8220956601
 31
0.0
  0
LINE
  5
123
330
1F
100
AcDbEntity
  8
0
  6
Continuous
 62
     7
370
    15
100
AcDbLine
 10
411.9005336356
 20
279.9509050228
 30
0.0
 11
411.9005336356
 21
230.4999263861
 31
0.0
  0
LWPOLYLINE
  5
124
330
1F
100
AcDbEntity
  8
0
  6
Continuous
 62
     7
370
    15
100
AcDbPolyline
 90
        4
 70
   128
 43
0.0
 10
411.9005336356
 20
170.9723392405
 10
410.8206911874
 20
169.3367952384
 10
408.755993743
 20
166.1984318771
 10
407.943060894
 20
164.964921204
  0
LINE
  5
125
330
1F
100
AcDbEntity
  8
0
  6
Continuous
 62
     7
370
    15
100
AcDbLine
 10
407.943060894
 20
164.964921204
 30
0.0
 11
386.9005351258
 21
164.964921204
 31
0.0
  0
LINE
  5
126
330
1F
100
AcDbEntity
  8
0
  6
Continuous
 62
     7
370
    15
100
AcDbLine
 10
411.9005336356
 20
230.4999254547
 30
0.0
 11
411.9005336356
 21
170.9894606747
 31
0.0
  0
ARC
  5
127
330
1F
100
AcDbEntity
  8
0
  6
Continuous
 62
     7
370
    15
100
AcDbCircle
 10
485.5866113932
 20
215.4687067883
 30
0.0
 40
31.66917161094936
100
AcDbArc
 50
159.8259774847
 51
178.1322177196
  0
ARC
  5
128
330
1F
100
AcDbEntity
  8
0
  6
Continuous
 62
     7
370
    15
100
AcDbCircle
 10
477.57774893
 20
215.9566619577
 30
0.0
 40
23.6497464363915
100
AcDbArc
 50
178.6813548797
 51
203.304648655
  0
LWPOLYLINE
  5
129
330
1F
100
AcDbEntity
  8
0
  6
Continuous
 62
     7
370
    15
100
AcDbPolyline
 90
       13
 70
   128
 43
0.0
 10
455.8999820543
 20
200.5456047036
 10
455.9005333972
 20
200.5458878257
 10
455.3724660468
 20
200.2711402156
 10
453.8415654493
 20
199.4613068082
 10
451.394124229
 20
198.1456460335
 10
448.1244667363
 20
196.3630573727
 10
444.1343977046
 20
194.1614480593
 10
439.5326658082
 20
191.5970178224
 10
434.4340099883
 20
188.7332232572
 10
428.958146174
 20
185.6394851484
 10
423.2286198926
 20
182.3898026623
 10
417.3715694738
 20
179.0613302864
 10
411.9005336356
 20
175.9520986952
  0
LINE
  5
12A
330
1F
100
AcDbEntity
  8
0
  6
Continuous
 62
     7
370
    15
100
AcDbLine
 10
411.9005336356
 20
164.9303654112
 30
0.0
 11
410.630172391
 21
164.964921204
 31
0.0
  0
LINE
  5
12B
330
1F
100
AcDbEntity
  8
0
  6
Continuous
 62
     7
370
    15
100
AcDbLine
 10
411.9005336356
 20
168.6216587104
 30
0.0
 11
411.9005336356
 21
168.5981074251
 31
0.0
  0
LINE
  5
12C
330
1F
100
AcDbEntity
  8
0
  6
Continuous
 62
     7
370
    15
100
AcDbLine
 10
410.630172391
 20
164.964921204
 30
0.0
 11
411.9005336356
 21
168.6216587104
 31
0.0
  0
ARC
  5
12D
330
1F
100
AcDbEntity
  8
0
  6
Continuous
 62
     7
370
    15
100
AcDbCircle
 10
409.019625936
 20
98.3812108014
 30
0.0
 40
66.59241310588925
100
AcDbArc
 50
90.9263115355
 51
109.3997076428
  0
LINE
  5
12E
330
1F
100
AcDbEntity
  8
0
  6
Continuous
 62
     7
370
    15
100
AcDbLine
 10
411.9005336356
 20
168.5981148757
 30
0.0
 11
411.9005336356
 21
164.964921204
 31
0.0
  0
LINE
  5
12F
330
1F
100
AcDbEntity
  8
0
  6
Continuous
 62
     7
370
    15
100
AcDbLine
 10
411.9005336356
 20
164.964921204
 30
0.0
 11
410.630172391
 21
164.964921204
 31
0.0
  0
LWPOLYLINE
  5
130
330
1F
100
AcDbEntity
  8
0
  6
Continuous
 62
     7
370
    15
100
AcDbPolyline
 90
       10
 70
   128
 43
0.0
 10
379.048398037
 20
157.6833421268
 10
372.4310233188
 20
152.4215036907
 10
366.7065410805
 20
146.1996579446
 10
363.2279618573
 20
141.2098476567
 10
360.3152393294
 20
135.8480224289
 10
358.0209038151
 20
130.2144223728
 10
356.3882804406
 20
124.3175709523
 10
355.4181366158
 20
118.2540649452
 10
355.0583443535
 20
112.1372425832
 10
355.0450413418
 20
107.9509103574
  0
LINE
  5
131
330
1F
100
AcDbEntity
  8
0
  6
Continuous
 62
     7
370
    15
100
AcDbLine
 10
411.9005336356
 20
164.964921204
 30
0.0
 11
411.9005336356
 21
164.9303654112
 31
0.0
  0
LWPOLYLINE
  5
132
330
1F
100
AcDbEntity
  8
0
  6
Continuous
 62
     7
370
    15
100
AcDbPolyline
 90
        3
 70
   128
 43
0.0
 10
356.1357988906
 20
381.9508993902
 10
357.3713249457
 20
361.6526940741
 10
358.8527797652
 20
337.5399703063
  0
LWPOLYLINE
  5
133
330
1F
100
AcDbEntity
  8
0
  6
Continuous
 62
     7
370
    15
100
AcDbPolyline
 90
        8
 70
   128
 43
0.0
 10
380.900530417
 20
323.6022436895
 10
376.6600175691
 20
324.3064502157
 10
372.6976199937
 20
325.5014488377
 10
369.0995185566
 20
327.0809793748
 10
365.9232242894
 20
328.9644861497
 10
362.7285196376
 20
331.5666535773
 10
360.337203641
 20
334.4517642535
 10
358.8527797652
 20
337.5399703063
  0
LINE
  5
134
330
1F
100
AcDbEntity
  8
0
  6
Continuous
 62
     7
370
    15
100
AcDbLine
 10
410.9175487352
 20
369.6478450574
 30
0.0
 11
411.6652666521
 21
381.9508993902
 31
0.0
  0
LWPOLYLINE
  5
135
330
1F
100
AcDbEntity
  8
0
  6
Continuous
 62
     7
370
    15
100
AcDbPolyline
 90
       18
 70
   128
 43
0.0
 10
409.115871687
 20
340.253963498
 10
408.9682831359
 20
340.4634887256
 10
408.488421042
 20
341.2230679669
 10
407.8937678528
 20
342.2857368268
 10
407.1808441472
 20
343.7371620812
 10
406.4599930239
 20
345.475531546
 10
405.7503848267
 20
347.676351098
 10
405.2264450979
 20
350.1411447205
 10
405.0212039542
 20
352.1450975813
 10
405.0141482544
 20
354.2114341535
 10
405.2198662353
 20
356.282010106
 10
405.6142105651
 20
358.3017209448
 10
406.8496062351
 20
362.1057340779
 10
407.7273889375
 20
364.0966186203
 10
408.6213766527
 20
365.8547470249
 10
409.5692693186
 20
367.5293767728
 10
410.3618099284
 20
368.8136408009
 10
410.9175487352
 20
369.6478450574
  0
LINE
  5
136
330
1F
100
AcDbEntity
  8
0
  6
Continuous
 62
     7
370
    15
100
AcDbLine
 10
408.9482932282
 20
337.5399703063
 30
0.0
 11
409.115871687
 21
340.253963498
 31
0.0
  0
LWPOLYLINE
  5
137
330
1F
100
AcDbEntity
  8
0
  6
Continuous
 62
     7
370
    15
100
AcDbPolyline
 90
        8
 70
   128
 43
0.0
 10
408.9482932282
 20
337.5399703063
 10
407.4638544512
 20
334.4517717041
 10
405.0725608063
 20
331.5666386761
 10
401.8777816487
 20
328.9645234026
 10
398.7014650297
 20
327.0810240783
 10
395.1034380985
 20
325.5014413871
 10
391.1410554242
 20
324.3064576663
 10
386.9005351258
 20
323.6022809424
  0
LWPOLYLINE
  5
138
330
1F
100
AcDbEntity
  8
0
  6
Continuous
 62
     7
370
    15
100
AcDbPolyline
 90
        5
 70
   128
 43
0.0
 10
358.8527797652
 20
337.5399703063
 10
359.4645059598
 20
330.043777255
 10
360.6561480952
 20
322.5805828251
 10
361.6032808018
 20
318.9464652814
 10
362.8900482249
 20
315.3870472588
  0
LWPOLYLINE
  5
139
330
1F
100
AcDbEntity
  8
0
  6
Continuous
 62
     7
370
    15
100
AcDbPolyline
 90
        8
 70
   128
 43
0.0
 10
395.8504407597
 20
303.9708280839
 10
399.318499763
 20
306.8613404311
 10
401.8031417322
 20
309.8082387723
 10
403.8280083728
 20
313.0912849583
 10
406.1350583029
 20
318.7495911397
 10
407.570233841
 20
324.7074926175
 10
408.4553479147
 20
331.1004707493
 10
408.9482932282
 20
337.5399703063
  0
LINE
  5
13A
330
1F
100
AcDbEntity
  8
0
  6
Continuous
 62
     7
370
    15
100
AcDbLine
 10
423.4817310167
 20
340.253963498
 30
0.0
 11
409.115871687
 21
340.253963498
 31
0.0
  0
LINE
  5
13B
330
1F
100
AcDbEntity
  8
0
  6
Continuous
 62
     7
370
    15
100
AcDbLine
 10
410.9175487352
 20
369.6478450574
 30
0.0
 11
423.900528152
 21
369.6478450574
 31
0.0
  0
LINE
  5
13C
330
1F
100
AcDbEntity
  8
0
  6
Continuous
 62
     7
370
    15
100
AcDbLine
 10
423.900528152
 20
369.6478450574
 30
0.0
 11
423.900528152
 21
339.9509036817
 31
0.0
  0
LINE
  5
13D
330
1F
100
AcDbEntity
  8
0
  6
Continuous
 62
     7
370
    15
100
AcDbLine
 10
461.9005306554
 20
226.5009054817
 30
0.0
 11
461.9005306554
 21
206.5009059288
 31
0.0
  0
LINE
  5
13E
330
1F
100
AcDbEntity
  8
0
  6
Continuous
 62
     7
370
    15
100
AcDbLine
 10
380.2447303128
 20
158.4682458915
 30
0.0
 11
379.048398037
 21
157.6833421268
 31
0.0
  0
LINE
  5
13F
330
1F
100
AcDbEntity
  8
0
  6
Continuous
 62
     7
370
    15
100
AcDbLine
 10
423.900528152
 20
381.9508993902
 30
0.0
 11
423.900528152
 21
369.6478450574
 31
0.0
  0
LINE
  5
140
330
1F
100
AcDbEntity
  8
0
  6
Continuous
 62
     7
370
    15
100
AcDbLine
 10
326.4005317283
 20
381.9508993902
 30
0.0
 11
357.4397697044
 21
315.3870472588
 31
0.0
  0
LINE
  5
141
330
1F
100
AcDbEntity
  8
0
  6
Continuous
 62
     7
370
    15
100
AcDbLine
 10
423.4817310167
 20
340.253963498
 30
0.0
 11
407.2890638304
 21
279.8220956601
 31
0.0
  0
LINE
  5
142
330
1F
100
AcDbEntity
  8
0
  6
Continuous
 62
     7
370
    15
100
AcDbLine
 10
326.4005317283
 20
107.9509103574
 30
0.0
 11
357.4397697044
 21
174.5147624888
 31
0.0
  0
LINE
  5
143
330
1F
100
AcDbEntity
  8
0
  6
Continuous
 62
     7
370
    15
100
AcDbLine
 10
133.3472116781
 20
307.3267819263
 30
0.0
 11
108.4005369735
 21
307.3267819263
 31
0.0
  0
LINE
  5
144
330
1F
100
AcDbEntity
  8
0
  6
Continuous
 62
     7
370
    15
100
AcDbLine
 10
137.400536139
 20
313.9509031452
 30
0.0
 11
137.400536139
 21
175.9509066023
 31
0.0
  0
ARC
  5
145
330
1F
100
AcDbEntity
  8
0
  6
Continuous
 62
     7
370
    15
100
AcDbCircle
 10
133.6131719814
 20
299.2008072129
 30
0.0
 40
8.130325942198978
100
AcDbArc
 50
91.8746015899
 51
169.1149974348
  0
LINE
  5
146
330
1F
100
AcDbEntity
  8
0
  6
Continuous
 62
     7
370
    15
100
AcDbLine
 10
121.4005335164
 20
265.9509045907
 30
0.0
 11
121.4005335164
 21
213.4208934285
 31
0.0
  0
ARC
  5
147
330
1F
100
AcDbEntity
  8
0
  6
Continuous
 62
     7
370
    15
100
AcDbCircle
 10
280.6769050328
 20
264.6565699506
 30
0.0
 40
159.1902894335348
100
AcDbArc
 50
166.9004183863
 51
179.5341378576
  0
LWPOLYLINE
  5
148
330
1F
100
AcDbEntity
  8
0
  6
Continuous
 62
     7
370
    15
100
AcDbPolyline
 90
        7
 70
   128
 43
0.0
 10
108.4005369735
 20
307.3267819263
 10
107.5212343526
 20
307.2432907202
 10
106.743736465
 20
307.0099869646
 10
106.0973836971
 20
306.6405834533
 10
105.6127532315
 20
306.1171093859
 10
105.400545795
 20
305.4034219958
 10
105.4005308938
 20
305.3971635081
  0
LINE
  5
149
330
1F
100
AcDbEntity
  8
0
  6
Continuous
 62
     7
370
    15
100
AcDbLine
 10
105.4005308938
 20
305.3971635081
 30
0.0
 11
105.4005308938
 21
310.9509045162
 31
0.0
  0
LINE
  5
14A
330
1F
100
AcDbEntity
  8
0
  6
Continuous
 62
     7
370
    15
100
AcDbLine
 10
121.4918776345
 20
265.9509045907
 30
0.0
 11
108.4005369735
 21
265.9509045907
 31
0.0
  0
LINE
  5
14B
330
1F
100
AcDbEntity
  8
0
  6
Continuous
 62
     7
370
    15
100
AcDbLine
 10
105.4005308938
 20
268.9509050824
 30
0.0
 11
105.4005308938
 21
305.3971635081
 31
0.0
  0
ARC
  5
14C
330
1F
100
AcDbEntity
  8
0
  6
Continuous
 62
     7
370
    15
100
AcDbCircle
 10
108.4005325628
 20
268.9509048738
 30
0.0
 40
3.0
100
AcDbArc
 50
180.0
 51
270.0000000022
  0
LINE
  5
14D
330
1F
100
AcDbEntity
  8
0
  6
Continuous
 62
     7
370
    15
100
AcDbLine
 10
113.4005322051
 20
244.9509048738
 30
0.0
 11
113.4005322051
 21
265.9509045907
 31
0.0
  0
LINE
  5
14E
330
1F
100
AcDbEntity
  8
0
  6
Continuous
 62
     7
370
    15
100
AcDbLine
 10
110.4005261255
 20
244.9509048738
 30
0.0
 11
113.4005322051
 21
244.9509048738
 31
0.0
  0
LINE
  5
14F
330
1F
100
AcDbEntity
  8
0
  6
Continuous
 62
     7
370
    15
100
AcDbLine
 10
110.4005261255
 20
221.9509048291
 30
0.0
 11
110.4005261255
 21
244.9509048738
 31
0.0
  0
LWPOLYLINE
  5
150
330
1F
100
AcDbEntity
  8
0
  6
Continuous
 62
     7
370
    15
100
AcDbPolyline
 90
        6
 70
   128
 43
0.0
 10
152.4005367351
 20
194.7078363873
 10
152.541322906
 20
195.274892626
 10
152.9479904962
 20
195.7841472604
 10
153.5745694232
 20
196.1749935426
 10
154.3506517005
 20
196.40010911
 10
154.9005343509
 20
196.4433783569
  0
LINE
  5
151
330
1F
100
AcDbEntity
  8
0
  6
Continuous
 62
     7
370
    15
100
AcDbLine
 10
152.4005367351
 20
193.3261746444
 30
0.0
 11
152.4005367351
 21
194.7078363873
 31
0.0
  0
LWPOLYLINE
  5
152
330
1F
100
AcDbEntity
  8
0
  6
Continuous
 62
     7
370
    15
100
AcDbPolyline
 90
        6
 70
   128
 43
0.0
 10
154.9005343509
 20
191.714122323
 10
154.0730281663
 20
191.8031120576
 10
153.338818152
 20
192.0613082029
 10
152.7807249618
 20
192.462790189
 10
152.461631496
 20
192.9658794679
 10
152.4005367351
 20
193.3261746444
  0
LINE
  5
153
330
1F
100
AcDbEntity
  8
0
  6
Continuous
 62
     7
370
    15
100
AcDbLine
 10
174.9005301786
 20
191.714122323
 30
0.0
 11
154.9005343509
 21
191.714122323
 31
0.0
  0
LWPOLYLINE
  5
154
330
1F
100
AcDbEntity
  8
0
  6
Continuous
 62
     7
370
    15
100
AcDbPolyline
 90
        6
 70
   128
 43
0.0
 10
177.400535245
 20
193.3261746444
 10
177.259749074
 20
192.785005448
 10
176.8530665827
 20
192.3111336209
 10
176.2264951062
 20
191.9549809672
 10
175.4504128289
 20
191.7527535834
 10
174.9005301786
 20
191.714122323
  0
LINE
  5
155
330
1F
100
AcDbEntity
  8
0
  6
Continuous
 62
     7
370
    15
100
AcDbLine
 10
177.400535245
 20
194.7078363873
 30
0.0
 11
177.400535245
 21
193.3261746444
 31
0.0
  0
LWPOLYLINE
  5
156
330
1F
100
AcDbEntity
  8
0
  6
Continuous
 62
     7
370
    15
100
AcDbPolyline
 90
        6
 70
   128
 43
0.0
 10
174.9005301786
 20
196.4433783569
 10
175.7280363631
 20
196.3438348748
 10
176.4622463775
 20
196.0575649418
 10
177.0203470183
 20
195.619847057
 10
177.3394330335
 20
195.083673475
 10
177.400535245
 20
194.7078363873
  0
LINE
  5
157
330
1F
100
AcDbEntity
  8
0
  6
Continuous
 62
     7
370
    15
100
AcDbLine
 10
174.9005301786
 20
196.4433783569
 30
0.0
 11
154.9005343509
 21
196.4433783569
 31
0.0
  0
ARC
  5
158
330
1F
100
AcDbEntity
  8
0
  6
Continuous
 62
     7
370
    15
100
AcDbCircle
 10
280.4265025101
 20
181.3574825064
 30
0.0
 40
3.860901242858401
100
AcDbArc
 50
262.1702574688
 51
300.7496248846
  0
LINE
  5
159
330
1F
100
AcDbEntity
  8
0
  6
Continuous
 62
     7
370
    15
100
AcDbLine
 10
282.400532898
 20
178.0393863
 30
0.0
 11
282.400532898
 21
178.5244488992
 31
0.0
  0
LWPOLYLINE
  5
15A
330
1F
100
AcDbEntity
  8
0
  6
Continuous
 62
     7
370
    15
100
AcDbPolyline
 90
        6
 70
   128
 43
0.0
 10
279.9005324883
 20
179.1929000892
 10
280.7280368102
 20
179.152897922
 10
281.4622486872
 20
179.0389487423
 10
282.020346534
 20
178.8679206647
 10
282.3394297552
 20
178.6638418116
 10
282.400532898
 20
178.5244488992
  0
LINE
  5
15B
330
1F
100
AcDbEntity
  8
0
  6
Continuous
 62
     7
370
    15
100
AcDbLine
 10
271.9005330396
 20
179.1929000892
 30
0.0
 11
279.9005324883
 21
179.1929000892
 31
0.0
  0
ARC
  5
15C
330
1F
100
AcDbEntity
  8
0
  6
Continuous
 62
     7
370
    15
100
AcDbCircle
 10
271.4246172237
 20
175.9636042128
 30
0.0
 40
3.264176423127394
100
AcDbArc
 50
81.6164114796
 51
128.3227600065
  0
LINE
  5
15D
330
1F
100
AcDbEntity
  8
0
  6
Continuous
 62
     7
370
    15
100
AcDbLine
 10
269.4005316985
 20
178.0393863
 30
0.0
 11
269.4005316985
 21
178.5244488992
 31
0.0
  0
LWPOLYLINE
  5
15E
330
1F
100
AcDbEntity
  8
0
  6
Continuous
 62
     7
370
    15
100
AcDbPolyline
 90
        6
 70
   128
 43
0.0
 10
271.9005330396
 20
177.5325754561
 10
271.0730287177
 20
177.5587642469
 10
270.3388168407
 20
177.635967163
 10
269.7807180625
 20
177.759557394
 10
269.4616357726
 20
177.9203409232
 10
269.4005316985
 20
178.0393863
  0
LINE
  5
15F
330
1F
100
AcDbEntity
  8
0
  6
Continuous
 62
     7
370
    15
100
AcDbLine
 10
271.9005330396
 20
177.5325754561
 30
0.0
 11
279.9005324883
 21
177.5325754561
 31
0.0
  0
ARC
  5
160
330
1F
100
AcDbEntity
  8
0
  6
Continuous
 62
     7
370
    15
100
AcDbCircle
 10
259.8001501734
 20
221.0974018641
 30
0.0
 40
2.4006800285459
100
AcDbArc
 50
181.7053631524
 51
272.3964372815
  0
LINE
  5
161
330
1F
100
AcDbEntity
  8
0
  6
Continuous
 62
     7
370
    15
100
AcDbLine
 10
259.9005310726
 20
218.6988213934
 30
0.0
 11
279.9005324883
 21
218.6988213934
 31
0.0
  0
ARC
  5
162
330
1F
100
AcDbEntity
  8
0
  6
Continuous
 62
     7
370
    15
100
AcDbCircle
 10
279.9750280767
 20
221.1252128613
 30
0.0
 40
2.42753478824045
100
AcDbArc
 50
268.241445169
 51
357.6566905281
  0
LINE
  5
163
330
1F
100
AcDbEntity
  8
0
  6
Continuous
 62
     7
370
    15
100
AcDbLine
 10
282.400532898
 20
221.0259580888
 30
0.0
 11
282.400532898
 21
222.9698946603
 31
0.0
  0
ARC
  5
164
330
1F
100
AcDbEntity
  8
0
  6
Continuous
 62
     7
370
    15
100
AcDbCircle
 10
279.9634508819
 20
222.9158135918
 30
0.0
 40
2.437681996334309
100
AcDbArc
 50
1.271236866
 51
91.4790111276
  0
LINE
  5
165
330
1F
100
AcDbEntity
  8
0
  6
Continuous
 62
     7
370
    15
100
AcDbLine
 10
259.9005310726
 20
225.3526834674
 30
0.0
 11
279.9005324883
 21
225.3526834674
 31
0.0
  0
ARC
  5
166
330
1F
100
AcDbEntity
  8
0
  6
Continuous
 62
     7
370
    15
100
AcDbCircle
 10
259.854979865
 20
222.8975949756
 30
0.0
 40
2.455511029342195
100
AcDbArc
 50
88.9370678335
 51
178.3127481322
  0
LINE
  5
167
330
1F
100
AcDbEntity
  8
0
  6
Continuous
 62
     7
370
    15
100
AcDbLine
 10
257.4005334568
 20
222.9698946603
 30
0.0
 11
257.4005334568
 21
221.0259580888
 31
0.0
  0
ARC
  5
168
330
1F
100
AcDbEntity
  8
0
  6
Continuous
 62
     7
370
    15
100
AcDbCircle
 10
259.6494470195
 20
206.1988335708
 30
0.0
 40
2.259010014409514
100
AcDbArc
 50
185.419070808
 51
276.3814869572
  0
LINE
  5
169
330
1F
100
AcDbEntity
  8
0
  6
Continuous
 62
     7
370
    15
100
AcDbLine
 10
259.9005310726
 20
203.9538206436
 30
0.0
 11
279.9005324883
 21
203.9538206436
 31
0.0
  0
ARC
  5
16A
330
1F
100
AcDbEntity
  8
0
  6
Continuous
 62
     7
370
    15
100
AcDbCircle
 10
280.086098718
 20
206.279457219
 30
0.0
 40
2.333028140996066
100
AcDbArc
 50
265.4379442668
 51
352.7614352882
  0
LINE
  5
16B
330
1F
100
AcDbEntity
  8
0
  6
Continuous
 62
     7
370
    15
100
AcDbLine
 10
282.400532898
 20
205.9854933895
 30
0.0
 11
282.400532898
 21
207.7006989993
 31
0.0
  0
ARC
  5
16C
330
1F
100
AcDbEntity
  8
0
  6
Continuous
 62
     7
370
    15
100
AcDbCircle
 10
280.0956465511
 20
207.521141035
 30
0.0
 40
2.311869835169047
100
AcDbArc
 50
4.4545263087
 51
94.8413306316
  0
LINE
  5
16D
330
1F
100
AcDbEntity
  8
0
  6
Continuous
 62
     7
370
    15
100
AcDbLine
 10
259.9005310726
 20
209.82476267
 30
0.0
 11
279.9005324883
 21
209.82476267
 31
0.0
  0
ARC
  5
16E
330
1F
100
AcDbEntity
  8
0
  6
Continuous
 62
     7
370
    15
100
AcDbCircle
 10
259.7584576995
 20
207.4587158074
 30
0.0
 40
2.370308545165993
100
AcDbArc
 50
86.5637019131
 51
174.1405043387
  0
LINE
  5
16F
330
1F
100
AcDbEntity
  8
0
  6
Continuous
 62
     7
370
    15
100
AcDbLine
 10
257.4005334568
 20
207.7006989993
 30
0.0
 11
257.4005334568
 21
205.9854933895
 31
0.0
  0
LWPOLYLINE
  5
170
330
1F
100
AcDbEntity
  8
0
  6
Continuous
 62
     7
370
    15
100
AcDbPolyline
 90
        6
 70
   128
 43
0.0
 10
259.9005310726
 20
191.714122323
 10
259.0730286134
 20
191.8031120576
 10
258.338818599
 20
192.0613082029
 10
257.7807179582
 20
192.462790189
 10
257.4616356683
 20
192.9658794679
 10
257.4005334568
 20
193.3261746444
  0
LINE
  5
171
330
1F
100
AcDbEntity
  8
0
  6
Continuous
 62
     7
370
    15
100
AcDbLine
 10
259.9005310726
 20
191.714122323
 30
0.0
 11
279.9005324883
 21
191.714122323
 31
0.0
  0
LWPOLYLINE
  5
172
330
1F
100
AcDbEntity
  8
0
  6
Continuous
 62
     7
370
    15
100
AcDbPolyline
 90
        6
 70
   128
 43
0.0
 10
282.400532898
 20
193.3261746444
 10
282.2597467271
 20
192.785005448
 10
281.8530688924
 20
192.3111336209
 10
281.2264974159
 20
191.9549809672
 10
280.4504095507
 20
191.7527535834
 10
279.9005324883
 20
191.714122323
  0
LINE
  5
173
330
1F
100
AcDbEntity
  8
0
  6
Continuous
 62
     7
370
    15
100
AcDbLine
 10
282.400532898
 20
193.3261746444
 30
0.0
 11
282.400532898
 21
194.7078363873
 31
0.0
  0
LWPOLYLINE
  5
174
330
1F
100
AcDbEntity
  8
0
  6
Continuous
 62
     7
370
    15
100
AcDbPolyline
 90
        6
 70
   128
 43
0.0
 10
279.9005324883
 20
196.4433783569
 10
280.7280368102
 20
196.3438348748
 10
281.4622486872
 20
196.0575649418
 10
282.020346534
 20
195.619847057
 10
282.3394297552
 20
195.083673475
 10
282.400532898
 20
194.7078363873
  0
LINE
  5
175
330
1F
100
AcDbEntity
  8
0
  6
Continuous
 62
     7
370
    15
100
AcDbLine
 10
259.9005310726
 20
196.4433783569
 30
0.0
 11
279.9005324883
 21
196.4433783569
 31
0.0
  0
LWPOLYLINE
  5
176
330
1F
100
AcDbEntity
  8
0
  6
Continuous
 62
     7
370
    15
100
AcDbPolyline
 90
        6
 70
   128
 43
0.0
 10
257.4005334568
 20
194.7078363873
 10
257.5413196278
 20
195.274892626
 10
257.9479946685
 20
195.7841472604
 10
258.574566145
 20
196.1749935426
 10
259.3506558728
 20
196.40010911
 10
259.9005310726
 20
196.4433783569
  0
LINE
  5
177
330
1F
100
AcDbEntity
  8
0
  6
Continuous
 62
     7
370
    15
100
AcDbLine
 10
257.4005334568
 20
194.7078363873
 30
0.0
 11
257.4005334568
 21
193.3261746444
 31
0.0
  0
LWPOLYLINE
  5
178
330
1F
100
AcDbEntity
  8
0
  6
Continuous
 62
     7
370
    15
100
AcDbPolyline
 90
        6
 70
   128
 43
0.0
 10
282.400532898
 20
183.8216068126
 10
282.2597467271
 20
183.4505380966
 10
281.8530688924
 20
183.1287437953
 10
281.2264974159
 20
182.8888947048
 10
280.4504095507
 20
182.753487853
 10
279.9005324883
 20
182.7276864924
  0
LINE
  5
179
330
1F
100
AcDbEntity
  8
0
  6
Continuous
 62
     7
370
    15
100
AcDbLine
 10
282.400532898
 20
183.8216068126
 30
0.0
 11
282.400532898
 21
184.7852909841
 31
0.0
  0
LWPOLYLINE
  5
17A
330
1F
100
AcDbEntity
  8
0
  6
Continuous
 62
     7
370
    15
100
AcDbPolyline
 90
        6
 70
   128
 43
0.0
 10
279.9005324883
 20
186.026255963
 10
280.7280368102
 20
185.9542200245
 10
281.4622486872
 20
185.747634051
 10
282.020346534
 20
185.4333946385
 10
282.3394297552
 20
185.0512655355
 10
282.400532898
 20
184.7852909841
  0
LINE
  5
17B
330
1F
100
AcDbEntity
  8
0
  6
Continuous
 62
     7
370
    15
100
AcDbLine
 10
271.9005330396
 20
186.026255963
 30
0.0
 11
279.9005324883
 21
186.026255963
 31
0.0
  0
LWPOLYLINE
  5
17C
330
1F
100
AcDbEntity
  8
0
  6
Continuous
 62
     7
370
    15
100
AcDbPolyline
 90
        6
 70
   128
 43
0.0
 10
269.4005316985
 20
184.7852909841
 10
269.5413197321
 20
185.1871864774
 10
269.9479966355
 20
185.5511100866
 10
270.5745662493
 20
185.8322726466
 10
271.3506541145
 20
185.9949299969
 10
271.9005330396
 20
186.026255963
  0
LINE
  5
17D
330
1F
100
AcDbEntity
  8
0
  6
Continuous
 62
     7
370
    15
100
AcDbLine
 10
269.4005316985
 20
183.8216068126
 30
0.0
 11
269.4005316985
 21
184.7852909841
 31
0.0
  0
LWPOLYLINE
  5
17E
330
1F
100
AcDbEntity
  8
0
  6
Continuous
 62
     7
370
    15
100
AcDbPolyline
 90
        6
 70
   128
 43
0.0
 10
271.9005330396
 20
182.7276864924
 10
271.0730287177
 20
182.7871495761
 10
270.3388168407
 20
182.9603159704
 10
269.7807180625
 20
183.2314053454
 10
269.4616357726
 20
183.5741432287
 10
269.4005316985
 20
183.8216068126
  0
LINE
  5
17F
330
1F
100
AcDbEntity
  8
0
  6
Continuous
 62
     7
370
    15
100
AcDbLine
 10
271.9005330396
 20
182.7276864924
 30
0.0
 11
279.9005324883
 21
182.7276864924
 31
0.0
  0
ARC
  5
180
330
1F
100
AcDbEntity
  8
0
  6
Continuous
 62
     7
370
    15
100
AcDbCircle
 10
154.4246167987
 20
175.9636219869
 30
0.0
 40
3.264159092109444
100
AcDbArc
 50
81.6163358396
 51
128.3228782567
  0
LINE
  5
181
330
1F
100
AcDbEntity
  8
0
  6
Continuous
 62
     7
370
    15
100
AcDbLine
 10
152.4005367351
 20
178.0393863
 30
0.0
 11
152.4005367351
 21
178.5244488992
 31
0.0
  0
LWPOLYLINE
  5
182
330
1F
100
AcDbEntity
  8
0
  6
Continuous
 62
     7
370
    15
100
AcDbPolyline
 90
        6
 70
   128
 43
0.0
 10
154.9005343509
 20
177.5325754561
 10
154.0730281663
 20
177.5587642469
 10
153.338818152
 20
177.635967163
 10
152.7807249618
 20
177.759557394
 10
152.461631496
 20
177.9203409232
 10
152.4005367351
 20
178.0393863
  0
LINE
  5
183
330
1F
100
AcDbEntity
  8
0
  6
Continuous
 62
     7
370
    15
100
AcDbLine
 10
162.9005356622
 20
177.5325754561
 30
0.0
 11
154.9005343509
 21
177.5325754561
 31
0.0
  0
ARC
  5
184
330
1F
100
AcDbEntity
  8
0
  6
Continuous
 62
     7
370
    15
100
AcDbCircle
 10
163.4265031081
 20
181.3574843301
 30
0.0
 40
3.860902698741558
100
AcDbArc
 50
262.1702990255
 51
300.7496082651
  0
LINE
  5
185
330
1F
100
AcDbEntity
  8
0
  6
Continuous
 62
     7
370
    15
100
AcDbLine
 10
165.400533278
 20
178.0393863
 30
0.0
 11
165.400533278
 21
178.5244488992
 31
0.0
  0
LWPOLYLINE
  5
186
330
1F
100
AcDbEntity
  8
0
  6
Continuous
 62
     7
370
    15
100
AcDbPolyline
 90
        6
 70
   128
 43
0.0
 10
162.9005356622
 20
179.1929000892
 10
163.7280418468
 20
179.152897922
 10
164.4622518611
 20
179.0389487423
 10
165.0203450513
 20
178.8679206647
 10
165.339423616
 20
178.6638418116
 10
165.400533278
 20
178.5244488992
  0
LINE
  5
187
330
1F
100
AcDbEntity
  8
0
  6
Continuous
 62
     7
370
    15
100
AcDbLine
 10
162.9005356622
 20
179.1929000892
 30
0.0
 11
154.9005343509
 21
179.1929000892
 31
0.0
  0
LWPOLYLINE
  5
188
330
1F
100
AcDbEntity
  8
0
  6
Continuous
 62
     7
370
    15
100
AcDbPolyline
 90
        6
 70
   128
 43
0.0
 10
152.4005367351
 20
184.7852909841
 10
152.541322906
 20
185.1871864774
 10
152.9479904962
 20
185.5511100866
 10
153.5745694232
 20
185.8322726466
 10
154.3506517005
 20
185.9949299969
 10
154.9005343509
 20
186.026255963
  0
LINE
  5
189
330
1F
100
AcDbEntity
  8
0
  6
Continuous
 62
     7
370
    15
100
AcDbLine
 10
152.4005367351
 20
183.8216068126
 30
0.0
 11
152.4005367351
 21
184.7852909841
 31
0.0
  0
LWPOLYLINE
  5
18A
330
1F
100
AcDbEntity
  8
0
  6
Continuous
 62
     7
370
    15
100
AcDbPolyline
 90
        6
 70
   128
 43
0.0
 10
154.9005343509
 20
182.7276864924
 10
154.0730281663
 20
182.7871495761
 10
153.338818152
 20
182.9603159704
 10
152.7807249618
 20
183.2314053454
 10
152.461631496
 20
183.5741432287
 10
152.4005367351
 20
183.8216068126
  0
LINE
  5
18B
330
1F
100
AcDbEntity
  8
0
  6
Continuous
 62
     7
370
    15
100
AcDbLine
 10
162.9005356622
 20
182.7276864924
 30
0.0
 11
154.9005343509
 21
182.7276864924
 31
0.0
  0
LWPOLYLINE
  5
18C
330
1F
100
AcDbEntity
  8
0
  6
Continuous
 62
     7
370
    15
100
AcDbPolyline
 90
        6
 70
   128
 43
0.0
 10
165.400533278
 20
183.8216068126
 10
165.2597471071
 20
183.4505380966
 10
164.8530646157
 20
183.1287437953
 10
164.2265005899
 20
182.8888947048
 10
163.4504034114
 20
182.753487853
 10
162.9005356622
 20
182.7276864924
  0
LINE
  5
18D
330
1F
100
AcDbEntity
  8
0
  6
Continuous
 62
     7
370
    15
100
AcDbLine
 10
165.400533278
 20
183.8216068126
 30
0.0
 11
165.400533278
 21
184.7852909841
 31
0.0
  0
LWPOLYLINE
  5
18E
330
1F
100
AcDbEntity
  8
0
  6
Continuous
 62
     7
370
    15
100
AcDbPolyline
 90
        6
 70
   128
 43
0.0
 10
162.9005356622
 20
186.026255963
 10
163.7280418468
 20
185.9542200245
 10
164.4622518611
 20
185.747634051
 10
165.0203450513
 20
185.4333946385
 10
165.339423616
 20
185.0512655355
 10
165.400533278
 20
184.7852909841
  0
LINE
  5
18F
330
1F
100
AcDbEntity
  8
0
  6
Continuous
 62
     7
370
    15
100
AcDbLine
 10
162.9005356622
 20
186.026255963
 30
0.0
 11
154.9005343509
 21
186.026255963
 31
0.0
  0
LINE
  5
190
330
1F
100
AcDbEntity
  8
0
  6
Continuous
 62
     7
370
    15
100
AcDbLine
 10
152.4005367351
 20
205.9854933895
 30
0.0
 11
152.4005367351
 21
206.7687915541
 31
0.0
  0
ARC
  5
191
330
1F
100
AcDbEntity
  8
0
  6
Continuous
 62
     7
370
    15
100
AcDbCircle
 10
154.6494409835
 20
206.1988221095
 30
0.0
 40
2.258999659405408
100
AcDbArc
 50
185.4188037208
 51
276.3817540444
  0
LINE
  5
192
330
1F
100
AcDbEntity
  8
0
  6
Continuous
 62
     7
370
    15
100
AcDbLine
 10
174.9005301786
 20
203.9538206436
 30
0.0
 11
154.9005343509
 21
203.9538206436
 31
0.0
  0
ARC
  5
193
330
1F
100
AcDbEntity
  8
0
  6
Continuous
 62
     7
370
    15
100
AcDbCircle
 10
175.0546175864
 20
206.3032304538
 30
0.0
 40
2.354457344189688
100
AcDbArc
 50
266.2475971255
 51
300.150387812
  0
ARC
  5
194
330
1F
100
AcDbEntity
  8
0
  6
Continuous
 62
     7
370
    15
100
AcDbCircle
 10
174.4656586139
 20
257.0059229373
 30
0.0
 40
1.910154225657664
100
AcDbArc
 50
358.305694413
 51
91.9539605234
  0
ARC
  5
195
330
1F
100
AcDbEntity
  8
0
  6
Continuous
 62
     7
370
    15
100
AcDbCircle
 10
174.2867236117
 20
257.0336667208
 30
0.0
 40
1.884738857169111
100
AcDbArc
 50
86.5382223606
 51
182.5016773841
  0
ARC
  5
196
330
1F
100
AcDbEntity
  8
0
  6
Continuous
 62
     7
370
    15
100
AcDbCircle
 10
174.3084595595
 20
256.7624542919
 30
0.0
 40
1.874769407272588
100
AcDbArc
 50
87.1850817754
 51
177.4886964323
  0
ARC
  5
197
330
1F
100
AcDbEntity
  8
0
  6
Continuous
 62
     7
370
    15
100
AcDbCircle
 10
174.4425190888
 20
256.7015559954
 30
0.0
 40
1.93386149489894
100
AcDbArc
 50
4.5535768487
 51
91.2441607051
  0
LWPOLYLINE
  5
198
330
1F
100
AcDbEntity
  8
0
  6
Continuous
 62
     7
370
    15
100
AcDbPolyline
 90
        6
 70
   128
 43
0.0
 10
152.4005367351
 20
194.5686930694
 10
152.5413080049
 20
194.0270693876
 10
152.947975595
 20
193.5529405155
 10
153.5745247197
 20
193.1966910042
 10
154.350606997
 20
192.9944375433
 10
154.9005343509
 20
192.9557951071
  0
LWPOLYLINE
  5
199
330
1F
100
AcDbEntity
  8
0
  6
Continuous
 62
     7
370
    15
100
AcDbPolyline
 90
        6
 70
   128
 43
0.0
 10
174.9005301786
 20
192.9557951071
 10
175.7280363631
 20
193.044788567
 10
176.4622463775
 20
193.3030219652
 10
177.0203470183
 20
193.7046455123
 10
177.3394255829
 20
194.2080514409
 10
177.400535245
 20
194.5686930694
  0
LINE
  5
19A
330
1F
100
AcDbEntity
  8
0
  6
Continuous
 62
     7
370
    15
100
AcDbLine
 10
174.9005301786
 20
192.9557951071
 30
0.0
 11
154.9005343509
 21
192.9557951071
 31
0.0
  0
LWPOLYLINE
  5
19B
330
1F
100
AcDbEntity
  8
0
  6
Continuous
 62
     7
370
    15
100
AcDbPolyline
 90
        3
 70
   128
 43
0.0
 10
279.9005324883
 20
179.1050204911
 10
280.7280368102
 20
179.1312092819
 10
280.7826830936
 20
179.1369536795
  0
LINE
  5
19C
330
1F
100
AcDbEntity
  8
0
  6
Continuous
 62
     7
370
    15
100
AcDbLine
 10
271.9005330396
 20
179.1050204911
 30
0.0
 11
279.9005324883
 21
179.1050204911
 31
0.0
  0
LWPOLYLINE
  5
19D
330
1F
100
AcDbEntity
  8
0
  6
Continuous
 62
     7
370
    15
100
AcDbPolyline
 90
        3
 70
   128
 43
0.0
 10
271.0083148372
 20
179.1428545393
 10
271.3506019604
 20
179.1163602747
 10
271.9005330396
 20
179.1050204911
  0
ARC
  5
19E
330
1F
100
AcDbEntity
  8
0
  6
Continuous
 62
     7
370
    15
100
AcDbCircle
 10
280.2792500622
 20
187.0399169575
 30
0.0
 40
2.885919038241052
100
AcDbArc
 50
262.4593565864
 51
313.4418021225
  0
LINE
  5
19F
330
1F
100
AcDbEntity
  8
0
  6
Continuous
 62
     7
370
    15
100
AcDbLine
 10
271.9005330396
 20
184.1789552845
 30
0.0
 11
279.9005324883
 21
184.1789552845
 31
0.0
  0
ARC
  5
1A0
330
1F
100
AcDbEntity
  8
0
  6
Continuous
 62
     7
370
    15
100
AcDbCircle
 10
271.4774301639
 20
186.962677773
 30
0.0
 40
2.815692976171853
100
AcDbArc
 50
226.2916876688
 51
278.6423410306
  0
ARC
  5
1A1
330
1F
100
AcDbEntity
  8
0
  6
Continuous
 62
     7
370
    15
100
AcDbCircle
 10
280.0007898112
 20
221.7098190084
 30
0.0
 40
2.400797600311646
100
AcDbArc
 50
267.6066319089
 51
358.3017491864
  0
LINE
  5
1A2
330
1F
100
AcDbEntity
  8
0
  6
Continuous
 62
     7
370
    15
100
AcDbLine
 10
259.9005310726
 20
219.3111156948
 30
0.0
 11
279.9005324883
 21
219.3111156948
 31
0.0
  0
ARC
  5
1A3
330
1F
100
AcDbEntity
  8
0
  6
Continuous
 62
     7
370
    15
100
AcDbCircle
 10
259.8261048048
 20
221.7375609528
 30
0.0
 40
2.427586426704333
100
AcDbArc
 50
182.3346744942
 51
271.7568805407
  0
LWPOLYLINE
  5
1A4
330
1F
100
AcDbEntity
  8
0
  6
Continuous
 62
     7
370
    15
100
AcDbPolyline
 90
        6
 70
   128
 43
0.0
 10
279.9005324883
 20
192.9557951071
 10
280.7280368102
 20
193.044788567
 10
281.4622468245
 20
193.3030219652
 10
282.02034374
 20
193.7046455123
 10
282.3394241673
 20
194.2080514409
 10
282.400532898
 20
194.5686930694
  0
LINE
  5
1A5
330
1F
100
AcDbEntity
  8
0
  6
Continuous
 62
     7
370
    15
100
AcDbLine
 10
259.9005310726
 20
192.9557951071
 30
0.0
 11
279.9005324883
 21
192.9557951071
 31
0.0
  0
LWPOLYLINE
  5
1A6
330
1F
100
AcDbEntity
  8
0
  6
Continuous
 62
     7
370
    15
100
AcDbPolyline
 90
        6
 70
   128
 43
0.0
 10
257.4005334568
 20
194.5686930694
 10
257.5413121772
 20
194.0270693876
 10
257.9479797673
 20
193.5529405155
 10
258.5745288921
 20
193.1966910042
 10
259.3506037188
 20
192.9944375433
 10
259.9005310726
 20
192.9557951071
  0
ARC
  5
1A7
330
1F
100
AcDbEntity
  8
0
  6
Continuous
 62
     7
370
    15
100
AcDbCircle
 10
280.1514628547
 20
207.1551578385
 30
0.0
 40
2.259116373409084
100
AcDbArc
 50
263.6227368236
 51
354.594534201
  0
LINE
  5
1A8
330
1F
100
AcDbEntity
  8
0
  6
Continuous
 62
     7
370
    15
100
AcDbLine
 10
259.9005310726
 20
204.9100207068
 30
0.0
 11
279.9005324883
 21
204.9100207068
 31
0.0
  0
ARC
  5
1A9
330
1F
100
AcDbEntity
  8
0
  6
Continuous
 62
     7
370
    15
100
AcDbCircle
 10
259.7150474949
 20
207.2356621172
 30
0.0
 40
2.333026387986918
100
AcDbArc
 50
187.2226433873
 51
274.5600229043
  0
LWPOLYLINE
  5
1AA
330
1F
100
AcDbEntity
  8
0
  6
Continuous
 62
     7
370
    15
100
AcDbPolyline
 90
        3
 70
   128
 43
0.0
 10
154.0083124233
 20
179.1428545393
 10
154.350606997
 20
179.1163602747
 10
154.9005343509
 20
179.1050204911
  0
LWPOLYLINE
  5
1AB
330
1F
100
AcDbEntity
  8
0
  6
Continuous
 62
     7
370
    15
100
AcDbPolyline
 90
        3
 70
   128
 43
0.0
 10
162.9005356622
 20
179.1050204911
 10
163.7280418468
 20
179.1312092819
 10
163.7826844049
 20
179.1369536795
  0
LINE
  5
1AC
330
1F
100
AcDbEntity
  8
0
  6
Continuous
 62
     7
370
    15
100
AcDbLine
 10
162.9005356622
 20
179.1050204911
 30
0.0
 11
154.9005343509
 21
179.1050204911
 31
0.0
  0
ARC
  5
1AD
330
1F
100
AcDbEntity
  8
0
  6
Continuous
 62
     7
370
    15
100
AcDbCircle
 10
154.4774436876
 20
186.9627357989
 30
0.0
 40
2.815748508268034
100
AcDbArc
 50
226.2922143133
 51
278.6419179252
  0
ARC
  5
1AE
330
1F
100
AcDbEntity
  8
0
  6
Continuous
 62
     7
370
    15
100
AcDbCircle
 10
163.27926345
 20
187.0398588758
 30
0.0
 40
2.885862799227361
100
AcDbArc
 50
262.4590042275
 51
313.4423001333
  0
LINE
  5
1AF
330
1F
100
AcDbEntity
  8
0
  6
Continuous
 62
     7
370
    15
100
AcDbLine
 10
162.9005356622
 20
184.1789552845
 30
0.0
 11
154.9005343509
 21
184.1789552845
 31
0.0
  0
ARC
  5
1B0
330
1F
100
AcDbEntity
  8
0
  6
Continuous
 62
     7
370
    15
100
AcDbCircle
 10
154.6948615722
 20
207.1999085133
 30
0.0
 40
2.299105795311465
100
AcDbArc
 50
190.8078012791
 51
275.1324113013
  0
LWPOLYLINE
  5
1B1
330
1F
100
AcDbEntity
  8
0
  6
Continuous
 62
     7
370
    15
100
AcDbPolyline
 90
        3
 70
   128
 43
0.0
 10
174.9005301786
 20
204.9100207068
 10
175.7280363631
 20
205.0230981685
 10
176.1505289865
 20
205.2115457036
  0
LINE
  5
1B2
330
1F
100
AcDbEntity
  8
0
  6
Continuous
 62
     7
370
    15
100
AcDbLine
 10
174.9005301786
 20
204.9100207068
 30
0.0
 11
154.9005343509
 21
204.9100207068
 31
0.0
  0
LINE
  5
1B3
330
1F
100
AcDbEntity
  8
0
  6
Continuous
 62
     7
370
    15
100
AcDbLine
 10
335.9005323541
 20
285.1732553818
 30
0.0
 11
343.9005336654
 21
285.1732553818
 31
0.0
  0
LINE
  5
1B4
330
1F
100
AcDbEntity
  8
0
  6
Continuous
 62
     7
370
    15
100
AcDbLine
 10
335.9005323541
 20
204.7285543658
 30
0.0
 11
343.9005336654
 21
204.7285543658
 31
0.0
  0
LINE
  5
1B5
330
1F
100
AcDbEntity
  8
0
  6
Continuous
 62
     7
370
    15
100
AcDbLine
 10
343.9005336654
 20
204.7285543658
 30
0.0
 11
343.9005336654
 21
285.1732553818
 31
0.0
  0
LINE
  5
1B6
330
1F
100
AcDbEntity
  8
0
  6
Continuous
 62
     7
370
    15
100
AcDbLine
 10
335.9005323541
 20
204.7285543658
 30
0.0
 11
335.9005323541
 21
285.1732553818
 31
0.0
  0
LINE
  5
1B7
330
1F
100
AcDbEntity
  8
0
  6
Continuous
 62
     7
370
    15
100
AcDbLine
 10
297.4005325628
 20
244.9509048738
 30
0.0
 11
297.4005325628
 21
314.9509051718
 31
0.0
  0
LINE
  5
1B8
330
1F
100
AcDbEntity
  8
0
  6
Continuous
 62
     7
370
    15
100
AcDbLine
 10
297.4005325628
 20
174.9509045758
 30
0.0
 11
297.4005325628
 21
244.9509048738
 31
0.0
  0
LINE
  5
1B9
330
1F
100
AcDbEntity
  8
0
  6
Continuous
 62
     7
370
    15
100
AcDbLine
 10
313.4005333227
 20
263.0990533062
 30
0.0
 11
313.4005333227
 21
312.5574508585
 31
0.0
  0
LINE
  5
1BA
330
1F
100
AcDbEntity
  8
0
  6
Continuous
 62
     7
370
    15
100
AcDbLine
 10
313.4005333227
 20
177.344358889
 30
0.0
 11
313.4005333227
 21
226.8027564414
 31
0.0
  0
LINE
  5
1BB
330
1F
100
AcDbEntity
  8
0
  6
Continuous
 62
     7
370
    15
100
AcDbLine
 10
335.9005323541
 20
298.0973677613
 30
0.0
 11
343.9005336654
 21
298.0973677613
 31
0.0
  0
LINE
  5
1BC
330
1F
100
AcDbEntity
  8
0
  6
Continuous
 62
     7
370
    15
100
AcDbLine
 10
343.9005336654
 20
298.0973677613
 30
0.0
 11
343.9005336654
 21
285.1732553818
 31
0.0
  0
LINE
  5
1BD
330
1F
100
AcDbEntity
  8
0
  6
Continuous
 62
     7
370
    15
100
AcDbLine
 10
335.9005323541
 20
285.1732553818
 30
0.0
 11
335.9005323541
 21
298.0973677613
 31
0.0
  0
LINE
  5
1BE
330
1F
100
AcDbEntity
  8
0
  6
Continuous
 62
     7
370
    15
100
AcDbLine
 10
335.9005323541
 20
308.7039733209
 30
0.0
 11
343.9005336654
 21
308.7039733209
 31
0.0
  0
LINE
  5
1BF
330
1F
100
AcDbEntity
  8
0
  6
Continuous
 62
     7
370
    15
100
AcDbLine
 10
343.9005336654
 20
308.7039733209
 30
0.0
 11
343.9005336654
 21
298.0973677613
 31
0.0
  0
LINE
  5
1C0
330
1F
100
AcDbEntity
  8
0
  6
Continuous
 62
     7
370
    15
100
AcDbLine
 10
335.9005323541
 20
298.0973677613
 30
0.0
 11
335.9005323541
 21
308.7039733209
 31
0.0
  0
LINE
  5
1C1
330
1F
100
AcDbEntity
  8
0
  6
Continuous
 62
     7
370
    15
100
AcDbLine
 10
335.9005323541
 20
191.8044419863
 30
0.0
 11
343.9005336654
 21
191.8044419863
 31
0.0
  0
LINE
  5
1C2
330
1F
100
AcDbEntity
  8
0
  6
Continuous
 62
     7
370
    15
100
AcDbLine
 10
343.9005336654
 20
204.7285543658
 30
0.0
 11
343.9005336654
 21
191.8044419863
 31
0.0
  0
LINE
  5
1C3
330
1F
100
AcDbEntity
  8
0
  6
Continuous
 62
     7
370
    15
100
AcDbLine
 10
335.9005323541
 20
191.8044419863
 30
0.0
 11
335.9005323541
 21
204.7285543658
 31
0.0
  0
LINE
  5
1C4
330
1F
100
AcDbEntity
  8
0
  6
Continuous
 62
     7
370
    15
100
AcDbLine
 10
335.9005323541
 20
181.1978364267
 30
0.0
 11
343.9005336654
 21
181.1978364267
 31
0.0
  0
LINE
  5
1C5
330
1F
100
AcDbEntity
  8
0
  6
Continuous
 62
     7
370
    15
100
AcDbLine
 10
343.9005336654
 20
191.8044419863
 30
0.0
 11
343.9005336654
 21
181.1978364267
 31
0.0
  0
LINE
  5
1C6
330
1F
100
AcDbEntity
  8
0
  6
Continuous
 62
     7
370
    15
100
AcDbLine
 10
335.9005323541
 20
181.1978364267
 30
0.0
 11
335.9005323541
 21
191.8044419863
 31
0.0
  0
LINE
  5
1C7
330
1F
100
AcDbEntity
  8
0
  6
Continuous
 62
     7
370
    15
100
AcDbLine
 10
343.9005336654
 20
308.7039733209
 30
0.0
 11
343.9005336654
 21
315.4509061851
 31
0.0
  0
LINE
  5
1C8
330
1F
100
AcDbEntity
  8
0
  6
Continuous
 62
     7
370
    15
100
AcDbLine
 10
335.9005323541
 20
308.7039733209
 30
0.0
 11
335.9005323541
 21
315.4509061851
 31
0.0
  0
LINE
  5
1C9
330
1F
100
AcDbEntity
  8
0
  6
Continuous
 62
     7
370
    15
100
AcDbLine
 10
343.9005336654
 20
174.4509035625
 30
0.0
 11
343.9005336654
 21
181.1978364267
 31
0.0
  0
LINE
  5
1CA
330
1F
100
AcDbEntity
  8
0
  6
Continuous
 62
     7
370
    15
100
AcDbLine
 10
335.9005323541
 20
174.4509035625
 30
0.0
 11
335.9005323541
 21
181.1978364267
 31
0.0
  0
LINE
  5
1CB
330
1F
100
AcDbEntity
  8
0
  6
Continuous
 62
     7
370
    15
100
AcDbLine
 10
335.9005323541
 20
189.9509051718
 30
0.0
 11
313.4005333227
 21
189.9509051718
 31
0.0
  0
LINE
  5
1CC
330
1F
100
AcDbEntity
  8
0
  6
Continuous
 62
     7
370
    15
100
AcDbLine
 10
335.9005323541
 20
299.9509045758
 30
0.0
 11
313.4005333227
 21
299.9509045758
 31
0.0
  0
LWPOLYLINE
  5
1CD
330
1F
100
AcDbEntity
  8
0
  6
Continuous
 62
     7
370
    15
100
AcDbPolyline
 90
        7
 70
   128
 43
0.0
 10
321.3371301931
 20
295.2508920707
 10
321.2779111159
 20
295.432824073
 10
321.2779111159
 20
296.2279835619
 10
321.6455078614
 20
297.1270302214
 10
322.364636038
 20
298.0906622388
 10
323.4038653714
 20
299.0767726578
 10
324.5801220578
 20
299.9509045758
  0
LWPOLYLINE
  5
1CE
330
1F
100
AcDbEntity
  8
0
  6
Continuous
 62
     7
370
    15
100
AcDbPolyline
 90
       11
 70
   128
 43
0.0
 10
322.2731522215
 20
292.9201418437
 10
321.4400152606
 20
293.0823484339
 10
320.4358520848
 20
293.4804851093
 10
319.7467888636
 20
294.0531292834
 10
319.3962893379
 20
294.7807790615
 10
319.3962893379
 20
295.6386538126
 10
319.7467888636
 20
296.5975398101
 10
320.4358520848
 20
297.6247848846
 10
321.4400152606
 20
298.6854048349
 10
322.7250802261
 20
299.7432866968
 10
323.0114786816
 20
299.9509045758
  0
LINE
  5
1CF
330
1F
100
AcDbEntity
  8
0
  6
Continuous
 62
     7
370
    15
100
AcDbLine
 10
324.2441344005
 20
314.9509051718
 30
0.0
 11
324.9005324137
 21
315.1768142261
 31
0.0
  0
LINE
  5
1D0
330
1F
100
AcDbEntity
  8
0
  6
Continuous
 62
     7
370
    15
100
AcDbLine
 10
335.9005323541
 20
318.8053736367
 30
0.0
 11
324.9005324137
 21
315.1768142261
 31
0.0
  0
LINE
  5
1D1
330
1F
100
AcDbEntity
  8
0
  6
Continuous
 62
     7
370
    15
100
AcDbLine
 10
335.9005323541
 20
318.8053736367
 30
0.0
 11
335.9005323541
 21
315.4509061851
 31
0.0
  0
LINE
  5
1D2
330
1F
100
AcDbEntity
  8
SLD-0
  6
CENTERX2
370
     0
100
AcDbLine
 10
456.9240135572
 20
244.9509048738
 30
0.0
 11
123.820421208
 21
244.9509048738
 31
0.0
  0
LINE
  5
1D3
330
1F
100
AcDbEntity
  8
SLD-0
  6
CENTERX2
370
     0
100
AcDbLine
 10
383.9005325628
 20
328.6967201586
 30
0.0
 11
383.9005325628
 21
413.6187979496
 31
0.0
  0
LINE
  5
1D4
330
1F
100
AcDbEntity
  8
0
  6
Continuous
 62
     7
370
    15
100
AcDbLine
 10
559.2764629852
 20
213.2472203948
 30
0.0
 11
558.7516813409
 21
210.29347497
 31
0.0
  0
ARC
  5
1D5
330
1F
100
AcDbEntity
  8
0
  6
Continuous
 62
     7
370
    15
100
AcDbCircle
 10
558.9653375679
 20
207.208535627
 30
0.0
 40
3.000000000000075
100
AcDbArc
 50
349.925583395
 51
79.925583395
  0
ARC
  5
1D6
330
1F
100
AcDbEntity
  8
0
  6
Continuous
 62
     7
370
    15
100
AcDbCircle
 10
577.1800932017
 20
203.9723840235
 30
0.0
 40
3.000000000000079
100
AcDbArc
 50
79.925583395
 51
169.925583395
  0
ARC
  5
1D7
330
1F
100
AcDbEntity
  8
0
  6
Continuous
 62
     7
370
    15
100
AcDbCircle
 10
562.7287359966
 20
205.5242457866
 30
0.0
 40
1.000000000000135
100
AcDbArc
 50
169.925583395
 51
259.925583395
  0
ARC
  5
1D8
330
1F
100
AcDbEntity
  8
0
  6
Continuous
 62
     7
370
    15
100
AcDbCircle
 10
573.0668405455
 20
203.6875110927
 30
0.0
 40
1.000000000000028
100
AcDbArc
 50
259.925583395
 51
349.925583395
  0
LINE
  5
1D9
330
1F
100
AcDbEntity
  8
0
  6
Continuous
 62
     7
370
    15
100
AcDbLine
 10
574.0514187943
 20
203.5125823595
 30
0.0
 11
574.2263509762
 21
204.4971654095
 31
0.0
  0
LINE
  5
1DA
330
1F
100
AcDbEntity
  8
0
  6
Continuous
 62
     7
370
    15
100
AcDbLine
 10
561.9190796148
 20
206.6837543525
 30
0.0
 11
561.7441548836
 21
205.6991713025
 31
0.0
  0
LINE
  5
1DB
330
1F
100
AcDbEntity
  8
0
  6
Continuous
 62
     7
370
    15
100
AcDbLine
 10
571.1803822648
 20
197.9287112035
 30
0.0
 11
572.0550208222
 21
202.851619003
 31
0.0
  0
LINE
  5
1DC
330
1F
100
AcDbEntity
  8
0
  6
Continuous
 62
     7
370
    15
100
AcDbLine
 10
563.3907033932
 20
204.3909760095
 30
0.0
 11
562.5160648357
 21
199.4680682101
 31
0.0
  0
LWPOLYLINE
  5
1DD
330
1F
100
AcDbEntity
  8
0
  6
Continuous
 62
     7
370
    15
100
AcDbPolyline
 90
        4
 70
   128
 43
0.0
 10
556.3425137531
 20
251.7518772647
 10
556.2620996367
 20
251.5583093181
 10
556.1580671799
 20
251.3047902748
 10
556.1537458431
 20
251.2942174353
  0
LWPOLYLINE
  5
1DE
330
1F
100
AcDbEntity
  8
0
  6
Continuous
 62
     7
370
    15
100
AcDbPolyline
 90
        3
 70
   128
 43
0.0
 10
680.1043203902
 20
169.9297049918
 10
680.1452892702
 20
171.8387225546
 10
680.2982310634
 20
178.7540981449
  0
LINE
  5
1DF
330
1F
100
AcDbEntity
  8
0
  6
Continuous
 62
     7
370
    15
100
AcDbLine
 10
680.0926304292
 20
169.384963242
 30
0.0
 11
680.1043203902
 21
169.9297049918
 31
0.0
  0
LWPOLYLINE
  5
1E0
330
1F
100
AcDbEntity
  8
0
  6
Continuous
 62
     7
370
    15
100
AcDbPolyline
 90
       14
 70
   128
 43
0.0
 10
679.1594675612
 20
123.6764633931
 10
679.172323538
 20
124.2295721449
 10
679.2924939525
 20
129.713452784
 10
679.3950642329
 20
134.6097955384
 10
679.4803677928
 20
138.8047331847
 10
679.5574421864
 20
142.6691034712
 10
679.6032707077
 20
144.9966648497
 10
679.6473706942
 20
147.2601437845
 10
679.6896136236
 20
149.4519034304
 10
679.7298337203
 20
151.5533322372
 10
679.7687741798
 20
153.6097669877
 10
679.8205538523
 20
156.2807628788
 10
679.9045759123
 20
160.4617530383
 10
679.9570913296
 20
162.9863152184
  0
LWPOLYLINE
  5
1E1
330
1F
100
AcDbEntity
  8
0
  6
Continuous
 62
     7
370
    15
100
AcDbPolyline
 90
       12
 70
   128
 43
0.0
 10
618.907162441
 20
170.6971222438
 10
619.0024348777
 20
166.1994228043
 10
619.115262745
 20
160.7213536181
 10
619.2130292636
 20
155.8693194665
 10
619.2957251203
 20
151.6948709168
 10
619.3633465897
 20
148.2369521536
 10
619.4222583305
 20
145.2166953959
 10
619.5086683016
 20
140.8387938418
 10
619.6166179013
 20
135.4872429647
 10
619.7461183053
 20
129.2961010613
 10
619.8573927265
 20
124.2286259212
 10
619.977127282
 20
119.0880382337
  0
LINE
  5
1E2
330
1F
100
AcDbEntity
  8
0
  6
Continuous
 62
     7
370
    15
100
AcDbLine
 10
618.906983627
 20
170.7055264987
 30
0.0
 11
618.907162441
 21
170.6971222438
 31
0.0
  0
LWPOLYLINE
  5
1E3
330
1F
100
AcDbEntity
  8
0
  6
Continuous
 62
     7
370
    15
100
AcDbPolyline
 90
        3
 70
   128
 43
0.0
 10
618.7316248995
 20
178.7471765556
 10
618.8745531123
 20
172.2365612068
 10
618.906983627
 20
170.7055264987
  0
LWPOLYLINE
  5
1E4
330
1F
100
AcDbEntity
  8
0
  6
Continuous
 62
     7
370
    15
100
AcDbPolyline
 90
       14
 70
   128
 43
0.0
 10
680.2980131339
 20
178.7438088931
 10
680.3968152832
 20
183.2255715408
 10
680.4941645693
 20
187.5037806012
 10
680.5900554043
 20
191.5971221306
 10
680.6844803374
 20
195.9476316251
 10
680.7774356436
 20
200.6467388846
 10
680.8689138722
 20
205.5194670238
 10
680.9589094352
 20
210.2880099692
 10
681.0474148821
 20
214.8218652137
 10
681.1630963218
 20
220.4696176477
 10
681.2760992777
 20
225.6289491333
 10
681.386412574
 20
230.2695413955
 10
681.5467974972
 20
236.2088648506
 10
681.7010207903
 20
240.8797516391
  0
LWPOLYLINE
  5
1E5
330
1F
100
AcDbEntity
  8
0
  6
Continuous
 62
     7
370
    15
100
AcDbPolyline
 90
       17
 70
   128
 43
0.0
 10
617.3294870984
 20
240.8574986175
 10
617.4832521808
 20
236.1974086516
 10
617.619307233
 20
231.2201432787
 10
617.7374138367
 20
226.3324422665
 10
617.8373894524
 20
221.8351563342
 10
617.9190925192
 20
217.9445246138
 10
617.986203624
 20
214.6198278196
 10
618.049187107
 20
211.4053027608
 10
618.1086390149
 20
208.2963505663
 10
618.1645369958
 20
205.314263133
 10
618.2200251948
 20
202.3474456646
 10
618.2805350851
 20
199.2014380075
 10
618.3470911216
 20
195.9497103371
 10
618.4240165036
 20
192.4235666074
 10
618.512508912
 20
188.6072302141
 10
618.6135145705
 20
184.1367142178
 10
618.7309115064
 20
178.7825295605
  0
LINE
  5
1E6
330
1F
100
AcDbEntity
  8
0
  6
Continuous
 62
     7
370
    15
100
AcDbLine
 10
699.5148560833
 20
89.9509036817
 30
0.0
 11
699.5148560833
 21
91.9509077348
 31
0.0
  0
LINE
  5
1E7
330
1F
100
AcDbEntity
  8
0
  6
Continuous
 62
     7
370
    15
100
AcDbLine
 10
599.5148545932
 20
91.9509077348
 30
0.0
 11
599.5148545932
 21
89.9509036817
 31
0.0
  0
LINE
  5
1E8
330
1F
100
AcDbEntity
  8
0
  6
Continuous
 62
     7
370
    15
100
AcDbLine
 10
599.5148545932
 20
399.9509060659
 30
0.0
 11
599.5148545932
 21
397.9509020128
 31
0.0
  0
LINE
  5
1E9
330
1F
100
AcDbEntity
  8
0
  6
Continuous
 62
     7
370
    15
100
AcDbLine
 10
699.5148560833
 20
397.9509020128
 30
0.0
 11
699.5148560833
 21
399.9509060659
 31
0.0
  0
LINE
  5
1EA
330
1F
100
AcDbEntity
  8
0
  6
Continuous
 62
     7
370
    15
100
AcDbLine
 10
681.6916926634
 20
240.6393977717
 30
0.0
 11
681.7278391551
 21
241.606168579
 31
0.0
  0
LINE
  5
1EB
330
1F
100
AcDbEntity
  8
0
  6
Continuous
 62
     7
370
    15
100
AcDbLine
 10
617.3017336857
 20
241.6097930536
 30
0.0
 11
617.3380180132
 21
240.6393977717
 31
0.0
  0
LWPOLYLINE
  5
1EC
330
1F
100
AcDbEntity
  8
0
  6
Continuous
 62
     7
370
    15
100
AcDbPolyline
 90
       32
 70
   128
 43
0.0
 10
683.6669347119
 20
164.3245438017
 10
688.9854348134
 20
166.2267738857
 10
696.8912645113
 20
170.0086140909
 10
703.7904201877
 20
174.1483727373
 10
709.7447602879
 20
178.4617597141
 10
714.8272632491
 20
182.7954755999
 10
719.1149382722
 20
187.0179021634
 10
723.3190550339
 20
191.7783016242
 10
726.6161008608
 20
196.0459420361
 10
729.4478877317
 20
200.1876266577
 10
732.0693968665
 20
204.529869733
 10
734.4601689708
 20
209.0620206572
 10
737.8881065976
 20
216.9982468613
 10
740.5647351276
 20
225.3402335473
 10
742.4113689792
 20
233.9120333918
 10
743.3997928035
 20
242.5930573508
 10
743.5297756326
 20
251.3292547219
 10
742.8001477253
 20
260.0649468504
 10
741.2045462858
 20
268.7357081004
 10
738.7438579332
 20
277.2684613146
 10
735.5543165337
 20
285.5194503345
 10
731.7607118618
 20
293.3252261855
 10
727.5530486237
 20
300.4542210974
 10
723.0350985062
 20
306.9159010329
 10
720.2131613027
 20
310.4823896565
 10
717.244991554
 20
313.9173382797
 10
713.509158684
 20
317.8475716986
 10
708.7843171191
 20
322.2853461184
 10
702.9462470543
 20
327.0766431369
 10
697.1358558964
 20
331.2010759391
 10
690.3834468555
 20
335.301070837
 10
688.6047772002
 20
336.1970553078
  0
ARC
  5
1ED
330
1F
100
AcDbEntity
  8
0
  6
Continuous
 62
     7
370
    15
100
AcDbCircle
 10
650.7039420097
 20
236.6019366124
 30
0.0
 40
78.24039693353747
100
AcDbArc
 50
220.1542155694
 51
245.8647231188
  0
ARC
  5
1EE
330
1F
100
AcDbEntity
  8
0
  6
Continuous
 62
     7
370
    15
100
AcDbCircle
 10
648.5551479867
 20
236.6265772982
 30
0.0
 40
76.47625262442942
100
AcDbArc
 50
190.6393769321
 51
215.0812409104
  0
LINE
  5
1EF
330
1F
100
AcDbEntity
  8
0
  6
Continuous
 62
     7
370
    15
100
AcDbLine
 10
702.0148536992
 20
364.9509021916
 30
0.0
 11
717.0148580205
 21
364.9509021916
 31
0.0
  0
LINE
  5
1F0
330
1F
100
AcDbEntity
  8
0
  6
Continuous
 62
     7
370
    15
100
AcDbLine
 10
717.0148580205
 20
124.950907556
 30
0.0
 11
702.0148536992
 21
124.950907556
 31
0.0
  0
ARC
  5
1F1
330
1F
100
AcDbEntity
  8
0
  6
Continuous
 62
     7
370
    15
100
AcDbCircle
 10
634.10370529
 20
241.7717426708
 30
0.0
 40
63.69338368061484
100
AcDbArc
 50
132.0483973185
 51
197.6054530389
  0
LWPOLYLINE
  5
1F2
330
1F
100
AcDbEntity
  8
0
  6
Continuous
 62
     7
370
    15
100
AcDbPolyline
 90
       10
 70
   128
 43
0.0
 10
568.5974969398
 20
208.5442053057
 10
566.7341663372
 20
208.8752569534
 10
564.938174082
 20
209.1943429686
 10
563.2744445335
 20
209.4899298527
 10
561.8031038773
 20
209.7513409235
 10
560.5773343574
 20
209.969117669
 10
559.6414296758
 20
210.1353960015
 10
559.0292229187
 20
210.2441670276
 10
558.76283486
 20
210.2914931156
 10
558.7516813409
 20
210.29347497
  0
LWPOLYLINE
  5
1F3
330
1F
100
AcDbEntity
  8
0
  6
Continuous
 62
     7
370
    15
100
AcDbPolyline
 90
       10
 70
   128
 43
0.0
 10
578.4433125388
 20
206.7949319162
 10
578.4321590197
 20
206.7969137706
 10
578.165770961
 20
206.8442435839
 10
577.5535642039
 20
206.9530108847
 10
576.6176595222
 20
207.1192892172
 10
575.3918825519
 20
207.337069688
 10
573.9205418956
 20
207.5984770335
 10
572.2568197977
 20
207.8940639176
 10
570.4608275425
 20
208.2131536581
 10
568.5974969398
 20
208.5442053057
  0
LWPOLYLINE
  5
1F4
330
1F
100
AcDbEntity
  8
0
  6
Continuous
 62
     7
370
    15
100
AcDbPolyline
 90
       13
 70
   128
 43
0.0
 10
572.8919147384
 20
202.7029314913
 10
572.7157830131
 20
202.7342239298
 10
572.1993907225
 20
202.825966654
 10
571.3779344093
 20
202.971912352
 10
570.3073902857
 20
203.1621144988
 10
569.0607069861
 20
203.3836053588
 10
567.7228583824
 20
203.6212975063
 10
566.3850097787
 20
203.8589896538
 10
565.1383339297
 20
204.0804805137
 10
564.0677898061
 20
204.2706826605
 10
563.2463334929
 20
204.4166283585
 10
562.7299412023
 20
204.5083710827
 10
562.553809477
 20
204.5396635212
  0
LWPOLYLINE
  5
1F5
330
1F
100
AcDbEntity
  8
0
  6
Continuous
 62
     7
370
    15
100
AcDbPolyline
 90
        7
 70
   128
 43
0.0
 10
566.8482272756
 20
198.6983897068
 10
565.6277178657
 20
198.9152351298
 10
564.5060851108
 20
199.1145083584
 10
563.5741962921
 20
199.2800751604
 10
562.9075555932
 20
199.3985133149
 10
562.5601648223
 20
199.4602339246
 10
562.5160648357
 20
199.4680682101
  0
LWPOLYLINE
  5
1F6
330
1F
100
AcDbEntity
  8
0
  6
Continuous
 62
     7
370
    15
100
AcDbPolyline
 90
        7
 70
   128
 43
0.0
 10
571.1803822648
 20
197.9287112035
 10
571.1362897288
 20
197.936545489
 10
570.7888915073
 20
197.9982660987
 10
570.1222508084
 20
198.1167042531
 10
569.1903694403
 20
198.2822710552
 10
568.0687366855
 20
198.4815480091
 10
566.8482272756
 20
198.6983897068
  0
LINE
  5
1F7
330
1F
100
AcDbEntity
  8
0
  6
Continuous
 62
     7
370
    15
100
AcDbLine
 10
576.9944726359
 20
210.0993240155
 30
0.0
 11
553.4915118348
 21
214.2750112243
 31
0.0
  0
LINE
  5
1F8
330
1F
100
AcDbEntity
  8
0
  6
Continuous
 62
     7
370
    15
100
AcDbLine
 10
567.710944904
 20
265.7818099387
 30
0.0
 11
574.6490447652
 21
264.5491430439
 31
0.0
  0
ARC
  5
1F9
330
1F
100
AcDbEntity
  8
0
  6
Continuous
 62
     7
370
    15
100
AcDbCircle
 10
566.7313518959
 20
260.2681549658
 30
0.0
 40
5.600000000000081
100
AcDbArc
 50
79.925583395
 51
150.3695827411
  0
ARC
  5
1FA
330
1F
100
AcDbEntity
  8
0
  6
Continuous
 62
     7
370
    15
100
AcDbCircle
 10
649.8299867811
 20
213.0031903492
 30
0.0
 40
101.2000000000001
100
AcDbArc
 50
150.3695827411
 51
175.9298493727
  0
ARC
  5
1FB
330
1F
100
AcDbEntity
  8
0
  6
Continuous
 62
     7
370
    15
100
AcDbCircle
 10
554.4710999634
 20
219.7886678471
 30
0.0
 40
5.599999999999989
100
AcDbArc
 50
175.9298493727
 51
259.925583395
  0
ARC
  5
1FC
330
1F
100
AcDbEntity
  8
0
  6
Continuous
 62
     7
370
    15
100
AcDbCircle
 10
633.2747572348
 20
347.486848873
 30
0.0
 40
24.00000000000004
100
AcDbArc
 50
187.0284095773
 51
222.9715904227
  0
LINE
  5
1FD
330
1F
100
AcDbEntity
  8
0
  6
Continuous
 62
     7
370
    15
100
AcDbLine
 10
624.3427093011
 20
310.8038673081
 30
0.0
 11
625.0169775319
 21
311.1776256837
 31
0.0
  0
ARC
  5
1FE
330
1F
100
AcDbEntity
  8
0
  6
Continuous
 62
     7
370
    15
100
AcDbCircle
 10
633.2747572348
 20
347.486848873
 30
0.0
 40
24.45
100
AcDbArc
 50
184.0195572734
 51
225.9804427266
  0
CIRCLE
  5
1FF
330
1F
100
AcDbEntity
  8
0
  6
Continuous
 62
     7
370
    15
100
AcDbCircle
 10
649.5148553383
 20
216.5009048738
 30
0.0
 40
10.00000000000011
  0
LINE
  5
200
330
1F
100
AcDbEntity
  8
0
  6
Continuous
 62
     7
370
    15
100
AcDbLine
 10
618.9625668209
 20
168.5981148757
 30
0.0
 11
619.1325313281
 21
164.9303654112
 31
0.0
  0
LINE
  5
201
330
1F
100
AcDbEntity
  8
0
  6
Continuous
 62
     7
370
    15
100
AcDbLine
 10
618.9617584329
 20
168.6216587104
 30
0.0
 11
618.9623339903
 21
168.5981074251
 31
0.0
  0
LINE
  5
202
330
1F
100
AcDbEntity
  8
0
  6
Continuous
 62
     7
370
    15
100
AcDbLine
 10
619.0556636881
 20
164.964921204
 30
0.0
 11
618.9617584329
 21
168.6216587104
 31
0.0
  0
LWPOLYLINE
  5
203
330
1F
100
AcDbEntity
  8
0
  6
Continuous
 62
     7
370
    15
100
AcDbPolyline
 90
       23
 70
   128
 43
0.0
 10
680.2543266546
 20
178.6180803456
 10
680.3014515769
 20
179.0613302864
 10
679.9223678988
 20
182.3898026623
 10
678.7945455741
 20
185.6394851484
 10
676.9458274227
 20
188.7332232572
 10
674.4217178654
 20
191.5970178224
 10
671.284283964
 20
194.1614480593
 10
667.6107323598
 20
196.3630573727
 10
663.4916229975
 20
198.1456460335
 10
659.028399257
 20
199.4613068082
 10
654.3309348505
 20
200.2711402156
 10
649.5148553383
 20
200.5458878257
 10
644.698775826
 20
200.2711402156
 10
640.0013114196
 20
199.4613068082
 10
635.5380876791
 20
198.1456460335
 10
631.4189783167
 20
196.3630573727
 10
627.7454267126
 20
194.1614480593
 10
624.6079928111
 20
191.5970178224
 10
622.0838832539
 20
188.7332232572
 10
620.2351651024
 20
185.6394851484
 10
619.1073427778
 20
182.3898026623
 10
618.7282590997
 20
179.0613302864
 10
618.7577708494
 20
178.7837514557
  0
LINE
  5
204
330
1F
100
AcDbEntity
  8
0
  6
Continuous
 62
     7
370
    15
100
AcDbLine
 10
679.7757553738
 20
162.9287743844
 30
0.0
 11
680.1096252036
 21
170.1079228796
 31
0.0
  0
LWPOLYLINE
  5
205
330
1F
100
AcDbEntity
  8
0
  6
Continuous
 62
     7
370
    15
100
AcDbPolyline
 90
       11
 70
   128
 43
0.0
 10
679.1348918211
 20
123.677424518
 10
679.0594137144
 20
122.8298539199
 10
678.7206935566
 20
121.639385251
 10
678.0719528776
 20
120.2164286651
 10
676.9918775987
 20
118.1593084611
 10
675.8663835805
 20
115.7912159242
 10
675.2328569871
 20
114.0689546146
 10
674.7741824817
 20
112.1891284265
 10
674.5811677408
 20
110.2684283532
 10
674.6129090768
 20
108.2700038232
 10
674.6330740731
 20
107.9509103574
  0
LWPOLYLINE
  5
206
330
1F
100
AcDbEntity
  8
0
  6
Continuous
 62
     7
370
    15
100
AcDbPolyline
 90
        3
 70
   128
 43
0.0
 10
620.3611749094
 20
107.9509103574
 10
620.0371361207
 20
117.2858172931
 10
620.0549951624
 20
119.0872633733
  0
LINE
  5
207
330
1F
100
AcDbEntity
  8
0
  6
Continuous
 62
     7
370
    15
100
AcDbLine
 10
649.5148553383
 20
107.9509103574
 30
0.0
 11
649.5148553383
 21
91.9509077348
 31
0.0
  0
LINE
  5
208
330
1F
100
AcDbEntity
  8
0
  6
Continuous
 62
     7
370
    15
100
AcDbLine
 10
649.5148553383
 20
107.9509103574
 30
0.0
 11
697.7768703234
 21
107.9509103574
 31
0.0
  0
LINE
  5
209
330
1F
100
AcDbEntity
  8
0
  6
Continuous
 62
     7
370
    15
100
AcDbLine
 10
697.7768703234
 20
91.9509077348
 30
0.0
 11
649.5148553383
 21
91.9509077348
 31
0.0
  0
LINE
  5
20A
330
1F
100
AcDbEntity
  8
0
  6
Continuous
 62
     7
370
    15
100
AcDbLine
 10
649.5148553383
 20
381.9508993902
 30
0.0
 11
649.5148553383
 21
397.9509020128
 31
0.0
  0
LINE
  5
20B
330
1F
100
AcDbEntity
  8
0
  6
Continuous
 62
     7
370
    15
100
AcDbLine
 10
697.7768703234
 20
397.9509020128
 30
0.0
 11
649.5148553383
 21
397.9509020128
 31
0.0
  0
LINE
  5
20C
330
1F
100
AcDbEntity
  8
0
  6
Continuous
 62
     7
370
    15
100
AcDbLine
 10
649.5148553383
 20
381.9508993902
 30
0.0
 11
697.7768703234
 21
381.9508993902
 31
0.0
  0
LINE
  5
20D
330
1F
100
AcDbEntity
  8
0
  6
Continuous
 62
     7
370
    15
100
AcDbLine
 10
601.2528403532
 20
107.9509103574
 30
0.0
 11
649.5148553383
 21
107.9509103574
 31
0.0
  0
LINE
  5
20E
330
1F
100
AcDbEntity
  8
0
  6
Continuous
 62
     7
370
    15
100
AcDbLine
 10
649.5148553383
 20
91.9509077348
 30
0.0
 11
601.2528403532
 21
91.9509077348
 31
0.0
  0
LINE
  5
20F
330
1F
100
AcDbEntity
  8
0
  6
Continuous
 62
     7
370
    15
100
AcDbLine
 10
649.5148553383
 20
397.9509020128
 30
0.0
 11
601.2528403532
 21
397.9509020128
 31
0.0
  0
LINE
  5
210
330
1F
100
AcDbEntity
  8
0
  6
Continuous
 62
     7
370
    15
100
AcDbLine
 10
601.2528403532
 20
381.9508993902
 30
0.0
 11
649.5148553383
 21
381.9508993902
 31
0.0
  0
LINE
  5
211
330
1F
100
AcDbEntity
  8
0
  6
Continuous
 62
     7
370
    15
100
AcDbLine
 10
697.7768703234
 20
107.9509103574
 30
0.0
 11
708.4396160077
 21
107.9509103574
 31
0.0
  0
LINE
  5
212
330
1F
100
AcDbEntity
  8
0
  6
Continuous
 62
     7
370
    15
100
AcDbLine
 10
708.4396160077
 20
91.9509077348
 30
0.0
 11
697.7768703234
 21
91.9509077348
 31
0.0
  0
LINE
  5
213
330
1F
100
AcDbEntity
  8
0
  6
Continuous
 62
     7
370
    15
100
AcDbLine
 10
708.4396160077
 20
397.9509020128
 30
0.0
 11
697.7768703234
 21
397.9509020128
 31
0.0
  0
LINE
  5
214
330
1F
100
AcDbEntity
  8
0
  6
Continuous
 62
     7
370
    15
100
AcDbLine
 10
697.7768703234
 20
381.9508993902
 30
0.0
 11
708.4396160077
 21
381.9508993902
 31
0.0
  0
LINE
  5
215
330
1F
100
AcDbEntity
  8
0
  6
Continuous
 62
     7
370
    15
100
AcDbLine
 10
590.5900946688
 20
107.9509103574
 30
0.0
 11
601.2528403532
 21
107.9509103574
 31
0.0
  0
LINE
  5
216
330
1F
100
AcDbEntity
  8
0
  6
Continuous
 62
     7
370
    15
100
AcDbLine
 10
601.2528403532
 20
91.9509077348
 30
0.0
 11
590.5900946688
 21
91.9509077348
 31
0.0
  0
LINE
  5
217
330
1F
100
AcDbEntity
  8
0
  6
Continuous
 62
     7
370
    15
100
AcDbLine
 10
601.2528403532
 20
397.9509020128
 30
0.0
 11
590.5900946688
 21
397.9509020128
 31
0.0
  0
LINE
  5
218
330
1F
100
AcDbEntity
  8
0
  6
Continuous
 62
     7
370
    15
100
AcDbLine
 10
590.5900946688
 20
381.9508993902
 30
0.0
 11
601.2528403532
 21
381.9508993902
 31
0.0
  0
LINE
  5
219
330
1F
100
AcDbEntity
  8
0
  6
Continuous
 62
     7
370
    15
100
AcDbLine
 10
649.5148553383
 20
89.9509036817
 30
0.0
 11
699.5148560833
 21
89.9509036817
 31
0.0
  0
LINE
  5
21A
330
1F
100
AcDbEntity
  8
0
  6
Continuous
 62
     7
370
    15
100
AcDbLine
 10
599.5148545932
 20
89.9509036817
 30
0.0
 11
649.5148553383
 21
89.9509036817
 31
0.0
  0
LINE
  5
21B
330
1F
100
AcDbEntity
  8
0
  6
Continuous
 62
     7
370
    15
100
AcDbLine
 10
649.5148553383
 20
399.9509060659
 30
0.0
 11
699.5148560833
 21
399.9509060659
 31
0.0
  0
LINE
  5
21C
330
1F
100
AcDbEntity
  8
0
  6
Continuous
 62
     7
370
    15
100
AcDbLine
 10
599.5148545932
 20
399.9509060659
 30
0.0
 11
649.5148553383
 21
399.9509060659
 31
0.0
  0
ARC
  5
21D
330
1F
100
AcDbEntity
  8
0
  6
Continuous
 62
     7
370
    15
100
AcDbCircle
 10
809.5504952857
 20
107.9868005532
 30
0.0
 40
93.44933865809075
100
AcDbArc
 50
180.0220050438
 51
188.0187403922
  0
LINE
  5
21E
330
1F
100
AcDbEntity
  8
0
  6
Continuous
 62
     7
370
    15
100
AcDbLine
 10
717.0148580205
 20
94.9508989133
 30
0.0
 11
717.0148580205
 21
91.9509077348
 31
0.0
  0
LINE
  5
21F
330
1F
100
AcDbEntity
  8
0
  6
Continuous
 62
     7
370
    15
100
AcDbLine
 10
708.4396160077
 20
107.9509103574
 30
0.0
 11
716.1011635196
 21
107.9509103574
 31
0.0
  0
LINE
  5
220
330
1F
100
AcDbEntity
  8
0
  6
Continuous
 62
     7
370
    15
100
AcDbLine
 10
717.0148580205
 20
91.9509077348
 30
0.0
 11
708.4396160077
 21
91.9509077348
 31
0.0
  0
ARC
  5
221
330
1F
100
AcDbEntity
  8
0
  6
Continuous
 62
     7
370
    15
100
AcDbCircle
 10
800.715420429
 20
382.5359747486
 30
0.0
 40
84.61627967189465
100
AcDbArc
 50
171.5630823854
 51
180.3961721786
  0
LINE
  5
222
330
1F
100
AcDbEntity
  8
0
  6
Continuous
 62
     7
370
    15
100
AcDbLine
 10
717.0148580205
 20
394.9509108342
 30
0.0
 11
717.0148580205
 21
397.9509020128
 31
0.0
  0
LINE
  5
223
330
1F
100
AcDbEntity
  8
0
  6
Continuous
 62
     7
370
    15
100
AcDbLine
 10
717.0148580205
 20
397.9509020128
 30
0.0
 11
708.4396160077
 21
397.9509020128
 31
0.0
  0
LINE
  5
224
330
1F
100
AcDbEntity
  8
0
  6
Continuous
 62
     7
370
    15
100
AcDbLine
 10
708.4396160077
 20
381.9508993902
 30
0.0
 11
716.1011635196
 21
381.9508993902
 31
0.0
  0
LINE
  5
225
330
1F
100
AcDbEntity
  8
0
  6
Continuous
 62
     7
370
    15
100
AcDbLine
 10
582.0148526561
 20
107.9509103574
 30
0.0
 11
582.0148526561
 21
91.9509077348
 31
0.0
  0
LINE
  5
226
330
1F
100
AcDbEntity
  8
0
  6
Continuous
 62
     7
370
    15
100
AcDbLine
 10
582.0148526561
 20
107.9509103574
 30
0.0
 11
590.5900946688
 21
107.9509103574
 31
0.0
  0
LINE
  5
227
330
1F
100
AcDbEntity
  8
0
  6
Continuous
 62
     7
370
    15
100
AcDbLine
 10
590.5900946688
 20
91.9509077348
 30
0.0
 11
582.0148526561
 21
91.9509077348
 31
0.0
  0
LINE
  5
228
330
1F
100
AcDbEntity
  8
0
  6
Continuous
 62
     7
370
    15
100
AcDbLine
 10
582.0148526561
 20
381.9508993902
 30
0.0
 11
582.0148526561
 21
397.9509020128
 31
0.0
  0
LINE
  5
229
330
1F
100
AcDbEntity
  8
0
  6
Continuous
 62
     7
370
    15
100
AcDbLine
 10
590.5900946688
 20
397.9509020128
 30
0.0
 11
582.0148526561
 21
397.9509020128
 31
0.0
  0
LINE
  5
22A
330
1F
100
AcDbEntity
  8
0
  6
Continuous
 62
     7
370
    15
100
AcDbLine
 10
582.0148526561
 20
381.9508993902
 30
0.0
 11
590.5900946688
 21
381.9508993902
 31
0.0
  0
LINE
  5
22B
330
1F
100
AcDbEntity
  8
0
  6
Continuous
 62
     7
370
    15
100
AcDbLine
 10
646.5148553122
 20
381.9508993902
 30
0.0
 11
646.5148553122
 21
369.6478450574
 31
0.0
  0
LINE
  5
22C
330
1F
100
AcDbEntity
  8
0
  6
Continuous
 62
     7
370
    15
100
AcDbLine
 10
652.5148553644
 20
381.9508993902
 30
0.0
 11
652.5148553644
 21
369.6478450574
 31
0.0
  0
ARC
  5
22D
330
1F
100
AcDbEntity
  8
0
  6
Continuous
 62
     7
370
    15
100
AcDbCircle
 10
649.5148553383
 20
354.9509048738
 30
0.0
 40
15.0000000000001
100
AcDbArc
 50
101.5369590328
 51
78.4630409672
  0
LINE
  5
22E
330
1F
100
AcDbEntity
  8
0
  6
Continuous
 62
     7
370
    15
100
AcDbLine
 10
652.5148553644
 20
340.253963498
 30
0.0
 11
652.5148553644
 21
279.8220956601
 31
0.0
  0
LINE
  5
22F
330
1F
100
AcDbEntity
  8
0
  6
Continuous
 62
     7
370
    15
100
AcDbLine
 10
646.5148553122
 20
340.253963498
 30
0.0
 11
646.5148553122
 21
279.8220956601
 31
0.0
  0
LWPOLYLINE
  5
230
330
1F
100
AcDbEntity
  8
0
  6
Continuous
 62
     7
370
    15
100
AcDbPolyline
 90
       21
 70
   128
 43
0.0
 10
681.6409914624
 20
241.6057578657
 10
681.6155067515
 20
246.9949553624
 10
680.3557849359
 20
253.804695224
 10
678.0186793637
 20
259.7642116152
 10
674.425247578
 20
265.3625992961
 10
670.6214486491
 20
269.3722726681
 10
666.0360670518
 20
272.7588241823
 10
661.2784289625
 20
275.1346187569
 10
656.0385436621
 20
276.7178485073
 10
650.791155627
 20
277.3710073807
 10
645.3540827949
 20
277.1221281864
 10
640.2108701747
 20
276.0006071903
 10
635.1870163214
 20
273.9779030808
 10
630.6875250172
 20
271.2140822686
 10
626.5990971457
 20
267.6369057872
 10
623.2447060626
 20
263.5279869564
 10
620.5388656687
 20
258.7938815259
 10
618.650465725
 20
253.7227025159
 10
617.5511865746
 20
248.2832108062
 10
617.2720021438
 20
242.4854323171
 10
617.3514551353
 20
241.614327896
  0
LWPOLYLINE
  5
231
330
1F
100
AcDbEntity
  8
0
  6
Continuous
 62
     7
370
    15
100
AcDbPolyline
 90
        4
 70
   128
 43
0.0
 10
680.1096382421
 20
170.1079228796
 10
680.1767698359
 20
173.2362428583
 10
680.2427540403
 20
176.2561047353
 10
680.308568744
 20
179.2226577081
  0
LWPOLYLINE
  5
232
330
1F
100
AcDbEntity
  8
0
  6
Continuous
 62
     7
370
    15
100
AcDbPolyline
 90
       13
 70
   128
 43
0.0
 10
680.3537993562
 20
181.27436134
 10
680.3950085174
 20
183.149054078
 10
680.4472594392
 20
185.6040092089
 10
680.5160692763
 20
189.0650683917
 10
680.5755565744
 20
192.3479283132
 10
680.6395402979
 20
196.3655793943
 10
680.6918321978
 20
200.1932853736
 10
680.737902863
 20
204.1516931631
 10
680.7777522933
 20
208.2408102133
 10
680.8113842141
 20
212.4606365241
 10
680.8435148429
 20
217.6528641857
 10
680.869103862
 20
223.3586938955
 10
680.8871305417
 20
229.4339662321
  0
LINE
  5
233
330
1F
100
AcDbEntity
  8
0
  6
Continuous
 62
     7
370
    15
100
AcDbLine
 10
617.6374382209
 20
230.4999254547
 30
0.0
 11
617.668648703
 21
229.1781021185
 31
0.0
  0
LWPOLYLINE
  5
234
330
1F
100
AcDbEntity
  8
0
  6
Continuous
 62
     7
370
    15
100
AcDbPolyline
 90
        5
 70
   128
 43
0.0
 10
618.2830701452
 20
199.0775870063
 10
618.3414193671
 20
196.1383776643
 10
618.46997541
 20
190.2978749849
 10
618.6123951208
 20
184.1370979227
 10
618.7671250534
 20
177.1300727405
  0
ARC
  5
235
330
1F
100
AcDbEntity
  8
0
  6
Continuous
 62
     7
370
    15
100
AcDbCircle
 10
649.5148553383
 20
244.9509048738
 30
0.0
 40
35.00000000000007
100
AcDbArc
 50
336.0778504035
 51
204.3862023093
  0
ARC
  5
236
330
1F
100
AcDbEntity
  8
0
  6
Continuous
 62
     7
370
    15
100
AcDbCircle
 10
651.8960587038
 20
237.9135922414
 30
0.0
 40
80.00000001034135
100
AcDbArc
 50
245.7634415978
 51
245.823802107
  0
LINE
  5
237
330
1F
100
AcDbEntity
  8
0
  6
Continuous
 62
     7
370
    15
100
AcDbLine
 10
618.9625668209
 20
168.5981148757
 30
0.0
 11
619.0556636881
 21
164.964921204
 31
0.0
  0
ARC
  5
238
330
1F
100
AcDbEntity
  8
0
  6
Continuous
 62
     7
370
    15
100
AcDbCircle
 10
651.8960587038
 20
237.9135922414
 30
0.0
 40
80.00000001034138
100
AcDbArc
 50
290.3953643787
 51
290.5370301333
  0
LINE
  5
239
330
1F
100
AcDbEntity
  8
0
  6
Continuous
 62
     7
370
    15
100
AcDbLine
 10
679.961073665
 20
162.9979381241
 30
0.0
 11
680.1096382421
 21
170.1079228796
 31
0.0
  0
LWPOLYLINE
  5
23A
330
1F
100
AcDbEntity
  8
0
  6
Continuous
 62
     7
370
    15
100
AcDbPolyline
 90
        3
 70
   128
 43
0.0
 10
625.7008756381
 20
323.6022809424
 10
624.2477255743
 20
345.5912763156
 10
621.8483778518
 20
381.9508993902
  0
ARC
  5
23B
330
1F
100
AcDbEntity
  8
0
  6
Continuous
 62
     7
370
    15
100
AcDbCircle
 10
702.5171128977
 20
378.5253982585
 30
0.0
 40
29.56700589990922
100
AcDbArc
 50
173.3470268571
 51
206.6705283495
  0
LINE
  5
23C
330
1F
100
AcDbEntity
  8
0
  6
Continuous
 62
     7
370
    15
100
AcDbLine
 10
676.095965771
 20
365.2539694585
 30
0.0
 11
675.529976828
 21
356.6086957135
 31
0.0
  0
LWPOLYLINE
  5
23D
330
1F
100
AcDbEntity
  8
0
  6
Continuous
 62
     7
370
    15
100
AcDbPolyline
 90
        8
 70
   128
 43
0.0
 10
675.529976828
 20
356.6086957135
 10
675.2999140751
 20
352.5796452441
 10
675.6570129525
 20
348.598837284
 10
676.4405681621
 20
346.1911076583
 10
677.6144984048
 20
343.9476111807
 10
679.1504877489
 20
341.9345835127
 10
681.0009269845
 20
340.2062648811
 10
683.913053466
 20
338.4139308609
  0
LWPOLYLINE
  5
23E
330
1F
100
AcDbEntity
  8
0
  6
Continuous
 62
     7
370
    15
100
AcDbPolyline
 90
        4
 70
   128
 43
0.0
 10
682.5025877785
 20
336.839921204
 10
682.7208711636
 20
337.0835104861
 10
683.7088293266
 20
338.186025051
 10
683.913053466
 20
338.4139308609
  0
LWPOLYLINE
  5
23F
330
1F
100
AcDbEntity
  8
0
  6
Continuous
 62
     7
370
    15
100
AcDbPolyline
 90
        6
 70
   128
 43
0.0
 10
673.2147685122
 20
326.4751577653
 10
673.4889070373
 20
326.7810860552
 10
676.4044011813
 20
330.0346353926
 10
678.9840455037
 20
332.9133981742
 10
681.1208142769
 20
335.2979266919
 10
682.5025877785
 20
336.839921204
  0
LWPOLYLINE
  5
240
330
1F
100
AcDbEntity
  8
0
  6
Continuous
 62
     7
370
    15
100
AcDbPolyline
 90
        3
 70
   128
 43
0.0
 10
642.3074416686
 20
303.6058651187
 10
641.7291737031
 20
303.8493463673
 10
640.62724494
 20
304.3601693489
  0
ARC
  5
241
330
1F
100
AcDbEntity
  8
0
  6
Continuous
 62
     7
370
    15
100
AcDbCircle
 10
644.9869056628
 20
341.9051701935
 30
0.0
 40
37.79727146293653
100
AcDbArc
 50
253.9755237531
 51
263.3765755257
  0
ARC
  5
242
330
1F
100
AcDbEntity
  8
0
  6
Continuous
 62
     7
370
    15
100
AcDbCircle
 10
649.6785881773
 20
324.1909356278
 30
0.0
 40
23.98493720971257
100
AcDbArc
 50
181.4063333001
 51
230.9036227924
  0
LWPOLYLINE
  5
243
330
1F
100
AcDbEntity
  8
0
  6
Continuous
 62
     7
370
    15
100
AcDbPolyline
 90
       23
 70
   128
 43
0.0
 10
680.6729300749
 20
198.7138757386
 10
684.7884221804
 20
201.6822168507
 10
689.271801604
 20
205.6934529819
 10
693.2906410527
 20
210.1961741127
 10
696.771891309
 20
215.1030706145
 10
699.6693215203
 20
220.3678278156
 10
701.9650726449
 20
225.9424770154
 10
703.6181031596
 20
231.720372466
 10
704.6026191544
 20
237.6249478102
 10
704.9245997202
 20
243.621272165
 10
704.5752345454
 20
249.596715802
 10
703.5173452329
 20
255.4907970034
 10
701.7786665689
 20
261.2447025158
 10
699.4455247056
 20
266.7677657582
 10
695.4897916746
 20
273.8054463543
 10
690.7485215794
 20
280.3770186283
 10
685.3848821353
 20
286.4265845992
 10
680.5662135463
 20
290.9700194277
 10
675.3298989367
 20
295.0424956061
 10
669.6916851085
 20
298.4884785392
 10
663.5307832491
 20
301.197699634
 10
657.0288245436
 20
302.9083715655
 10
652.5340915993
 20
303.3964814522
  0
LWPOLYLINE
  5
244
330
1F
100
AcDbEntity
  8
0
  6
Continuous
 62
     7
370
    15
100
AcDbPolyline
 90
        3
 70
   128
 43
0.0
 10
683.9131838512
 20
338.4139904656
 10
686.8644519579
 20
336.9683394112
 10
688.5555661153
 20
336.0873678602
  0
LINE
  5
245
330
1F
100
AcDbEntity
  8
0
  6
Continuous
 62
     7
370
    15
100
AcDbLine
 10
683.6078590583
 20
164.4248360671
 30
0.0
 11
679.9663132858
 21
163.2528671898
 31
0.0
  0
ARC
  5
246
330
1F
100
AcDbEntity
  8
0
  6
Continuous
 62
     7
370
    15
100
AcDbCircle
 10
647.9588984587
 20
243.4728142804
 30
0.0
 40
54.91811319424301
100
AcDbArc
 50
195.7605780926
 51
237.3359410333
  0
LINE
  5
247
330
1F
100
AcDbEntity
  8
0
  6
Continuous
 62
     7
370
    15
100
AcDbLine
 10
590.6732953023
 20
186.4131310858
 30
0.0
 11
586.1343904268
 21
192.3566343166
 31
0.0
  0
ARC
  5
248
330
1F
100
AcDbEntity
  8
0
  6
Continuous
 62
     7
370
    15
100
AcDbCircle
 10
648.9957624176
 20
250.3311210715
 30
0.0
 40
58.12333188202573
100
AcDbArc
 50
177.7534460815
 51
202.0017850721
  0
ARC
  5
249
330
1F
100
AcDbEntity
  8
0
  6
Continuous
 62
     7
370
    15
100
AcDbCircle
 10
649.5148553383
 20
244.9509048738
 30
0.0
 40
59.09611905079006
100
AcDbArc
 50
92.9098569312
 51
172.5537394431
  0
LINE
  5
24A
330
1F
100
AcDbEntity
  8
0
  6
Continuous
 62
     7
370
    15
100
AcDbLine
 10
691.8010241222
 20
260.3418113567
 30
0.0
 11
690.07667665
 21
257.1364952155
 31
0.0
  0
LINE
  5
24B
330
1F
100
AcDbEntity
  8
0
  6
Continuous
 62
     7
370
    15
100
AcDbLine
 10
695.0063384008
 20
258.6174648158
 30
0.0
 11
691.8010241222
 21
260.3418113567
 31
0.0
  0
LINE
  5
24C
330
1F
100
AcDbEntity
  8
0
  6
Continuous
 62
     7
370
    15
100
AcDbLine
 10
693.8091940116
 20
258.2578187712
 30
0.0
 11
695.0063384008
 21
258.6174648158
 31
0.0
  0
ARC
  5
24D
330
1F
100
AcDbEntity
  8
0
  6
Continuous
 62
     7
370
    15
100
AcDbCircle
 10
649.5148553383
 20
244.9509048738
 30
0.0
 40
46.24999999999986
100
AcDbArc
 50
1.526179454
 51
16.7213289831
  0
LINE
  5
24E
330
1F
100
AcDbEntity
  8
0
  6
Continuous
 62
     7
370
    15
100
AcDbLine
 10
697.0148547422
 20
244.9510466304
 30
0.0
 11
695.7484497559
 21
246.1827137877
 31
0.0
  0
ARC
  5
24F
330
1F
100
AcDbEntity
  8
0
  6
Continuous
 62
     7
370
    15
100
AcDbCircle
 10
649.5148553383
 20
244.9509048738
 30
0.0
 40
47.49999999999984
100
AcDbArc
 50
340.0
 51
0.0001709907
  0
LINE
  5
250
330
1F
100
AcDbEntity
  8
0
  6
Continuous
 62
     7
370
    15
100
AcDbLine
 10
692.5904876422
 20
231.9320751257
 30
0.0
 11
694.1502555143
 21
228.7049474098
 31
0.0
  0
LINE
  5
251
330
1F
100
AcDbEntity
  8
0
  6
Continuous
 62
     7
370
    15
100
AcDbLine
 10
689.45179273
 20
230.4150484406
 30
0.0
 11
692.5904876422
 21
231.9320751257
 31
0.0
  0
ARC
  5
252
330
1F
100
AcDbEntity
  8
0
  6
Continuous
 62
     7
370
    15
100
AcDbCircle
 10
649.5148553383
 20
244.9509048738
 30
0.0
 40
42.49999999999984
100
AcDbArc
 50
340.0
 51
0.0
  0
LINE
  5
253
330
1F
100
AcDbEntity
  8
0
  6
Continuous
 62
     7
370
    15
100
AcDbLine
 10
693.2465224397
 20
246.2173116064
 30
0.0
 11
692.0148557853
 21
244.9509048738
 31
0.0
  0
ARC
  5
254
330
1F
100
AcDbEntity
  8
0
  6
Continuous
 62
     7
370
    15
100
AcDbCircle
 10
649.5148553383
 20
244.9509048738
 30
0.0
 40
43.74999999999993
100
AcDbArc
 50
1.6587405132
 51
16.7213289831
  0
LINE
  5
255
330
1F
100
AcDbEntity
  8
0
  6
Continuous
 62
     7
370
    15
100
AcDbLine
 10
690.07667665
 20
257.1364952155
 30
0.0
 11
691.4149052333
 21
257.5385266818
 31
0.0
  0
LINE
  5
256
330
1F
100
AcDbEntity
  8
0
  6
Continuous
 62
     7
370
    15
100
AcDbLine
 10
717.0148580205
 20
394.9509108342
 30
0.0
 11
717.0148580205
 21
364.9509021916
 31
0.0
  0
LINE
  5
257
330
1F
100
AcDbEntity
  8
0
  6
Continuous
 62
     7
370
    15
100
AcDbLine
 10
676.095965771
 20
365.2539694585
 30
0.0
 11
702.1561763119
 21
365.2539694585
 31
0.0
  0
LINE
  5
258
330
1F
100
AcDbEntity
  8
0
  6
Continuous
 62
     7
370
    15
100
AcDbLine
 10
679.1814877521
 20
124.647840289
 30
0.0
 11
702.1561763119
 21
124.647840289
 31
0.0
  0
LINE
  5
259
330
1F
100
AcDbEntity
  8
0
  6
Continuous
 62
     7
370
    15
100
AcDbLine
 10
717.0148580205
 20
94.9508989133
 30
0.0
 11
717.0148580205
 21
124.950907556
 31
0.0
  0
LWPOLYLINE
  5
25A
330
1F
100
AcDbEntity
  8
0
  6
Continuous
 62
     7
370
    15
100
AcDbPolyline
 90
        3
 70
   128
 43
0.0
 10
591.6561572682
 20
289.3618674852
 10
595.329543097
 20
292.4259560086
 10
599.2466634941
 20
295.219096718
  0
ARC
  5
25B
330
1F
100
AcDbEntity
  8
0
  6
Continuous
 62
     7
370
    15
100
AcDbCircle
 10
644.0013132827
 20
248.7356222199
 30
0.0
 40
55.72678512608107
100
AcDbArc
 50
93.4711886869
 51
133.7430168835
  0
LINE
  5
25C
330
1F
100
AcDbEntity
  8
0
  6
Continuous
 62
     7
370
    15
100
AcDbLine
 10
627.8217839878
 20
305.1627011873
 30
0.0
 11
634.5530454871
 21
305.5765548624
 31
0.0
  0
ARC
  5
25D
330
1F
100
AcDbEntity
  8
0
  6
Continuous
 62
     7
370
    15
100
AcDbCircle
 10
634.4335683687
 20
241.7466904849
 30
0.0
 40
64.01106547324869
100
AcDbArc
 50
96.029829537
 51
123.3464579212
  0
LINE
  5
25E
330
1F
100
AcDbEntity
  8
0
  6
Continuous
 62
     7
370
    15
100
AcDbLine
 10
702.1561763119
 20
365.2539694585
 30
0.0
 11
688.5555661153
 21
336.0873678602
 31
0.0
  0
LINE
  5
25F
330
1F
100
AcDbEntity
  8
0
  6
Continuous
 62
     7
370
    15
100
AcDbLine
 10
702.1561763119
 20
124.647840289
 30
0.0
 11
683.6078590583
 21
164.4248360671
 31
0.0
  0
LINE
  5
260
330
1F
100
AcDbEntity
  8
0
  6
Continuous
 62
     7
370
    15
100
AcDbLine
 10
592.0148542952
 20
381.9508993902
 30
0.0
 11
627.8217839878
 21
305.1627011873
 31
0.0
  0
LINE
  5
261
330
1F
100
AcDbEntity
  8
0
  6
Continuous
 62
     7
370
    15
100
AcDbLine
 10
592.0148542952
 20
107.9509103574
 30
0.0
 11
618.7938372474
 21
165.3786146917
 31
0.0
  0
LINE
  5
262
330
1F
100
AcDbEntity
  8
0
  6
Continuous
 62
     7
370
    15
100
AcDbLine
 10
591.6561572682
 20
289.3618674852
 30
0.0
 11
585.7617868912
 21
298.0973677613
 31
0.0
  0
ARC
  5
263
330
1F
100
AcDbEntity
  8
0
  6
Continuous
 62
     7
370
    15
100
AcDbCircle
 10
649.5148553383
 20
244.9509048738
 30
0.0
 40
83.0
100
AcDbArc
 50
129.8155988641
 51
140.1844011359
  0
LINE
  5
264
330
1F
100
AcDbEntity
  8
0
  6
Continuous
 62
     7
370
    15
100
AcDbLine
 10
596.3683924508
 20
308.7039733209
 30
0.0
 11
607.2389385533
 21
301.3689586796
 31
0.0
  0
ARC
  5
265
330
1F
100
AcDbEntity
  8
0
  6
Continuous
 62
     7
370
    15
100
AcDbCircle
 10
649.5148553383
 20
244.9509048738
 30
0.0
 40
70.50000000000001
100
AcDbArc
 50
110.2923842881
 51
126.8454369863
  0
LINE
  5
266
330
1F
100
AcDbEntity
  8
0
  6
Continuous
 62
     7
370
    15
100
AcDbLine
 10
585.7617868912
 20
191.8044419863
 30
0.0
 11
586.1343904268
 21
192.3566343166
 31
0.0
  0
ARC
  5
267
330
1F
100
AcDbEntity
  8
0
  6
Continuous
 62
     7
370
    15
100
AcDbCircle
 10
649.5148553383
 20
244.9509048738
 30
0.0
 40
83.0
100
AcDbArc
 50
219.8155988641
 51
224.8517137382
  0
LWPOLYLINE
  5
268
330
1F
100
AcDbEntity
  8
0
  6
Continuous
 62
     7
370
    15
100
AcDbPolyline
 90
        3
 70
   128
 43
0.0
 10
590.6732953023
 20
186.4131310858
 10
590.8249928486
 20
186.2610423841
 10
590.9975184929
 20
186.0890233793
  0
LINE
  5
269
330
1F
100
AcDbEntity
  8
0
  6
Continuous
 62
     7
370
    15
100
AcDbLine
 10
586.128951503
 20
192.6151731886
 30
0.0
 11
585.7617868912
 21
191.8044419863
 31
0.0
  0
LINE
  5
26A
330
1F
100
AcDbEntity
  8
0
  6
Continuous
 62
     7
370
    15
100
AcDbLine
 10
585.7617868912
 20
298.0973677613
 30
0.0
 11
590.3152502012
 21
288.0428725757
 31
0.0
  0
LINE
  5
26B
330
1F
100
AcDbEntity
  8
0
  6
Continuous
 62
     7
370
    15
100
AcDbLine
 10
609.2925048303
 20
302.8509275891
 30
0.0
 11
596.3683924508
 21
308.7039733209
 31
0.0
  0
LINE
  5
26C
330
1F
100
AcDbEntity
  8
SLD-0
  6
CENTERX2
370
     0
100
AcDbLine
 10
649.5148553383
 20
74.8424693454
 30
0.0
 11
649.5148553383
 21
411.2662839923
 31
0.0
  0
LINE
  5
26D
330
1F
100
AcDbEntity
  8
SLD-0
  6
CENTERX2
370
     0
100
AcDbLine
 10
539.5716482914
 20
244.9509048738
 30
0.0
 11
760.6478529094
 21
244.9509048738
 31
0.0
  0
LINE
  5
26E
330
1F
100
AcDbEntity
  8
0
  6
Continuous
 62
     7
370
     0
100
AcDbLine
 10
570.4645828099
 20
441.270908184
 30
0.0
 11
743.5161263437
 21
441.270908184
 31
0.0
  0
ARC
  5
26F
330
1F
100
AcDbEntity
  8
0
  6
Continuous
 62
     7
370
    15
100
AcDbCircle
 10
649.514855513
 20
441.30383051
 30
0.0
 40
49.96710982707323
100
AcDbArc
 50
359.9622489578
 51
180.0377510422
  0
ARC
  5
270
330
1F
100
AcDbEntity
  8
0
  6
Continuous
 62
     7
370
    15
100
AcDbCircle
 10
649.5148545817
 20
441.3038848383
 30
0.0
 40
24.96708033962317
100
AcDbArc
 50
359.9243234036
 51
180.0756765964
  0
CIRCLE
  5
271
330
1F
100
AcDbEntity
  8
0
  6
Continuous
 62
     7
370
    15
100
AcDbCircle
 10
691.9412604726
 20
483.6973157875
 30
0.0
 40
7.500001473496775
  0
CIRCLE
  5
272
330
1F
100
AcDbEntity
  8
0
  6
Continuous
 62
     7
370
    15
100
AcDbCircle
 10
607.0884457982
 20
483.6973157875
 30
0.0
 40
7.500001473496775
  0
ARC
  5
273
330
1F
100
AcDbEntity
  8
0
  6
Continuous
 62
     7
370
    15
100
AcDbCircle
 10
567.0252877996
 20
439.5134527734
 30
0.0
 40
149.999866256523
100
AcDbArc
 50
0.6713144762
 51
19.4791279325
  0
ARC
  5
274
330
1F
100
AcDbEntity
  8
0
  6
Continuous
 62
     7
370
    15
100
AcDbCircle
 10
732.0045569098
 20
439.5134396647
 30
0.0
 40
150.0000001716257
100
AcDbArc
 50
160.5208848492
 51
179.3286782696
  0
ARC
  5
275
330
1F
100
AcDbEntity
  8
0
  6
Continuous
 62
     7
370
    15
100
AcDbCircle
 10
607.0884459768
 20
483.6973138188
 30
0.0
 40
17.50000203618177
100
AcDbArc
 50
109.4791087275
 51
160.5208712549
  0
ARC
  5
276
330
1F
100
AcDbEntity
  8
0
  6
Continuous
 62
     7
370
    15
100
AcDbCircle
 10
651.2723402987
 20
358.7811471487
 30
0.0
 40
150.0000594436541
100
AcDbArc
 50
90.6713248327
 51
109.4791129787
  0
ARC
  5
277
330
1F
100
AcDbEntity
  8
0
  6
Continuous
 62
     7
370
    15
100
AcDbCircle
 10
647.7573664856
 20
358.7811232757
 30
0.0
 40
150.0000833647176
100
AcDbArc
 50
70.5208885346
 51
89.328673654
  0
ARC
  5
278
330
1F
100
AcDbEntity
  8
0
  6
Continuous
 62
     7
370
    15
100
AcDbCircle
 10
691.9412558033
 20
483.6973103369
 30
0.0
 40
17.50000840200624
100
AcDbArc
 50
19.4791334652
 51
70.5208665348
  0
ARC
  5
279
330
1F
100
AcDbEntity
  8
SLD-0
  6
CENTERX2
370
     0
100
AcDbCircle
 10
649.5148553383
 20
441.2709098055
 30
0.0
 40
60.00000000000015
100
AcDbArc
 50
356.1855290666
 51
183.8144709334
  0
ENDSEC
  0
SECTION
  2
OBJECTS
  0
DICTIONARY
  5
C
330
0
100
AcDbDictionary
281
     1
  3
ACAD_GROUP
350
D
  3
ACAD_LAYOUT
350
1A
  3
ACAD_MLEADERSTYLE
350
27B
  3
ACAD_MLINESTYLE
350
17
  3
ACAD_PLOTSETTINGS
350
19
  3
ACAD_PLOTSTYLENAME
350
E
  3
ACAD_TABLESTYLE
350
27A
  3
ACAD_VISUALSTYLE
350
2A
  3
AcDbVariableDictionary
350
27C
  0
DICTIONARY
  5
D
102
{ACAD_REACTORS
330
C
102
}
330
C
100
AcDbDictionary
281
     1
  0
DICTIONARY
  5
1A
102
{ACAD_REACTORS
330
C
102
}
330
C
100
AcDbDictionary
281
     1
  3
Layout1
350
1E
  3
Layout2
350
26
  3
Model
350
22
  0
DICTIONARY
  5
27B
102
{ACAD_REACTORS
330
C
102
}
330
C
100
AcDbDictionary
281
     1
  0
DICTIONARY
  5
17
102
{ACAD_REACTORS
330
C
102
}
330
C
100
AcDbDictionary
281
     1
  3
Standard
350
18
  0
DICTIONARY
  5
19
102
{ACAD_REACTORS
330
C
102
}
330
C
100
AcDbDictionary
281
     1
  0
ACDBDICTIONARYWDFLT
  5
E
102
{ACAD_REACTORS
330
C
102
}
330
C
100
AcDbDictionary
281
     1
  3
Normal
350
F
100
AcDbDictionaryWithDefault
340
F
  0
DICTIONARY
  5
27A
102
{ACAD_REACTORS
330
C
102
}
330
C
100
AcDbDictionary
281
     1
  0
DICTIONARY
  5
2A
102
{ACAD_REACTORS
330
C
102
}
330
C
100
AcDbDictionary
281
     1
  3
2dWireframe
350
2F
  3
3D Hidden
350
31
  3
3dWireframe
350
30
  3
Basic
350
32
  3
Brighten
350
36
  3
ColorChange
350
3A
  3
Conceptual
350
34
  3
Dim
350
35
  3
Facepattern
350
39
  3
Flat
350
2B
  3
FlatWithEdges
350
2C
  3
Gouraud
350
2D
  3
GouraudWithEdges
350
2E
  3
Linepattern
350
38
  3
Realistic
350
33
  3
Thicken
350
37
  0
DICTIONARY
  5
27C
102
{ACAD_REACTORS
330
C
102
}
330
C
100
AcDbDictionary
281
     1
  3
PSOLHEIGHT
350
27E
  3
PSOLWIDTH
350
27D
  0
LAYOUT
  5
1E
102
{ACAD_REACTORS
330
1A
102
}
330
1A
100
AcDbPlotSettings
  1

  2
none_device
  4

  6

 40
0.0
 41
0.0
 42
0.0
 43
0.0
 44
0.0
 45
0.0
 46
0.0
 47
0.0
 48
0.0
 49
0.0
140
0.0
141
0.0
142
1.0
143
1.0
 70
   688
 72
     0
 73
     0
 74
     5
  7

 75
    16
147
1.0
148
0.0
149
0.0
100
AcDbLayout
  1
Layout1
 70
     1
 71
     1
 10
0.0
 20
0.0
 11
420.0
 21
297.0
 12
0.0
 22
0.0
 32
0.0
 14
1.0000000000E+20
 24
1.0000000000E+20
 34
1.0000000000E+20
 15
-1.0000000000E+20
 25
-1.0000000000E+20
 35
-1.0000000000E+20
146
0.0
 13
0.0
 23
0.0
 33
0.0
 16
1.0
 26
0.0
 36
0.0
 17
0.0
 27
1.0
 37
0.0
 76
     0
330
1B
  0
LAYOUT
  5
26
102
{ACAD_REACTORS
330
1A
102
}
330
1A
100
AcDbPlotSettings
  1

  2
none_device
  4

  6

 40
0.0
 41
0.0
 42
0.0
 43
0.0
 44
0.0
 45
0.0
 46
0.0
 47
0.0
 48
0.0
 49
0.0
140
0.0
141
0.0
142
1.0
143
1.0
 70
   688
 72
     0
 73
     0
 74
     5
  7

 75
    16
147
1.0
148
0.0
149
0.0
100
AcDbLayout
  1
Layout2
 70
     1
 71
     2
 10
0.0
 20
0.0
 11
0.0
 21
0.0
 12
0.0
 22
0.0
 32
0.0
 14
0.0
 24
0.0
 34
0.0
 15
0.0
 25
0.0
 35
0.0
146
0.0
 13
0.0
 23
0.0
 33
0.0
 16
1.0
 26
0.0
 36
0.0
 17
0.0
 27
1.0
 37
0.0
 76
     0
330
23
  0
LAYOUT
  5
22
102
{ACAD_REACTORS
330
1A
102
}
330
1A
100
AcDbPlotSettings
  1

  2
none_device
  4

  6

 40
0.0
 41
0.0
 42
0.0
 43
0.0
 44
0.0
 45
0.0
 46
0.0
 47
0.0
 48
0.0
 49
0.0
140
0.0
141
0.0
142
1.0
143
1.0
 70
  1712
 72
     0
 73
     0
 74
     0
  7

 75
     0
147
1.0
148
0.0
149
0.0
100
AcDbLayout
  1
Model
 70
     1
 71
     0
 10
0.0
 20
0.0
 11
841.0
 21
594.0
 12
0.0
 22
0.0
 32
0.0
 14
0.0
 24
0.0
 34
0.0
 15
841.0
 25
594.0
 35
0.0
146
0.0
 13
0.0
 23
0.0
 33
0.0
 16
1.0
 26
0.0
 36
0.0
 17
0.0
 27
1.0
 37
0.0
 76
     0
330
1F
331
29
  0
MLINESTYLE
  5
18
102
{ACAD_REACTORS
330
17
102
}
330
17
100
AcDbMlineStyle
  2
Standard
 70
     0
  3

 62
   256
 51
90.0
 52
90.0
 71
     2
 49
0.5
 62
   256
  6
BYLAYER
 49
-0.5
 62
   256
  6
BYLAYER
  0
ACDBPLACEHOLDER
  5
F
102
{ACAD_REACTORS
330
E
102
}
330
E
  0
VISUALSTYLE
  5
2F
102
{ACAD_REACTORS
330
2A
102
}
330
2A
100
AcDbVisualStyle
  2
2dWireframe
 70
     4
 71
     0
 72
     2
 73
     0
 90
        0
 40
-0.6
 41
-30.0
 62
     5
 63
     7
 74
     1
 91
        4
 64
     7
 65
   257
 75
     1
175
     1
 42
1.0
 92
        0
 66
   257
 43
1.0
 76
     1
 77
     6
 78
     2
 67
     7
 79
     5
170
     0
171
     0
290
     0
174
     0
 93
        1
 44
0.0
173
     0
291
     0
 45
0.0
1001
ACAD
1000
AcDbSavedByObjectVersion
1070
     0
  0
VISUALSTYLE
  5
31
102
{ACAD_REACTORS
330
2A
102
}
330
2A
100
AcDbVisualStyle
  2
3D Hidden
 70
     6
 71
     1
 72
     2
 73
     2
 90
        0
 40
-0.6
 41
-30.0
 62
     5
 63
     7
 74
     2
 91
        2
 64
     7
 65
   257
 75
     2
175
     1
 42
40.0
 92
        0
 66
   257
 43
1.0
 76
     1
 77
     6
 78
     2
 67
     7
 79
     3
170
     0
171
     0
290
     0
174
     0
 93
        1
 44
0.0
173
     0
291
     0
 45
0.0
1001
ACAD
1000
AcDbSavedByObjectVersion
1070
     0
  0
VISUALSTYLE
  5
30
102
{ACAD_REACTORS
330
2A
102
}
330
2A
100
AcDbVisualStyle
  2
3dWireframe
 70
     5
 71
     0
 72
     2
 73
     0
 90
        0
 40
-0.6
 41
-30.0
 62
     5
 63
     7
 74
     1
 91
        4
 64
     7
 65
   257
 75
     1
175
     1
 42
1.0
 92
        0
 66
   257
 43
1.0
 76
     1
 77
     6
 78
     2
 67
     7
 79
     5
170
     0
171
     0
290
     0
174
     0
 93
        1
 44
0.0
173
     0
291
     0
 45
0.0
1001
ACAD
1000
AcDbSavedByObjectVersion
1070
     0
  0
VISUALSTYLE
  5
32
102
{ACAD_REACTORS
330
2A
102
}
330
2A
100
AcDbVisualStyle
  2
Basic
 70
     7
 71
     1
 72
     0
 73
     1
 90
        0
 40
-0.6
 41
-30.0
 62
     5
 63
     7
 74
     0
 91
        4
 64
     7
 65
   257
 75
     1
175
     1
 42
1.0
 92
        8
 66
     7
 43
1.0
 76
     1
 77
     6
 78
     2
 67
     7
 79
     5
170
     0
171
     0
290
     0
174
     0
 93
        1
 44
0.0
173
     0
291
     1
 45
0.0
1001
ACAD
1000
AcDbSavedByObjectVersion
1070
     0
  0
VISUALSTYLE
  5
36
102
{ACAD_REACTORS
330
2A
102
}
330
2A
100
AcDbVisualStyle
  2
Brighten
 70
    12
 71
     2
 72
     2
 73
     0
 90
        0
 40
-0.6
 41
-30.0
 62
     5
 63
     7
 74
     1
 91
        4
 64
     7
 65
   257
 75
     1
175
     1
 42
1.0
 92
        8
 66
     7
 43
1.0
 76
     1
 77
     6
 78
     2
 67
     7
 79
     5
170
     0
171
     0
290
     0
174
     0
 93
        1
 44
50.0
173
     0
291
     1
 45
0.0
1001
ACAD
1000
AcDbSavedByObjectVersion
1070
     0
  0
VISUALSTYLE
  5
3A
102
{ACAD_REACTORS
330
2A
102
}
330
2A
100
AcDbVisualStyle
  2
ColorChange
 70
    16
 71
     2
 72
     2
 73
     3
 90
        0
 40
-0.6
 41
-30.0
 62
     5
 63
     8
 74
     1
 91
        4
 64
     7
 65
   257
 75
     1
175
     1
 42
1.0
 92
        8
 66
     8
 43
1.0
 76
     1
 77
     6
 78
     2
 67
     7
 79
     5
170
     0
171
     0
290
     0
174
     0
 93
        1
 44
0.0
173
     0
291
     1
 45
0.0
1001
ACAD
1000
AcDbSavedByObjectVersion
1070
     0
  0
VISUALSTYLE
  5
34
102
{ACAD_REACTORS
330
2A
102
}
330
2A
100
AcDbVisualStyle
  2
Conceptual
 70
     9
 71
     3
 72
     2
 73
     0
 90
        0
 40
-0.6
 41
-30.0
 62
     5
 63
     7
 74
     2
 91
        2
 64
     7
 65
   257
 75
     1
175
     1
 42
40.0
 92
        8
 66
     7
 43
1.0
 76
     1
 77
     6
 78
     2
 67
     7
 79
     3
170
     0
171
     0
290
     0
174
     0
 93
        1
 44
0.0
173
     0
291
     0
 45
0.0
1001
ACAD
1000
AcDbSavedByObjectVersion
1070
     0
  0
VISUALSTYLE
  5
35
102
{ACAD_REACTORS
330
2A
102
}
330
2A
100
AcDbVisualStyle
  2
Dim
 70
    11
 71
     2
 72
     2
 73
     0
 90
        0
 40
-0.6
 41
-30.0
 62
     5
 63
     7
 74
     1
 91
        4
 64
     7
 65
   257
 75
     1
175
     1
 42
1.0
 92
        8
 66
     7
 43
1.0
 76
     1
 77
     6
 78
     2
 67
     7
 79
     5
170
     0
171
     0
290
     0
174
     0
 93
        1
 44
-50.0
173
     0
291
     1
 45
0.0
1001
ACAD
1000
AcDbSavedByObjectVersion
1070
     0
  0
VISUALSTYLE
  5
39
102
{ACAD_REACTORS
330
2A
102
}
330
2A
100
AcDbVisualStyle
  2
Facepattern
 70
    15
 71
     2
 72
     2
 73
     0
 90
        0
 40
-0.6
 41
-30.0
 62
     5
 63
     7
 74
     1
 91
        4
 64
     7
 65
   257
 75
     1
175
     1
 42
1.0
 92
        8
 66
     7
 43
1.0
 76
     1
 77
     6
 78
     2
 67
     7
 79
     5
170
     0
171
     0
290
     0
174
     0
 93
        1
 44
0.0
173
     0
291
     1
 45
0.0
1001
ACAD
1000
AcDbSavedByObjectVersion
1070
     0
  0
VISUALSTYLE
  5
2B
102
{ACAD_REACTORS
330
2A
102
}
330
2A
100
AcDbVisualStyle
  2
Flat
 70
     0
 71
     2
 72
     1
 73
     1
 90
        2
 40
-0.6
 41
30.0
 62
     5
 63
     7
 74
     0
 91
        4
 64
     7
 65
   257
 75
     1
175
     1
 42
1.0
 92
        8
 66
     7
 43
1.0
 76
     1
 77
     6
 78
     2
 67
     7
 79
     5
170
     0
171
     0
290
     0
174
     0
 93
       13
 44
0.0
173
     0
291
     1
 45
0.0
1001
ACAD
1000
AcDbSavedByObjectVersion
1070
     0
  0
VISUALSTYLE
  5
2C
102
{ACAD_REACTORS
330
2A
102
}
330
2A
100
AcDbVisualStyle
  2
FlatWithEdges
 70
     1
 71
     2
 72
     1
 73
     1
 90
        2
 40
-0.6
 41
30.0
 62
     5
 63
     7
 74
     1
 91
        4
 64
     7
 65
   257
 75
     1
175
     1
 42
1.0
 92
        0
 66
   257
 43
1.0
 76
     1
 77
     6
 78
     2
 67
     7
 79
     5
170
     0
171
     0
290
     0
174
     0
 93
       13
 44
0.0
173
     0
291
     1
 45
0.0
1001
ACAD
1000
AcDbSavedByObjectVersion
1070
     0
  0
VISUALSTYLE
  5
2D
102
{ACAD_REACTORS
330
2A
102
}
330
2A
100
AcDbVisualStyle
  2
Gouraud
 70
     2
 71
     2
 72
     2
 73
     1
 90
        2
 40
-0.6
 41
30.0
 62
     5
 63
     7
 74
     0
 91
        4
 64
     7
 65
   257
 75
     1
175
     1
 42
1.0
 92
        0
 66
     7
 43
1.0
 76
     1
 77
     6
 78
     2
 67
     7
 79
     5
170
     0
171
     0
290
     0
174
     0
 93
       13
 44
0.0
173
     0
291
     1
 45
0.0
1001
ACAD
1000
AcDbSavedByObjectVersion
1070
     0
  0
VISUALSTYLE
  5
2E
102
{ACAD_REACTORS
330
2A
102
}
330
2A
100
AcDbVisualStyle
  2
GouraudWithEdges
 70
     3
 71
     2
 72
     2
 73
     1
 90
        2
 40
-0.6
 41
30.0
 62
     5
 63
     7
 74
     1
 91
        4
 64
     7
 65
   257
 75
     1
175
     1
 42
1.0
 92
        0
 66
   257
 43
1.0
 76
     1
 77
     6
 78
     2
 67
     7
 79
     5
170
     0
171
     0
290
     0
174
     0
 93
       13
 44
0.0
173
     0
291
     1
 45
0.0
1001
ACAD
1000
AcDbSavedByObjectVersion
1070
     0
  0
VISUALSTYLE
  5
38
102
{ACAD_REACTORS
330
2A
102
}
330
2A
100
AcDbVisualStyle
  2
Linepattern
 70
    14
 71
     2
 72
     2
 73
     0
 90
        0
 40
-0.6
 41
-30.0
 62
     5
 63
     7
 74
     1
 91
        4
 64
     7
 65
   257
 75
     7
175
     7
 42
1.0
 92
        8
 66
     7
 43
1.0
 76
     1
 77
     6
 78
     2
 67
     7
 79
     5
170
     0
171
     0
290
     0
174
     0
 93
        1
 44
0.0
173
     0
291
     1
 45
0.0
1001
ACAD
1000
AcDbSavedByObjectVersion
1070
     0
  0
VISUALSTYLE
  5
33
102
{ACAD_REACTORS
330
2A
102
}
330
2A
100
AcDbVisualStyle
  2
Realistic
 70
     8
 71
     2
 72
     2
 73
     0
 90
        0
 40
-0.6
 41
-30.0
 62
     5
 63
     7
 74
     1
 91
        0
 64
     7
 65
   257
 75
     1
175
     1
 42
1.0
 92
        8
 66
     8
 43
1.0
 76
     1
 77
     6
 78
     2
 67
     7
 79
     5
170
     0
171
     0
290
     0
174
     0
 93
       13
 44
0.0
173
     0
291
     0
 45
0.0
1001
ACAD
1000
AcDbSavedByObjectVersion
1070
     0
  0
VISUALSTYLE
  5
37
102
{ACAD_REACTORS
330
2A
102
}
330
2A
100
AcDbVisualStyle
  2
Thicken
 70
    13
 71
     2
 72
     2
 73
     0
 90
        0
 40
-0.6
 41
-30.0
 62
     5
 63
     7
 74
     1
 91
        4
 64
     7
 65
   257
 75
     1
175
     1
 42
1.0
 92
       12
 66
     7
 43
1.0
 76
     1
 77
     6
 78
     2
 67
     7
 79
     5
170
     0
171
     0
290
     0
174
     0
 93
        1
 44
0.0
173
     0
291
     1
 45
0.0
1001
ACAD
1000
AcDbSavedByObjectVersion
1070
     0
  0
DICTIONARYVAR
  5
27E
102
{ACAD_REACTORS
330
27C
102
}
330
27C
100
DictionaryVariables
280
     0
  1
80.000000
  0
DICTIONARYVAR
  5
27D
102
{ACAD_REACTORS
330
27C
102
}
330
27C
100
DictionaryVariables
280
     0
  1
5.000000
  0
ENDSEC
  0
EOF
