  0
SECTION
  2
HEADER
  9
$ACADVER
  1
AC1015
  9
$ACADMAINTVER
 70
     6
  9
$DWGCODEPAGE
  3
DOS932
  9
$INSBASE
 10
0.0
 20
0.0
 30
0.0
  9
$EXTMIN
 10
0.0
 20
0.0
 30
0.0
  9
$EXTMAX
 10
841.0
 20
594.0
 30
0.0
  9
$LIMMIN
 10
0.0
 20
0.0
  9
$LIMMAX
 10
841.0
 20
594.0
  9
$ORTHOMODE
 70
     0
  9
$REGENMODE
 70
     1
  9
$FILLMODE
 70
     1
  9
$QTEXTMODE
 70
     0
  9
$MIRRTEXT
 70
     1
  9
$LTSCALE
 40
1.0
  9
$ATTMODE
 70
     1
  9
$TEXTSIZE
 40
3.5
  9
$TRACEWID
 40
1.0
  9
$TEXTSTYLE
  7
Standard
  9
$CLAYER
  8
0
  9
$CELTYPE
  6
ByLayer
  9
$CECOLOR
 62
   256
  9
$CELTSCALE
 40
1.0
  9
$DISPSILH
 70
     0
  9
$DIMSCALE
 40
1.0
  9
$DIMASZ
 40
3.8637032976
  9
$DIMEXO
 40
1.0
  9
$DIMDLI
 40
3.75
  9
$DIMRND
 40
0.0
  9
$DIMDLE
 40
0.0
  9
$DIMEXE
 40
1.0
  9
$DIMTP
 40
0.0
  9
$DIMTM
 40
0.0
  9
$DIMTXT
 40
2.7999999523
  9
$DIMCEN
 40
2.5
  9
$DIMTSZ
 40
0.0
  9
$DIMTOL
 70
     0
  9
$DIMLIM
 70
     0
  9
$DIMTIH
 70
     1
  9
$DIMTOH
 70
     1
  9
$DIMSE1
 70
     0
  9
$DIMSE2
 70
     0
  9
$DIMTAD
 70
     1
  9
$DIMZIN
 70
     1
  9
$DIMBLK
  1

  9
$DIMASO
 70
     1
  9
$DIMSHO
 70
     1
  9
$DIMPOST
  1

  9
$DIMAPOST
  1

  9
$DIMALT
 70
     0
  9
$DIMALTD
 70
     3
  9
$DIMALTF
 40
0.0393700787
  9
$DIMLFAC
 40
1.0
  9
$DIMTOFL
 70
     1
  9
$DIMTVP
 40
0.0
  9
$DIMTIX
 70
     0
  9
$DIMSOXD
 70
     0
  9
$DIMSAH
 70
     0
  9
$DIMBLK1
  1

  9
$DIMBLK2
  1

  9
$DIMSTYLE
  2
ISO-25
  9
$DIMCLRD
 70
     0
  9
$DIMCLRE
 70
     0
  9
$DIMCLRT
 70
     0
  9
$DIMTFAC
 40
1.0
  9
$DIMGAP
 40
1.524
  9
$DIMJUST
 70
     0
  9
$DIMSD1
 70
     0
  9
$DIMSD2
 70
     0
  9
$DIMTOLJ
 70
     0
  9
$DIMTZIN
 70
     1
  9
$DIMALTZ
 70
     0
  9
$DIMALTTZ
 70
     0
  9
$DIMUPT
 70
     0
  9
$DIMDEC
 70
     2
  9
$DIMTDEC
 70
     2
  9
$DIMALTU
 70
     2
  9
$DIMALTTD
 70
     3
  9
$DIMTXSTY
  7
Standard
  9
$DIMAUNIT
 70
     0
  9
$DIMADEC
 70
     0
  9
$DIMALTRND
 40
0.0
  9
$DIMAZIN
 70
     0
  9
$DIMDSEP
 70
    44
  9
$DIMATFIT
 70
     3
  9
$DIMFRAC
 70
     0
  9
$DIMLDRBLK
  1

  9
$DIMLUNIT
 70
     2
  9
$DIMLWD
 70
    -2
  9
$DIMLWE
 70
    -2
  9
$DIMTMOVE
 70
     0
  9
$LUNITS
 70
     2
  9
$LUPREC
 70
     3
  9
$SKETCHINC
 40
1.0
  9
$FILLETRAD
 40
10.0
  9
$AUNITS
 70
     0
  9
$AUPREC
 70
     0
  9
$MENU
  1
.
  9
$ELEVATION
 40
0.0
  9
$PELEVATION
 40
0.0
  9
$THICKNESS
 40
0.0
  9
$LIMCHECK
 70
     0
  9
$CHAMFERA
 40
10.0
  9
$CHAMFERB
 40
10.0
  9
$CHAMFERC
 40
20.0
  9
$CHAMFERD
 40
0.0
  9
$SKPOLY
 70
     0
  9
$TDCREATE
 40
2456413.922945417
  9
$TDUCREATE
 40
2456413.547945417
  9
$TDUPDATE
 40
2456413.922945428
  9
$TDUUPDATE
 40
2456413.547945428
  9
$TDINDWG
 40
0.0000000116
  9
$TDUSRTIMER
 40
0.0000000116
  9
$USRTIMER
 70
     1
  9
$ANGBASE
 50
0.0
  9
$ANGDIR
 70
     0
  9
$PDMODE
 70
     0
  9
$PDSIZE
 40
-1.0
  9
$PLINEWID
 40
0.0
  9
$SPLFRAME
 70
     0
  9
$SPLINETYPE
 70
     6
  9
$SPLINESEGS
 70
     8
  9
$HANDSEED
  5
282
  9
$SURFTAB1
 70
     6
  9
$SURFTAB2
 70
     6
  9
$SURFTYPE
 70
     6
  9
$SURFU
 70
     6
  9
$SURFV
 70
     6
  9
$UCSBASE
  2

  9
$UCSNAME
  2

  9
$UCSORG
 10
0.0
 20
0.0
 30
0.0
  9
$UCSXDIR
 10
1.0
 20
0.0
 30
0.0
  9
$UCSYDIR
 10
0.0
 20
1.0
 30
0.0
  9
$UCSORTHOREF
  2

  9
$UCSORTHOVIEW
 70
     0
  9
$UCSORGTOP
 10
0.0
 20
0.0
 30
0.0
  9
$UCSORGBOTTOM
 10
0.0
 20
0.0
 30
0.0
  9
$UCSORGLEFT
 10
0.0
 20
0.0
 30
0.0
  9
$UCSORGRIGHT
 10
0.0
 20
0.0
 30
0.0
  9
$UCSORGFRONT
 10
0.0
 20
0.0
 30
0.0
  9
$UCSORGBACK
 10
0.0
 20
0.0
 30
0.0
  9
$PUCSBASE
  2

  9
$PUCSNAME
  2

  9
$PUCSORG
 10
0.0
 20
0.0
 30
0.0
  9
$PUCSXDIR
 10
1.0
 20
0.0
 30
0.0
  9
$PUCSYDIR
 10
0.0
 20
1.0
 30
0.0
  9
$PUCSORTHOREF
  2

  9
$PUCSORTHOVIEW
 70
     0
  9
$PUCSORGTOP
 10
0.0
 20
0.0
 30
0.0
  9
$PUCSORGBOTTOM
 10
0.0
 20
0.0
 30
0.0
  9
$PUCSORGLEFT
 10
0.0
 20
0.0
 30
0.0
  9
$PUCSORGRIGHT
 10
0.0
 20
0.0
 30
0.0
  9
$PUCSORGFRONT
 10
0.0
 20
0.0
 30
0.0
  9
$PUCSORGBACK
 10
0.0
 20
0.0
 30
0.0
  9
$USERI1
 70
     0
  9
$USERI2
 70
     0
  9
$USERI3
 70
     0
  9
$USERI4
 70
     0
  9
$USERI5
 70
     0
  9
$USERR1
 40
0.0
  9
$USERR2
 40
0.0
  9
$USERR3
 40
0.0
  9
$USERR4
 40
0.0
  9
$USERR5
 40
0.0
  9
$WORLDVIEW
 70
     1
  9
$SHADEDGE
 70
     3
  9
$SHADEDIF
 70
    70
  9
$TILEMODE
 70
     1
  9
$MAXACTVP
 70
    64
  9
$PINSBASE
 10
0.0
 20
0.0
 30
0.0
  9
$PLIMCHECK
 70
     0
  9
$PEXTMIN
 10
1.0000000000E+20
 20
1.0000000000E+20
 30
1.0000000000E+20
  9
$PEXTMAX
 10
-1.0000000000E+20
 20
-1.0000000000E+20
 30
-1.0000000000E+20
  9
$PLIMMIN
 10
0.0
 20
0.0
  9
$PLIMMAX
 10
420.0
 20
297.0
  9
$UNITMODE
 70
     0
  9
$VISRETAIN
 70
     1
  9
$PLINEGEN
 70
     0
  9
$PSLTSCALE
 70
     1
  9
$TREEDEPTH
 70
  3020
  9
$CMLSTYLE
  2
Standard
  9
$CMLJUST
 70
     0
  9
$CMLSCALE
 40
20.0
  9
$PROXYGRAPHICS
 70
     1
  9
$MEASUREMENT
 70
     1
  9
$CELWEIGHT
370
    -1
  9
$ENDCAPS
280
     0
  9
$JOINSTYLE
280
     0
  9
$LWDISPLAY
290
     1
  9
$INSUNITS
 70
     4
  9
$HYPERLINKBASE
  1

  9
$STYLESHEET
  1

  9
$XEDIT
290
     1
  9
$CEPSNTYPE
380
     0
  9
$PSTYLEMODE
290
     1
  9
$FINGERPRINTGUID
  2
{312839A1-49CC-4345-834F-7488DF60BF6C}
  9
$VERSIONGUID
  2
{FAEB1C32-E019-11D5-929B-00C0DF256EC4}
  9
$EXTNAMES
290
     1
  9
$PSVPSCALE
 40
0.0
  9
$OLESTARTUP
290
     0
  0
ENDSEC
  0
SECTION
  2
CLASSES
  0
CLASS
  1
ACDBDICTIONARYWDFLT
  2
AcDbDictionaryWithDefault
  3
ObjectDBX Classes
 90
        0
280
     0
281
     0
  0
CLASS
  1
VISUALSTYLE
  2
AcDbVisualStyle
  3
ObjectDBX Classes
 90
     4095
280
     0
281
     0
  0
CLASS
  1
DICTIONARYVAR
  2
AcDbDictionaryVar
  3
ObjectDBX Classes
 90
        0
280
     0
281
     0
  0
CLASS
  1
ACDBPLACEHOLDER
  2
AcDbPlaceHolder
  3
ObjectDBX Classes
 90
        0
280
     0
281
     0
  0
CLASS
  1
LAYOUT
  2
AcDbLayout
  3
ObjectDBX Classes
 90
        0
280
     0
281
     0
  0
ENDSEC
  0
SECTION
  2
TABLES
  0
TABLE
  2
VPORT
  5
8
330
0
100
AcDbSymbolTable
 70
     1
  0
VPORT
  5
29
330
8
100
AcDbSymbolTableRecord
100
AcDbViewportTableRecord
  2
*Active
 70
     0
 10
0.0
 20
0.0
 11
1.0
 21
1.0
 12
420.5
 22
297.0
 13
0.0
 23
0.0
 14
10.0
 24
10.0
 15
10.0
 25
10.0
 16
0.0
 26
0.0
 36
1.0
 17
0.0
 27
0.0
 37
0.0
 40
594.0
 41
1.4158249158
 42
50.0
 43
0.0
 44
0.0
 50
0.0
 51
0.0
 71
     0
 72
  2000
 73
     1
 74
     3
 75
     0
 76
     0
 77
     0
 78
     0
281
     0
 65
     1
110
0.0
120
0.0
130
0.0
111
1.0
121
0.0
131
0.0
112
0.0
122
1.0
132
0.0
 79
     0
146
0.0
  0
ENDTAB
  0
TABLE
  2
LTYPE
  5
5
330
0
100
AcDbSymbolTable
 70
     6
  0
LTYPE
  5
14
330
5
100
AcDbSymbolTableRecord
100
AcDbLinetypeTableRecord
  2
ByBlock
 70
     0
  3

 72
    65
 73
     0
 40
0.0
  0
LTYPE
  5
15
330
5
100
AcDbSymbolTableRecord
100
AcDbLinetypeTableRecord
  2
ByLayer
 70
     0
  3

 72
    65
 73
     0
 40
0.0
  0
LTYPE
  5
16
330
5
100
AcDbSymbolTableRecord
100
AcDbLinetypeTableRecord
  2
Continuous
 70
     0
  3
Solid line
 72
    65
 73
     0
 40
0.0
  0
LTYPE
  5
3B
330
5
100
AcDbSymbolTableRecord
100
AcDbLinetypeTableRecord
  2
HIDDEN
 70
     0
  3
Hidden __ __ __ __ __ __ __ __ __ __ __ __ __ __
 72
    65
 73
     2
 40
1.905
 49
1.27
 74
     0
 49
-0.635
 74
     0
  0
LTYPE
  5
3C
330
5
100
AcDbSymbolTableRecord
100
AcDbLinetypeTableRecord
  2
PHANTOM
 70
     0
  3
Phantom ______  __  __  ______  __  __  ______
 72
    65
 73
     6
 40
12.7
 49
6.35
 74
     0
 49
-1.27
 74
     0
 49
1.27
 74
     0
 49
-1.27
 74
     0
 49
1.27
 74
     0
 49
-1.27
 74
     0
  0
LTYPE
  5
3D
330
5
100
AcDbSymbolTableRecord
100
AcDbLinetypeTableRecord
  2
CENTER
 70
     0
  3
Center ____ _ ____ _ ____ _ ____ _ ____ _ ____
 72
    65
 73
     4
 40
10.16
 49
6.35
 74
     0
 49
-1.27
 74
     0
 49
1.27
 74
     0
 49
-1.27
 74
     0
  0
LTYPE
  5
3E
330
5
100
AcDbSymbolTableRecord
100
AcDbLinetypeTableRecord
  2
CENTERX2
 70
     0
  3
Center (2x) ________  __  ________  __  _____
 72
    65
 73
     4
 40
20.32
 49
12.7
 74
     0
 49
-2.54
 74
     0
 49
2.54
 74
     0
 49
-2.54
 74
     0
  0
LTYPE
  5
3F
330
5
100
AcDbSymbolTableRecord
100
AcDbLinetypeTableRecord
  2
DOT2
 70
     0
  3
Dot (.5x) ........................................
 72
    65
 73
     2
 40
0.635
 49
0.0
 74
     0
 49
-0.635
 74
     0
  0
ENDTAB
  0
TABLE
  2
LAYER
  5
2
330
0
100
AcDbSymbolTable
 70
     4
  0
LAYER
  5
10
330
2
100
AcDbSymbolTableRecord
100
AcDbLayerTableRecord
  2
0
 70
     0
 62
     7
  6
Continuous
370
    -3
390
F
  0
LAYER
  5
40
330
2
100
AcDbSymbolTableRecord
100
AcDbLayerTableRecord
  2
SLD-0
 70
     0
 62
     3
  6
Continuous
370
    -3
390
F
  0
LAYER
  5
41
330
2
100
AcDbSymbolTableRecord
100
AcDbLayerTableRecord
  2
SLD-DEFPOINTS
 70
     0
 62
   179
  6
Continuous
370
    -3
390
F
  0
LAYER
  5
42
330
2
100
AcDbSymbolTableRecord
100
AcDbLayerTableRecord
  2
AM_REFDIM
 70
     0
 62
     4
  6
Continuous
370
    15
390
F
  0
ENDTAB
  0
TABLE
  2
STYLE
  5
3
330
0
100
AcDbSymbolTable
 70
     1
  0
STYLE
  5
11
330
3
100
AcDbSymbolTableRecord
100
AcDbTextStyleTableRecord
  2
Standard
 70
     0
 40
0.0
 41
1.0
 50
0.0
 71
     0
 42
2.5
  3
txt
  4
bigfont
  0
ENDTAB
  0
TABLE
  2
VIEW
  5
6
330
0
100
AcDbSymbolTable
 70
     0
  0
ENDTAB
  0
TABLE
  2
UCS
  5
7
330
0
100
AcDbSymbolTable
 70
     0
  0
ENDTAB
  0
TABLE
  2
APPID
  5
9
330
0
100
AcDbSymbolTable
 70
     1
  0
APPID
  5
12
330
9
100
AcDbSymbolTableRecord
100
AcDbRegAppTableRecord
  2
ACAD
 70
     0
  0
ENDTAB
  0
TABLE
  2
DIMSTYLE
  5
A
330
0
100
AcDbSymbolTable
 70
     1
100
AcDbDimStyleTable
  0
DIMSTYLE
105
27
330
A
100
AcDbSymbolTableRecord
100
AcDbDimStyleTableRecord
  2
ISO-25
 70
     0
 41
2.5
 42
0.625
 43
3.75
 44
1.25
 73
     0
 74
     0
 77
     1
 78
     8
140
2.5
141
2.5
143
0.0393700787
147
0.625
171
     3
172
     1
271
     2
272
     2
274
     3
278
    44
283
     0
284
     8
340
11
  0
ENDTAB
  0
TABLE
  2
BLOCK_RECORD
  5
1
330
0
100
AcDbSymbolTable
 70
     1
  0
BLOCK_RECORD
  5
1F
330
1
100
AcDbSymbolTableRecord
100
AcDbBlockTableRecord
  2
*Model_Space
340
22
  0
BLOCK_RECORD
  5
1B
330
1
100
AcDbSymbolTableRecord
100
AcDbBlockTableRecord
  2
*Paper_Space
340
1E
  0
BLOCK_RECORD
  5
23
330
1
100
AcDbSymbolTableRecord
100
AcDbBlockTableRecord
  2
*Paper_Space0
340
26
  0
ENDTAB
  0
ENDSEC
  0
SECTION
  2
BLOCKS
  0
BLOCK
  5
20
330
1F
100
AcDbEntity
  8
0
100
AcDbBlockBegin
  2
*Model_Space
 70
     0
 10
0.0
 20
0.0
 30
0.0
  3
*Model_Space
  1

  0
ENDBLK
  5
21
330
1F
100
AcDbEntity
  8
0
100
AcDbBlockEnd
  0
BLOCK
  5
1C
330
1B
100
AcDbEntity
 67
     1
  8
0
100
AcDbBlockBegin
  2
*Paper_Space
 70
     0
 10
0.0
 20
0.0
 30
0.0
  3
*Paper_Space
  1

  0
ENDBLK
  5
1D
330
1B
100
AcDbEntity
 67
     1
  8
0
100
AcDbBlockEnd
  0
BLOCK
  5
24
330
23
100
AcDbEntity
  8
0
100
AcDbBlockBegin
  2
*Paper_Space0
 70
     0
 10
0.0
 20
0.0
 30
0.0
  3
*Paper_Space0
  1

  0
ENDBLK
  5
25
330
23
100
AcDbEntity
  8
0
100
AcDbBlockEnd
  0
ENDSEC
  0
SECTION
  2
ENTITIES
  0
LINE
  5
43
330
1F
100
AcDbEntity
  8
0
  6
Continuous
 62
     7
370
    15
100
AcDbLine
 10
192.400535841
 20
208.5442053057
 30
0.0
 11
192.400535841
 21
211.4979470052
 31
0.0
  0
LINE
  5
44
330
1F
100
AcDbEntity
  8
0
  6
Continuous
 62
     7
370
    15
100
AcDbLine
 10
172.4005325628
 20
211.4979470052
 30
0.0
 11
172.4005325628
 21
208.5442053057
 31
0.0
  0
ARC
  5
45
330
1F
100
AcDbEntity
  8
0
  6
Continuous
 62
     7
370
    15
100
AcDbCircle
 10
190.8659903867
 20
205.8080417973
 30
0.0
 40
2.210905486765874
100
AcDbArc
 50
119.4462601958
 51
185.5256677624
  0
ARC
  5
46
330
1F
100
AcDbEntity
  8
0
  6
Continuous
 62
     7
370
    15
100
AcDbCircle
 10
173.7264183985
 20
205.6812288172
 30
0.0
 40
2.425809378827248
100
AcDbArc
 50
357.8556059064
 51
58.1202777866
  0
LWPOLYLINE
  5
47
330
1F
100
AcDbEntity
  8
0
  6
Continuous
 62
     7
370
    15
100
AcDbPolyline
 90
        6
 70
   128
 43
0.0
 10
186.8005304528
 20
203.0763583161
 10
187.6076145959
 20
203.3197725095
 10
188.0816056323
 20
203.5740682759
 10
188.4312092257
 20
203.921321211
 10
188.6357872677
 20
204.4213892795
 10
188.6217950773
 20
204.6035038211
  0
LWPOLYLINE
  5
48
330
1F
100
AcDbEntity
  8
0
  6
Continuous
 62
     7
370
    15
100
AcDbPolyline
 90
        6
 70
   128
 43
0.0
 10
176.1505289865
 20
204.605876831
 10
176.2945859623
 20
204.0430823244
 10
176.5616818261
 20
203.7022815921
 10
176.9181027007
 20
203.4499229767
 10
177.4541719747
 20
203.2242821433
 10
178.0005305004
 20
203.0875937917
  0
LINE
  5
49
330
1F
100
AcDbEntity
  8
0
  6
Continuous
 62
     7
370
    15
100
AcDbLine
 10
188.6505319667
 20
204.605876831
 30
0.0
 11
188.6505319667
 21
205.590459881
 31
0.0
  0
LINE
  5
4A
330
1F
100
AcDbEntity
  8
0
  6
Continuous
 62
     7
370
    15
100
AcDbLine
 10
176.1505289865
 20
205.590459881
 30
0.0
 11
176.1505289865
 21
204.605876831
 31
0.0
  0
LINE
  5
4B
330
1F
100
AcDbEntity
  8
0
  6
Continuous
 62
     7
370
    15
100
AcDbLine
 10
186.8005304528
 20
198.6983897068
 30
0.0
 11
186.8005304528
 21
203.6212975063
 31
0.0
  0
LINE
  5
4C
330
1F
100
AcDbEntity
  8
0
  6
Continuous
 62
     7
370
    15
100
AcDbLine
 10
178.0005305004
 20
203.6212975063
 30
0.0
 11
178.0005305004
 21
198.6983897068
 31
0.0
  0
ARC
  5
4D
330
1F
100
AcDbEntity
  8
0
  6
Continuous
 62
     7
370
    15
100
AcDbCircle
 10
197.4005325628
 20
260.2681549658
 30
0.0
 40
5.599999999999994
100
AcDbArc
 50
0.0
 51
90.0
  0
ARC
  5
4E
330
1F
100
AcDbEntity
  8
0
  6
Continuous
 62
     7
370
    15
100
AcDbCircle
 10
151.4005325628
 20
260.2681549658
 30
0.0
 40
5.600000000000023
100
AcDbArc
 50
90.0
 51
180.0
  0
LINE
  5
4F
330
1F
100
AcDbEntity
  8
0
  6
Continuous
 62
     7
370
    15
100
AcDbLine
 10
197.4005310726
 20
265.8681547173
 30
0.0
 11
151.4005347085
 21
265.8681547173
 31
0.0
  0
LINE
  5
50
330
1F
100
AcDbEntity
  8
0
  6
Continuous
 62
     7
370
    15
100
AcDbLine
 10
242.4005328608
 20
371.4868420638
 30
0.0
 11
237.4005339039
 21
371.4868420638
 31
0.0
  0
LINE
  5
51
330
1F
100
AcDbEntity
  8
0
  6
Continuous
 62
     7
370
    15
100
AcDbLine
 10
217.4005343509
 20
371.4868420638
 30
0.0
 11
182.4005304766
 21
371.4868420638
 31
0.0
  0
LINE
  5
52
330
1F
100
AcDbEntity
  8
0
  6
Continuous
 62
     7
370
    15
100
AcDbLine
 10
182.4005304766
 20
323.4868490972
 30
0.0
 11
217.4005343509
 21
323.4868490972
 31
0.0
  0
LINE
  5
53
330
1F
100
AcDbEntity
  8
0
  6
Continuous
 62
     7
370
    15
100
AcDbLine
 10
237.4005339039
 20
323.4868490972
 30
0.0
 11
242.4005328608
 21
323.4868490972
 31
0.0
  0
LINE
  5
54
330
1F
100
AcDbEntity
  8
0
  6
Continuous
 62
     7
370
    15
100
AcDbLine
 10
277.4005330098
 20
369.9868464746
 30
0.0
 11
242.4005328608
 21
369.9868464746
 31
0.0
  0
LINE
  5
55
330
1F
100
AcDbEntity
  8
0
  6
Continuous
 62
     7
370
    15
100
AcDbLine
 10
242.4005328608
 20
324.986852137
 30
0.0
 11
277.4005330098
 21
324.986852137
 31
0.0
  0
LINE
  5
56
330
1F
100
AcDbEntity
  8
0
  6
Continuous
 62
     7
370
    15
100
AcDbLine
 10
237.4005339039
 20
371.9368422307
 30
0.0
 11
217.4005343509
 21
371.9368422307
 31
0.0
  0
LWPOLYLINE
  5
57
330
1F
100
AcDbEntity
  8
0
  6
Continuous
 62
     7
370
    15
100
AcDbPolyline
 90
       18
 70
   128
 43
0.0
 10
401.6861229134
 20
184.366844026
 10
401.4189972472
 20
188.6432649471
 10
401.1052607489
 20
193.8332797863
 10
400.7972835493
 20
198.968391297
 10
400.5012868834
 20
203.8846941568
 10
400.2395852399
 20
208.2031400778
 10
400.0251053763
 20
211.7176273741
 10
399.9219371867
 20
213.3991861619
 10
399.8290284467
 20
214.9081131347
 10
399.6950744581
 20
217.074045343
 10
399.5102926088
 20
220.0435301192
 10
399.2705254746
 20
223.8633831866
 10
399.0249096346
 20
227.7359248974
 10
398.7336813402
 20
232.2725480326
 10
398.3924894524
 20
237.5097855829
 10
397.9963122797
 20
243.4837210594
 10
397.5396959973
 20
250.2243387416
 10
397.018945117
 20
257.7222794198
  0
ARC
  5
58
330
1F
100
AcDbEntity
  8
0
  6
Continuous
 62
     7
370
    15
100
AcDbCircle
 10
-16.0379126457
 20
233.5068707328
 30
0.0
 40
413.7634422286285
100
AcDbArc
 50
3.3490840754
 51
7.7384261032
  0
LINE
  5
59
330
1F
100
AcDbEntity
  8
0
  6
Continuous
 62
     7
370
    15
100
AcDbLine
 10
323.9005322498
 20
414.9509066619
 30
0.0
 11
323.9005322498
 21
412.9509026088
 31
0.0
  0
LINE
  5
5A
330
1F
100
AcDbEntity
  8
0
  6
Continuous
 62
     7
370
    15
100
AcDbLine
 10
443.9005388808
 20
412.9509026088
 30
0.0
 11
443.9005388808
 21
414.9509066619
 31
0.0
  0
LINE
  5
5B
330
1F
100
AcDbEntity
  8
0
  6
Continuous
 62
     7
370
    15
100
AcDbLine
 10
443.9005388808
 20
74.9509030856
 30
0.0
 11
443.9005388808
 21
76.9509071388
 31
0.0
  0
LINE
  5
5C
330
1F
100
AcDbEntity
  8
0
  6
Continuous
 62
     7
370
    15
100
AcDbLine
 10
323.9005322498
 20
76.9509071388
 30
0.0
 11
323.9005322498
 21
74.9509030856
 31
0.0
  0
ARC
  5
5D
330
1F
100
AcDbEntity
  8
0
  6
Continuous
 62
     7
370
    15
100
AcDbCircle
 10
68.0343337054
 20
279.4319001783
 30
0.0
 40
326.109315952611
100
AcDbArc
 50
1.6122013592
 51
3.5151304282
  0
LINE
  5
5E
330
1F
100
AcDbEntity
  8
0
  6
Continuous
 62
     7
370
    15
100
AcDbLine
 10
393.4904321027
 20
300.0811295487
 30
0.0
 11
393.4778406215
 21
300.2889374174
 31
0.0
  0
LINE
  5
5F
330
1F
100
AcDbEntity
  8
0
  6
Continuous
 62
     7
370
    15
100
AcDbLine
 10
343.9005336654
 20
174.4509035625
 30
0.0
 11
354.4046080601
 21
174.4509035625
 31
0.0
  0
LINE
  5
60
330
1F
100
AcDbEntity
  8
0
  6
Continuous
 62
     7
370
    15
100
AcDbLine
 10
354.4046080601
 20
315.4509061851
 30
0.0
 11
343.9005336654
 21
315.4509061851
 31
0.0
  0
LWPOLYLINE
  5
61
330
1F
100
AcDbEntity
  8
0
  6
Continuous
 62
     7
370
    15
100
AcDbPolyline
 90
        3
 70
   128
 43
0.0
 10
456.8201883626
 20
179.950907258
 10
459.4632669282
 20
188.4532267131
 10
462.900532682
 20
199.5103241779
  0
LWPOLYLINE
  5
62
330
1F
100
AcDbEntity
  8
0
  6
Continuous
 62
     7
370
    15
100
AcDbPolyline
 90
       19
 70
   128
 43
0.0
 10
420.4005359602
 20
92.9509097614
 10
420.4005359602
 20
98.4135413446
 10
420.4005359602
 20
103.6067450322
 10
420.6437527132
 20
107.7875936307
 10
421.270957489
 20
110.9100127496
 10
421.9299166394
 20
113.0241894998
 10
422.5789292646
 20
114.6562093772
 10
423.370925982
 20
116.3065427818
 10
424.3173583341
 20
117.9621660985
 10
426.1169864726
 20
120.5047437825
 10
428.0951156211
 20
122.7025831022
 10
430.1414920879
 20
124.5933690943
 10
432.0103361202
 20
126.3941893257
 10
434.1088964534
 20
128.5911271252
 10
436.1941947532
 20
130.9840449967
 10
438.5147227836
 20
133.9381927528
 10
440.987689693
 20
137.5043982543
 10
443.5127659631
 20
141.7343685307
 10
445.1117946697
 20
144.9509033837
  0
LINE
  5
63
330
1F
100
AcDbEntity
  8
0
  6
Continuous
 62
     7
370
    15
100
AcDbLine
 10
413.9005302382
 20
279.9509050228
 30
0.0
 11
406.964598496
 21
279.9509050228
 31
0.0
  0
LWPOLYLINE
  5
64
330
1F
100
AcDbEntity
  8
0
  6
Continuous
 62
     7
370
    15
100
AcDbPolyline
 90
       17
 70
   128
 43
0.0
 10
462.900532682
 20
227.9044160523
 10
462.8622963023
 20
235.2502172716
 10
462.4846561742
 20
239.4694726818
 10
461.8199302745
 20
243.1273368556
 10
460.9918876481
 20
246.2491492179
 10
459.4889267278
 20
250.4059680641
 10
457.6669468475
 20
254.2183840551
 10
454.8466785741
 20
258.7683688753
 10
451.6427501035
 20
262.7816921003
 10
448.0010702205
 20
266.3926662781
 10
445.9220006061
 20
268.1182971128
 10
443.0470450711
 20
270.1803570517
 10
439.1779287648
 20
272.4533466526
 10
435.545413096
 20
274.1386586704
 10
431.2282337737
 20
275.6476266213
 10
426.181821425
 20
276.8001178183
 10
420.374674995
 20
277.3766251184
  0
LINE
  5
65
330
1F
100
AcDbEntity
  8
0
  6
Continuous
 62
     7
370
    15
100
AcDbLine
 10
462.900532682
 20
199.5103241779
 30
0.0
 11
462.900532682
 21
201.9754605271
 31
0.0
  0
LINE
  5
66
330
1F
100
AcDbEntity
  8
0
  6
Continuous
 62
     7
370
    15
100
AcDbLine
 10
417.5512998295
 20
389.9509007015
 30
0.0
 11
418.355731566
 21
396.9385618247
 31
0.0
  0
LWPOLYLINE
  5
67
330
1F
100
AcDbEntity
  8
0
  6
Continuous
 62
     7
370
    15
100
AcDbPolyline
 90
        3
 70
   128
 43
0.0
 10
420.374674995
 20
277.3766251184
 10
417.119039495
 20
277.4069638826
 10
413.8550965977
 20
277.4021284558
  0
LINE
  5
68
330
1F
100
AcDbEntity
  8
0
  6
Continuous
 62
     7
370
    15
100
AcDbLine
 10
428.4005298209
 20
359.9509069599
 30
0.0
 11
428.9005382848
 21
359.9509069599
 31
0.0
  0
LINE
  5
69
330
1F
100
AcDbEntity
  8
0
  6
Continuous
 62
     7
370
    15
100
AcDbLine
 10
428.9005382848
 20
389.9509007015
 30
0.0
 11
417.5210802746
 21
389.9509007015
 31
0.0
  0
LINE
  5
6A
330
1F
100
AcDbEntity
  8
0
  6
Continuous
 62
     7
370
    15
100
AcDbLine
 10
462.887866695
 20
201.9509034135
 30
0.0
 11
468.9005299402
 21
201.9509034135
 31
0.0
  0
LINE
  5
6B
330
1F
100
AcDbEntity
  8
0
  6
Continuous
 62
     7
370
    15
100
AcDbLine
 10
468.9005299402
 20
227.9509039499
 30
0.0
 11
462.8796114516
 21
227.9509039499
 31
0.0
  0
LWPOLYLINE
  5
6C
330
1F
100
AcDbEntity
  8
0
  6
Continuous
 62
     7
370
    15
100
AcDbPolyline
 90
       10
 70
   128
 43
0.0
 10
447.3606183124
 20
147.4648484864
 10
448.1170608592
 20
149.2073530235
 10
449.5053722453
 20
153.0732506789
 10
450.5036159349
 20
156.2628963866
 10
451.2749894452
 20
158.7442526497
 10
451.8818392349
 20
160.6964090742
 10
452.878756721
 20
163.9033028759
 10
454.2195632053
 20
168.2164588846
 10
455.9042735887
 20
173.6358696498
 10
457.9328729701
 20
180.1615500726
  0
ARC
  5
6D
330
1F
100
AcDbEntity
  8
0
  6
Continuous
 62
     7
370
    15
100
AcDbCircle
 10
133.3472132808
 20
183.9509048738
 30
0.0
 40
8.000000000000028
100
AcDbArc
 50
195.2555633432
 51
270.0
  0
LINE
  5
6E
330
1F
100
AcDbEntity
  8
0
  6
Continuous
 62
     7
370
    15
100
AcDbLine
 10
137.400536139
 20
313.9509031452
 30
0.0
 11
108.4005369735
 21
313.9509031452
 31
0.0
  0
LINE
  5
6F
330
1F
100
AcDbEntity
  8
0
  6
Continuous
 62
     7
370
    15
100
AcDbLine
 10
133.3472116781
 20
175.9509066023
 30
0.0
 11
137.400536139
 21
175.9509066023
 31
0.0
  0
ARC
  5
70
330
1F
100
AcDbEntity
  8
0
  6
Continuous
 62
     7
370
    15
100
AcDbCircle
 10
241.4005325628
 20
213.4208928642
 30
0.0
 40
120.0
100
AcDbArc
 50
180.0
 51
195.2555633432
  0
ARC
  5
71
330
1F
100
AcDbEntity
  8
0
  6
Continuous
 62
     7
370
    15
100
AcDbCircle
 10
108.4005325628
 20
310.9509048738
 30
0.0
 40
3.0
100
AcDbArc
 50
90.0
 51
180.0
  0
LINE
  5
72
330
1F
100
AcDbEntity
  8
0
  6
Continuous
 62
     7
370
    15
100
AcDbLine
 10
110.4005261255
 20
221.9509048291
 30
0.0
 11
121.4005335164
 21
221.9509048291
 31
0.0
  0
LINE
  5
73
330
1F
100
AcDbEntity
  8
0
  6
Continuous
 62
     7
370
    15
100
AcDbLine
 10
297.4005325628
 20
313.5509038247
 30
0.0
 11
237.4005339039
 21
313.5509038247
 31
0.0
  0
LINE
  5
74
330
1F
100
AcDbEntity
  8
0
  6
Continuous
 62
     7
370
    15
100
AcDbLine
 10
217.4005343509
 20
313.5509038247
 30
0.0
 11
137.400536139
 21
313.5509038247
 31
0.0
  0
LINE
  5
75
330
1F
100
AcDbEntity
  8
0
  6
Continuous
 62
     7
370
    15
100
AcDbLine
 10
137.400536139
 20
176.3509059228
 30
0.0
 11
297.4005325628
 21
176.3509059228
 31
0.0
  0
LINE
  5
76
330
1F
100
AcDbEntity
  8
0
  6
Continuous
 62
     7
370
    15
100
AcDbLine
 10
297.4005325628
 20
174.9509045758
 30
0.0
 11
335.9005323541
 21
174.9509045758
 31
0.0
  0
LINE
  5
77
330
1F
100
AcDbEntity
  8
0
  6
Continuous
 62
     7
370
    15
100
AcDbLine
 10
335.9005323541
 20
314.9509051718
 30
0.0
 11
297.4005325628
 21
314.9509051718
 31
0.0
  0
LINE
  5
78
330
1F
100
AcDbEntity
  8
0
  6
Continuous
 62
     7
370
    15
100
AcDbLine
 10
335.9005323541
 20
264.9509044267
 30
0.0
 11
313.4005333227
 21
264.9509044267
 31
0.0
  0
LINE
  5
79
330
1F
100
AcDbEntity
  8
0
  6
Continuous
 62
     7
370
    15
100
AcDbLine
 10
313.4005333227
 20
224.9509053208
 30
0.0
 11
335.9005323541
 21
224.9509053208
 31
0.0
  0
LINE
  5
7A
330
1F
100
AcDbEntity
  8
0
  6
Continuous
 62
     7
370
    15
100
AcDbLine
 10
343.9005336654
 20
315.4509061851
 30
0.0
 11
335.9005323541
 21
315.4509061851
 31
0.0
  0
LINE
  5
7B
330
1F
100
AcDbEntity
  8
0
  6
Continuous
 62
     7
370
    15
100
AcDbLine
 10
335.9005323541
 20
174.4509035625
 30
0.0
 11
343.9005336654
 21
174.4509035625
 31
0.0
  0
LINE
  5
7C
330
1F
100
AcDbEntity
  8
0
  6
Continuous
 62
     7
370
    15
100
AcDbLine
 10
335.9005323541
 20
182.2588810601
 30
0.0
 11
313.4005333227
 21
182.2588810601
 31
0.0
  0
LINE
  5
7D
330
1F
100
AcDbEntity
  8
0
  6
Continuous
 62
     7
370
    15
100
AcDbLine
 10
313.4005333227
 20
307.6429286875
 30
0.0
 11
335.9005323541
 21
307.6429286875
 31
0.0
  0
LINE
  5
7E
330
1F
100
AcDbEntity
  8
0
  6
Continuous
 62
     7
370
    15
100
AcDbLine
 10
321.3371301931
 20
295.2508920707
 30
0.0
 11
333.5055059684
 21
264.9509044267
 31
0.0
  0
LINE
  5
7F
330
1F
100
AcDbEntity
  8
0
  6
Continuous
 62
     7
370
    15
100
AcDbLine
 10
317.2943669302
 20
299.9509045758
 30
0.0
 11
319.4812017423
 21
294.5055583395
 31
0.0
  0
LWPOLYLINE
  5
80
330
1F
100
AcDbEntity
  8
0
  6
Continuous
 62
     7
370
    15
100
AcDbPolyline
 90
       22
 70
   128
 43
0.0
 10
192.400535841
 20
208.5442053057
 10
192.2198220086
 20
208.8752569534
 10
191.6842146707
 20
209.1943429686
 10
190.8130704355
 20
209.4899298527
 10
189.6378754568
 20
209.7513409235
 10
188.2010980439
 20
209.969117669
 10
186.5546836448
 20
210.1353960015
 10
184.7581251455
 20
210.2441670276
 10
182.8763543558
 20
210.2914931156
 10
180.9773876262
 20
210.2756718077
 10
179.1298522544
 20
210.1972656228
 10
177.400535245
 20
210.0591169574
 10
175.8519246173
 20
209.8662139751
 10
174.5400040341
 20
209.6255304195
 10
173.5121815396
 20
209.3457648434
 10
172.8056057286
 20
209.0370314099
 10
172.445809741
 20
208.7104836382
 10
172.445809741
 20
208.3779269733
 10
172.8056057286
 20
208.0513792016
 10
173.5121815396
 20
207.7426420428
 10
174.5400040341
 20
207.4628764667
 10
175.3720774245
 20
207.2998726644
  0
LWPOLYLINE
  5
81
330
1F
100
AcDbEntity
  8
0
  6
Continuous
 62
     7
370
    15
100
AcDbPolyline
 90
        6
 70
   128
 43
0.0
 10
189.4065721822
 20
207.2960095383
 10
189.6378754568
 20
207.337069688
 10
190.8130704355
 20
207.5984770335
 10
191.6842146707
 20
207.8940639176
 10
192.2198220086
 20
208.2131536581
 10
192.400535841
 20
208.5442053057
  0
LWPOLYLINE
  5
82
330
1F
100
AcDbEntity
  8
0
  6
Continuous
 62
     7
370
    15
100
AcDbPolyline
 90
       18
 70
   128
 43
0.0
 10
192.400535841
 20
211.4979470052
 10
192.2198220086
 20
211.8289986529
 10
191.6842146707
 20
212.1480883934
 10
190.8130704355
 20
212.4436752774
 10
189.6378754568
 20
212.7050826229
 10
188.2010980439
 20
212.9228630938
 10
186.5546836448
 20
213.0891414263
 10
184.7581251455
 20
213.1979087271
 10
182.8763543558
 20
213.2452385403
 10
180.9773876262
 20
213.2294135072
 10
179.1298522544
 20
213.1510110475
 10
177.400535245
 20
213.0128623821
 10
175.8519246173
 20
212.8199593999
 10
174.5400040341
 20
212.5792758443
 10
173.5121815396
 20
212.2995102681
 10
172.8056057286
 20
211.9907731094
 10
172.445809741
 20
211.6642253377
 10
172.4005325628
 20
211.4979470052
  0
LWPOLYLINE
  5
83
330
1F
100
AcDbEntity
  8
0
  6
Continuous
 62
     7
370
    15
100
AcDbPolyline
 90
       12
 70
   128
 43
0.0
 10
186.8005304528
 20
203.6212975063
 10
186.6223051143
 20
203.838139204
 10
186.1020459724
 20
204.0374161579
 10
185.2819233132
 20
204.2029829599
 10
184.2283590627
 20
204.3214211144
 10
183.0267145229
 20
204.383141724
 10
181.7743464303
 20
204.383141724
 10
180.5727093411
 20
204.3214211144
 10
179.5191450906
 20
204.2029829599
 10
178.6990149808
 20
204.0374161579
 10
178.1787632895
 20
203.838139204
 10
178.0005305004
 20
203.6212975063
  0
LWPOLYLINE
  5
84
330
1F
100
AcDbEntity
  8
0
  6
Continuous
 62
     7
370
    15
100
AcDbPolyline
 90
       23
 70
   128
 43
0.0
 10
186.8005304528
 20
198.6983897068
 10
186.6223051143
 20
198.9152351298
 10
186.1020459724
 20
199.1145083584
 10
185.2819233132
 20
199.2800751604
 10
184.2283590627
 20
199.3985133149
 10
183.0267145229
 20
199.4602339246
 10
181.7743464303
 20
199.4602339246
 10
180.5727093411
 20
199.3985133149
 10
179.5191450906
 20
199.2800751604
 10
178.6990149808
 20
199.1145083584
 10
178.1787632895
 20
198.9152351298
 10
178.0005305004
 20
198.6983897068
 10
178.1787632895
 20
198.4815480091
 10
178.6990149808
 20
198.2822710552
 10
179.5191450906
 20
198.1167042531
 10
180.5727093411
 20
197.9982660987
 10
181.7743464303
 20
197.936545489
 10
183.0267145229
 20
197.936545489
 10
184.2283590627
 20
197.9982660987
 10
185.2819233132
 20
198.1167042531
 10
186.1020459724
 20
198.2822710552
 10
186.6223051143
 20
198.4815480091
 10
186.8005304528
 20
198.6983897068
  0
LINE
  5
85
330
1F
100
AcDbEntity
  8
0
  6
Continuous
 62
     7
370
    15
100
AcDbLine
 10
203.0005290103
 20
260.2681549169
 30
0.0
 11
203.0005290103
 21
219.7886681088
 31
0.0
  0
LINE
  5
86
330
1F
100
AcDbEntity
  8
0
  6
Continuous
 62
     7
370
    15
100
AcDbLine
 10
145.8005293203
 20
219.7886681088
 30
0.0
 11
145.8005293203
 21
260.2681549169
 31
0.0
  0
LINE
  5
87
330
1F
100
AcDbEntity
  8
0
  6
Continuous
 62
     7
370
    15
100
AcDbLine
 10
203.0005290103
 20
219.7886681088
 30
0.0
 11
203.0005290103
 21
215.1505792417
 31
0.0
  0
LWPOLYLINE
  5
88
330
1F
100
AcDbEntity
  8
0
  6
Continuous
 62
     7
370
    15
100
AcDbPolyline
 90
       28
 70
   128
 43
0.0
 10
166.9005288673
 20
211.4979470052
 10
166.725321014
 20
211.2357312717
 10
166.2091447902
 20
210.9876530148
 10
165.379820664
 20
210.7670823015
 10
164.28206702
 20
210.5859139838
 10
162.9750563693
 20
210.4539120473
 10
161.5292414022
 20
210.378195522
 10
160.0225849939
 20
210.362847326
 10
158.5363133741
 20
210.4086907484
 10
157.1505351854
 20
210.5132559218
 10
155.93996485
 20
210.6709064819
 10
154.9698545528
 20
210.8731413163
 10
154.2925371719
 20
211.1090639509
 10
153.9444758487
 20
211.3659487941
 10
153.9444758487
 20
211.6299489416
 10
154.2925371719
 20
211.8868337848
 10
154.9698545528
 20
212.1227526941
 10
155.93996485
 20
212.3249912538
 10
157.1505351854
 20
212.4826418139
 10
158.5363133741
 20
212.5872069873
 10
160.0225849939
 20
212.6330504097
 10
161.5292414022
 20
212.6177022137
 10
162.9750563693
 20
212.5419856884
 10
164.28206702
 20
212.4099837519
 10
165.379820664
 20
212.2288154342
 10
166.2091447902
 20
212.0082447209
 10
166.725321014
 20
211.7601627387
 10
166.9005288673
 20
211.4979470052
  0
LWPOLYLINE
  5
89
330
1F
100
AcDbEntity
  8
0
  6
Continuous
 62
     7
370
    15
100
AcDbPolyline
 90
        3
 70
   128
 43
0.0
 10
145.8005293203
 20
215.1505792417
 10
146.0629983735
 20
213.2223578073
 10
146.2028457713
 20
212.7819539882
  0
LINE
  5
8A
330
1F
100
AcDbEntity
  8
0
  6
Continuous
 62
     7
370
    15
100
AcDbLine
 10
145.8005293203
 20
215.1505792417
 30
0.0
 11
145.8005293203
 21
219.7886681088
 31
0.0
  0
ARC
  5
8B
330
1F
100
AcDbEntity
  8
0
  6
Continuous
 62
     7
370
    15
100
AcDbCircle
 10
174.4005328906
 20
258.0628204633
 30
0.0
 40
4.64168007541598
100
AcDbArc
 50
178.0086050167
 51
1.9913949833
  0
ARC
  5
8C
330
1F
100
AcDbEntity
  8
0
  6
Continuous
 62
     7
370
    15
100
AcDbCircle
 10
174.4005366159
 20
258.162805663
 30
0.0
 40
3.500241624587581
100
AcDbArc
 50
180.6737252807
 51
359.3262747193
  0
ARC
  5
8D
330
1F
100
AcDbEntity
  8
0
  6
Continuous
 62
     7
370
    15
100
AcDbCircle
 10
177.999409368
 20
263.4029365831
 30
0.0
 40
5.282213788635397
100
AcDbArc
 50
268.9274681069
 51
281.3549897616
  0
ARC
  5
8E
330
1F
100
AcDbEntity
  8
0
  6
Continuous
 62
     7
370
    15
100
AcDbCircle
 10
170.8016607914
 20
263.4029780561
 30
0.0
 40
5.282255311837114
100
AcDbArc
 50
258.6450522473
 51
271.0725567917
  0
CIRCLE
  5
8F
330
1F
100
AcDbEntity
  8
0
  6
Continuous
 62
     7
370
    15
100
AcDbCircle
 10
174.4240794708
 20
258.1121352147
 30
0.0
 40
2.376472108513062
  0
ARC
  5
90
330
1F
100
AcDbEntity
  8
0
  6
Continuous
 62
     7
370
    15
100
AcDbCircle
 10
174.4005328906
 20
257.9858476146
 30
0.0
 40
2.400857353183978
100
AcDbArc
 50
1.9888661533
 51
178.0111338467
  0
LWPOLYLINE
  5
91
330
1F
100
AcDbEntity
  8
0
  6
Continuous
 62
     7
370
    15
100
AcDbPolyline
 90
       13
 70
   128
 43
0.0
 10
166.6773839784
 20
211.7933215477
 10
166.2091447902
 20
211.5784020998
 10
165.379820664
 20
211.3578313865
 10
164.28206702
 20
211.1766630687
 10
162.9750563693
 20
211.0446611323
 10
161.5292414022
 20
210.968944607
 10
160.0225849939
 20
210.9535926856
 10
158.5363133741
 20
210.999436108
 10
157.1505351854
 20
211.1040050067
 10
155.93996485
 20
211.2616555669
 10
154.9698545528
 20
211.4638904013
 10
154.2925371719
 20
211.6998093106
 10
154.1236921144
 20
211.7933215477
  0
LINE
  5
92
330
1F
100
AcDbEntity
  8
0
  6
Continuous
 62
     7
370
    15
100
AcDbLine
 10
204.4005303574
 20
257.5117800288
 30
0.0
 11
204.4005303574
 21
216.1187393494
 31
0.0
  0
LINE
  5
93
330
1F
100
AcDbEntity
  8
0
  6
Continuous
 62
     7
370
    15
100
AcDbLine
 10
144.4005354238
 20
257.5117800288
 30
0.0
 11
144.4005354238
 21
216.1187393494
 31
0.0
  0
ARC
  5
94
330
1F
100
AcDbEntity
  8
0
  6
Continuous
 62
     7
370
    15
100
AcDbCircle
 10
149.8906197431
 20
258.0922544889
 30
0.0
 40
5.494936974250959
100
AcDbArc
 50
132.8513182105
 51
182.4081189926
  0
ARC
  5
95
330
1F
100
AcDbEntity
  8
0
  6
Continuous
 62
     7
370
    15
100
AcDbCircle
 10
199.0129530897
 20
258.2020181225
 30
0.0
 40
5.398335696494447
100
AcDbArc
 50
356.3821191161
 51
48.8144617479
  0
LINE
  5
96
330
1F
100
AcDbEntity
  8
0
  6
Continuous
 62
     7
370
    15
100
AcDbLine
 10
204.4005303574
 20
257.8613724463
 30
0.0
 11
204.4005303574
 21
257.5117800288
 31
0.0
  0
LINE
  5
97
330
1F
100
AcDbEntity
  8
0
  6
Continuous
 62
     7
370
    15
100
AcDbLine
 10
144.4005354238
 20
257.8613724463
 30
0.0
 11
144.4005354238
 21
257.5117800288
 31
0.0
  0
LINE
  5
98
330
1F
100
AcDbEntity
  8
0
  6
Continuous
 62
     7
370
    15
100
AcDbLine
 10
204.4005303574
 20
216.1187393494
 30
0.0
 11
204.4005303574
 21
212.9093887188
 31
0.0
  0
LINE
  5
99
330
1F
100
AcDbEntity
  8
0
  6
Continuous
 62
     7
370
    15
100
AcDbLine
 10
144.4005354238
 20
216.1187393494
 30
0.0
 11
144.4005354238
 21
212.9093887188
 31
0.0
  0
LWPOLYLINE
  5
9A
330
1F
100
AcDbEntity
  8
0
  6
Continuous
 62
     7
370
    15
100
AcDbPolyline
 90
        3
 70
   128
 43
0.0
 10
203.7047727895
 20
210.1890960612
 10
204.2265220475
 20
211.5126283743
 10
204.4005303574
 20
212.9093887188
  0
LWPOLYLINE
  5
9B
330
1F
100
AcDbEntity
  8
0
  6
Continuous
 62
     7
370
    15
100
AcDbPolyline
 90
        3
 70
   128
 43
0.0
 10
144.4005354238
 20
212.9093887188
 10
144.7913928819
 20
210.8399862327
 10
145.0963004422
 20
210.1890960612
  0
ARC
  5
9C
330
1F
100
AcDbEntity
  8
0
  6
Continuous
 62
     7
370
    15
100
AcDbCircle
 10
197.690947447
 20
213.7535843412
 30
0.0
 40
6.990827701226221
100
AcDbArc
 50
267.6191056284
 51
329.3441149367
  0
ARC
  5
9D
330
1F
100
AcDbEntity
  8
0
  6
Continuous
 62
     7
370
    15
100
AcDbCircle
 10
151.1618919509
 20
213.8489992967
 30
0.0
 40
7.084228401375599
100
AcDbArc
 50
211.1062639954
 51
271.9304586732
  0
LINE
  5
9E
330
1F
100
AcDbEntity
  8
0
  6
Continuous
 62
     7
370
    15
100
AcDbLine
 10
197.4005310726
 20
206.7687915541
 30
0.0
 11
188.9440922928
 21
206.7687915541
 31
0.0
  0
LINE
  5
9F
330
1F
100
AcDbEntity
  8
0
  6
Continuous
 62
     7
370
    15
100
AcDbLine
 10
175.8531241608
 20
206.7687915541
 30
0.0
 11
151.4005347085
 21
206.7687915541
 31
0.0
  0
LINE
  5
A0
330
1F
100
AcDbEntity
  8
0
  6
Continuous
 62
     7
370
    15
100
AcDbLine
 10
182.4005304766
 20
371.4868420638
 30
0.0
 11
182.4005304766
 21
323.4868490972
 31
0.0
  0
LINE
  5
A1
330
1F
100
AcDbEntity
  8
0
  6
Continuous
 62
     7
370
    15
100
AcDbLine
 10
242.4005328608
 20
371.4868420638
 30
0.0
 11
242.4005328608
 21
323.4868490972
 31
0.0
  0
LINE
  5
A2
330
1F
100
AcDbEntity
  8
0
  6
Continuous
 62
     7
370
    15
100
AcDbLine
 10
277.4005330098
 20
369.9868464746
 30
0.0
 11
277.4005330098
 21
324.986852137
 31
0.0
  0
LINE
  5
A3
330
1F
100
AcDbEntity
  8
0
  6
Continuous
 62
     7
370
    15
100
AcDbLine
 10
237.4005339039
 20
325.1931959667
 30
0.0
 11
237.4005339039
 21
371.9368422307
 31
0.0
  0
LINE
  5
A4
330
1F
100
AcDbEntity
  8
0
  6
Continuous
 62
     7
370
    15
100
AcDbLine
 10
217.4005343509
 20
325.1931959667
 30
0.0
 11
217.4005343509
 21
371.9368422307
 31
0.0
  0
LINE
  5
A5
330
1F
100
AcDbEntity
  8
0
  6
Continuous
 62
     7
370
    15
100
AcDbLine
 10
229.8005356384
 20
305.0796272136
 30
0.0
 11
237.4005339039
 21
305.0796272136
 31
0.0
  0
LINE
  5
A6
330
1F
100
AcDbEntity
  8
0
  6
Continuous
 62
     7
370
    15
100
AcDbLine
 10
229.8005356384
 20
305.0796272136
 30
0.0
 11
229.8005356384
 21
307.9884866156
 31
0.0
  0
LWPOLYLINE
  5
A7
330
1F
100
AcDbEntity
  8
0
  6
Continuous
 62
     7
370
    15
100
AcDbPolyline
 90
        9
 70
   128
 43
0.0
 10
229.8005356384
 20
307.9884866156
 10
229.6178399515
 20
308.4337556638
 10
229.0975882602
 20
308.8112318792
 10
228.3189727855
 20
309.0634563841
 10
227.4005322647
 20
309.1520288863
 10
226.482091744
 20
309.0634563841
 10
225.7034762693
 20
308.8112318792
 10
225.1832245779
 20
308.4337556638
 10
225.0005288911
 20
307.9884866156
  0
LINE
  5
A8
330
1F
100
AcDbEntity
  8
0
  6
Continuous
 62
     7
370
    15
100
AcDbLine
 10
225.0005288911
 20
307.9884866156
 30
0.0
 11
225.0005288911
 21
305.0796272136
 31
0.0
  0
LINE
  5
A9
330
1F
100
AcDbEntity
  8
0
  6
Continuous
 62
     7
370
    15
100
AcDbLine
 10
217.4005343509
 20
305.0796272136
 30
0.0
 11
225.0005288911
 21
305.0796272136
 31
0.0
  0
LINE
  5
AA
330
1F
100
AcDbEntity
  8
0
  6
Continuous
 62
     7
370
    15
100
AcDbLine
 10
237.4005339039
 20
305.0796272136
 30
0.0
 11
237.4005339039
 21
311.1880266942
 31
0.0
  0
LINE
  5
AB
330
1F
100
AcDbEntity
  8
0
  6
Continuous
 62
     7
370
    15
100
AcDbLine
 10
217.4005343509
 20
305.0796272136
 30
0.0
 11
217.4005343509
 21
311.1880266942
 31
0.0
  0
LINE
  5
AC
330
1F
100
AcDbEntity
  8
0
  6
Continuous
 62
     7
370
    15
100
AcDbLine
 10
229.8005356384
 20
304.0300862767
 30
0.0
 11
237.4005339039
 21
304.0300862767
 31
0.0
  0
LINE
  5
AD
330
1F
100
AcDbEntity
  8
0
  6
Continuous
 62
     7
370
    15
100
AcDbLine
 10
229.8005356384
 20
305.0796272136
 30
0.0
 11
229.8005356384
 21
304.0300862767
 31
0.0
  0
LINE
  5
AE
330
1F
100
AcDbEntity
  8
0
  6
Continuous
 62
     7
370
    15
100
AcDbLine
 10
237.4005339039
 20
304.0300862767
 30
0.0
 11
237.4005339039
 21
305.0796272136
 31
0.0
  0
LINE
  5
AF
330
1F
100
AcDbEntity
  8
0
  6
Continuous
 62
     7
370
    15
100
AcDbLine
 10
217.4005343509
 20
304.0300862767
 30
0.0
 11
225.0005288911
 21
304.0300862767
 31
0.0
  0
LINE
  5
B0
330
1F
100
AcDbEntity
  8
0
  6
Continuous
 62
     7
370
    15
100
AcDbLine
 10
225.0005288911
 20
304.0300862767
 30
0.0
 11
225.0005288911
 21
305.0796272136
 31
0.0
  0
LINE
  5
B1
330
1F
100
AcDbEntity
  8
0
  6
Continuous
 62
     7
370
    15
100
AcDbLine
 10
217.4005343509
 20
304.0300862767
 30
0.0
 11
217.4005343509
 21
305.0796272136
 31
0.0
  0
LWPOLYLINE
  5
B2
330
1F
100
AcDbEntity
  8
0
  6
Continuous
 62
     7
370
    15
100
AcDbPolyline
 90
        9
 70
   128
 43
0.0
 10
229.8005356384
 20
306.9389419534
 10
229.6178399515
 20
307.3842110016
 10
229.0975882602
 20
307.7616909422
 10
228.3189727855
 20
308.0139154472
 10
227.4005322647
 20
308.1024879493
 10
226.482091744
 20
308.0139154472
 10
225.7034762693
 20
307.7616909422
 10
225.1832245779
 20
307.3842110016
 10
225.0005288911
 20
306.9389419534
  0
LINE
  5
B3
330
1F
100
AcDbEntity
  8
0
  6
Continuous
 62
     7
370
    15
100
AcDbLine
 10
237.4005339039
 20
325.1931959667
 30
0.0
 11
237.4005339039
 21
323.6824566402
 31
0.0
  0
LINE
  5
B4
330
1F
100
AcDbEntity
  8
0
  6
Continuous
 62
     7
370
    15
100
AcDbLine
 10
217.4005343509
 20
323.6824566402
 30
0.0
 11
217.4005343509
 21
325.1931959667
 31
0.0
  0
ARC
  5
B5
330
1F
100
AcDbEntity
  8
0
  6
Continuous
 62
     7
370
    15
100
AcDbCircle
 10
227.4005322647
 20
316.9123875285
 30
0.0
 40
2.400122662240325
100
AcDbArc
 50
180.5712447382
 51
359.4287552618
  0
LINE
  5
B6
330
1F
100
AcDbEntity
  8
0
  6
Continuous
 62
     7
370
    15
100
AcDbLine
 10
229.8005356384
 20
318.863830892
 30
0.0
 11
229.8005356384
 21
316.8884584584
 31
0.0
  0
ARC
  5
B7
330
1F
100
AcDbEntity
  8
0
  6
Continuous
 62
     7
370
    15
100
AcDbCircle
 10
227.4005322647
 20
318.8399018219
 30
0.0
 40
2.400122662240326
100
AcDbArc
 50
0.5712447382
 51
179.4287552618
  0
LINE
  5
B8
330
1F
100
AcDbEntity
  8
0
  6
Continuous
 62
     7
370
    15
100
AcDbLine
 10
225.0005288911
 20
316.8884584584
 30
0.0
 11
225.0005288911
 21
318.863830892
 31
0.0
  0
LINE
  5
B9
330
1F
100
AcDbEntity
  8
0
  6
Continuous
 62
     7
370
    15
100
AcDbLine
 10
237.4005339039
 20
313.2501387872
 30
0.0
 11
237.4005339039
 21
323.6824566402
 31
0.0
  0
LINE
  5
BA
330
1F
100
AcDbEntity
  8
0
  6
Continuous
 62
     7
370
    15
100
AcDbLine
 10
217.4005343509
 20
313.2501387872
 30
0.0
 11
217.4005343509
 21
323.6824566402
 31
0.0
  0
LINE
  5
BB
330
1F
100
AcDbEntity
  8
0
  6
Continuous
 62
     7
370
    15
100
AcDbLine
 10
237.4005339039
 20
313.2501387872
 30
0.0
 11
237.4005339039
 21
311.1880266942
 31
0.0
  0
LINE
  5
BC
330
1F
100
AcDbEntity
  8
0
  6
Continuous
 62
     7
370
    15
100
AcDbLine
 10
217.4005343509
 20
311.1880266942
 30
0.0
 11
217.4005343509
 21
313.2501387872
 31
0.0
  0
ARC
  5
BD
330
1F
100
AcDbEntity
  8
0
  6
Continuous
 62
     7
370
    15
100
AcDbCircle
 10
227.4005322647
 20
317.1001074213
 30
0.0
 40
2.400122687312865
100
AcDbArc
 50
180.5713047657
 51
359.4286952343
  0
ARC
  5
BE
330
1F
100
AcDbEntity
  8
0
  6
Continuous
 62
     7
370
    15
100
AcDbCircle
 10
227.4005322647
 20
320.6464745387
 30
0.0
 40
2.408943789061758
100
AcDbArc
 50
202.1630226289
 51
337.8369773711
  0
ARC
  5
BF
330
1F
100
AcDbEntity
  8
0
  6
Continuous
 62
     7
370
    15
100
AcDbCircle
 10
227.4005322647
 20
320.8353934803
 30
0.0
 40
2.409906153554994
100
AcDbArc
 50
204.6163159355
 51
335.3836840645
  0
LWPOLYLINE
  5
C0
330
1F
100
AcDbEntity
  8
0
  6
Continuous
 62
     7
370
    15
100
AcDbPolyline
 90
        3
 70
   128
 43
0.0
 10
323.5324512166
 20
315.8674606957
 10
322.3216536385
 20
315.3897592701
 10
321.4715591562
 20
314.9509051718
  0
ARC
  5
C1
330
1F
100
AcDbEntity
  8
0
  6
Continuous
 62
     7
370
    15
100
AcDbCircle
 10
325.6661008386
 20
311.4703135516
 30
0.0
 40
4.887470073176853
100
AcDbArc
 50
68.5441342642
 51
115.8842839058
  0
LINE
  5
C2
330
1F
100
AcDbEntity
  8
0
  6
Continuous
 62
     7
370
    15
100
AcDbLine
 10
320.0059945625
 20
315.5183637418
 30
0.0
 11
319.4942365331
 21
314.9509051718
 31
0.0
  0
LINE
  5
C3
330
1F
100
AcDbEntity
  8
0
  6
Continuous
 62
     7
370
    15
100
AcDbLine
 10
315.1370699448
 20
314.9509051718
 30
0.0
 11
312.7173169446
 21
320.976234404
 31
0.0
  0
LINE
  5
C4
330
1F
100
AcDbEntity
  8
0
  6
Continuous
 62
     7
370
    15
100
AcDbLine
 10
316.2437735987
 20
324.8865226187
 30
0.0
 11
312.7173169446
 21
320.976234404
 31
0.0
  0
LINE
  5
C5
330
1F
100
AcDbEntity
  8
0
  6
Continuous
 62
     7
370
    15
100
AcDbLine
 10
320.0059945625
 20
315.5183637418
 30
0.0
 11
316.2437735987
 21
324.8865226187
 31
0.0
  0
LINE
  5
C6
330
1F
100
AcDbEntity
  8
0
  6
Continuous
 62
     7
370
    15
100
AcDbLine
 10
327.0589078707
 20
317.8449043907
 30
0.0
 11
320.0059945625
 21
315.5183637418
 31
0.0
  0
LINE
  5
C7
330
1F
100
AcDbEntity
  8
0
  6
Continuous
 62
     7
370
    15
100
AcDbLine
 10
329.5700422418
 20
316.7171398081
 30
0.0
 11
327.0589078707
 21
317.8449043907
 31
0.0
  0
LINE
  5
C8
330
1F
100
AcDbEntity
  8
0
  6
Continuous
 62
     7
370
    15
100
AcDbLine
 10
323.2966869068
 20
327.2130632676
 30
0.0
 11
316.2437735987
 21
324.8865226187
 31
0.0
  0
LINE
  5
C9
330
1F
100
AcDbEntity
  8
0
  6
Continuous
 62
     7
370
    15
100
AcDbLine
 10
327.0589078707
 20
317.8449043907
 30
0.0
 11
323.2966869068
 21
327.2130632676
 31
0.0
  0
LINE
  5
CA
330
1F
100
AcDbEntity
  8
0
  6
Continuous
 62
     7
370
    15
100
AcDbLine
 10
326.8231435609
 20
325.6293082513
 30
0.0
 11
323.2966869068
 21
327.2130632676
 31
0.0
  0
LINE
  5
CB
330
1F
100
AcDbEntity
  8
0
  6
Continuous
 62
     7
370
    15
100
AcDbLine
 10
330.3048930061
 20
316.9595444478
 30
0.0
 11
326.8231435609
 21
325.6293082513
 31
0.0
  0
LINE
  5
CC
330
1F
100
AcDbEntity
  8
0
  6
Continuous
 62
     7
370
    15
100
AcDbLine
 10
313.5076130671
 20
331.6997283973
 30
0.0
 11
309.981156413
 21
327.7894401826
 31
0.0
  0
LINE
  5
CD
330
1F
100
AcDbEntity
  8
0
  6
Continuous
 62
     7
370
    15
100
AcDbLine
 10
315.5597339314
 20
326.5898222007
 30
0.0
 11
313.5076130671
 21
331.6997283973
 31
0.0
  0
LINE
  5
CE
330
1F
100
AcDbEntity
  8
0
  6
Continuous
 62
     7
370
    15
100
AcDbLine
 10
312.0332772774
 20
322.679533986
 30
0.0
 11
315.5597339314
 21
326.5898222007
 31
0.0
  0
LINE
  5
CF
330
1F
100
AcDbEntity
  8
0
  6
Continuous
 62
     7
370
    15
100
AcDbLine
 10
312.0332772774
 20
322.679533986
 30
0.0
 11
309.981156413
 21
327.7894401826
 31
0.0
  0
LINE
  5
D0
330
1F
100
AcDbEntity
  8
0
  6
Continuous
 62
     7
370
    15
100
AcDbLine
 10
315.5597339314
 20
326.5898222007
 30
0.0
 11
322.6126472396
 21
328.9163628496
 31
0.0
  0
LINE
  5
D1
330
1F
100
AcDbEntity
  8
0
  6
Continuous
 62
     7
370
    15
100
AcDbLine
 10
322.6126472396
 20
328.9163628496
 30
0.0
 11
326.1391038937
 21
327.3326152839
 31
0.0
  0
LINE
  5
D2
330
1F
100
AcDbEntity
  8
0
  6
Continuous
 62
     7
370
    15
100
AcDbLine
 10
326.1391038937
 20
327.3326152839
 30
0.0
 11
325.2429927629
 21
326.3389686026
 31
0.0
  0
LINE
  5
D3
330
1F
100
AcDbEntity
  8
0
  6
Continuous
 62
     7
370
    15
100
AcDbLine
 10
313.6134280753
 20
321.9698810853
 30
0.0
 11
312.0332772774
 21
322.679533986
 31
0.0
  0
LWPOLYLINE
  5
D4
330
1F
100
AcDbEntity
  8
0
  6
Continuous
 62
     7
370
    15
100
AcDbPolyline
 90
       11
 70
   128
 43
0.0
 10
315.3354621423
 20
323.879345683
 10
315.4216597718
 20
324.1734275498
 10
315.8310002578
 20
324.7775206246
 10
316.5295760077
 20
325.4019314327
 10
317.4553199601
 20
325.9911680497
 10
318.5259739799
 20
326.4928677954
 10
319.6464053285
 20
326.8624612965
 10
320.7170593482
 20
327.0671138443
 10
321.6428033006
 20
327.0886236705
 10
322.3413809133
 20
326.9250983276
 10
322.375512023
 20
326.909191338
  0
LINE
  5
D5
330
1F
100
AcDbEntity
  8
0
  6
Continuous
 62
     7
370
    15
100
AcDbLine
 10
320.5605263752
 20
334.0262690462
 30
0.0
 11
313.5076130671
 21
331.6997283973
 31
0.0
  0
LINE
  5
D6
330
1F
100
AcDbEntity
  8
0
  6
Continuous
 62
     7
370
    15
100
AcDbLine
 10
322.6126472396
 20
328.9163628496
 30
0.0
 11
320.5605263752
 21
334.0262690462
 31
0.0
  0
LINE
  5
D7
330
1F
100
AcDbEntity
  8
0
  6
Continuous
 62
     7
370
    15
100
AcDbLine
 10
324.0869830293
 20
332.4425140299
 30
0.0
 11
320.5605263752
 21
334.0262690462
 31
0.0
  0
LINE
  5
D8
330
1F
100
AcDbEntity
  8
0
  6
Continuous
 62
     7
370
    15
100
AcDbLine
 10
326.1391038937
 20
327.3326152839
 30
0.0
 11
324.0869830293
 21
332.4425140299
 31
0.0
  0
LINE
  5
D9
330
1F
100
AcDbEntity
  8
0
  6
Continuous
 62
     7
370
    15
100
AcDbLine
 10
401.7200528574
 20
181.5831208505
 30
0.0
 11
401.6026242566
 21
184.3632863738
 31
0.0
  0
LWPOLYLINE
  5
DA
330
1F
100
AcDbEntity
  8
0
  6
Continuous
 62
     7
370
    15
100
AcDbPolyline
 90
       13
 70
   128
 43
0.0
 10
401.7200528574
 20
181.5831208505
 10
400.8945210767
 20
177.826120881
 10
399.1206421447
 20
174.4445631184
 10
396.5290545416
 20
171.5536335387
 10
392.9133622837
 20
169.0899351515
 10
388.6469139648
 20
167.501262752
 10
383.9005290461
 20
166.9382298269
 10
379.154151578
 20
167.501262752
 10
374.887703259
 20
169.0899351515
 10
371.2720110011
 20
171.5536335387
 10
368.4778793645
 20
174.7417444267
 10
366.6761427117
 20
178.5036543288
 10
366.2650718284
 20
181.1978364267
  0
LWPOLYLINE
  5
DB
330
1F
100
AcDbEntity
  8
0
  6
Continuous
 62
     7
370
    15
100
AcDbPolyline
 90
        3
 70
   128
 43
0.0
 10
373.5380380345
 20
181.1978364267
 10
374.9669774366
 20
186.2559797146
 10
376.6616343451
 20
191.8044419863
  0
ARC
  5
DC
330
1F
100
AcDbEntity
  8
0
  6
Continuous
 62
     7
370
    15
100
AcDbCircle
 10
382.1433522644
 20
205.5999661668
 30
0.0
 40
14.84472023188652
100
AcDbArc
 50
191.3638186477
 51
248.3293631028
  0
LWPOLYLINE
  5
DD
330
1F
100
AcDbEntity
  8
0
  6
Continuous
 62
     7
370
    15
100
AcDbPolyline
 90
        9
 70
   128
 43
0.0
 10
367.5896509481
 20
202.6749880888
 10
368.1431992841
 20
209.6409121432
 10
368.7417267752
 20
217.2098396249
 10
369.1708429647
 20
222.6923512198
 10
369.6053608251
 20
228.3282199778
 10
370.051434536
 20
234.2472061418
 10
370.4889102769
 20
240.245071137
 10
371.1139618349
 20
249.3244669304
 10
371.6914414358
 20
258.4873674341
  0
LWPOLYLINE
  5
DE
330
1F
100
AcDbEntity
  8
0
  6
Continuous
 62
     7
370
    15
100
AcDbPolyline
 90
       12
 70
   128
 43
0.0
 10
397.0040663076
 20
257.7198710196
 10
396.5506165219
 20
258.2712717258
 10
395.2273636055
 20
258.7838735335
 10
393.175279994
 20
259.2182898797
 10
390.5198111129
 20
259.5539962776
 10
387.3864098382
 20
259.7704710342
 10
383.9005290461
 20
259.8471896626
 10
380.4146557045
 20
259.7704710342
 10
377.2812544298
 20
259.5539962776
 10
374.6257855487
 20
259.2182898797
 10
372.9351445031
 20
258.8789913707
 10
371.6914414358
 20
258.4873674341
  0
LINE
  5
DF
330
1F
100
AcDbEntity
  8
0
  6
Continuous
 62
     7
370
    15
100
AcDbLine
 10
327.5695669395
 20
396.9508999862
 30
0.0
 11
383.9005290461
 21
396.9508999862
 31
0.0
  0
LINE
  5
E0
330
1F
100
AcDbEntity
  8
0
  6
Continuous
 62
     7
370
    15
100
AcDbLine
 10
383.9005290461
 20
412.9509026088
 30
0.0
 11
327.5695669395
 21
412.9509026088
 31
0.0
  0
LINE
  5
E1
330
1F
100
AcDbEntity
  8
0
  6
Continuous
 62
     7
370
    15
100
AcDbLine
 10
383.9005290461
 20
396.9508999862
 30
0.0
 11
383.9005290461
 21
412.9509026088
 31
0.0
  0
LINE
  5
E2
330
1F
100
AcDbEntity
  8
0
  6
Continuous
 62
     7
370
    15
100
AcDbLine
 10
383.9005290461
 20
396.9508999862
 30
0.0
 11
440.2315004659
 21
396.9508999862
 31
0.0
  0
LINE
  5
E3
330
1F
100
AcDbEntity
  8
0
  6
Continuous
 62
     7
370
    15
100
AcDbLine
 10
440.2315004659
 20
412.9509026088
 30
0.0
 11
383.9005290461
 21
412.9509026088
 31
0.0
  0
LINE
  5
E4
330
1F
100
AcDbEntity
  8
0
  6
Continuous
 62
     7
370
    15
100
AcDbLine
 10
440.2315004659
 20
76.9509071388
 30
0.0
 11
383.9005290461
 21
76.9509071388
 31
0.0
  0
LINE
  5
E5
330
1F
100
AcDbEntity
  8
0
  6
Continuous
 62
     7
370
    15
100
AcDbLine
 10
383.9005290461
 20
92.9509097614
 30
0.0
 11
383.9005290461
 21
76.9509071388
 31
0.0
  0
LINE
  5
E6
330
1F
100
AcDbEntity
  8
0
  6
Continuous
 62
     7
370
    15
100
AcDbLine
 10
383.9005290461
 20
92.9509097614
 30
0.0
 11
440.2315004659
 21
92.9509097614
 31
0.0
  0
LINE
  5
E7
330
1F
100
AcDbEntity
  8
0
  6
Continuous
 62
     7
370
    15
100
AcDbLine
 10
383.9005290461
 20
76.9509071388
 30
0.0
 11
327.5695669395
 21
76.9509071388
 31
0.0
  0
LINE
  5
E8
330
1F
100
AcDbEntity
  8
0
  6
Continuous
 62
     7
370
    15
100
AcDbLine
 10
327.5695669395
 20
92.9509097614
 30
0.0
 11
383.9005290461
 21
92.9509097614
 31
0.0
  0
LWPOLYLINE
  5
E9
330
1F
100
AcDbEntity
  8
0
  6
Continuous
 62
     7
370
    15
100
AcDbPolyline
 90
        6
 70
   128
 43
0.0
 10
371.6914414358
 20
258.4873674341
 10
372.5369556737
 20
267.8118603207
 10
373.0717956019
 20
272.4040089078
 10
373.7026139093
 20
276.8525885321
 10
374.6720089507
 20
282.1778463103
 10
375.9378551436
 20
287.2268216588
  0
ARC
  5
EA
330
1F
100
AcDbEntity
  8
0
  6
Continuous
 62
     7
370
    15
100
AcDbCircle
 10
383.7764070014
 20
277.4891490274
 30
0.0
 40
12.50060652545521
100
AcDbArc
 50
89.4310847115
 51
128.8330845008
  0
LWPOLYLINE
  5
EB
330
1F
100
AcDbEntity
  8
0
  6
Continuous
 62
     7
370
    15
100
AcDbPolyline
 90
        8
 70
   128
 43
0.0
 10
383.9005290461
 20
295.5916592755
 10
385.7355995965
 20
295.4725468435
 10
387.5339015317
 20
295.1148630955
 10
389.216980238
 20
294.5237675585
 10
390.7133101416
 20
293.7271105029
 10
391.9601275516
 20
292.7614146747
 10
392.9226159048
 20
291.6751833536
 10
393.9367740345
 20
289.3391692914
  0
LINE
  5
EC
330
1F
100
AcDbEntity
  8
0
  6
Continuous
 62
     7
370
    15
100
AcDbLine
 10
367.5896509481
 20
202.6749880888
 30
0.0
 11
343.9005336654
 21
202.6749880888
 31
0.0
  0
LINE
  5
ED
330
1F
100
AcDbEntity
  8
0
  6
Continuous
 62
     7
370
    15
100
AcDbLine
 10
375.9378551436
 20
287.2268216588
 30
0.0
 11
343.9005336654
 21
287.2268216588
 31
0.0
  0
LINE
  5
EE
330
1F
100
AcDbEntity
  8
0
  6
Continuous
 62
     7
370
    15
100
AcDbLine
 10
343.9005336654
 20
204.7285543658
 30
0.0
 11
343.9005336654
 21
285.1732553818
 31
0.0
  0
LINE
  5
EF
330
1F
100
AcDbEntity
  8
0
  6
Continuous
 62
     7
370
    15
100
AcDbLine
 10
380.900530417
 20
92.9509097614
 30
0.0
 11
380.900530417
 21
163.5599428691
 31
0.0
  0
LWPOLYLINE
  5
F0
330
1F
100
AcDbEntity
  8
0
  6
Continuous
 62
     7
370
    15
100
AcDbPolyline
 90
        3
 70
   128
 43
0.0
 10
386.9005351258
 20
163.5599428691
 10
383.9420585823
 20
163.3350023903
 10
380.900530417
 20
163.5599428691
  0
LINE
  5
F1
330
1F
100
AcDbEntity
  8
0
  6
Continuous
 62
     7
370
    15
100
AcDbLine
 10
386.9005351258
 20
92.9509097614
 30
0.0
 11
386.9005351258
 21
163.5599428691
 31
0.0
  0
LINE
  5
F2
330
1F
100
AcDbEntity
  8
0
  6
Continuous
 62
     7
370
    15
100
AcDbLine
 10
383.9005290461
 20
304.4562594868
 30
0.0
 11
386.9005351258
 21
304.2014086522
 31
0.0
  0
LINE
  5
F3
330
1F
100
AcDbEntity
  8
0
  6
Continuous
 62
     7
370
    15
100
AcDbLine
 10
380.900530417
 20
310.0794473566
 30
0.0
 11
383.9005290461
 21
310.0794473566
 31
0.0
  0
LINE
  5
F4
330
1F
100
AcDbEntity
  8
0
  6
Continuous
 62
     7
370
    15
100
AcDbLine
 10
380.900530417
 20
396.9508999862
 30
0.0
 11
380.900530417
 21
310.0794473566
 31
0.0
  0
LINE
  5
F5
330
1F
100
AcDbEntity
  8
0
  6
Continuous
 62
     7
370
    15
100
AcDbLine
 10
386.9005351258
 20
396.9508999862
 30
0.0
 11
386.9005351258
 21
304.2014086522
 31
0.0
  0
LINE
  5
F6
330
1F
100
AcDbEntity
  8
0
  6
Continuous
 62
     7
370
    15
100
AcDbLine
 10
318.2923964155
 20
396.9508999862
 30
0.0
 11
327.5695669395
 21
396.9508999862
 31
0.0
  0
LINE
  5
F7
330
1F
100
AcDbEntity
  8
0
  6
Continuous
 62
     7
370
    15
100
AcDbLine
 10
327.5695669395
 20
412.9509026088
 30
0.0
 11
318.2923964155
 21
412.9509026088
 31
0.0
  0
LINE
  5
F8
330
1F
100
AcDbEntity
  8
0
  6
Continuous
 62
     7
370
    15
100
AcDbLine
 10
327.5695669395
 20
76.9509071388
 30
0.0
 11
318.2923964155
 21
76.9509071388
 31
0.0
  0
LINE
  5
F9
330
1F
100
AcDbEntity
  8
0
  6
Continuous
 62
     7
370
    15
100
AcDbLine
 10
318.2923964155
 20
92.9509097614
 30
0.0
 11
327.5695669395
 21
92.9509097614
 31
0.0
  0
LINE
  5
FA
330
1F
100
AcDbEntity
  8
0
  6
Continuous
 62
     7
370
    15
100
AcDbLine
 10
440.2315004659
 20
396.9508999862
 30
0.0
 11
449.508665402
 21
396.9508999862
 31
0.0
  0
LINE
  5
FB
330
1F
100
AcDbEntity
  8
0
  6
Continuous
 62
     7
370
    15
100
AcDbLine
 10
449.508665402
 20
412.9509026088
 30
0.0
 11
440.2315004659
 21
412.9509026088
 31
0.0
  0
LINE
  5
FC
330
1F
100
AcDbEntity
  8
0
  6
Continuous
 62
     7
370
    15
100
AcDbLine
 10
449.508665402
 20
76.9509071388
 30
0.0
 11
440.2315004659
 21
76.9509071388
 31
0.0
  0
LINE
  5
FD
330
1F
100
AcDbEntity
  8
0
  6
Continuous
 62
     7
370
    15
100
AcDbLine
 10
440.2315004659
 20
92.9509097614
 30
0.0
 11
449.508665402
 21
92.9509097614
 31
0.0
  0
LINE
  5
FE
330
1F
100
AcDbEntity
  8
0
  6
Continuous
 62
     7
370
    15
100
AcDbLine
 10
376.6616343451
 20
191.8044419863
 30
0.0
 11
343.9005336654
 21
191.8044419863
 31
0.0
  0
LINE
  5
FF
330
1F
100
AcDbEntity
  8
0
  6
Continuous
 62
     7
370
    15
100
AcDbLine
 10
373.5380380345
 20
181.1978364267
 30
0.0
 11
343.9005336654
 21
181.1978364267
 31
0.0
  0
LINE
  5
100
330
1F
100
AcDbEntity
  8
0
  6
Continuous
 62
     7
370
    15
100
AcDbLine
 10
343.9005336654
 20
181.1978364267
 30
0.0
 11
343.9005336654
 21
191.8044419863
 31
0.0
  0
LINE
  5
101
330
1F
100
AcDbEntity
  8
0
  6
Continuous
 62
     7
370
    15
100
AcDbLine
 10
383.9005290461
 20
298.0973677613
 30
0.0
 11
343.9005336654
 21
298.0973677613
 31
0.0
  0
LINE
  5
102
330
1F
100
AcDbEntity
  8
0
  6
Continuous
 62
     7
370
    15
100
AcDbLine
 10
383.9005290461
 20
289.9891393163
 30
0.0
 11
383.9005290461
 21
298.0973677613
 31
0.0
  0
LINE
  5
103
330
1F
100
AcDbEntity
  8
0
  6
Continuous
 62
     7
370
    15
100
AcDbLine
 10
383.9005290461
 20
308.7039733209
 30
0.0
 11
343.9005336654
 21
308.7039733209
 31
0.0
  0
LINE
  5
104
330
1F
100
AcDbEntity
  8
0
  6
Continuous
 62
     7
370
    15
100
AcDbLine
 10
383.9005290461
 20
298.0973677613
 30
0.0
 11
383.9005290461
 21
308.7039733209
 31
0.0
  0
LINE
  5
105
330
1F
100
AcDbEntity
  8
0
  6
Continuous
 62
     7
370
    15
100
AcDbLine
 10
343.9005336654
 20
298.0973677613
 30
0.0
 11
343.9005336654
 21
308.7039733209
 31
0.0
  0
ARC
  5
106
330
1F
100
AcDbEntity
  8
0
  6
Continuous
 62
     7
370
    15
100
AcDbCircle
 10
247.7808552878
 20
252.9107976026
 30
0.0
 40
157.614608077029
100
AcDbArc
 50
344.9722710894
 51
352.6622661867
  0
LINE
  5
107
330
1F
100
AcDbEntity
  8
0
  6
Continuous
 62
     7
370
    15
100
AcDbLine
 10
395.7503869128
 20
273.6409617491
 30
0.0
 11
395.7503869128
 21
304.3728204347
 31
0.0
  0
LINE
  5
108
330
1F
100
AcDbEntity
  8
0
  6
Continuous
 62
     7
370
    15
100
AcDbLine
 10
395.8144693566
 20
304.2275303878
 30
0.0
 11
395.7503869128
 21
304.3728204347
 31
0.0
  0
LINE
  5
109
330
1F
100
AcDbEntity
  8
0
  6
Continuous
 62
     7
370
    15
100
AcDbLine
 10
404.1046856833
 20
279.8220956601
 30
0.0
 11
395.8144693566
 21
304.2275303878
 31
0.0
  0
LINE
  5
10A
330
1F
100
AcDbEntity
  8
0
  6
Continuous
 62
     7
370
    15
100
AcDbLine
 10
404.1046856833
 20
232.7806031235
 30
0.0
 11
404.1046856833
 21
279.8220956601
 31
0.0
  0
LINE
  5
10B
330
1F
100
AcDbEntity
  8
0
  6
Continuous
 62
     7
370
    15
100
AcDbLine
 10
323.9005322498
 20
414.9509066619
 30
0.0
 11
443.9005388808
 21
414.9509066619
 31
0.0
  0
LINE
  5
10C
330
1F
100
AcDbEntity
  8
0
  6
Continuous
 62
     7
370
    15
100
AcDbLine
 10
323.9005322498
 20
74.9509030856
 30
0.0
 11
443.9005388808
 21
74.9509030856
 31
0.0
  0
LWPOLYLINE
  5
10D
330
1F
100
AcDbEntity
  8
0
  6
Continuous
 62
     7
370
    15
100
AcDbPolyline
 90
        3
 70
   128
 43
0.0
 10
395.7503869128
 20
304.3728204347
 10
394.5697530103
 20
304.2147675432
 10
393.0742203188
 20
304.0109941639
  0
LINE
  5
10E
330
1F
100
AcDbEntity
  8
0
  6
Continuous
 62
     7
370
    15
100
AcDbLine
 10
393.7997057033
 20
288.9758380033
 30
0.0
 11
393.7772943568
 21
290.4395753421
 31
0.0
  0
LINE
  5
10F
330
1F
100
AcDbEntity
  8
0
  6
Continuous
 62
     7
370
    15
100
AcDbLine
 10
306.4005321753
 20
396.9508999862
 30
0.0
 11
306.4005321753
 21
412.9509026088
 31
0.0
  0
LINE
  5
110
330
1F
100
AcDbEntity
  8
0
  6
Continuous
 62
     7
370
    15
100
AcDbLine
 10
306.4005321753
 20
396.9508999862
 30
0.0
 11
318.2923964155
 21
396.9508999862
 31
0.0
  0
LINE
  5
111
330
1F
100
AcDbEntity
  8
0
  6
Continuous
 62
     7
370
    15
100
AcDbLine
 10
318.2923964155
 20
412.9509026088
 30
0.0
 11
306.4005321753
 21
412.9509026088
 31
0.0
  0
LINE
  5
112
330
1F
100
AcDbEntity
  8
0
  6
Continuous
 62
     7
370
    15
100
AcDbLine
 10
306.4005321753
 20
92.9509097614
 30
0.0
 11
306.4005321753
 21
76.9509071388
 31
0.0
  0
LINE
  5
113
330
1F
100
AcDbEntity
  8
0
  6
Continuous
 62
     7
370
    15
100
AcDbLine
 10
318.2923964155
 20
76.9509071388
 30
0.0
 11
306.4005321753
 21
76.9509071388
 31
0.0
  0
LINE
  5
114
330
1F
100
AcDbEntity
  8
0
  6
Continuous
 62
     7
370
    15
100
AcDbLine
 10
306.4005321753
 20
92.9509097614
 30
0.0
 11
318.2923964155
 21
92.9509097614
 31
0.0
  0
LINE
  5
115
330
1F
100
AcDbEntity
  8
0
  6
Continuous
 62
     7
370
    15
100
AcDbLine
 10
461.4005370927
 20
396.9508999862
 30
0.0
 11
461.4005370927
 21
412.9509026088
 31
0.0
  0
LINE
  5
116
330
1F
100
AcDbEntity
  8
0
  6
Continuous
 62
     7
370
    15
100
AcDbLine
 10
449.508665402
 20
396.9508999862
 30
0.0
 11
461.4005370927
 21
396.9508999862
 31
0.0
  0
LINE
  5
117
330
1F
100
AcDbEntity
  8
0
  6
Continuous
 62
     7
370
    15
100
AcDbLine
 10
461.4005370927
 20
412.9509026088
 30
0.0
 11
449.508665402
 21
412.9509026088
 31
0.0
  0
LINE
  5
118
330
1F
100
AcDbEntity
  8
0
  6
Continuous
 62
     7
370
    15
100
AcDbLine
 10
461.4005370927
 20
92.9509097614
 30
0.0
 11
461.4005370927
 21
76.9509071388
 31
0.0
  0
LINE
  5
119
330
1F
100
AcDbEntity
  8
0
  6
Continuous
 62
     7
370
    15
100
AcDbLine
 10
461.4005370927
 20
76.9509071388
 30
0.0
 11
449.508665402
 21
76.9509071388
 31
0.0
  0
LINE
  5
11A
330
1F
100
AcDbEntity
  8
0
  6
Continuous
 62
     7
370
    15
100
AcDbLine
 10
449.508665402
 20
92.9509097614
 30
0.0
 11
461.4005370927
 21
92.9509097614
 31
0.0
  0
ARC
  5
11B
330
1F
100
AcDbEntity
  8
0
  6
Continuous
 62
     7
370
    15
100
AcDbCircle
 10
384.3668219556
 20
287.8922778679
 30
0.0
 40
16.69592498615689
100
AcDbArc
 50
57.488831487
 51
81.2712747969
  0
ARC
  5
11C
330
1F
100
AcDbEntity
  8
0
  6
Continuous
 62
     7
370
    15
100
AcDbCircle
 10
157.8204927953
 20
284.5204203726
 30
0.0
 40
236.1654475306744
100
AcDbArc
 50
1.1691512864
 51
4.2377009916
  0
ARC
  5
11D
330
1F
100
AcDbEntity
  8
0
  6
Continuous
 62
     7
370
    15
100
AcDbCircle
 10
337.1216825413
 20
181.7030192494
 30
0.0
 40
28.7788187081992
100
AcDbArc
 50
345.5357455835
 51
358.9941793426
  0
LINE
  5
11E
330
1F
100
AcDbEntity
  8
0
  6
Continuous
 62
     7
370
    15
100
AcDbLine
 10
354.4343843055
 20
174.5147624888
 30
0.0
 11
364.9883179856
 21
174.5147624888
 31
0.0
  0
LINE
  5
11F
330
1F
100
AcDbEntity
  8
0
  6
Continuous
 62
     7
370
    15
100
AcDbLine
 10
343.9005336654
 20
174.4509035625
 30
0.0
 11
343.9005336654
 21
181.1978364267
 31
0.0
  0
LINE
  5
120
330
1F
100
AcDbEntity
  8
0
  6
Continuous
 62
     7
370
    15
100
AcDbLine
 10
362.190952797
 20
315.3870472588
 30
0.0
 11
354.4343843055
 21
315.3870472588
 31
0.0
  0
LWPOLYLINE
  5
121
330
1F
100
AcDbEntity
  8
0
  6
Continuous
 62
     7
370
    15
100
AcDbPolyline
 90
        9
 70
   128
 43
0.0
 10
380.900530417
 20
312.2629070558
 10
377.6487617684
 20
312.5104078926
 10
374.7552095843
 20
312.8680432119
 10
372.0756678772
 20
313.3028963484
 10
369.2956476403
 20
313.8459170141
 10
366.8801247072
 20
314.376904992
 10
364.5814641309
 20
314.9051064529
 10
362.8300934029
 20
315.2795800843
 10
362.190952797
 20
315.3870472588
  0
LINE
  5
122
330
1F
100
AcDbEntity
  8
0
  6
Continuous
 62
     7
370
    15
100
AcDbLine
 10
383.9005290461
 20
308.7039733209
 30
0.0
 11
383.9005290461
 21
310.0794473566
 31
0.0
  0
LINE
  5
123
330
1F
100
AcDbEntity
  8
0
  6
Continuous
 62
     7
370
    15
100
AcDbLine
 10
343.9005336654
 20
308.7039733209
 30
0.0
 11
343.9005336654
 21
315.4509061851
 31
0.0
  0
ARC
  5
124
330
1F
100
AcDbEntity
  8
0
  6
Continuous
 62
     7
370
    15
100
AcDbCircle
 10
383.0285344507
 20
181.826626624
 30
0.0
 40
18.69310448830461
100
AcDbArc
 50
281.954522573
 51
359.2536152713
  0
ARC
  5
125
330
1F
100
AcDbEntity
  8
0
  6
Continuous
 62
     7
370
    15
100
AcDbCircle
 10
383.922356304
 20
174.5207749567
 30
0.0
 40
18.93403927310194
100
AcDbArc
 50
180.0181941653
 51
260.816463839
  0
LINE
  5
126
330
1F
100
AcDbEntity
  8
0
  6
Continuous
 62
     7
370
    15
100
AcDbLine
 10
413.9005302382
 20
241.1809676696
 30
0.0
 11
414.8205726338
 21
240.3097663909
 31
0.0
  0
LWPOLYLINE
  5
127
330
1F
100
AcDbEntity
  8
0
  6
Continuous
 62
     7
370
    15
100
AcDbPolyline
 90
       14
 70
   128
 43
0.0
 10
414.8205726338
 20
240.3097663909
 10
417.9226740194
 20
236.0461665221
 10
420.5456285668
 20
231.4503997468
 10
422.7111323667
 20
226.633328376
 10
424.5409204555
 20
221.3718047269
 10
425.9220792842
 20
215.9745147355
 10
426.8599881721
 20
210.4857297518
 10
427.349834044
 20
204.9391226746
 10
427.2083624196
 20
200.2254793324
 10
426.2474014354
 20
195.6188412287
 10
424.2281748843
 20
190.1936488129
 10
421.9260870409
 20
184.870331911
 10
419.7227417422
 20
179.5086109914
 10
417.7075906587
 20
173.8335410036
  0
LWPOLYLINE
  5
128
330
1F
100
AcDbEntity
  8
0
  6
Continuous
 62
     7
370
    15
100
AcDbPolyline
 90
        3
 70
   128
 43
0.0
 10
417.7075906587
 20
173.8335410036
 10
413.2084830594
 20
165.4420787372
 10
412.1235518646
 20
163.2725516238
  0
LINE
  5
129
330
1F
100
AcDbEntity
  8
0
  6
Continuous
 62
     7
370
    15
100
AcDbLine
 10
412.1235518646
 20
163.2725516238
 30
0.0
 11
386.9005351258
 21
163.2725516238
 31
0.0
  0
LINE
  5
12A
330
1F
100
AcDbEntity
  8
0
  6
Continuous
 62
     7
370
    15
100
AcDbLine
 10
404.1046856833
 20
232.7806031235
 30
0.0
 11
413.9005302382
 21
232.7806031235
 31
0.0
  0
LINE
  5
12B
330
1F
100
AcDbEntity
  8
0
  6
Continuous
 62
     7
370
    15
100
AcDbLine
 10
451.35179003
 20
162.4509015955
 30
0.0
 11
456.0152723384
 21
177.4509021916
 31
0.0
  0
LINE
  5
12C
330
1F
100
AcDbEntity
  8
0
  6
Continuous
 62
     7
370
    15
100
AcDbLine
 10
450.8787377668
 20
161.2009027876
 30
0.0
 11
451.35179003
 21
162.4509015955
 31
0.0
  0
LWPOLYLINE
  5
12D
330
1F
100
AcDbEntity
  8
0
  6
Continuous
 62
     7
370
    15
100
AcDbPolyline
 90
        3
 70
   128
 43
0.0
 10
445.0613691402
 20
144.9509033837
 10
448.2901974511
 20
152.9220038928
 10
450.8787377668
 20
161.2009027876
  0
LINE
  5
12E
330
1F
100
AcDbEntity
  8
0
  6
Continuous
 62
     7
370
    15
100
AcDbLine
 10
455.9324218822
 20
177.4509021916
 30
0.0
 11
456.8201883626
 21
179.950907258
 31
0.0
  0
LWPOLYLINE
  5
12F
330
1F
100
AcDbEntity
  8
0
  6
Continuous
 62
     7
370
    15
100
AcDbPolyline
 90
        3
 70
   128
 43
0.0
 10
393.7212212873
 20
160.0915336885
 10
391.0859658313
 20
158.5986608543
 10
386.9005351258
 20
156.2407979645
  0
ARC
  5
130
330
1F
100
AcDbEntity
  8
0
  6
Continuous
 62
     7
370
    15
100
AcDbCircle
 10
414.4186690721
 20
95.1755358681
 30
0.0
 40
68.13568167868121
100
AcDbArc
 50
91.9303455503
 51
107.6840662769
  0
ARC
  5
131
330
1F
100
AcDbEntity
  8
0
  6
Continuous
 62
     7
370
    15
100
AcDbCircle
 10
409.0765746551
 20
108.4348688852
 30
0.0
 40
53.89061045902417
100
AcDbArc
 50
106.5549990646
 51
114.2991595488
  0
ARC
  5
132
330
1F
100
AcDbEntity
  8
0
  6
Continuous
 62
     7
370
    15
100
AcDbCircle
 10
442.0657399126
 20
81.6296553594
 30
0.0
 40
94.5629013677173
100
AcDbArc
 50
132.3470794293
 51
173.1239445325
  0
LINE
  5
133
330
1F
100
AcDbEntity
  8
0
  6
Continuous
 62
     7
370
    15
100
AcDbLine
 10
413.9005302382
 20
232.7806031235
 30
0.0
 11
413.9005302382
 21
279.9509050228
 31
0.0
  0
LINE
  5
134
330
1F
100
AcDbEntity
  8
0
  6
Continuous
 62
     7
370
    15
100
AcDbLine
 10
404.1046856833
 20
279.8220956601
 30
0.0
 11
406.9300799561
 21
279.8220956601
 31
0.0
  0
ARC
  5
135
330
1F
100
AcDbEntity
  8
0
  6
Continuous
 62
     7
370
    15
100
AcDbCircle
 10
494.4438704705
 20
213.5537307042
 30
0.0
 40
34.6733545632601
100
AcDbArc
 50
155.5512511442
 51
177.6906214556
  0
LWPOLYLINE
  5
136
330
1F
100
AcDbEntity
  8
0
  6
Continuous
 62
     7
370
    15
100
AcDbPolyline
 90
       10
 70
   128
 43
0.0
 10
462.8878517938
 20
201.9754605271
 10
462.8975971532
 20
201.9565397777
 10
462.7779259277
 20
202.190752504
 10
462.1689005685
 20
203.4799413659
 10
461.2114115548
 20
205.933886943
 10
460.6941922498
 20
207.6407031991
 10
460.2411373449
 20
209.6322620191
 10
459.9387629819
 20
211.6993958034
 10
459.7989453864
 20
213.9537850298
 10
459.7986771655
 20
214.9509055443
  0
LWPOLYLINE
  5
137
330
1F
100
AcDbEntity
  8
0
  6
Continuous
 62
     7
370
    15
100
AcDbPolyline
 90
       20
 70
   128
 43
0.0
 10
413.8608409953
 20
360.2539667763
 10
413.5579450917
 20
360.8573371448
 10
413.1585343671
 20
361.7879295625
 10
412.6744552446
 20
363.1119871415
 10
412.1760710073
 20
364.788703052
 10
411.7335512233
 20
366.8024906792
 10
411.4266990614
 20
369.1484773435
 10
411.340920527
 20
371.442943243
 10
411.4814161253
 20
373.9122444667
 10
411.6110264254
 20
374.9509001054
 10
412.0706974459
 20
377.3758256711
 10
412.7312137676
 20
379.7717237748
 10
413.4919925523
 20
381.9340014734
 10
414.3332152558
 20
383.9527362861
 10
415.2405022574
 20
385.8690405168
 10
416.1018713308
 20
387.5181967296
 10
416.800802846
 20
388.7603426256
 10
417.3084034515
 20
389.6060878314
 10
417.5228684139
 20
389.9277890004
 10
417.5210802746
 20
389.9051094331
  0
LINE
  5
138
330
1F
100
AcDbEntity
  8
0
  6
Continuous
 62
     7
370
    15
100
AcDbLine
 10
411.2300782395
 20
338.1609389462
 30
0.0
 11
413.8608409953
 21
360.2539667763
 31
0.0
  0
LWPOLYLINE
  5
139
330
1F
100
AcDbEntity
  8
0
  6
Continuous
 62
     7
370
    15
100
AcDbPolyline
 90
        8
 70
   128
 43
0.0
 10
411.2300782395
 20
338.1609389462
 10
409.5444514346
 20
335.037476746
 10
406.990302999
 20
332.1148821987
 10
403.6636411143
 20
329.4620806255
 10
400.119973619
 20
327.3786300697
 10
396.0987760616
 20
325.6286227979
 10
391.6605248046
 20
324.307031361
 10
386.9005351258
 20
323.545298902
  0
LWPOLYLINE
  5
13A
330
1F
100
AcDbEntity
  8
0
  6
Continuous
 62
     7
370
    15
100
AcDbPolyline
 90
        3
 70
   128
 43
0.0
 10
349.606668849
 20
396.9508999862
 10
352.1462402237
 20
375.408172039
 10
356.5709761274
 20
338.1609538473
  0
LWPOLYLINE
  5
13B
330
1F
100
AcDbEntity
  8
0
  6
Continuous
 62
     7
370
    15
100
AcDbPolyline
 90
        8
 70
   128
 43
0.0
 10
380.900530417
 20
323.5452616491
 10
376.1406152439
 20
324.3071729221
 10
371.70227458
 20
325.6287047543
 10
367.6810174179
 20
327.378659872
 10
364.1373722744
 20
329.4621402301
 10
360.8107178402
 20
332.1149194516
 10
358.2566029322
 20
335.0375065483
 10
356.5709761274
 20
338.1609538473
  0
LWPOLYLINE
  5
13C
330
1F
100
AcDbEntity
  8
0
  6
Continuous
 62
     7
370
    15
100
AcDbPolyline
 90
        5
 70
   128
 43
0.0
 10
356.5709761274
 20
338.1609538473
 10
357.6090282691
 20
330.7166093864
 10
359.2070884001
 20
323.3361611046
 10
360.4971154523
 20
319.3059706964
 10
362.190952797
 20
315.3870472588
  0
ARC
  5
13D
330
1F
100
AcDbEntity
  8
0
  6
Continuous
 62
     7
370
    15
100
AcDbCircle
 10
375.7031837224
 20
207.1561343169
 30
0.0
 40
98.56538237635057
100
AcDbArc
 50
79.8460054007
 51
83.4769286711
  0
LWPOLYLINE
  5
13E
330
1F
100
AcDbEntity
  8
0
  6
Continuous
 62
     7
370
    15
100
AcDbPolyline
 90
        9
 70
   128
 43
0.0
 10
395.8144693566
 20
304.2275303878
 10
399.5289712143
 20
307.1141684331
 10
402.3373036576
 20
310.1901257314
 10
404.6698867274
 20
313.6442894019
 10
406.6474347306
 20
317.6473820485
 10
408.1655203295
 20
321.8664521255
 10
409.3083648873
 20
326.196737019
 10
410.431420703
 20
332.1513453402
 10
411.2300782395
 20
338.1609389462
  0
LWPOLYLINE
  5
13F
330
1F
100
AcDbEntity
  8
0
  6
Continuous
 62
     7
370
    15
100
AcDbPolyline
 90
        3
 70
   128
 43
0.0
 10
393.0797113967
 20
304.1777344324
 10
393.2256310177
 20
303.1978787758
 10
393.3402805519
 20
301.9717292764
  0
LINE
  5
140
330
1F
100
AcDbEntity
  8
0
  6
Continuous
 62
     7
370
    15
100
AcDbLine
 10
428.4817411494
 20
360.2539667763
 30
0.0
 11
413.8608409953
 21
360.2539667763
 31
0.0
  0
LINE
  5
141
330
1F
100
AcDbEntity
  8
0
  6
Continuous
 62
     7
370
    15
100
AcDbLine
 10
428.9005382848
 20
389.9509007015
 30
0.0
 11
428.9005382848
 21
359.9509069599
 31
0.0
  0
LINE
  5
142
330
1F
100
AcDbEntity
  8
0
  6
Continuous
 62
     7
370
    15
100
AcDbLine
 10
468.9005299402
 20
227.9509039499
 30
0.0
 11
468.9005299402
 21
201.9509034135
 31
0.0
  0
LINE
  5
143
330
1F
100
AcDbEntity
  8
0
  6
Continuous
 62
     7
370
    15
100
AcDbLine
 10
380.900530417
 20
153.7508288302
 30
0.0
 11
378.3662750316
 21
151.5189999618
 31
0.0
  0
LINE
  5
144
330
1F
100
AcDbEntity
  8
0
  6
Continuous
 62
     7
370
    15
100
AcDbLine
 10
316.4005319518
 20
92.9509097614
 30
0.0
 11
354.4343843055
 21
174.5147624888
 31
0.0
  0
LINE
  5
145
330
1F
100
AcDbEntity
  8
0
  6
Continuous
 62
     7
370
    15
100
AcDbLine
 10
316.4005319518
 20
396.9508999862
 30
0.0
 11
354.4343843055
 21
315.3870472588
 31
0.0
  0
LINE
  5
146
330
1F
100
AcDbEntity
  8
0
  6
Continuous
 62
     7
370
    15
100
AcDbLine
 10
428.4817411494
 20
360.2539667763
 30
0.0
 11
406.9300799561
 21
279.8220956601
 31
0.0
  0
LINE
  5
147
330
1F
100
AcDbEntity
  8
0
  6
Continuous
 62
     7
370
    15
100
AcDbLine
 10
446.1722805095
 20
144.9509033837
 30
0.0
 11
447.3985566688
 21
147.4509084501
 31
0.0
  0
LWPOLYLINE
  5
148
330
1F
100
AcDbEntity
  8
0
  6
Continuous
 62
     7
370
    15
100
AcDbPolyline
 90
        3
 70
   128
 43
0.0
 10
451.9296868634
 20
161.2009027876
 10
449.365480144
 20
152.9781216659
 10
446.1722805095
 20
144.9509033837
  0
LINE
  5
149
330
1F
100
AcDbEntity
  8
0
  6
Continuous
 62
     7
370
    15
100
AcDbLine
 10
452.3999377084
 20
162.4509015955
 30
0.0
 11
451.9296868634
 21
161.2009027876
 31
0.0
  0
LINE
  5
14A
330
1F
100
AcDbEntity
  8
0
  6
Continuous
 62
     7
370
    15
100
AcDbLine
 10
457.0633902145
 20
177.4509021916
 30
0.0
 11
452.3999377084
 21
162.4509015955
 31
0.0
  0
LINE
  5
14B
330
1F
100
AcDbEntity
  8
0
  6
Continuous
 62
     7
370
    15
100
AcDbLine
 10
456.9832666707
 20
177.4509021916
 30
0.0
 11
457.0633902145
 21
177.4509021916
 31
0.0
  0
LINE
  5
14C
330
1F
100
AcDbEntity
  8
0
  6
Continuous
 62
     7
370
    15
100
AcDbLine
 10
457.8673972678
 20
179.950907258
 30
0.0
 11
456.9832666707
 21
177.4509021916
 31
0.0
  0
LINE
  5
14D
330
1F
100
AcDbEntity
  8
0
  6
Continuous
 62
     7
370
    15
100
AcDbLine
 10
457.8673972678
 20
179.950907258
 30
0.0
 11
456.8201883626
 21
179.950907258
 31
0.0
  0
LINE
  5
14E
330
1F
100
AcDbEntity
  8
0
  6
Continuous
 62
     7
370
    15
100
AcDbLine
 10
456.9832666707
 20
177.4509021916
 30
0.0
 11
455.9324218822
 21
177.4509021916
 31
0.0
  0
LINE
  5
14F
330
1F
100
AcDbEntity
  8
0
  6
Continuous
 62
     7
370
    15
100
AcDbLine
 10
452.3999377084
 20
162.4509015955
 30
0.0
 11
451.35179003
 21
162.4509015955
 31
0.0
  0
LINE
  5
150
330
1F
100
AcDbEntity
  8
0
  6
Continuous
 62
     7
370
    15
100
AcDbLine
 10
451.9296868634
 20
161.2009027876
 30
0.0
 11
450.8787377668
 21
161.2009027876
 31
0.0
  0
LINE
  5
151
330
1F
100
AcDbEntity
  8
0
  6
Continuous
 62
     7
370
    15
100
AcDbLine
 10
446.1722805095
 20
144.9509033837
 30
0.0
 11
445.0613691402
 21
144.9509033837
 31
0.0
  0
ARC
  5
152
330
1F
100
AcDbEntity
  8
0
  6
Continuous
 62
     7
370
    15
100
AcDbCircle
 10
133.6131719814
 20
299.2008072129
 30
0.0
 40
8.130325942198978
100
AcDbArc
 50
91.8746015899
 51
169.1149974348
  0
LINE
  5
153
330
1F
100
AcDbEntity
  8
0
  6
Continuous
 62
     7
370
    15
100
AcDbLine
 10
133.3472116781
 20
307.3267819263
 30
0.0
 11
108.4005369735
 21
307.3267819263
 31
0.0
  0
LINE
  5
154
330
1F
100
AcDbEntity
  8
0
  6
Continuous
 62
     7
370
    15
100
AcDbLine
 10
137.400536139
 20
313.9509031452
 30
0.0
 11
137.400536139
 21
175.9509066023
 31
0.0
  0
LINE
  5
155
330
1F
100
AcDbEntity
  8
0
  6
Continuous
 62
     7
370
    15
100
AcDbLine
 10
121.4005335164
 20
265.9509045907
 30
0.0
 11
121.4005335164
 21
213.4208934285
 31
0.0
  0
ARC
  5
156
330
1F
100
AcDbEntity
  8
0
  6
Continuous
 62
     7
370
    15
100
AcDbCircle
 10
280.6769050328
 20
264.6565699506
 30
0.0
 40
159.1902894335348
100
AcDbArc
 50
166.9004183863
 51
179.5341378576
  0
LWPOLYLINE
  5
157
330
1F
100
AcDbEntity
  8
0
  6
Continuous
 62
     7
370
    15
100
AcDbPolyline
 90
        7
 70
   128
 43
0.0
 10
108.4005369735
 20
307.3267819263
 10
107.5212343526
 20
307.2432907202
 10
106.743736465
 20
307.0099869646
 10
106.0973836971
 20
306.6405834533
 10
105.6127532315
 20
306.1171093859
 10
105.400545795
 20
305.4034219958
 10
105.4005308938
 20
305.3971635081
  0
LINE
  5
158
330
1F
100
AcDbEntity
  8
0
  6
Continuous
 62
     7
370
    15
100
AcDbLine
 10
105.4005308938
 20
305.3971635081
 30
0.0
 11
105.4005308938
 21
310.9509045162
 31
0.0
  0
LINE
  5
159
330
1F
100
AcDbEntity
  8
0
  6
Continuous
 62
     7
370
    15
100
AcDbLine
 10
121.4918776345
 20
265.9509045907
 30
0.0
 11
108.4005369735
 21
265.9509045907
 31
0.0
  0
LINE
  5
15A
330
1F
100
AcDbEntity
  8
0
  6
Continuous
 62
     7
370
    15
100
AcDbLine
 10
105.4005308938
 20
268.9509050824
 30
0.0
 11
105.4005308938
 21
305.3971635081
 31
0.0
  0
ARC
  5
15B
330
1F
100
AcDbEntity
  8
0
  6
Continuous
 62
     7
370
    15
100
AcDbCircle
 10
108.4005325628
 20
268.9509048738
 30
0.0
 40
3.0
100
AcDbArc
 50
180.0
 51
270.0000000022
  0
LINE
  5
15C
330
1F
100
AcDbEntity
  8
0
  6
Continuous
 62
     7
370
    15
100
AcDbLine
 10
113.4005322051
 20
244.9509048738
 30
0.0
 11
113.4005322051
 21
265.9509045907
 31
0.0
  0
LINE
  5
15D
330
1F
100
AcDbEntity
  8
0
  6
Continuous
 62
     7
370
    15
100
AcDbLine
 10
110.4005261255
 20
221.9509048291
 30
0.0
 11
110.4005261255
 21
244.9509048738
 31
0.0
  0
LINE
  5
15E
330
1F
100
AcDbEntity
  8
0
  6
Continuous
 62
     7
370
    15
100
AcDbLine
 10
110.4005261255
 20
244.9509048738
 30
0.0
 11
113.4005322051
 21
244.9509048738
 31
0.0
  0
LWPOLYLINE
  5
15F
330
1F
100
AcDbEntity
  8
0
  6
Continuous
 62
     7
370
    15
100
AcDbPolyline
 90
        6
 70
   128
 43
0.0
 10
152.4005367351
 20
194.7078363873
 10
152.541322906
 20
195.274892626
 10
152.9479904962
 20
195.7841472604
 10
153.5745694232
 20
196.1749935426
 10
154.3506517005
 20
196.40010911
 10
154.9005343509
 20
196.4433783569
  0
LINE
  5
160
330
1F
100
AcDbEntity
  8
0
  6
Continuous
 62
     7
370
    15
100
AcDbLine
 10
152.4005367351
 20
193.3261746444
 30
0.0
 11
152.4005367351
 21
194.7078363873
 31
0.0
  0
LWPOLYLINE
  5
161
330
1F
100
AcDbEntity
  8
0
  6
Continuous
 62
     7
370
    15
100
AcDbPolyline
 90
        6
 70
   128
 43
0.0
 10
154.9005343509
 20
191.714122323
 10
154.0730281663
 20
191.8031120576
 10
153.338818152
 20
192.0613082029
 10
152.7807249618
 20
192.462790189
 10
152.461631496
 20
192.9658794679
 10
152.4005367351
 20
193.3261746444
  0
LINE
  5
162
330
1F
100
AcDbEntity
  8
0
  6
Continuous
 62
     7
370
    15
100
AcDbLine
 10
174.9005301786
 20
191.714122323
 30
0.0
 11
154.9005343509
 21
191.714122323
 31
0.0
  0
LWPOLYLINE
  5
163
330
1F
100
AcDbEntity
  8
0
  6
Continuous
 62
     7
370
    15
100
AcDbPolyline
 90
        6
 70
   128
 43
0.0
 10
177.400535245
 20
193.3261746444
 10
177.259749074
 20
192.785005448
 10
176.8530665827
 20
192.3111336209
 10
176.2264951062
 20
191.9549809672
 10
175.4504128289
 20
191.7527535834
 10
174.9005301786
 20
191.714122323
  0
LINE
  5
164
330
1F
100
AcDbEntity
  8
0
  6
Continuous
 62
     7
370
    15
100
AcDbLine
 10
177.400535245
 20
194.7078363873
 30
0.0
 11
177.400535245
 21
193.3261746444
 31
0.0
  0
LWPOLYLINE
  5
165
330
1F
100
AcDbEntity
  8
0
  6
Continuous
 62
     7
370
    15
100
AcDbPolyline
 90
        6
 70
   128
 43
0.0
 10
174.9005301786
 20
196.4433783569
 10
175.7280363631
 20
196.3438348748
 10
176.4622463775
 20
196.0575649418
 10
177.0203470183
 20
195.619847057
 10
177.3394330335
 20
195.083673475
 10
177.400535245
 20
194.7078363873
  0
LINE
  5
166
330
1F
100
AcDbEntity
  8
0
  6
Continuous
 62
     7
370
    15
100
AcDbLine
 10
174.9005301786
 20
196.4433783569
 30
0.0
 11
154.9005343509
 21
196.4433783569
 31
0.0
  0
ARC
  5
167
330
1F
100
AcDbEntity
  8
0
  6
Continuous
 62
     7
370
    15
100
AcDbCircle
 10
280.4265025101
 20
181.3574825064
 30
0.0
 40
3.860901242858401
100
AcDbArc
 50
262.1702574688
 51
300.7496248846
  0
LINE
  5
168
330
1F
100
AcDbEntity
  8
0
  6
Continuous
 62
     7
370
    15
100
AcDbLine
 10
282.400532898
 20
178.0393863
 30
0.0
 11
282.400532898
 21
178.5244488992
 31
0.0
  0
LWPOLYLINE
  5
169
330
1F
100
AcDbEntity
  8
0
  6
Continuous
 62
     7
370
    15
100
AcDbPolyline
 90
        6
 70
   128
 43
0.0
 10
279.9005324883
 20
179.1929000892
 10
280.7280368102
 20
179.152897922
 10
281.4622486872
 20
179.0389487423
 10
282.020346534
 20
178.8679206647
 10
282.3394297552
 20
178.6638418116
 10
282.400532898
 20
178.5244488992
  0
LINE
  5
16A
330
1F
100
AcDbEntity
  8
0
  6
Continuous
 62
     7
370
    15
100
AcDbLine
 10
271.9005330396
 20
179.1929000892
 30
0.0
 11
279.9005324883
 21
179.1929000892
 31
0.0
  0
ARC
  5
16B
330
1F
100
AcDbEntity
  8
0
  6
Continuous
 62
     7
370
    15
100
AcDbCircle
 10
271.4246172237
 20
175.9636042128
 30
0.0
 40
3.264176423127394
100
AcDbArc
 50
81.6164114796
 51
128.3227600065
  0
LINE
  5
16C
330
1F
100
AcDbEntity
  8
0
  6
Continuous
 62
     7
370
    15
100
AcDbLine
 10
269.4005316985
 20
178.0393863
 30
0.0
 11
269.4005316985
 21
178.5244488992
 31
0.0
  0
LWPOLYLINE
  5
16D
330
1F
100
AcDbEntity
  8
0
  6
Continuous
 62
     7
370
    15
100
AcDbPolyline
 90
        6
 70
   128
 43
0.0
 10
271.9005330396
 20
177.5325754561
 10
271.0730287177
 20
177.5587642469
 10
270.3388168407
 20
177.635967163
 10
269.7807180625
 20
177.759557394
 10
269.4616357726
 20
177.9203409232
 10
269.4005316985
 20
178.0393863
  0
LINE
  5
16E
330
1F
100
AcDbEntity
  8
0
  6
Continuous
 62
     7
370
    15
100
AcDbLine
 10
271.9005330396
 20
177.5325754561
 30
0.0
 11
279.9005324883
 21
177.5325754561
 31
0.0
  0
ARC
  5
16F
330
1F
100
AcDbEntity
  8
0
  6
Continuous
 62
     7
370
    15
100
AcDbCircle
 10
259.8001501734
 20
221.0974018641
 30
0.0
 40
2.4006800285459
100
AcDbArc
 50
181.7053631524
 51
272.3964372815
  0
LINE
  5
170
330
1F
100
AcDbEntity
  8
0
  6
Continuous
 62
     7
370
    15
100
AcDbLine
 10
259.9005310726
 20
218.6988213934
 30
0.0
 11
279.9005324883
 21
218.6988213934
 31
0.0
  0
ARC
  5
171
330
1F
100
AcDbEntity
  8
0
  6
Continuous
 62
     7
370
    15
100
AcDbCircle
 10
279.9750280767
 20
221.1252128613
 30
0.0
 40
2.42753478824045
100
AcDbArc
 50
268.241445169
 51
357.6566905281
  0
LINE
  5
172
330
1F
100
AcDbEntity
  8
0
  6
Continuous
 62
     7
370
    15
100
AcDbLine
 10
282.400532898
 20
221.0259580888
 30
0.0
 11
282.400532898
 21
222.9698946603
 31
0.0
  0
ARC
  5
173
330
1F
100
AcDbEntity
  8
0
  6
Continuous
 62
     7
370
    15
100
AcDbCircle
 10
279.9634508819
 20
222.9158135918
 30
0.0
 40
2.437681996334309
100
AcDbArc
 50
1.271236866
 51
91.4790111276
  0
LINE
  5
174
330
1F
100
AcDbEntity
  8
0
  6
Continuous
 62
     7
370
    15
100
AcDbLine
 10
259.9005310726
 20
225.3526834674
 30
0.0
 11
279.9005324883
 21
225.3526834674
 31
0.0
  0
ARC
  5
175
330
1F
100
AcDbEntity
  8
0
  6
Continuous
 62
     7
370
    15
100
AcDbCircle
 10
259.854979865
 20
222.8975949756
 30
0.0
 40
2.455511029342195
100
AcDbArc
 50
88.9370678335
 51
178.3127481322
  0
LINE
  5
176
330
1F
100
AcDbEntity
  8
0
  6
Continuous
 62
     7
370
    15
100
AcDbLine
 10
257.4005334568
 20
222.9698946603
 30
0.0
 11
257.4005334568
 21
221.0259580888
 31
0.0
  0
ARC
  5
177
330
1F
100
AcDbEntity
  8
0
  6
Continuous
 62
     7
370
    15
100
AcDbCircle
 10
259.6494470195
 20
206.1988335708
 30
0.0
 40
2.259010014409514
100
AcDbArc
 50
185.419070808
 51
276.3814869572
  0
LINE
  5
178
330
1F
100
AcDbEntity
  8
0
  6
Continuous
 62
     7
370
    15
100
AcDbLine
 10
259.9005310726
 20
203.9538206436
 30
0.0
 11
279.9005324883
 21
203.9538206436
 31
0.0
  0
ARC
  5
179
330
1F
100
AcDbEntity
  8
0
  6
Continuous
 62
     7
370
    15
100
AcDbCircle
 10
280.086098718
 20
206.279457219
 30
0.0
 40
2.333028140996066
100
AcDbArc
 50
265.4379442668
 51
352.7614352882
  0
LINE
  5
17A
330
1F
100
AcDbEntity
  8
0
  6
Continuous
 62
     7
370
    15
100
AcDbLine
 10
282.400532898
 20
205.9854933895
 30
0.0
 11
282.400532898
 21
207.7006989993
 31
0.0
  0
ARC
  5
17B
330
1F
100
AcDbEntity
  8
0
  6
Continuous
 62
     7
370
    15
100
AcDbCircle
 10
280.0956465511
 20
207.521141035
 30
0.0
 40
2.311869835169047
100
AcDbArc
 50
4.4545263087
 51
94.8413306316
  0
LINE
  5
17C
330
1F
100
AcDbEntity
  8
0
  6
Continuous
 62
     7
370
    15
100
AcDbLine
 10
259.9005310726
 20
209.82476267
 30
0.0
 11
279.9005324883
 21
209.82476267
 31
0.0
  0
ARC
  5
17D
330
1F
100
AcDbEntity
  8
0
  6
Continuous
 62
     7
370
    15
100
AcDbCircle
 10
259.7584576995
 20
207.4587158074
 30
0.0
 40
2.370308545165993
100
AcDbArc
 50
86.5637019131
 51
174.1405043387
  0
LINE
  5
17E
330
1F
100
AcDbEntity
  8
0
  6
Continuous
 62
     7
370
    15
100
AcDbLine
 10
257.4005334568
 20
207.7006989993
 30
0.0
 11
257.4005334568
 21
205.9854933895
 31
0.0
  0
LWPOLYLINE
  5
17F
330
1F
100
AcDbEntity
  8
0
  6
Continuous
 62
     7
370
    15
100
AcDbPolyline
 90
        6
 70
   128
 43
0.0
 10
259.9005310726
 20
191.714122323
 10
259.0730286134
 20
191.8031120576
 10
258.338818599
 20
192.0613082029
 10
257.7807179582
 20
192.462790189
 10
257.4616356683
 20
192.9658794679
 10
257.4005334568
 20
193.3261746444
  0
LINE
  5
180
330
1F
100
AcDbEntity
  8
0
  6
Continuous
 62
     7
370
    15
100
AcDbLine
 10
259.9005310726
 20
191.714122323
 30
0.0
 11
279.9005324883
 21
191.714122323
 31
0.0
  0
LWPOLYLINE
  5
181
330
1F
100
AcDbEntity
  8
0
  6
Continuous
 62
     7
370
    15
100
AcDbPolyline
 90
        6
 70
   128
 43
0.0
 10
282.400532898
 20
193.3261746444
 10
282.2597467271
 20
192.785005448
 10
281.8530688924
 20
192.3111336209
 10
281.2264974159
 20
191.9549809672
 10
280.4504095507
 20
191.7527535834
 10
279.9005324883
 20
191.714122323
  0
LINE
  5
182
330
1F
100
AcDbEntity
  8
0
  6
Continuous
 62
     7
370
    15
100
AcDbLine
 10
282.400532898
 20
193.3261746444
 30
0.0
 11
282.400532898
 21
194.7078363873
 31
0.0
  0
LWPOLYLINE
  5
183
330
1F
100
AcDbEntity
  8
0
  6
Continuous
 62
     7
370
    15
100
AcDbPolyline
 90
        6
 70
   128
 43
0.0
 10
279.9005324883
 20
196.4433783569
 10
280.7280368102
 20
196.3438348748
 10
281.4622486872
 20
196.0575649418
 10
282.020346534
 20
195.619847057
 10
282.3394297552
 20
195.083673475
 10
282.400532898
 20
194.7078363873
  0
LINE
  5
184
330
1F
100
AcDbEntity
  8
0
  6
Continuous
 62
     7
370
    15
100
AcDbLine
 10
259.9005310726
 20
196.4433783569
 30
0.0
 11
279.9005324883
 21
196.4433783569
 31
0.0
  0
LWPOLYLINE
  5
185
330
1F
100
AcDbEntity
  8
0
  6
Continuous
 62
     7
370
    15
100
AcDbPolyline
 90
        6
 70
   128
 43
0.0
 10
257.4005334568
 20
194.7078363873
 10
257.5413196278
 20
195.274892626
 10
257.9479946685
 20
195.7841472604
 10
258.574566145
 20
196.1749935426
 10
259.3506558728
 20
196.40010911
 10
259.9005310726
 20
196.4433783569
  0
LINE
  5
186
330
1F
100
AcDbEntity
  8
0
  6
Continuous
 62
     7
370
    15
100
AcDbLine
 10
257.4005334568
 20
194.7078363873
 30
0.0
 11
257.4005334568
 21
193.3261746444
 31
0.0
  0
LWPOLYLINE
  5
187
330
1F
100
AcDbEntity
  8
0
  6
Continuous
 62
     7
370
    15
100
AcDbPolyline
 90
        6
 70
   128
 43
0.0
 10
282.400532898
 20
183.8216068126
 10
282.2597467271
 20
183.4505380966
 10
281.8530688924
 20
183.1287437953
 10
281.2264974159
 20
182.8888947048
 10
280.4504095507
 20
182.753487853
 10
279.9005324883
 20
182.7276864924
  0
LINE
  5
188
330
1F
100
AcDbEntity
  8
0
  6
Continuous
 62
     7
370
    15
100
AcDbLine
 10
282.400532898
 20
183.8216068126
 30
0.0
 11
282.400532898
 21
184.7852909841
 31
0.0
  0
LWPOLYLINE
  5
189
330
1F
100
AcDbEntity
  8
0
  6
Continuous
 62
     7
370
    15
100
AcDbPolyline
 90
        6
 70
   128
 43
0.0
 10
279.9005324883
 20
186.026255963
 10
280.7280368102
 20
185.9542200245
 10
281.4622486872
 20
185.747634051
 10
282.020346534
 20
185.4333946385
 10
282.3394297552
 20
185.0512655355
 10
282.400532898
 20
184.7852909841
  0
LINE
  5
18A
330
1F
100
AcDbEntity
  8
0
  6
Continuous
 62
     7
370
    15
100
AcDbLine
 10
271.9005330396
 20
186.026255963
 30
0.0
 11
279.9005324883
 21
186.026255963
 31
0.0
  0
LWPOLYLINE
  5
18B
330
1F
100
AcDbEntity
  8
0
  6
Continuous
 62
     7
370
    15
100
AcDbPolyline
 90
        6
 70
   128
 43
0.0
 10
269.4005316985
 20
184.7852909841
 10
269.5413197321
 20
185.1871864774
 10
269.9479966355
 20
185.5511100866
 10
270.5745662493
 20
185.8322726466
 10
271.3506541145
 20
185.9949299969
 10
271.9005330396
 20
186.026255963
  0
LINE
  5
18C
330
1F
100
AcDbEntity
  8
0
  6
Continuous
 62
     7
370
    15
100
AcDbLine
 10
269.4005316985
 20
183.8216068126
 30
0.0
 11
269.4005316985
 21
184.7852909841
 31
0.0
  0
LWPOLYLINE
  5
18D
330
1F
100
AcDbEntity
  8
0
  6
Continuous
 62
     7
370
    15
100
AcDbPolyline
 90
        6
 70
   128
 43
0.0
 10
271.9005330396
 20
182.7276864924
 10
271.0730287177
 20
182.7871495761
 10
270.3388168407
 20
182.9603159704
 10
269.7807180625
 20
183.2314053454
 10
269.4616357726
 20
183.5741432287
 10
269.4005316985
 20
183.8216068126
  0
LINE
  5
18E
330
1F
100
AcDbEntity
  8
0
  6
Continuous
 62
     7
370
    15
100
AcDbLine
 10
271.9005330396
 20
182.7276864924
 30
0.0
 11
279.9005324883
 21
182.7276864924
 31
0.0
  0
ARC
  5
18F
330
1F
100
AcDbEntity
  8
0
  6
Continuous
 62
     7
370
    15
100
AcDbCircle
 10
154.4246167987
 20
175.9636219869
 30
0.0
 40
3.264159092109444
100
AcDbArc
 50
81.6163358396
 51
128.3228782567
  0
LINE
  5
190
330
1F
100
AcDbEntity
  8
0
  6
Continuous
 62
     7
370
    15
100
AcDbLine
 10
152.4005367351
 20
178.0393863
 30
0.0
 11
152.4005367351
 21
178.5244488992
 31
0.0
  0
LWPOLYLINE
  5
191
330
1F
100
AcDbEntity
  8
0
  6
Continuous
 62
     7
370
    15
100
AcDbPolyline
 90
        6
 70
   128
 43
0.0
 10
154.9005343509
 20
177.5325754561
 10
154.0730281663
 20
177.5587642469
 10
153.338818152
 20
177.635967163
 10
152.7807249618
 20
177.759557394
 10
152.461631496
 20
177.9203409232
 10
152.4005367351
 20
178.0393863
  0
LINE
  5
192
330
1F
100
AcDbEntity
  8
0
  6
Continuous
 62
     7
370
    15
100
AcDbLine
 10
162.9005356622
 20
177.5325754561
 30
0.0
 11
154.9005343509
 21
177.5325754561
 31
0.0
  0
ARC
  5
193
330
1F
100
AcDbEntity
  8
0
  6
Continuous
 62
     7
370
    15
100
AcDbCircle
 10
163.4265031081
 20
181.3574843301
 30
0.0
 40
3.860902698741558
100
AcDbArc
 50
262.1702990255
 51
300.7496082651
  0
LINE
  5
194
330
1F
100
AcDbEntity
  8
0
  6
Continuous
 62
     7
370
    15
100
AcDbLine
 10
165.400533278
 20
178.0393863
 30
0.0
 11
165.400533278
 21
178.5244488992
 31
0.0
  0
LWPOLYLINE
  5
195
330
1F
100
AcDbEntity
  8
0
  6
Continuous
 62
     7
370
    15
100
AcDbPolyline
 90
        6
 70
   128
 43
0.0
 10
162.9005356622
 20
179.1929000892
 10
163.7280418468
 20
179.152897922
 10
164.4622518611
 20
179.0389487423
 10
165.0203450513
 20
178.8679206647
 10
165.339423616
 20
178.6638418116
 10
165.400533278
 20
178.5244488992
  0
LINE
  5
196
330
1F
100
AcDbEntity
  8
0
  6
Continuous
 62
     7
370
    15
100
AcDbLine
 10
162.9005356622
 20
179.1929000892
 30
0.0
 11
154.9005343509
 21
179.1929000892
 31
0.0
  0
LWPOLYLINE
  5
197
330
1F
100
AcDbEntity
  8
0
  6
Continuous
 62
     7
370
    15
100
AcDbPolyline
 90
        6
 70
   128
 43
0.0
 10
152.4005367351
 20
184.7852909841
 10
152.541322906
 20
185.1871864774
 10
152.9479904962
 20
185.5511100866
 10
153.5745694232
 20
185.8322726466
 10
154.3506517005
 20
185.9949299969
 10
154.9005343509
 20
186.026255963
  0
LINE
  5
198
330
1F
100
AcDbEntity
  8
0
  6
Continuous
 62
     7
370
    15
100
AcDbLine
 10
152.4005367351
 20
183.8216068126
 30
0.0
 11
152.4005367351
 21
184.7852909841
 31
0.0
  0
LWPOLYLINE
  5
199
330
1F
100
AcDbEntity
  8
0
  6
Continuous
 62
     7
370
    15
100
AcDbPolyline
 90
        6
 70
   128
 43
0.0
 10
154.9005343509
 20
182.7276864924
 10
154.0730281663
 20
182.7871495761
 10
153.338818152
 20
182.9603159704
 10
152.7807249618
 20
183.2314053454
 10
152.461631496
 20
183.5741432287
 10
152.4005367351
 20
183.8216068126
  0
LINE
  5
19A
330
1F
100
AcDbEntity
  8
0
  6
Continuous
 62
     7
370
    15
100
AcDbLine
 10
162.9005356622
 20
182.7276864924
 30
0.0
 11
154.9005343509
 21
182.7276864924
 31
0.0
  0
LWPOLYLINE
  5
19B
330
1F
100
AcDbEntity
  8
0
  6
Continuous
 62
     7
370
    15
100
AcDbPolyline
 90
        6
 70
   128
 43
0.0
 10
165.400533278
 20
183.8216068126
 10
165.2597471071
 20
183.4505380966
 10
164.8530646157
 20
183.1287437953
 10
164.2265005899
 20
182.8888947048
 10
163.4504034114
 20
182.753487853
 10
162.9005356622
 20
182.7276864924
  0
LINE
  5
19C
330
1F
100
AcDbEntity
  8
0
  6
Continuous
 62
     7
370
    15
100
AcDbLine
 10
165.400533278
 20
183.8216068126
 30
0.0
 11
165.400533278
 21
184.7852909841
 31
0.0
  0
LWPOLYLINE
  5
19D
330
1F
100
AcDbEntity
  8
0
  6
Continuous
 62
     7
370
    15
100
AcDbPolyline
 90
        6
 70
   128
 43
0.0
 10
162.9005356622
 20
186.026255963
 10
163.7280418468
 20
185.9542200245
 10
164.4622518611
 20
185.747634051
 10
165.0203450513
 20
185.4333946385
 10
165.339423616
 20
185.0512655355
 10
165.400533278
 20
184.7852909841
  0
LINE
  5
19E
330
1F
100
AcDbEntity
  8
0
  6
Continuous
 62
     7
370
    15
100
AcDbLine
 10
162.9005356622
 20
186.026255963
 30
0.0
 11
154.9005343509
 21
186.026255963
 31
0.0
  0
LINE
  5
19F
330
1F
100
AcDbEntity
  8
0
  6
Continuous
 62
     7
370
    15
100
AcDbLine
 10
152.4005367351
 20
205.9854933895
 30
0.0
 11
152.4005367351
 21
206.7687915541
 31
0.0
  0
ARC
  5
1A0
330
1F
100
AcDbEntity
  8
0
  6
Continuous
 62
     7
370
    15
100
AcDbCircle
 10
154.6494409835
 20
206.1988221095
 30
0.0
 40
2.258999659405408
100
AcDbArc
 50
185.4188037208
 51
276.3817540444
  0
LINE
  5
1A1
330
1F
100
AcDbEntity
  8
0
  6
Continuous
 62
     7
370
    15
100
AcDbLine
 10
174.9005301786
 20
203.9538206436
 30
0.0
 11
154.9005343509
 21
203.9538206436
 31
0.0
  0
ARC
  5
1A2
330
1F
100
AcDbEntity
  8
0
  6
Continuous
 62
     7
370
    15
100
AcDbCircle
 10
175.0546175864
 20
206.3032304538
 30
0.0
 40
2.354457344189688
100
AcDbArc
 50
266.2475971255
 51
300.150387812
  0
ARC
  5
1A3
330
1F
100
AcDbEntity
  8
0
  6
Continuous
 62
     7
370
    15
100
AcDbCircle
 10
174.4656586139
 20
257.0059229373
 30
0.0
 40
1.910154225657664
100
AcDbArc
 50
358.305694413
 51
91.9539605234
  0
ARC
  5
1A4
330
1F
100
AcDbEntity
  8
0
  6
Continuous
 62
     7
370
    15
100
AcDbCircle
 10
174.2867236117
 20
257.0336667208
 30
0.0
 40
1.884738857169111
100
AcDbArc
 50
86.5382223606
 51
182.5016773841
  0
ARC
  5
1A5
330
1F
100
AcDbEntity
  8
0
  6
Continuous
 62
     7
370
    15
100
AcDbCircle
 10
174.3084595595
 20
256.7624542919
 30
0.0
 40
1.874769407272588
100
AcDbArc
 50
87.1850817754
 51
177.4886964323
  0
ARC
  5
1A6
330
1F
100
AcDbEntity
  8
0
  6
Continuous
 62
     7
370
    15
100
AcDbCircle
 10
174.4425190888
 20
256.7015559954
 30
0.0
 40
1.93386149489894
100
AcDbArc
 50
4.5535768487
 51
91.2441607051
  0
LWPOLYLINE
  5
1A7
330
1F
100
AcDbEntity
  8
0
  6
Continuous
 62
     7
370
    15
100
AcDbPolyline
 90
        6
 70
   128
 43
0.0
 10
152.4005367351
 20
194.5686930694
 10
152.5413080049
 20
194.0270693876
 10
152.947975595
 20
193.5529405155
 10
153.5745247197
 20
193.1966910042
 10
154.350606997
 20
192.9944375433
 10
154.9005343509
 20
192.9557951071
  0
LWPOLYLINE
  5
1A8
330
1F
100
AcDbEntity
  8
0
  6
Continuous
 62
     7
370
    15
100
AcDbPolyline
 90
        6
 70
   128
 43
0.0
 10
174.9005301786
 20
192.9557951071
 10
175.7280363631
 20
193.044788567
 10
176.4622463775
 20
193.3030219652
 10
177.0203470183
 20
193.7046455123
 10
177.3394255829
 20
194.2080514409
 10
177.400535245
 20
194.5686930694
  0
LINE
  5
1A9
330
1F
100
AcDbEntity
  8
0
  6
Continuous
 62
     7
370
    15
100
AcDbLine
 10
174.9005301786
 20
192.9557951071
 30
0.0
 11
154.9005343509
 21
192.9557951071
 31
0.0
  0
LWPOLYLINE
  5
1AA
330
1F
100
AcDbEntity
  8
0
  6
Continuous
 62
     7
370
    15
100
AcDbPolyline
 90
        3
 70
   128
 43
0.0
 10
279.9005324883
 20
179.1050204911
 10
280.7280368102
 20
179.1312092819
 10
280.7826830936
 20
179.1369536795
  0
LINE
  5
1AB
330
1F
100
AcDbEntity
  8
0
  6
Continuous
 62
     7
370
    15
100
AcDbLine
 10
271.9005330396
 20
179.1050204911
 30
0.0
 11
279.9005324883
 21
179.1050204911
 31
0.0
  0
LWPOLYLINE
  5
1AC
330
1F
100
AcDbEntity
  8
0
  6
Continuous
 62
     7
370
    15
100
AcDbPolyline
 90
        3
 70
   128
 43
0.0
 10
271.0083148372
 20
179.1428545393
 10
271.3506019604
 20
179.1163602747
 10
271.9005330396
 20
179.1050204911
  0
ARC
  5
1AD
330
1F
100
AcDbEntity
  8
0
  6
Continuous
 62
     7
370
    15
100
AcDbCircle
 10
280.2792500622
 20
187.0399169575
 30
0.0
 40
2.885919038241052
100
AcDbArc
 50
262.4593565864
 51
313.4418021225
  0
LINE
  5
1AE
330
1F
100
AcDbEntity
  8
0
  6
Continuous
 62
     7
370
    15
100
AcDbLine
 10
271.9005330396
 20
184.1789552845
 30
0.0
 11
279.9005324883
 21
184.1789552845
 31
0.0
  0
ARC
  5
1AF
330
1F
100
AcDbEntity
  8
0
  6
Continuous
 62
     7
370
    15
100
AcDbCircle
 10
271.4774301639
 20
186.962677773
 30
0.0
 40
2.815692976171853
100
AcDbArc
 50
226.2916876688
 51
278.6423410306
  0
ARC
  5
1B0
330
1F
100
AcDbEntity
  8
0
  6
Continuous
 62
     7
370
    15
100
AcDbCircle
 10
280.0007898112
 20
221.7098190084
 30
0.0
 40
2.400797600311646
100
AcDbArc
 50
267.6066319089
 51
358.3017491864
  0
LINE
  5
1B1
330
1F
100
AcDbEntity
  8
0
  6
Continuous
 62
     7
370
    15
100
AcDbLine
 10
259.9005310726
 20
219.3111156948
 30
0.0
 11
279.9005324883
 21
219.3111156948
 31
0.0
  0
ARC
  5
1B2
330
1F
100
AcDbEntity
  8
0
  6
Continuous
 62
     7
370
    15
100
AcDbCircle
 10
259.8261048048
 20
221.7375609528
 30
0.0
 40
2.427586426704333
100
AcDbArc
 50
182.3346744942
 51
271.7568805407
  0
LWPOLYLINE
  5
1B3
330
1F
100
AcDbEntity
  8
0
  6
Continuous
 62
     7
370
    15
100
AcDbPolyline
 90
        6
 70
   128
 43
0.0
 10
279.9005324883
 20
192.9557951071
 10
280.7280368102
 20
193.044788567
 10
281.4622468245
 20
193.3030219652
 10
282.02034374
 20
193.7046455123
 10
282.3394241673
 20
194.2080514409
 10
282.400532898
 20
194.5686930694
  0
LINE
  5
1B4
330
1F
100
AcDbEntity
  8
0
  6
Continuous
 62
     7
370
    15
100
AcDbLine
 10
259.9005310726
 20
192.9557951071
 30
0.0
 11
279.9005324883
 21
192.9557951071
 31
0.0
  0
LWPOLYLINE
  5
1B5
330
1F
100
AcDbEntity
  8
0
  6
Continuous
 62
     7
370
    15
100
AcDbPolyline
 90
        6
 70
   128
 43
0.0
 10
257.4005334568
 20
194.5686930694
 10
257.5413121772
 20
194.0270693876
 10
257.9479797673
 20
193.5529405155
 10
258.5745288921
 20
193.1966910042
 10
259.3506037188
 20
192.9944375433
 10
259.9005310726
 20
192.9557951071
  0
ARC
  5
1B6
330
1F
100
AcDbEntity
  8
0
  6
Continuous
 62
     7
370
    15
100
AcDbCircle
 10
280.1514628547
 20
207.1551578385
 30
0.0
 40
2.259116373409084
100
AcDbArc
 50
263.6227368236
 51
354.594534201
  0
LINE
  5
1B7
330
1F
100
AcDbEntity
  8
0
  6
Continuous
 62
     7
370
    15
100
AcDbLine
 10
259.9005310726
 20
204.9100207068
 30
0.0
 11
279.9005324883
 21
204.9100207068
 31
0.0
  0
ARC
  5
1B8
330
1F
100
AcDbEntity
  8
0
  6
Continuous
 62
     7
370
    15
100
AcDbCircle
 10
259.7150474949
 20
207.2356621172
 30
0.0
 40
2.333026387986918
100
AcDbArc
 50
187.2226433873
 51
274.5600229043
  0
LWPOLYLINE
  5
1B9
330
1F
100
AcDbEntity
  8
0
  6
Continuous
 62
     7
370
    15
100
AcDbPolyline
 90
        3
 70
   128
 43
0.0
 10
154.0083124233
 20
179.1428545393
 10
154.350606997
 20
179.1163602747
 10
154.9005343509
 20
179.1050204911
  0
LWPOLYLINE
  5
1BA
330
1F
100
AcDbEntity
  8
0
  6
Continuous
 62
     7
370
    15
100
AcDbPolyline
 90
        3
 70
   128
 43
0.0
 10
162.9005356622
 20
179.1050204911
 10
163.7280418468
 20
179.1312092819
 10
163.7826844049
 20
179.1369536795
  0
LINE
  5
1BB
330
1F
100
AcDbEntity
  8
0
  6
Continuous
 62
     7
370
    15
100
AcDbLine
 10
162.9005356622
 20
179.1050204911
 30
0.0
 11
154.9005343509
 21
179.1050204911
 31
0.0
  0
ARC
  5
1BC
330
1F
100
AcDbEntity
  8
0
  6
Continuous
 62
     7
370
    15
100
AcDbCircle
 10
154.4774436876
 20
186.9627357989
 30
0.0
 40
2.815748508268034
100
AcDbArc
 50
226.2922143133
 51
278.6419179252
  0
ARC
  5
1BD
330
1F
100
AcDbEntity
  8
0
  6
Continuous
 62
     7
370
    15
100
AcDbCircle
 10
163.27926345
 20
187.0398588758
 30
0.0
 40
2.885862799227361
100
AcDbArc
 50
262.4590042275
 51
313.4423001333
  0
LINE
  5
1BE
330
1F
100
AcDbEntity
  8
0
  6
Continuous
 62
     7
370
    15
100
AcDbLine
 10
162.9005356622
 20
184.1789552845
 30
0.0
 11
154.9005343509
 21
184.1789552845
 31
0.0
  0
ARC
  5
1BF
330
1F
100
AcDbEntity
  8
0
  6
Continuous
 62
     7
370
    15
100
AcDbCircle
 10
154.6948615722
 20
207.1999085133
 30
0.0
 40
2.299105795311465
100
AcDbArc
 50
190.8078012791
 51
275.1324113013
  0
LWPOLYLINE
  5
1C0
330
1F
100
AcDbEntity
  8
0
  6
Continuous
 62
     7
370
    15
100
AcDbPolyline
 90
        3
 70
   128
 43
0.0
 10
174.9005301786
 20
204.9100207068
 10
175.7280363631
 20
205.0230981685
 10
176.1505289865
 20
205.2115457036
  0
LINE
  5
1C1
330
1F
100
AcDbEntity
  8
0
  6
Continuous
 62
     7
370
    15
100
AcDbLine
 10
174.9005301786
 20
204.9100207068
 30
0.0
 11
154.9005343509
 21
204.9100207068
 31
0.0
  0
LINE
  5
1C2
330
1F
100
AcDbEntity
  8
0
  6
Continuous
 62
     7
370
    15
100
AcDbLine
 10
335.9005323541
 20
285.1732553818
 30
0.0
 11
343.9005336654
 21
285.1732553818
 31
0.0
  0
LINE
  5
1C3
330
1F
100
AcDbEntity
  8
0
  6
Continuous
 62
     7
370
    15
100
AcDbLine
 10
343.9005336654
 20
204.7285543658
 30
0.0
 11
343.9005336654
 21
285.1732553818
 31
0.0
  0
LINE
  5
1C4
330
1F
100
AcDbEntity
  8
0
  6
Continuous
 62
     7
370
    15
100
AcDbLine
 10
335.9005323541
 20
204.7285543658
 30
0.0
 11
343.9005336654
 21
204.7285543658
 31
0.0
  0
LINE
  5
1C5
330
1F
100
AcDbEntity
  8
0
  6
Continuous
 62
     7
370
    15
100
AcDbLine
 10
335.9005323541
 20
204.7285543658
 30
0.0
 11
335.9005323541
 21
285.1732553818
 31
0.0
  0
LINE
  5
1C6
330
1F
100
AcDbEntity
  8
0
  6
Continuous
 62
     7
370
    15
100
AcDbLine
 10
297.4005325628
 20
244.9509048738
 30
0.0
 11
297.4005325628
 21
314.9509051718
 31
0.0
  0
LINE
  5
1C7
330
1F
100
AcDbEntity
  8
0
  6
Continuous
 62
     7
370
    15
100
AcDbLine
 10
297.4005325628
 20
174.9509045758
 30
0.0
 11
297.4005325628
 21
244.9509048738
 31
0.0
  0
LINE
  5
1C8
330
1F
100
AcDbEntity
  8
0
  6
Continuous
 62
     7
370
    15
100
AcDbLine
 10
313.4005333227
 20
263.0990533062
 30
0.0
 11
313.4005333227
 21
312.5574508585
 31
0.0
  0
LINE
  5
1C9
330
1F
100
AcDbEntity
  8
0
  6
Continuous
 62
     7
370
    15
100
AcDbLine
 10
313.4005333227
 20
177.344358889
 30
0.0
 11
313.4005333227
 21
226.8027564414
 31
0.0
  0
LINE
  5
1CA
330
1F
100
AcDbEntity
  8
0
  6
Continuous
 62
     7
370
    15
100
AcDbLine
 10
335.9005323541
 20
308.7039733209
 30
0.0
 11
343.9005336654
 21
308.7039733209
 31
0.0
  0
LINE
  5
1CB
330
1F
100
AcDbEntity
  8
0
  6
Continuous
 62
     7
370
    15
100
AcDbLine
 10
335.9005323541
 20
298.0973677613
 30
0.0
 11
343.9005336654
 21
298.0973677613
 31
0.0
  0
LINE
  5
1CC
330
1F
100
AcDbEntity
  8
0
  6
Continuous
 62
     7
370
    15
100
AcDbLine
 10
335.9005323541
 20
298.0973677613
 30
0.0
 11
335.9005323541
 21
308.7039733209
 31
0.0
  0
LINE
  5
1CD
330
1F
100
AcDbEntity
  8
0
  6
Continuous
 62
     7
370
    15
100
AcDbLine
 10
343.9005336654
 20
308.7039733209
 30
0.0
 11
343.9005336654
 21
298.0973677613
 31
0.0
  0
LINE
  5
1CE
330
1F
100
AcDbEntity
  8
0
  6
Continuous
 62
     7
370
    15
100
AcDbLine
 10
335.9005323541
 20
285.1732553818
 30
0.0
 11
335.9005323541
 21
298.0973677613
 31
0.0
  0
LINE
  5
1CF
330
1F
100
AcDbEntity
  8
0
  6
Continuous
 62
     7
370
    15
100
AcDbLine
 10
343.9005336654
 20
298.0973677613
 30
0.0
 11
343.9005336654
 21
285.1732553818
 31
0.0
  0
LINE
  5
1D0
330
1F
100
AcDbEntity
  8
0
  6
Continuous
 62
     7
370
    15
100
AcDbLine
 10
335.9005323541
 20
191.8044419863
 30
0.0
 11
343.9005336654
 21
191.8044419863
 31
0.0
  0
LINE
  5
1D1
330
1F
100
AcDbEntity
  8
0
  6
Continuous
 62
     7
370
    15
100
AcDbLine
 10
335.9005323541
 20
191.8044419863
 30
0.0
 11
335.9005323541
 21
204.7285543658
 31
0.0
  0
LINE
  5
1D2
330
1F
100
AcDbEntity
  8
0
  6
Continuous
 62
     7
370
    15
100
AcDbLine
 10
343.9005336654
 20
204.7285543658
 30
0.0
 11
343.9005336654
 21
191.8044419863
 31
0.0
  0
LINE
  5
1D3
330
1F
100
AcDbEntity
  8
0
  6
Continuous
 62
     7
370
    15
100
AcDbLine
 10
335.9005323541
 20
181.1978364267
 30
0.0
 11
343.9005336654
 21
181.1978364267
 31
0.0
  0
LINE
  5
1D4
330
1F
100
AcDbEntity
  8
0
  6
Continuous
 62
     7
370
    15
100
AcDbLine
 10
335.9005323541
 20
181.1978364267
 30
0.0
 11
335.9005323541
 21
191.8044419863
 31
0.0
  0
LINE
  5
1D5
330
1F
100
AcDbEntity
  8
0
  6
Continuous
 62
     7
370
    15
100
AcDbLine
 10
343.9005336654
 20
191.8044419863
 30
0.0
 11
343.9005336654
 21
181.1978364267
 31
0.0
  0
LINE
  5
1D6
330
1F
100
AcDbEntity
  8
0
  6
Continuous
 62
     7
370
    15
100
AcDbLine
 10
335.9005323541
 20
308.7039733209
 30
0.0
 11
335.9005323541
 21
315.4509061851
 31
0.0
  0
LINE
  5
1D7
330
1F
100
AcDbEntity
  8
0
  6
Continuous
 62
     7
370
    15
100
AcDbLine
 10
343.9005336654
 20
308.7039733209
 30
0.0
 11
343.9005336654
 21
315.4509061851
 31
0.0
  0
LINE
  5
1D8
330
1F
100
AcDbEntity
  8
0
  6
Continuous
 62
     7
370
    15
100
AcDbLine
 10
335.9005323541
 20
174.4509035625
 30
0.0
 11
335.9005323541
 21
181.1978364267
 31
0.0
  0
LINE
  5
1D9
330
1F
100
AcDbEntity
  8
0
  6
Continuous
 62
     7
370
    15
100
AcDbLine
 10
343.9005336654
 20
174.4509035625
 30
0.0
 11
343.9005336654
 21
181.1978364267
 31
0.0
  0
LINE
  5
1DA
330
1F
100
AcDbEntity
  8
0
  6
Continuous
 62
     7
370
    15
100
AcDbLine
 10
335.9005323541
 20
189.9509051718
 30
0.0
 11
313.4005333227
 21
189.9509051718
 31
0.0
  0
LINE
  5
1DB
330
1F
100
AcDbEntity
  8
0
  6
Continuous
 62
     7
370
    15
100
AcDbLine
 10
335.9005323541
 20
299.9509045758
 30
0.0
 11
313.4005333227
 21
299.9509045758
 31
0.0
  0
LWPOLYLINE
  5
1DC
330
1F
100
AcDbEntity
  8
0
  6
Continuous
 62
     7
370
    15
100
AcDbPolyline
 90
        7
 70
   128
 43
0.0
 10
321.3371301931
 20
295.2508920707
 10
321.2779111159
 20
295.432824073
 10
321.2779111159
 20
296.2279835619
 10
321.6455078614
 20
297.1270302214
 10
322.364636038
 20
298.0906622388
 10
323.4038653714
 20
299.0767726578
 10
324.5801220578
 20
299.9509045758
  0
LWPOLYLINE
  5
1DD
330
1F
100
AcDbEntity
  8
0
  6
Continuous
 62
     7
370
    15
100
AcDbPolyline
 90
       11
 70
   128
 43
0.0
 10
322.2731522215
 20
292.9201418437
 10
321.4400152606
 20
293.0823484339
 10
320.4358520848
 20
293.4804851093
 10
319.7467888636
 20
294.0531292834
 10
319.3962893379
 20
294.7807790615
 10
319.3962893379
 20
295.6386538126
 10
319.7467888636
 20
296.5975398101
 10
320.4358520848
 20
297.6247848846
 10
321.4400152606
 20
298.6854048349
 10
322.7250802261
 20
299.7432866968
 10
323.0114786816
 20
299.9509045758
  0
LINE
  5
1DE
330
1F
100
AcDbEntity
  8
0
  6
Continuous
 62
     7
370
    15
100
AcDbLine
 10
324.2441344005
 20
314.9509051718
 30
0.0
 11
324.9005324137
 21
315.1768142261
 31
0.0
  0
LINE
  5
1DF
330
1F
100
AcDbEntity
  8
0
  6
Continuous
 62
     7
370
    15
100
AcDbLine
 10
335.9005323541
 20
318.8053736367
 30
0.0
 11
324.9005324137
 21
315.1768142261
 31
0.0
  0
LINE
  5
1E0
330
1F
100
AcDbEntity
  8
0
  6
Continuous
 62
     7
370
    15
100
AcDbLine
 10
335.9005323541
 20
318.8053736367
 30
0.0
 11
335.9005323541
 21
315.4509061851
 31
0.0
  0
LINE
  5
1E1
330
1F
100
AcDbEntity
  8
SLD-0
  6
CENTERX2
370
     0
100
AcDbLine
 10
456.9240135572
 20
244.9509048738
 30
0.0
 11
123.820421208
 21
244.9509048738
 31
0.0
  0
LINE
  5
1E2
330
1F
100
AcDbEntity
  8
SLD-0
  6
CENTERX2
370
     0
100
AcDbLine
 10
383.9005325628
 20
51.9338501765
 30
0.0
 11
383.9005325628
 21
436.8015801324
 31
0.0
  0
LINE
  5
1E3
330
1F
100
AcDbEntity
  8
0
  6
Continuous
 62
     7
370
    15
100
AcDbLine
 10
559.2764629852
 20
213.2472203948
 30
0.0
 11
558.7516813409
 21
210.29347497
 31
0.0
  0
ARC
  5
1E4
330
1F
100
AcDbEntity
  8
0
  6
Continuous
 62
     7
370
    15
100
AcDbCircle
 10
558.9653375679
 20
207.208535627
 30
0.0
 40
3.000000000000075
100
AcDbArc
 50
349.925583395
 51
79.925583395
  0
ARC
  5
1E5
330
1F
100
AcDbEntity
  8
0
  6
Continuous
 62
     7
370
    15
100
AcDbCircle
 10
577.1800932017
 20
203.9723840235
 30
0.0
 40
3.000000000000079
100
AcDbArc
 50
109.3462781327
 51
169.925583395
  0
LINE
  5
1E6
330
1F
100
AcDbEntity
  8
0
  6
Continuous
 62
     7
370
    15
100
AcDbLine
 10
574.0514187943
 20
203.5125823595
 30
0.0
 11
574.2263509762
 21
204.4971654095
 31
0.0
  0
LINE
  5
1E7
330
1F
100
AcDbEntity
  8
0
  6
Continuous
 62
     7
370
    15
100
AcDbLine
 10
561.9190796148
 20
206.6837543525
 30
0.0
 11
561.7441548836
 21
205.6991713025
 31
0.0
  0
ARC
  5
1E8
330
1F
100
AcDbEntity
  8
0
  6
Continuous
 62
     7
370
    15
100
AcDbCircle
 10
562.7287359966
 20
205.5242457866
 30
0.0
 40
1.000000000000135
100
AcDbArc
 50
169.925583395
 51
259.925583395
  0
ARC
  5
1E9
330
1F
100
AcDbEntity
  8
0
  6
Continuous
 62
     7
370
    15
100
AcDbCircle
 10
573.0668405455
 20
203.6875110927
 30
0.0
 40
1.000000000000028
100
AcDbArc
 50
259.925583395
 51
349.925583395
  0
LINE
  5
1EA
330
1F
100
AcDbEntity
  8
0
  6
Continuous
 62
     7
370
    15
100
AcDbLine
 10
571.1803822648
 20
197.9287112035
 30
0.0
 11
572.0550208222
 21
202.851619003
 31
0.0
  0
LINE
  5
1EB
330
1F
100
AcDbEntity
  8
0
  6
Continuous
 62
     7
370
    15
100
AcDbLine
 10
563.3907033932
 20
204.3909760095
 30
0.0
 11
562.5160648357
 21
199.4680682101
 31
0.0
  0
LWPOLYLINE
  5
1EC
330
1F
100
AcDbEntity
  8
0
  6
Continuous
 62
     7
370
    15
100
AcDbPolyline
 90
        4
 70
   128
 43
0.0
 10
556.3425137531
 20
251.7518772647
 10
556.2620996367
 20
251.5583093181
 10
556.1580671799
 20
251.3047902748
 10
556.1537458431
 20
251.2942174353
  0
LWPOLYLINE
  5
1ED
330
1F
100
AcDbEntity
  8
0
  6
Continuous
 62
     7
370
    15
100
AcDbPolyline
 90
       16
 70
   128
 43
0.0
 10
683.8675266933
 20
175.6773510851
 10
683.7084418964
 20
182.8248234369
 10
683.56431414
 20
189.1727851607
 10
683.4351993036
 20
194.7518544175
 10
683.3211458158
 20
199.9148124732
 10
683.2221909296
 20
204.6812245526
 10
683.138360722
 20
208.7973983862
 10
683.0647452604
 20
212.3437257387
 10
682.9888983499
 20
215.8972969182
 10
682.8832491171
 20
220.6516502328
 10
682.7722578179
 20
225.363797871
 10
682.6544529628
 20
230.0007784642
 10
682.5525923502
 20
233.6701791637
 10
682.4358715546
 20
237.443954581
 10
682.3033108246
 20
241.1268655114
 10
682.153688265
 20
244.4662898624
  0
LWPOLYLINE
  5
1EE
330
1F
100
AcDbEntity
  8
0
  6
Continuous
 62
     7
370
    15
100
AcDbPolyline
 90
       16
 70
   128
 43
0.0
 10
616.8760969173
 20
244.4676592267
 10
616.7262173128
 20
241.1225695532
 10
616.5935522746
 20
237.4357282087
 10
616.4768277537
 20
233.6601376437
 10
616.3750192952
 20
229.9911774598
 10
616.2573112976
 20
225.3572897889
 10
616.1463870537
 20
220.6477107384
 10
616.0407750737
 20
215.895067332
 10
615.9649393391
 20
212.3422207214
 10
615.8913313281
 20
208.7961690404
 10
615.8075011205
 20
204.6801889219
 10
615.7085499596
 20
199.9140711405
 10
615.5945039224
 20
194.7514818885
 10
615.4653965365
 20
189.1728075125
 10
615.3212762308
 20
182.8252518453
 10
615.1621951591
 20
175.6781631984
  0
LWPOLYLINE
  5
1EF
330
1F
100
AcDbEntity
  8
0
  6
Continuous
 62
     7
370
    15
100
AcDbPolyline
 90
       11
 70
   128
 43
0.0
 10
685.332277311
 20
109.7862714805
 10
685.307034744
 20
110.9738642253
 10
685.2034865748
 20
115.4119664707
 10
685.0944212508
 20
119.8866063632
 10
684.9798313212
 20
124.7923517503
 10
684.818459196
 20
132.0029416956
 10
684.6472634804
 20
139.9575540699
 10
684.4662404489
 20
148.4975585617
 10
684.2753938269
 20
157.3582062401
 10
684.0747124385
 20
166.4936909355
 10
683.8641962838
 20
175.8579904117
  0
LWPOLYLINE
  5
1F0
330
1F
100
AcDbEntity
  8
0
  6
Continuous
 62
     7
370
    15
100
AcDbPolyline
 90
       12
 70
   128
 43
0.0
 10
615.1655143928
 20
175.8579904117
 10
614.9562499356
 20
166.5507325806
 10
614.7517724764
 20
157.2428190984
 10
614.5520745646
 20
147.9663843192
 10
614.3571524751
 20
138.769536642
 10
614.1670024824
 20
129.9975881256
 10
614.0737137627
 20
125.8393594899
 10
613.9816208612
 20
121.8483740367
 10
613.8907126021
 20
118.0347645559
 10
613.8010001611
 20
114.3799865522
 10
613.7124723625
 20
110.5111682691
 10
613.6903776657
 20
109.4599211492
  0
LINE
  5
1F1
330
1F
100
AcDbEntity
  8
0
  6
Continuous
 62
     7
370
    15
100
AcDbLine
 10
589.5148566794
 20
414.9509066619
 30
0.0
 11
589.5148566794
 21
412.9509026088
 31
0.0
  0
LINE
  5
1F2
330
1F
100
AcDbEntity
  8
0
  6
Continuous
 62
     7
370
    15
100
AcDbLine
 10
709.5148539972
 20
412.9509026088
 30
0.0
 11
709.5148539972
 21
414.9509066619
 31
0.0
  0
LINE
  5
1F3
330
1F
100
AcDbEntity
  8
0
  6
Continuous
 62
     7
370
    15
100
AcDbLine
 10
709.5148539972
 20
74.9509030856
 30
0.0
 11
709.5148539972
 21
76.9509071388
 31
0.0
  0
LINE
  5
1F4
330
1F
100
AcDbEntity
  8
0
  6
Continuous
 62
     7
370
    15
100
AcDbLine
 10
589.5148566794
 20
76.9509071388
 30
0.0
 11
589.5148566794
 21
74.9509030856
 31
0.0
  0
LINE
  5
1F5
330
1F
100
AcDbEntity
  8
0
  6
Continuous
 62
     7
370
    15
100
AcDbLine
 10
682.1758015882
 20
244.0067991983
 30
0.0
 11
682.1314482819
 21
244.8842505537
 31
0.0
  0
LINE
  5
1F6
330
1F
100
AcDbEntity
  8
0
  6
Continuous
 62
     7
370
    15
100
AcDbLine
 10
616.8982437682
 20
244.8838909104
 30
0.0
 11
616.8539016377
 21
244.0065837136
 31
0.0
  0
LWPOLYLINE
  5
1F7
330
1F
100
AcDbEntity
  8
0
  6
Continuous
 62
     7
370
    15
100
AcDbPolyline
 90
       31
 70
   128
 43
0.0
 10
687.5955215525
 20
162.3196819701
 10
687.7704164814
 20
162.3824754633
 10
694.682253046
 20
165.5573764719
 10
700.6845264565
 20
168.9043411888
 10
705.8193809223
 20
172.2597697653
 10
710.1373909842
 20
175.4802459754
 10
713.8740136158
 20
178.6032238879
 10
717.4441381227
 20
181.9581830777
 10
720.8344130647
 20
185.5132387854
 10
724.0390046369
 20
189.2462292589
 10
729.8603369724
 20
197.222384987
 10
734.8435758483
 20
205.8319294729
 10
738.8862757813
 20
214.916368378
 10
741.9400005471
 20
224.3477174916
 10
743.9850582611
 20
234.041918432
 10
745.001451565
 20
243.908927091
 10
744.9728115332
 20
253.8357762523
 10
743.8909499776
 20
263.7344257809
 10
741.7485951316
 20
273.5222535111
 10
738.5984151494
 20
282.9671757199
 10
734.665454818
 20
291.7251767494
 10
730.2321730983
 20
299.6678234913
 10
727.8714789879
 20
303.3391827621
 10
725.4109843504
 20
306.8483913221
 10
722.4467112553
 20
310.7162484803
 10
718.765438987
 20
315.0618145146
 10
714.2769484651
 20
319.7902882375
 10
708.8852650356
 20
324.7852841296
 10
702.4917020332
 20
329.9056285896
 10
694.9981688392
 20
334.9817836561
 10
691.8529844713
 20
336.7304870762
  0
LINE
  5
1F8
330
1F
100
AcDbEntity
  8
0
  6
Continuous
 62
     7
370
    15
100
AcDbLine
 10
607.5610159766
 20
166.9382372774
 30
0.0
 11
614.8797436487
 21
163.4273076333
 31
0.0
  0
ARC
  5
1F9
330
1F
100
AcDbEntity
  8
0
  6
Continuous
 62
     7
370
    15
100
AcDbCircle
 10
658.8493061794
 20
239.6724872883
 30
0.0
 40
88.99859310634561
100
AcDbArc
 50
166.8979856838
 51
234.810557243
  0
LINE
  5
1FA
330
1F
100
AcDbEntity
  8
0
  6
Continuous
 62
     7
370
    15
100
AcDbLine
 10
727.0148559343
 20
109.9508995094
 30
0.0
 11
712.0148553383
 21
109.9508995094
 31
0.0
  0
LINE
  5
1FB
330
1F
100
AcDbEntity
  8
0
  6
Continuous
 62
     7
370
    15
100
AcDbLine
 10
712.0148553383
 20
379.9509102382
 30
0.0
 11
727.0148559343
 21
379.9509102382
 31
0.0
  0
ARC
  5
1FC
330
1F
100
AcDbEntity
  8
0
  6
Continuous
 62
     7
370
    15
100
AcDbCircle
 10
630.2443740477
 20
244.1099756315
 30
0.0
 40
60.17129444795712
100
AcDbArc
 50
130.7099489087
 51
164.83852657
  0
LWPOLYLINE
  5
1FD
330
1F
100
AcDbEntity
  8
0
  6
Continuous
 62
     7
370
    15
100
AcDbPolyline
 90
       10
 70
   128
 43
0.0
 10
568.5974969398
 20
208.5442053057
 10
566.7341663372
 20
208.8752569534
 10
564.938174082
 20
209.1943429686
 10
563.2744445335
 20
209.4899298527
 10
561.8031038773
 20
209.7513409235
 10
560.5773343574
 20
209.969117669
 10
559.6414296758
 20
210.1353960015
 10
559.0292229187
 20
210.2441670276
 10
558.76283486
 20
210.2914931156
 10
558.7516813409
 20
210.29347497
  0
LWPOLYLINE
  5
1FE
330
1F
100
AcDbEntity
  8
0
  6
Continuous
 62
     7
370
    15
100
AcDbPolyline
 90
        6
 70
   128
 43
0.0
 10
576.1410309803
 20
207.2039725162
 10
575.3918825519
 20
207.337069688
 10
573.9205418956
 20
207.5984770335
 10
572.2568197977
 20
207.8940639176
 10
570.4608275425
 20
208.2131536581
 10
568.5974969398
 20
208.5442053057
  0
LWPOLYLINE
  5
1FF
330
1F
100
AcDbEntity
  8
0
  6
Continuous
 62
     7
370
    15
100
AcDbPolyline
 90
       13
 70
   128
 43
0.0
 10
572.8919147384
 20
202.7029314913
 10
572.7157830131
 20
202.7342239298
 10
572.1993907225
 20
202.825966654
 10
571.3779344093
 20
202.971912352
 10
570.3073902857
 20
203.1621144988
 10
569.0607069861
 20
203.3836053588
 10
567.7228583824
 20
203.6212975063
 10
566.3850097787
 20
203.8589896538
 10
565.1383339297
 20
204.0804805137
 10
564.0677898061
 20
204.2706826605
 10
563.2463334929
 20
204.4166283585
 10
562.7299412023
 20
204.5083710827
 10
562.553809477
 20
204.5396635212
  0
LWPOLYLINE
  5
200
330
1F
100
AcDbEntity
  8
0
  6
Continuous
 62
     7
370
    15
100
AcDbPolyline
 90
        7
 70
   128
 43
0.0
 10
566.8482272756
 20
198.6983897068
 10
565.6277178657
 20
198.9152351298
 10
564.5060851108
 20
199.1145083584
 10
563.5741962921
 20
199.2800751604
 10
562.9075555932
 20
199.3985133149
 10
562.5601648223
 20
199.4602339246
 10
562.5160648357
 20
199.4680682101
  0
LWPOLYLINE
  5
201
330
1F
100
AcDbEntity
  8
0
  6
Continuous
 62
     7
370
    15
100
AcDbPolyline
 90
        7
 70
   128
 43
0.0
 10
571.1803822648
 20
197.9287112035
 10
571.1362897288
 20
197.936545489
 10
570.7888915073
 20
197.9982660987
 10
570.1222508084
 20
198.1167042531
 10
569.1903694403
 20
198.2822710552
 10
568.0687366855
 20
198.4815480091
 10
566.8482272756
 20
198.6983897068
  0
LINE
  5
202
330
1F
100
AcDbEntity
  8
0
  6
Continuous
 62
     7
370
    15
100
AcDbLine
 10
574.8025267255
 20
210.4887584128
 30
0.0
 11
553.4915118348
 21
214.2750112243
 31
0.0
  0
LINE
  5
203
330
1F
100
AcDbEntity
  8
0
  6
Continuous
 62
     7
370
    15
100
AcDbLine
 10
567.710944904
 20
265.7818099387
 30
0.0
 11
573.7522109281
 21
264.7084811606
 31
0.0
  0
ARC
  5
204
330
1F
100
AcDbEntity
  8
0
  6
Continuous
 62
     7
370
    15
100
AcDbCircle
 10
649.8299867811
 20
213.0031903492
 30
0.0
 40
101.2000000000001
100
AcDbArc
 50
150.3695827411
 51
175.9298493727
  0
ARC
  5
205
330
1F
100
AcDbEntity
  8
0
  6
Continuous
 62
     7
370
    15
100
AcDbCircle
 10
566.7313518959
 20
260.2681549658
 30
0.0
 40
5.600000000000081
100
AcDbArc
 50
79.925583395
 51
150.3695827411
  0
ARC
  5
206
330
1F
100
AcDbEntity
  8
0
  6
Continuous
 62
     7
370
    15
100
AcDbCircle
 10
554.4710999634
 20
219.7886678471
 30
0.0
 40
5.600000000000017
100
AcDbArc
 50
175.9298493727
 51
259.925583395
  0
CIRCLE
  5
207
330
1F
100
AcDbEntity
  8
0
  6
Continuous
 62
     7
370
    15
100
AcDbCircle
 10
649.5148553383
 20
214.9509048738
 30
0.0
 40
13.00000000000011
  0
LWPOLYLINE
  5
208
330
1F
100
AcDbEntity
  8
0
  6
Continuous
 62
     7
370
    15
100
AcDbPolyline
 90
       19
 70
   128
 43
0.0
 10
682.0239699315
 20
244.4518316906
 10
681.5798370969
 20
249.240152435
 10
679.7194140833
 20
255.758339902
 10
676.6982483547
 20
261.7763088919
 10
672.6324478965
 20
267.0655878164
 10
668.7313928139
 20
270.6345872857
 10
664.357190473
 20
273.5165892072
 10
659.6175660249
 20
275.6369126864
 10
654.6291899737
 20
276.9372010507
 10
649.5148553383
 20
277.3766251184
 10
644.4005207028
 20
276.9372010507
 10
639.4121446517
 20
275.6369126864
 10
634.6725202035
 20
273.5165892072
 10
630.2983178627
 20
270.6345872857
 10
626.39726278
 20
267.0655878164
 10
622.3314623218
 20
261.7763088919
 10
619.3102965933
 20
255.758339902
 10
617.4498735797
 20
249.240152435
 10
617.0058636796
 20
244.4531827486
  0
LWPOLYLINE
  5
209
330
1F
100
AcDbEntity
  8
0
  6
Continuous
 62
     7
370
    15
100
AcDbPolyline
 90
       11
 70
   128
 43
0.0
 10
685.335998876
 20
109.647839693
 10
685.3307909202
 20
109.5020169296
 10
685.1946278345
 20
108.7818885125
 10
684.8760819864
 20
107.7152931966
 10
684.4397387337
 20
106.414019493
 10
683.9234134983
 20
104.8348689355
 10
683.3632974755
 20
102.8426134862
 10
682.9015440177
 20
100.5463743486
 10
682.6100773048
 20
98.1683427371
 10
682.4843673837
 20
95.6039870061
 10
682.5647181701
 20
92.9509097614
  0
LWPOLYLINE
  5
20A
330
1F
100
AcDbEntity
  8
0
  6
Continuous
 62
     7
370
    15
100
AcDbPolyline
 90
        3
 70
   128
 43
0.0
 10
613.4694865775
 20
92.9509097614
 10
613.621880753
 20
103.3271694459
 10
613.6985323262
 20
109.4598168411
  0
LINE
  5
20B
330
1F
100
AcDbEntity
  8
0
  6
Continuous
 62
     7
370
    15
100
AcDbLine
 10
649.5148553383
 20
92.9509097614
 30
0.0
 11
649.5148553383
 21
76.9509071388
 31
0.0
  0
LINE
  5
20C
330
1F
100
AcDbEntity
  8
0
  6
Continuous
 62
     7
370
    15
100
AcDbLine
 10
649.5148553383
 20
92.9509097614
 30
0.0
 11
705.8458193075
 21
92.9509097614
 31
0.0
  0
LINE
  5
20D
330
1F
100
AcDbEntity
  8
0
  6
Continuous
 62
     7
370
    15
100
AcDbLine
 10
705.8458193075
 20
76.9509071388
 30
0.0
 11
649.5148553383
 21
76.9509071388
 31
0.0
  0
LINE
  5
20E
330
1F
100
AcDbEntity
  8
0
  6
Continuous
 62
     7
370
    15
100
AcDbLine
 10
649.5148553383
 20
396.9508999862
 30
0.0
 11
649.5148553383
 21
412.9509026088
 31
0.0
  0
LINE
  5
20F
330
1F
100
AcDbEntity
  8
0
  6
Continuous
 62
     7
370
    15
100
AcDbLine
 10
705.8458193075
 20
412.9509026088
 30
0.0
 11
649.5148553383
 21
412.9509026088
 31
0.0
  0
LINE
  5
210
330
1F
100
AcDbEntity
  8
0
  6
Continuous
 62
     7
370
    15
100
AcDbLine
 10
649.5148553383
 20
396.9508999862
 30
0.0
 11
705.8458193075
 21
396.9508999862
 31
0.0
  0
LINE
  5
211
330
1F
100
AcDbEntity
  8
0
  6
Continuous
 62
     7
370
    15
100
AcDbLine
 10
593.183891369
 20
92.9509097614
 30
0.0
 11
649.5148553383
 21
92.9509097614
 31
0.0
  0
LINE
  5
212
330
1F
100
AcDbEntity
  8
0
  6
Continuous
 62
     7
370
    15
100
AcDbLine
 10
649.5148553383
 20
76.9509071388
 30
0.0
 11
593.183891369
 21
76.9509071388
 31
0.0
  0
LINE
  5
213
330
1F
100
AcDbEntity
  8
0
  6
Continuous
 62
     7
370
    15
100
AcDbLine
 10
649.5148553383
 20
412.9509026088
 30
0.0
 11
593.183891369
 21
412.9509026088
 31
0.0
  0
LINE
  5
214
330
1F
100
AcDbEntity
  8
0
  6
Continuous
 62
     7
370
    15
100
AcDbLine
 10
593.183891369
 20
396.9508999862
 30
0.0
 11
649.5148553383
 21
396.9508999862
 31
0.0
  0
LINE
  5
215
330
1F
100
AcDbEntity
  8
0
  6
Continuous
 62
     7
370
    15
100
AcDbLine
 10
650.7648553103
 20
162.4509015955
 30
0.0
 11
650.7648553103
 21
177.4509021916
 31
0.0
  0
LINE
  5
216
330
1F
100
AcDbEntity
  8
0
  6
Continuous
 62
     7
370
    15
100
AcDbLine
 10
652.0148552824
 20
161.2009027876
 30
0.0
 11
650.7648553103
 21
162.4509015955
 31
0.0
  0
LINE
  5
217
330
1F
100
AcDbEntity
  8
0
  6
Continuous
 62
     7
370
    15
100
AcDbLine
 10
652.0148552824
 20
144.9509033837
 30
0.0
 11
652.0148552824
 21
161.2009027876
 31
0.0
  0
LINE
  5
218
330
1F
100
AcDbEntity
  8
0
  6
Continuous
 62
     7
370
    15
100
AcDbLine
 10
649.5148553383
 20
147.4509084501
 30
0.0
 11
652.0148552824
 21
144.9509033837
 31
0.0
  0
LINE
  5
219
330
1F
100
AcDbEntity
  8
0
  6
Continuous
 62
     7
370
    15
100
AcDbLine
 10
647.0148553942
 20
144.9509033837
 30
0.0
 11
649.5148553383
 21
147.4509084501
 31
0.0
  0
LINE
  5
21A
330
1F
100
AcDbEntity
  8
0
  6
Continuous
 62
     7
370
    15
100
AcDbLine
 10
647.0148553942
 20
161.2009027876
 30
0.0
 11
647.0148553942
 21
144.9509033837
 31
0.0
  0
LINE
  5
21B
330
1F
100
AcDbEntity
  8
0
  6
Continuous
 62
     7
370
    15
100
AcDbLine
 10
648.2648553662
 20
162.4509015955
 30
0.0
 11
647.0148553942
 21
161.2009027876
 31
0.0
  0
LINE
  5
21C
330
1F
100
AcDbEntity
  8
0
  6
Continuous
 62
     7
370
    15
100
AcDbLine
 10
648.2648553662
 20
177.4509021916
 30
0.0
 11
648.2648553662
 21
162.4509015955
 31
0.0
  0
LINE
  5
21D
330
1F
100
AcDbEntity
  8
0
  6
Continuous
 62
     7
370
    15
100
AcDbLine
 10
647.0148553942
 20
177.4509021916
 30
0.0
 11
648.2648553662
 21
177.4509021916
 31
0.0
  0
LINE
  5
21E
330
1F
100
AcDbEntity
  8
0
  6
Continuous
 62
     7
370
    15
100
AcDbLine
 10
649.5148553383
 20
179.950907258
 30
0.0
 11
647.0148553942
 21
177.4509021916
 31
0.0
  0
LINE
  5
21F
330
1F
100
AcDbEntity
  8
0
  6
Continuous
 62
     7
370
    15
100
AcDbLine
 10
652.0148552824
 20
177.4509021916
 30
0.0
 11
649.5148553383
 21
179.950907258
 31
0.0
  0
LINE
  5
220
330
1F
100
AcDbEntity
  8
0
  6
Continuous
 62
     7
370
    15
100
AcDbLine
 10
650.7648553103
 20
177.4509021916
 30
0.0
 11
652.0148552824
 21
177.4509021916
 31
0.0
  0
LINE
  5
221
330
1F
100
AcDbEntity
  8
0
  6
Continuous
 62
     7
370
    15
100
AcDbLine
 10
705.8458193075
 20
92.9509097614
 30
0.0
 11
715.1229916942
 21
92.9509097614
 31
0.0
  0
LINE
  5
222
330
1F
100
AcDbEntity
  8
0
  6
Continuous
 62
     7
370
    15
100
AcDbLine
 10
715.1229916942
 20
76.9509071388
 30
0.0
 11
705.8458193075
 21
76.9509071388
 31
0.0
  0
LINE
  5
223
330
1F
100
AcDbEntity
  8
0
  6
Continuous
 62
     7
370
    15
100
AcDbLine
 10
715.1229916942
 20
412.9509026088
 30
0.0
 11
705.8458193075
 21
412.9509026088
 31
0.0
  0
LINE
  5
224
330
1F
100
AcDbEntity
  8
0
  6
Continuous
 62
     7
370
    15
100
AcDbLine
 10
705.8458193075
 20
396.9508999862
 30
0.0
 11
715.1229916942
 21
396.9508999862
 31
0.0
  0
LINE
  5
225
330
1F
100
AcDbEntity
  8
0
  6
Continuous
 62
     7
370
    15
100
AcDbLine
 10
583.9067189824
 20
92.9509097614
 30
0.0
 11
593.183891369
 21
92.9509097614
 31
0.0
  0
LINE
  5
226
330
1F
100
AcDbEntity
  8
0
  6
Continuous
 62
     7
370
    15
100
AcDbLine
 10
593.183891369
 20
76.9509071388
 30
0.0
 11
583.9067189824
 21
76.9509071388
 31
0.0
  0
LINE
  5
227
330
1F
100
AcDbEntity
  8
0
  6
Continuous
 62
     7
370
    15
100
AcDbLine
 10
593.183891369
 20
412.9509026088
 30
0.0
 11
583.9067189824
 21
412.9509026088
 31
0.0
  0
LINE
  5
228
330
1F
100
AcDbEntity
  8
0
  6
Continuous
 62
     7
370
    15
100
AcDbLine
 10
583.9067189824
 20
396.9508999862
 30
0.0
 11
593.183891369
 21
396.9508999862
 31
0.0
  0
LINE
  5
229
330
1F
100
AcDbEntity
  8
0
  6
Continuous
 62
     7
370
    15
100
AcDbLine
 10
649.5148553383
 20
414.9509066619
 30
0.0
 11
709.5148539972
 21
414.9509066619
 31
0.0
  0
LINE
  5
22A
330
1F
100
AcDbEntity
  8
0
  6
Continuous
 62
     7
370
    15
100
AcDbLine
 10
589.5148566794
 20
414.9509066619
 30
0.0
 11
649.5148553383
 21
414.9509066619
 31
0.0
  0
LINE
  5
22B
330
1F
100
AcDbEntity
  8
0
  6
Continuous
 62
     7
370
    15
100
AcDbLine
 10
649.5148553383
 20
74.9509030856
 30
0.0
 11
709.5148539972
 21
74.9509030856
 31
0.0
  0
LINE
  5
22C
330
1F
100
AcDbEntity
  8
0
  6
Continuous
 62
     7
370
    15
100
AcDbLine
 10
589.5148566794
 20
74.9509030856
 30
0.0
 11
649.5148553383
 21
74.9509030856
 31
0.0
  0
ARC
  5
22D
330
1F
100
AcDbEntity
  8
0
  6
Continuous
 62
     7
370
    15
100
AcDbCircle
 10
811.4319408675
 20
92.7336281574
 30
0.0
 40
85.37940273148011
100
AcDbArc
 50
179.8541881073
 51
188.6105143046
  0
LINE
  5
22E
330
1F
100
AcDbEntity
  8
0
  6
Continuous
 62
     7
370
    15
100
AcDbLine
 10
727.0148559343
 20
79.9508983173
 30
0.0
 11
727.0148559343
 21
76.9509071388
 31
0.0
  0
LINE
  5
22F
330
1F
100
AcDbEntity
  8
0
  6
Continuous
 62
     7
370
    15
100
AcDbLine
 10
715.1229916942
 20
92.9509097614
 30
0.0
 11
726.0528146159
 21
92.9509097614
 31
0.0
  0
LINE
  5
230
330
1F
100
AcDbEntity
  8
0
  6
Continuous
 62
     7
370
    15
100
AcDbLine
 10
727.0148559343
 20
76.9509071388
 30
0.0
 11
715.1229916942
 21
76.9509071388
 31
0.0
  0
ARC
  5
231
330
1F
100
AcDbEntity
  8
0
  6
Continuous
 62
     7
370
    15
100
AcDbCircle
 10
804.203923355
 20
397.7030773883
 30
0.0
 40
78.1547283790289
100
AcDbArc
 50
170.9838625462
 51
180.5514350419
  0
LINE
  5
232
330
1F
100
AcDbEntity
  8
0
  6
Continuous
 62
     7
370
    15
100
AcDbLine
 10
727.0148559343
 20
409.9509114303
 30
0.0
 11
727.0148559343
 21
412.9509026088
 31
0.0
  0
LINE
  5
233
330
1F
100
AcDbEntity
  8
0
  6
Continuous
 62
     7
370
    15
100
AcDbLine
 10
727.0148559343
 20
412.9509026088
 30
0.0
 11
715.1229916942
 21
412.9509026088
 31
0.0
  0
LINE
  5
234
330
1F
100
AcDbEntity
  8
0
  6
Continuous
 62
     7
370
    15
100
AcDbLine
 10
715.1229916942
 20
396.9508999862
 30
0.0
 11
726.0528146159
 21
396.9508999862
 31
0.0
  0
LINE
  5
235
330
1F
100
AcDbEntity
  8
0
  6
Continuous
 62
     7
370
    15
100
AcDbLine
 10
572.0148547422
 20
92.9509097614
 30
0.0
 11
572.0148547422
 21
76.9509071388
 31
0.0
  0
LINE
  5
236
330
1F
100
AcDbEntity
  8
0
  6
Continuous
 62
     7
370
    15
100
AcDbLine
 10
572.0148547422
 20
92.9509097614
 30
0.0
 11
583.9067189824
 21
92.9509097614
 31
0.0
  0
LINE
  5
237
330
1F
100
AcDbEntity
  8
0
  6
Continuous
 62
     7
370
    15
100
AcDbLine
 10
583.9067189824
 20
76.9509071388
 30
0.0
 11
572.0148547422
 21
76.9509071388
 31
0.0
  0
LINE
  5
238
330
1F
100
AcDbEntity
  8
0
  6
Continuous
 62
     7
370
    15
100
AcDbLine
 10
572.0148547422
 20
396.9508999862
 30
0.0
 11
572.0148547422
 21
412.9509026088
 31
0.0
  0
LINE
  5
239
330
1F
100
AcDbEntity
  8
0
  6
Continuous
 62
     7
370
    15
100
AcDbLine
 10
583.9067189824
 20
412.9509026088
 30
0.0
 11
572.0148547422
 21
412.9509026088
 31
0.0
  0
LINE
  5
23A
330
1F
100
AcDbEntity
  8
0
  6
Continuous
 62
     7
370
    15
100
AcDbLine
 10
572.0148547422
 20
396.9508999862
 30
0.0
 11
583.9067189824
 21
396.9508999862
 31
0.0
  0
CIRCLE
  5
23B
330
1F
100
AcDbEntity
  8
0
  6
Continuous
 62
     7
370
    15
100
AcDbCircle
 10
649.5148553383
 20
374.9509048738
 30
0.0
 40
15.00000000000011
  0
LINE
  5
23C
330
1F
100
AcDbEntity
  8
0
  6
Continuous
 62
     7
370
    15
100
AcDbLine
 10
652.5148553644
 20
360.2539667763
 30
0.0
 11
652.5148553644
 21
279.8220956601
 31
0.0
  0
LINE
  5
23D
330
1F
100
AcDbEntity
  8
0
  6
Continuous
 62
     7
370
    15
100
AcDbLine
 10
646.5148553122
 20
360.2539667763
 30
0.0
 11
646.5148553122
 21
279.8220956601
 31
0.0
  0
LWPOLYLINE
  5
23E
330
1F
100
AcDbEntity
  8
0
  6
Continuous
 62
     7
370
    15
100
AcDbPolyline
 90
       21
 70
   128
 43
0.0
 10
682.1056729984
 20
244.8841259602
 10
682.1029311847
 20
245.4507443608
 10
681.6132194232
 20
249.7346665614
 10
680.2034913432
 20
255.2413962685
 10
677.8361699414
 20
260.5824259944
 10
674.6712974142
 20
265.3080684968
 10
670.5989814233
 20
269.5332555004
 10
666.2030420136
 20
272.7328980245
 10
661.1811597701
 20
275.2091338761
 10
656.0380603057
 20
276.7322057761
 10
650.5563454572
 20
277.3852454402
 10
645.2179918867
 20
277.1129751481
 10
639.8494210895
 20
275.9130200275
 10
634.9105550777
 20
273.8930279292
 10
630.2484697532
 20
270.9951003917
 10
626.2340783011
 20
267.4453029312
 10
622.7706181687
 20
263.1575142868
 10
620.1141769868
 20
258.448595544
 10
618.2029037606
 20
253.2350266256
 10
617.1246594619
 20
247.7202370201
 10
617.0021793675
 20
244.8794098227
  0
LWPOLYLINE
  5
23F
330
1F
100
AcDbEntity
  8
0
  6
Continuous
 62
     7
370
    15
100
AcDbPolyline
 90
        4
 70
   128
 43
0.0
 10
624.7597182971
 20
323.545298902
 10
621.8181229066
 20
346.5763175763
 10
618.5766695868
 20
371.9926917829
 10
615.397428615
 20
396.9508999862
  0
ARC
  5
240
330
1F
100
AcDbEntity
  8
0
  6
Continuous
 62
     7
370
    15
100
AcDbCircle
 10
713.5805892072
 20
390.6619968849
 30
0.0
 40
33.70865291458394
100
AcDbArc
 50
169.247527488
 51
197.9847740489
  0
LINE
  5
241
330
1F
100
AcDbEntity
  8
0
  6
Continuous
 62
     7
370
    15
100
AcDbLine
 10
681.5189882051
 20
380.2539700546
 30
0.0
 11
678.8780740332
 21
359.4474116244
 31
0.0
  0
ARC
  5
242
330
1F
100
AcDbEntity
  8
0
  6
Continuous
 62
     7
370
    15
100
AcDbCircle
 10
649.5148553383
 20
244.9509048738
 30
0.0
 40
34.99999999999996
100
AcDbArc
 50
341.0977793394
 51
199.1960961915
  0
LWPOLYLINE
  5
243
330
1F
100
AcDbEntity
  8
0
  6
Continuous
 62
     7
370
    15
100
AcDbPolyline
 90
       10
 70
   128
 43
0.0
 10
678.8780740332
 20
359.4474116244
 10
678.4292156678
 20
356.2390947618
 10
678.1784216743
 20
353.0178809442
 10
678.3843184691
 20
350.4952186622
 10
679.0081797969
 20
348.0422342099
 10
680.0371031147
 20
345.7300582804
 10
681.4363761675
 20
343.6213279046
 10
683.1762916278
 20
341.7758637943
 10
685.2007894647
 20
340.2480179347
 10
686.4812015426
 20
339.5282173433
  0
ARC
  5
244
330
1F
100
AcDbEntity
  8
0
  6
Continuous
 62
     7
370
    15
100
AcDbCircle
 10
643.3764793264
 20
337.4586365146
 30
0.0
 40
33.33100122918723
100
AcDbArc
 50
256.245730084
 51
266.858167489
  0
ARC
  5
245
330
1F
100
AcDbEntity
  8
0
  6
Continuous
 62
     7
370
    15
100
AcDbCircle
 10
649.6276434283
 20
325.6203078909
 30
0.0
 40
24.95434556614144
100
AcDbArc
 50
184.7697781154
 51
235.3840528523
  0
LINE
  5
246
330
1F
100
AcDbEntity
  8
0
  6
Continuous
 62
     7
370
    15
100
AcDbLine
 10
646.5148553122
 20
304.2275303878
 30
0.0
 11
645.7551056389
 21
304.3728204347
 31
0.0
  0
LWPOLYLINE
  5
247
330
1F
100
AcDbEntity
  8
0
  6
Continuous
 62
     7
370
    15
100
AcDbPolyline
 90
       22
 70
   128
 43
0.0
 10
683.1478378605
 20
199.9737093128
 10
688.8784780037
 20
204.9337433554
 10
693.8787973356
 20
210.6286356129
 10
697.3744719159
 20
215.792657239
 10
700.288569076
 20
221.3276004322
 10
702.5641663801
 20
227.1330015637
 10
704.1821903419
 20
233.2188649006
 10
705.1112628412
 20
239.4676649846
 10
705.3328393828
 20
245.7609212279
 10
704.8215581905
 20
252.0209368222
 10
703.5746252965
 20
258.1990113385
 10
701.6086405944
 20
264.1626087852
 10
698.4945288729
 20
270.7246014752
 10
694.6308105122
 20
276.9091198124
 10
690.173742814
 20
282.6606476583
 10
685.0755824577
 20
288.1209397592
 10
679.4487922322
 20
293.0544720866
 10
673.3127343338
 20
297.2823971786
 10
667.0443671625
 20
300.4634113886
 10
660.3719186839
 20
302.6538411059
 10
656.4839896616
 20
303.3654237069
 10
652.5435400997
 20
303.6689193823
  0
LWPOLYLINE
  5
248
330
1F
100
AcDbEntity
  8
0
  6
Continuous
 62
     7
370
    15
100
AcDbPolyline
 90
        3
 70
   128
 43
0.0
 10
686.4812834989
 20
339.5282843985
 10
687.5975704622
 20
338.9612058081
 10
691.8280175757
 20
336.6600939907
  0
LINE
  5
249
330
1F
100
AcDbEntity
  8
0
  6
Continuous
 62
     7
370
    15
100
AcDbLine
 10
687.5033653211
 20
162.5159600653
 30
0.0
 11
684.1112389099
 21
161.2095454611
 31
0.0
  0
ARC
  5
24A
330
1F
100
AcDbEntity
  8
0
  6
Continuous
 62
     7
370
    15
100
AcDbCircle
 10
657.8940721721
 20
250.9586889468
 30
0.0
 40
67.3035592282985
100
AcDbArc
 50
177.4612386148
 51
231.3397333969
  0
ARC
  5
24B
330
1F
100
AcDbEntity
  8
0
  6
Continuous
 62
     7
370
    15
100
AcDbCircle
 10
649.5148553383
 20
244.9509048738
 30
0.0
 40
59.5407411980292
100
AcDbArc
 50
93.6203985501
 51
171.3167140919
  0
LINE
  5
24C
330
1F
100
AcDbEntity
  8
0
  6
Continuous
 62
     7
370
    15
100
AcDbLine
 10
691.8010241222
 20
260.3418113567
 30
0.0
 11
690.07667665
 21
257.1364952155
 31
0.0
  0
LINE
  5
24D
330
1F
100
AcDbEntity
  8
0
  6
Continuous
 62
     7
370
    15
100
AcDbLine
 10
695.0063384008
 20
258.6174648158
 30
0.0
 11
691.8010241222
 21
260.3418113567
 31
0.0
  0
LINE
  5
24E
330
1F
100
AcDbEntity
  8
0
  6
Continuous
 62
     7
370
    15
100
AcDbLine
 10
693.8091940116
 20
258.2578187712
 30
0.0
 11
695.0063384008
 21
258.6174648158
 31
0.0
  0
ARC
  5
24F
330
1F
100
AcDbEntity
  8
0
  6
Continuous
 62
     7
370
    15
100
AcDbCircle
 10
649.5148553383
 20
244.9509048738
 30
0.0
 40
46.24999999999986
100
AcDbArc
 50
1.526179454
 51
16.7213289831
  0
LINE
  5
250
330
1F
100
AcDbEntity
  8
0
  6
Continuous
 62
     7
370
    15
100
AcDbLine
 10
697.0148547422
 20
244.9510466304
 30
0.0
 11
695.7484497559
 21
246.1827137877
 31
0.0
  0
ARC
  5
251
330
1F
100
AcDbEntity
  8
0
  6
Continuous
 62
     7
370
    15
100
AcDbCircle
 10
649.5148553383
 20
244.9509048738
 30
0.0
 40
47.49999999999984
100
AcDbArc
 50
340.0
 51
0.0001709907
  0
LINE
  5
252
330
1F
100
AcDbEntity
  8
0
  6
Continuous
 62
     7
370
    15
100
AcDbLine
 10
692.5904876422
 20
231.9320751257
 30
0.0
 11
694.1502555143
 21
228.7049474098
 31
0.0
  0
LINE
  5
253
330
1F
100
AcDbEntity
  8
0
  6
Continuous
 62
     7
370
    15
100
AcDbLine
 10
689.45179273
 20
230.4150484406
 30
0.0
 11
692.5904876422
 21
231.9320751257
 31
0.0
  0
ARC
  5
254
330
1F
100
AcDbEntity
  8
0
  6
Continuous
 62
     7
370
    15
100
AcDbCircle
 10
649.5148553383
 20
244.9509048738
 30
0.0
 40
42.49999999999989
100
AcDbArc
 50
340.0
 51
0.0
  0
LINE
  5
255
330
1F
100
AcDbEntity
  8
0
  6
Continuous
 62
     7
370
    15
100
AcDbLine
 10
693.2465224397
 20
246.2173116064
 30
0.0
 11
692.0148557853
 21
244.9509048738
 31
0.0
  0
ARC
  5
256
330
1F
100
AcDbEntity
  8
0
  6
Continuous
 62
     7
370
    15
100
AcDbCircle
 10
649.5148553383
 20
244.9509048738
 30
0.0
 40
43.74999999999993
100
AcDbArc
 50
1.6587405132
 51
16.7213289831
  0
LINE
  5
257
330
1F
100
AcDbEntity
  8
0
  6
Continuous
 62
     7
370
    15
100
AcDbLine
 10
690.07667665
 20
257.1364952155
 30
0.0
 11
691.4149052333
 21
257.5385266818
 31
0.0
  0
LINE
  5
258
330
1F
100
AcDbEntity
  8
0
  6
Continuous
 62
     7
370
    15
100
AcDbLine
 10
727.0148559343
 20
79.9508983173
 30
0.0
 11
727.0148559343
 21
109.9508995094
 31
0.0
  0
LINE
  5
259
330
1F
100
AcDbEntity
  8
0
  6
Continuous
 62
     7
370
    15
100
AcDbLine
 10
685.335998876
 20
109.647839693
 30
0.0
 11
712.156177951
 21
109.647839693
 31
0.0
  0
LINE
  5
25A
330
1F
100
AcDbEntity
  8
0
  6
Continuous
 62
     7
370
    15
100
AcDbLine
 10
727.0148559343
 20
409.9509114303
 30
0.0
 11
727.0148559343
 21
379.9509102382
 31
0.0
  0
LINE
  5
25B
330
1F
100
AcDbEntity
  8
0
  6
Continuous
 62
     7
370
    15
100
AcDbLine
 10
681.5189882051
 20
380.2539700546
 30
0.0
 11
712.156177951
 21
380.2539700546
 31
0.0
  0
LINE
  5
25C
330
1F
100
AcDbEntity
  8
0
  6
Continuous
 62
     7
370
    15
100
AcDbLine
 10
607.3663732838
 20
287.0993869283
 30
0.0
 11
607.413073523
 21
287.0526866891
 31
0.0
  0
LWPOLYLINE
  5
25D
330
1F
100
AcDbEntity
  8
0
  6
Continuous
 62
     7
370
    15
100
AcDbPolyline
 90
        3
 70
   128
 43
0.0
 10
591.2329009604
 20
289.9891393163
 10
594.9333547484
 20
292.930129347
 10
598.8741009366
 20
295.5916592755
  0
LINE
  5
25E
330
1F
100
AcDbEntity
  8
0
  6
Continuous
 62
     7
370
    15
100
AcDbLine
 10
598.8741009366
 20
295.5916592755
 30
0.0
 11
605.1265909206
 21
289.3391692914
 31
0.0
  0
ARC
  5
25F
330
1F
100
AcDbEntity
  8
0
  6
Continuous
 62
     7
370
    15
100
AcDbCircle
 10
641.2668192477
 20
249.0324780245
 30
0.0
 40
54.13635991104711
100
AcDbArc
 50
102.0715613433
 51
131.8803870953
  0
LINE
  5
260
330
1F
100
AcDbEntity
  8
0
  6
Continuous
 62
     7
370
    15
100
AcDbLine
 10
625.26465532
 20
304.2014086522
 30
0.0
 11
627.5220117402
 21
304.3948294498
 31
0.0
  0
LWPOLYLINE
  5
261
330
1F
100
AcDbEntity
  8
0
  6
Continuous
 62
     7
370
    15
100
AcDbPolyline
 90
        4
 70
   128
 43
0.0
 10
629.9451081883
 20
301.9717292764
 10
629.1267680805
 20
302.7900712468
 10
628.3697388005
 20
303.5470986642
 10
627.5220117402
 20
304.3948294498
  0
ARC
  5
262
330
1F
100
AcDbEntity
  8
0
  6
Continuous
 62
     7
370
    15
100
AcDbCircle
 10
631.001729804
 20
243.738690191
 30
0.0
 40
60.9993027788823
100
AcDbArc
 50
95.5088598364
 51
121.7819792798
  0
LWPOLYLINE
  5
263
330
1F
100
AcDbEntity
  8
0
  6
Continuous
 62
     7
370
    15
100
AcDbPolyline
 90
        3
 70
   128
 43
0.0
 10
641.549678972
 20
304.1777344324
 10
635.0416340735
 20
303.1978787758
 10
629.9451081883
 20
301.9717292764
  0
LWPOLYLINE
  5
264
330
1F
100
AcDbEntity
  8
0
  6
Continuous
 62
     7
370
    15
100
AcDbPolyline
 90
        3
 70
   128
 43
0.0
 10
627.5220117402
 20
304.3948294498
 10
634.0623940211
 20
305.0163755097
 10
635.4517578017
 20
305.0834232845
  0
LINE
  5
265
330
1F
100
AcDbEntity
  8
0
  6
Continuous
 62
     7
370
    15
100
AcDbLine
 10
712.156177951
 20
380.2539700546
 30
0.0
 11
691.8280175757
 21
336.6600939907
 31
0.0
  0
LINE
  5
266
330
1F
100
AcDbEntity
  8
0
  6
Continuous
 62
     7
370
    15
100
AcDbLine
 10
582.0148526561
 20
92.9509097614
 30
0.0
 11
614.9403913748
 21
163.5599428691
 31
0.0
  0
LINE
  5
267
330
1F
100
AcDbEntity
  8
0
  6
Continuous
 62
     7
370
    15
100
AcDbLine
 10
712.156177951
 20
109.647839693
 30
0.0
 11
687.5033653211
 21
162.5159600653
 31
0.0
  0
LINE
  5
268
330
1F
100
AcDbEntity
  8
0
  6
Continuous
 62
     7
370
    15
100
AcDbLine
 10
582.0148526561
 20
396.9508999862
 30
0.0
 11
625.26465532
 21
304.2014086522
 31
0.0
  0
LINE
  5
269
330
1F
100
AcDbEntity
  8
0
  6
Continuous
 62
     7
370
    15
100
AcDbLine
 10
591.2329009604
 20
289.9891393163
 30
0.0
 11
585.7617868912
 21
298.0973677613
 31
0.0
  0
ARC
  5
26A
330
1F
100
AcDbEntity
  8
0
  6
Continuous
 62
     7
370
    15
100
AcDbCircle
 10
649.5148553383
 20
244.9509048738
 30
0.0
 40
83.00000000000003
100
AcDbArc
 50
129.8155988641
 51
140.1844011359
  0
LINE
  5
26B
330
1F
100
AcDbEntity
  8
0
  6
Continuous
 62
     7
370
    15
100
AcDbLine
 10
596.3683924508
 20
308.7039733209
 30
0.0
 11
607.2389385533
 21
301.3689586796
 31
0.0
  0
ARC
  5
26C
330
1F
100
AcDbEntity
  8
0
  6
Continuous
 62
     7
370
    15
100
AcDbCircle
 10
649.5148553383
 20
244.9509048738
 30
0.0
 40
70.50000000000004
100
AcDbArc
 50
112.5105480723
 51
126.8454369863
  0
LINE
  5
26D
330
1F
100
AcDbEntity
  8
0
  6
Continuous
 62
     7
370
    15
100
AcDbLine
 10
585.7617868912
 20
298.0973677613
 30
0.0
 11
589.9500562679
 21
288.8492489137
 31
0.0
  0
LINE
  5
26E
330
1F
100
AcDbEntity
  8
0
  6
Continuous
 62
     7
370
    15
100
AcDbLine
 10
609.2925048303
 20
302.8509275891
 30
0.0
 11
596.3683924508
 21
308.7039733209
 31
0.0
  0
LINE
  5
26F
330
1F
100
AcDbEntity
  8
SLD-0
  6
CENTERX2
370
     0
100
AcDbLine
 10
649.5148553383
 20
55.5984503094
 30
0.0
 11
649.5148553383
 21
427.8219950826
 31
0.0
  0
LINE
  5
270
330
1F
100
AcDbEntity
  8
SLD-0
  6
CENTERX2
370
     0
100
AcDbLine
 10
531.3104083178
 20
244.9509048738
 30
0.0
 11
759.3243680426
 21
244.9509048738
 31
0.0
  0
LINE
  5
271
330
1F
100
AcDbEntity
  8
0
  6
Continuous
 62
     7
370
     0
100
AcDbLine
 10
569.9128524155
 20
470.9460270278
 30
0.0
 11
745.0134322733
 21
470.9460270278
 31
0.0
  0
ARC
  5
272
330
1F
100
AcDbEntity
  8
0
  6
Continuous
 62
     7
370
    15
100
AcDbCircle
 10
649.514855513
 20
470.9900438017
 30
0.0
 40
59.95598561034934
100
AcDbArc
 50
359.9579362166
 51
180.0420637834
  0
ARC
  5
273
330
1F
100
AcDbEntity
  8
0
  6
Continuous
 62
     7
370
    15
100
AcDbCircle
 10
649.514855513
 20
470.9460270278
 30
0.0
 40
32.49999880790756
100
AcDbArc
 50
0.000013135
 51
180.0
  0
CIRCLE
  5
274
330
1F
100
AcDbEntity
  8
0
  6
Continuous
 62
     7
370
    15
100
AcDbCircle
 10
699.0123288896
 20
520.4435027157
 30
0.0
 40
7.500000677048247
  0
CIRCLE
  5
275
330
1F
100
AcDbEntity
  8
0
  6
Continuous
 62
     7
370
    15
100
AcDbCircle
 10
600.0173811406
 20
520.4435031932
 30
0.0
 40
7.500000295075112
  0
ARC
  5
276
330
1F
100
AcDbEntity
  8
0
  6
Continuous
 62
     7
370
    15
100
AcDbCircle
 10
577.0313709156
 20
468.7041684001
 30
0.0
 40
150.0002392027641
100
AcDbArc
 50
0.8563574353
 51
22.9846737929
  0
ARC
  5
277
330
1F
100
AcDbEntity
  8
0
  6
Continuous
 62
     7
370
    15
100
AcDbCircle
 10
721.9983429814
 20
468.7041674975
 30
0.0
 40
150.0002421982398
100
AcDbArc
 50
157.0153263179
 51
179.1436393907
  0
ARC
  5
278
330
1F
100
AcDbEntity
  8
0
  6
Continuous
 62
     7
370
    15
100
AcDbCircle
 10
600.0173918697
 20
520.4434903532
 30
0.0
 40
17.50001592038229
100
AcDbArc
 50
112.9847043856
 51
157.0152812348
  0
ARC
  5
279
330
1F
100
AcDbEntity
  8
0
  6
Continuous
 62
     7
370
    15
100
AcDbCircle
 10
651.7566692608
 20
398.4627747697
 30
0.0
 40
150.0000076155125
100
AcDbArc
 50
90.8563416128
 51
112.984691147
  0
ARC
  5
27A
330
1F
100
AcDbEntity
  8
0
  6
Continuous
 62
     7
370
    15
100
AcDbCircle
 10
699.0123191564
 20
520.4434903532
 30
0.0
 40
17.50001592038229
100
AcDbArc
 50
22.9847187652
 51
67.0152956144
  0
ARC
  5
27B
330
1F
100
AcDbEntity
  8
0
  6
Continuous
 62
     7
370
    15
100
AcDbCircle
 10
647.2730417653
 20
398.4627747697
 30
0.0
 40
150.0000076155125
100
AcDbArc
 50
67.015308853
 51
89.1436583872
  0
ARC
  5
27C
330
1F
100
AcDbEntity
  8
SLD-0
  6
CENTERX2
370
     0
100
AcDbCircle
 10
649.5148553383
 20
470.9460286494
 30
0.0
 40
70.00000000000054
100
AcDbArc
 50
356.2019902879
 51
183.7980097121
  0
ENDSEC
  0
SECTION
  2
OBJECTS
  0
DICTIONARY
  5
C
330
0
100
AcDbDictionary
281
     1
  3
ACAD_GROUP
350
D
  3
ACAD_LAYOUT
350
1A
  3
ACAD_MLEADERSTYLE
350
27E
  3
ACAD_MLINESTYLE
350
17
  3
ACAD_PLOTSETTINGS
350
19
  3
ACAD_PLOTSTYLENAME
350
E
  3
ACAD_TABLESTYLE
350
27D
  3
ACAD_VISUALSTYLE
350
2A
  3
AcDbVariableDictionary
350
27F
  0
DICTIONARY
  5
D
102
{ACAD_REACTORS
330
C
102
}
330
C
100
AcDbDictionary
281
     1
  0
DICTIONARY
  5
1A
102
{ACAD_REACTORS
330
C
102
}
330
C
100
AcDbDictionary
281
     1
  3
Layout1
350
1E
  3
Layout2
350
26
  3
Model
350
22
  0
DICTIONARY
  5
27E
102
{ACAD_REACTORS
330
C
102
}
330
C
100
AcDbDictionary
281
     1
  0
DICTIONARY
  5
17
102
{ACAD_REACTORS
330
C
102
}
330
C
100
AcDbDictionary
281
     1
  3
Standard
350
18
  0
DICTIONARY
  5
19
102
{ACAD_REACTORS
330
C
102
}
330
C
100
AcDbDictionary
281
     1
  0
ACDBDICTIONARYWDFLT
  5
E
102
{ACAD_REACTORS
330
C
102
}
330
C
100
AcDbDictionary
281
     1
  3
Normal
350
F
100
AcDbDictionaryWithDefault
340
F
  0
DICTIONARY
  5
27D
102
{ACAD_REACTORS
330
C
102
}
330
C
100
AcDbDictionary
281
     1
  0
DICTIONARY
  5
2A
102
{ACAD_REACTORS
330
C
102
}
330
C
100
AcDbDictionary
281
     1
  3
2dWireframe
350
2F
  3
3D Hidden
350
31
  3
3dWireframe
350
30
  3
Basic
350
32
  3
Brighten
350
36
  3
ColorChange
350
3A
  3
Conceptual
350
34
  3
Dim
350
35
  3
Facepattern
350
39
  3
Flat
350
2B
  3
FlatWithEdges
350
2C
  3
Gouraud
350
2D
  3
GouraudWithEdges
350
2E
  3
Linepattern
350
38
  3
Realistic
350
33
  3
Thicken
350
37
  0
DICTIONARY
  5
27F
102
{ACAD_REACTORS
330
C
102
}
330
C
100
AcDbDictionary
281
     1
  3
PSOLHEIGHT
350
281
  3
PSOLWIDTH
350
280
  0
LAYOUT
  5
1E
102
{ACAD_REACTORS
330
1A
102
}
330
1A
100
AcDbPlotSettings
  1

  2
none_device
  4

  6

 40
0.0
 41
0.0
 42
0.0
 43
0.0
 44
0.0
 45
0.0
 46
0.0
 47
0.0
 48
0.0
 49
0.0
140
0.0
141
0.0
142
1.0
143
1.0
 70
   688
 72
     0
 73
     0
 74
     5
  7

 75
    16
147
1.0
148
0.0
149
0.0
100
AcDbLayout
  1
Layout1
 70
     1
 71
     1
 10
0.0
 20
0.0
 11
420.0
 21
297.0
 12
0.0
 22
0.0
 32
0.0
 14
1.0000000000E+20
 24
1.0000000000E+20
 34
1.0000000000E+20
 15
-1.0000000000E+20
 25
-1.0000000000E+20
 35
-1.0000000000E+20
146
0.0
 13
0.0
 23
0.0
 33
0.0
 16
1.0
 26
0.0
 36
0.0
 17
0.0
 27
1.0
 37
0.0
 76
     0
330
1B
  0
LAYOUT
  5
26
102
{ACAD_REACTORS
330
1A
102
}
330
1A
100
AcDbPlotSettings
  1

  2
none_device
  4

  6

 40
0.0
 41
0.0
 42
0.0
 43
0.0
 44
0.0
 45
0.0
 46
0.0
 47
0.0
 48
0.0
 49
0.0
140
0.0
141
0.0
142
1.0
143
1.0
 70
   688
 72
     0
 73
     0
 74
     5
  7

 75
    16
147
1.0
148
0.0
149
0.0
100
AcDbLayout
  1
Layout2
 70
     1
 71
     2
 10
0.0
 20
0.0
 11
0.0
 21
0.0
 12
0.0
 22
0.0
 32
0.0
 14
0.0
 24
0.0
 34
0.0
 15
0.0
 25
0.0
 35
0.0
146
0.0
 13
0.0
 23
0.0
 33
0.0
 16
1.0
 26
0.0
 36
0.0
 17
0.0
 27
1.0
 37
0.0
 76
     0
330
23
  0
LAYOUT
  5
22
102
{ACAD_REACTORS
330
1A
102
}
330
1A
100
AcDbPlotSettings
  1

  2
none_device
  4

  6

 40
0.0
 41
0.0
 42
0.0
 43
0.0
 44
0.0
 45
0.0
 46
0.0
 47
0.0
 48
0.0
 49
0.0
140
0.0
141
0.0
142
1.0
143
1.0
 70
  1712
 72
     0
 73
     0
 74
     0
  7

 75
     0
147
1.0
148
0.0
149
0.0
100
AcDbLayout
  1
Model
 70
     1
 71
     0
 10
0.0
 20
0.0
 11
841.0
 21
594.0
 12
0.0
 22
0.0
 32
0.0
 14
0.0
 24
0.0
 34
0.0
 15
841.0
 25
594.0
 35
0.0
146
0.0
 13
0.0
 23
0.0
 33
0.0
 16
1.0
 26
0.0
 36
0.0
 17
0.0
 27
1.0
 37
0.0
 76
     0
330
1F
331
29
  0
MLINESTYLE
  5
18
102
{ACAD_REACTORS
330
17
102
}
330
17
100
AcDbMlineStyle
  2
Standard
 70
     0
  3

 62
   256
 51
90.0
 52
90.0
 71
     2
 49
0.5
 62
   256
  6
BYLAYER
 49
-0.5
 62
   256
  6
BYLAYER
  0
ACDBPLACEHOLDER
  5
F
102
{ACAD_REACTORS
330
E
102
}
330
E
  0
VISUALSTYLE
  5
2F
102
{ACAD_REACTORS
330
2A
102
}
330
2A
100
AcDbVisualStyle
  2
2dWireframe
 70
     4
 71
     0
 72
     2
 73
     0
 90
        0
 40
-0.6
 41
-30.0
 62
     5
 63
     7
 74
     1
 91
        4
 64
     7
 65
   257
 75
     1
175
     1
 42
1.0
 92
        0
 66
   257
 43
1.0
 76
     1
 77
     6
 78
     2
 67
     7
 79
     5
170
     0
171
     0
290
     0
174
     0
 93
        1
 44
0.0
173
     0
291
     0
 45
0.0
1001
ACAD
1000
AcDbSavedByObjectVersion
1070
     0
  0
VISUALSTYLE
  5
31
102
{ACAD_REACTORS
330
2A
102
}
330
2A
100
AcDbVisualStyle
  2
3D Hidden
 70
     6
 71
     1
 72
     2
 73
     2
 90
        0
 40
-0.6
 41
-30.0
 62
     5
 63
     7
 74
     2
 91
        2
 64
     7
 65
   257
 75
     2
175
     1
 42
40.0
 92
        0
 66
   257
 43
1.0
 76
     1
 77
     6
 78
     2
 67
     7
 79
     3
170
     0
171
     0
290
     0
174
     0
 93
        1
 44
0.0
173
     0
291
     0
 45
0.0
1001
ACAD
1000
AcDbSavedByObjectVersion
1070
     0
  0
VISUALSTYLE
  5
30
102
{ACAD_REACTORS
330
2A
102
}
330
2A
100
AcDbVisualStyle
  2
3dWireframe
 70
     5
 71
     0
 72
     2
 73
     0
 90
        0
 40
-0.6
 41
-30.0
 62
     5
 63
     7
 74
     1
 91
        4
 64
     7
 65
   257
 75
     1
175
     1
 42
1.0
 92
        0
 66
   257
 43
1.0
 76
     1
 77
     6
 78
     2
 67
     7
 79
     5
170
     0
171
     0
290
     0
174
     0
 93
        1
 44
0.0
173
     0
291
     0
 45
0.0
1001
ACAD
1000
AcDbSavedByObjectVersion
1070
     0
  0
VISUALSTYLE
  5
32
102
{ACAD_REACTORS
330
2A
102
}
330
2A
100
AcDbVisualStyle
  2
Basic
 70
     7
 71
     1
 72
     0
 73
     1
 90
        0
 40
-0.6
 41
-30.0
 62
     5
 63
     7
 74
     0
 91
        4
 64
     7
 65
   257
 75
     1
175
     1
 42
1.0
 92
        8
 66
     7
 43
1.0
 76
     1
 77
     6
 78
     2
 67
     7
 79
     5
170
     0
171
     0
290
     0
174
     0
 93
        1
 44
0.0
173
     0
291
     1
 45
0.0
1001
ACAD
1000
AcDbSavedByObjectVersion
1070
     0
  0
VISUALSTYLE
  5
36
102
{ACAD_REACTORS
330
2A
102
}
330
2A
100
AcDbVisualStyle
  2
Brighten
 70
    12
 71
     2
 72
     2
 73
     0
 90
        0
 40
-0.6
 41
-30.0
 62
     5
 63
     7
 74
     1
 91
        4
 64
     7
 65
   257
 75
     1
175
     1
 42
1.0
 92
        8
 66
     7
 43
1.0
 76
     1
 77
     6
 78
     2
 67
     7
 79
     5
170
     0
171
     0
290
     0
174
     0
 93
        1
 44
50.0
173
     0
291
     1
 45
0.0
1001
ACAD
1000
AcDbSavedByObjectVersion
1070
     0
  0
VISUALSTYLE
  5
3A
102
{ACAD_REACTORS
330
2A
102
}
330
2A
100
AcDbVisualStyle
  2
ColorChange
 70
    16
 71
     2
 72
     2
 73
     3
 90
        0
 40
-0.6
 41
-30.0
 62
     5
 63
     8
 74
     1
 91
        4
 64
     7
 65
   257
 75
     1
175
     1
 42
1.0
 92
        8
 66
     8
 43
1.0
 76
     1
 77
     6
 78
     2
 67
     7
 79
     5
170
     0
171
     0
290
     0
174
     0
 93
        1
 44
0.0
173
     0
291
     1
 45
0.0
1001
ACAD
1000
AcDbSavedByObjectVersion
1070
     0
  0
VISUALSTYLE
  5
34
102
{ACAD_REACTORS
330
2A
102
}
330
2A
100
AcDbVisualStyle
  2
Conceptual
 70
     9
 71
     3
 72
     2
 73
     0
 90
        0
 40
-0.6
 41
-30.0
 62
     5
 63
     7
 74
     2
 91
        2
 64
     7
 65
   257
 75
     1
175
     1
 42
40.0
 92
        8
 66
     7
 43
1.0
 76
     1
 77
     6
 78
     2
 67
     7
 79
     3
170
     0
171
     0
290
     0
174
     0
 93
        1
 44
0.0
173
     0
291
     0
 45
0.0
1001
ACAD
1000
AcDbSavedByObjectVersion
1070
     0
  0
VISUALSTYLE
  5
35
102
{ACAD_REACTORS
330
2A
102
}
330
2A
100
AcDbVisualStyle
  2
Dim
 70
    11
 71
     2
 72
     2
 73
     0
 90
        0
 40
-0.6
 41
-30.0
 62
     5
 63
     7
 74
     1
 91
        4
 64
     7
 65
   257
 75
     1
175
     1
 42
1.0
 92
        8
 66
     7
 43
1.0
 76
     1
 77
     6
 78
     2
 67
     7
 79
     5
170
     0
171
     0
290
     0
174
     0
 93
        1
 44
-50.0
173
     0
291
     1
 45
0.0
1001
ACAD
1000
AcDbSavedByObjectVersion
1070
     0
  0
VISUALSTYLE
  5
39
102
{ACAD_REACTORS
330
2A
102
}
330
2A
100
AcDbVisualStyle
  2
Facepattern
 70
    15
 71
     2
 72
     2
 73
     0
 90
        0
 40
-0.6
 41
-30.0
 62
     5
 63
     7
 74
     1
 91
        4
 64
     7
 65
   257
 75
     1
175
     1
 42
1.0
 92
        8
 66
     7
 43
1.0
 76
     1
 77
     6
 78
     2
 67
     7
 79
     5
170
     0
171
     0
290
     0
174
     0
 93
        1
 44
0.0
173
     0
291
     1
 45
0.0
1001
ACAD
1000
AcDbSavedByObjectVersion
1070
     0
  0
VISUALSTYLE
  5
2B
102
{ACAD_REACTORS
330
2A
102
}
330
2A
100
AcDbVisualStyle
  2
Flat
 70
     0
 71
     2
 72
     1
 73
     1
 90
        2
 40
-0.6
 41
30.0
 62
     5
 63
     7
 74
     0
 91
        4
 64
     7
 65
   257
 75
     1
175
     1
 42
1.0
 92
        8
 66
     7
 43
1.0
 76
     1
 77
     6
 78
     2
 67
     7
 79
     5
170
     0
171
     0
290
     0
174
     0
 93
       13
 44
0.0
173
     0
291
     1
 45
0.0
1001
ACAD
1000
AcDbSavedByObjectVersion
1070
     0
  0
VISUALSTYLE
  5
2C
102
{ACAD_REACTORS
330
2A
102
}
330
2A
100
AcDbVisualStyle
  2
FlatWithEdges
 70
     1
 71
     2
 72
     1
 73
     1
 90
        2
 40
-0.6
 41
30.0
 62
     5
 63
     7
 74
     1
 91
        4
 64
     7
 65
   257
 75
     1
175
     1
 42
1.0
 92
        0
 66
   257
 43
1.0
 76
     1
 77
     6
 78
     2
 67
     7
 79
     5
170
     0
171
     0
290
     0
174
     0
 93
       13
 44
0.0
173
     0
291
     1
 45
0.0
1001
ACAD
1000
AcDbSavedByObjectVersion
1070
     0
  0
VISUALSTYLE
  5
2D
102
{ACAD_REACTORS
330
2A
102
}
330
2A
100
AcDbVisualStyle
  2
Gouraud
 70
     2
 71
     2
 72
     2
 73
     1
 90
        2
 40
-0.6
 41
30.0
 62
     5
 63
     7
 74
     0
 91
        4
 64
     7
 65
   257
 75
     1
175
     1
 42
1.0
 92
        0
 66
     7
 43
1.0
 76
     1
 77
     6
 78
     2
 67
     7
 79
     5
170
     0
171
     0
290
     0
174
     0
 93
       13
 44
0.0
173
     0
291
     1
 45
0.0
1001
ACAD
1000
AcDbSavedByObjectVersion
1070
     0
  0
VISUALSTYLE
  5
2E
102
{ACAD_REACTORS
330
2A
102
}
330
2A
100
AcDbVisualStyle
  2
GouraudWithEdges
 70
     3
 71
     2
 72
     2
 73
     1
 90
        2
 40
-0.6
 41
30.0
 62
     5
 63
     7
 74
     1
 91
        4
 64
     7
 65
   257
 75
     1
175
     1
 42
1.0
 92
        0
 66
   257
 43
1.0
 76
     1
 77
     6
 78
     2
 67
     7
 79
     5
170
     0
171
     0
290
     0
174
     0
 93
       13
 44
0.0
173
     0
291
     1
 45
0.0
1001
ACAD
1000
AcDbSavedByObjectVersion
1070
     0
  0
VISUALSTYLE
  5
38
102
{ACAD_REACTORS
330
2A
102
}
330
2A
100
AcDbVisualStyle
  2
Linepattern
 70
    14
 71
     2
 72
     2
 73
     0
 90
        0
 40
-0.6
 41
-30.0
 62
     5
 63
     7
 74
     1
 91
        4
 64
     7
 65
   257
 75
     7
175
     7
 42
1.0
 92
        8
 66
     7
 43
1.0
 76
     1
 77
     6
 78
     2
 67
     7
 79
     5
170
     0
171
     0
290
     0
174
     0
 93
        1
 44
0.0
173
     0
291
     1
 45
0.0
1001
ACAD
1000
AcDbSavedByObjectVersion
1070
     0
  0
VISUALSTYLE
  5
33
102
{ACAD_REACTORS
330
2A
102
}
330
2A
100
AcDbVisualStyle
  2
Realistic
 70
     8
 71
     2
 72
     2
 73
     0
 90
        0
 40
-0.6
 41
-30.0
 62
     5
 63
     7
 74
     1
 91
        0
 64
     7
 65
   257
 75
     1
175
     1
 42
1.0
 92
        8
 66
     8
 43
1.0
 76
     1
 77
     6
 78
     2
 67
     7
 79
     5
170
     0
171
     0
290
     0
174
     0
 93
       13
 44
0.0
173
     0
291
     0
 45
0.0
1001
ACAD
1000
AcDbSavedByObjectVersion
1070
     0
  0
VISUALSTYLE
  5
37
102
{ACAD_REACTORS
330
2A
102
}
330
2A
100
AcDbVisualStyle
  2
Thicken
 70
    13
 71
     2
 72
     2
 73
     0
 90
        0
 40
-0.6
 41
-30.0
 62
     5
 63
     7
 74
     1
 91
        4
 64
     7
 65
   257
 75
     1
175
     1
 42
1.0
 92
       12
 66
     7
 43
1.0
 76
     1
 77
     6
 78
     2
 67
     7
 79
     5
170
     0
171
     0
290
     0
174
     0
 93
        1
 44
0.0
173
     0
291
     1
 45
0.0
1001
ACAD
1000
AcDbSavedByObjectVersion
1070
     0
  0
DICTIONARYVAR
  5
281
102
{ACAD_REACTORS
330
27F
102
}
330
27F
100
DictionaryVariables
280
     0
  1
80.000000
  0
DICTIONARYVAR
  5
280
102
{ACAD_REACTORS
330
27F
102
}
330
27F
100
DictionaryVariables
280
     0
  1
5.000000
  0
ENDSEC
  0
EOF
