  0
SECTION
  2
HEADER
  9
$ACADVER
  1
AC1015
  9
$ACADMAINTVER
 70
     6
  9
$DWGCODEPAGE
  3
DOS932
  9
$INSBASE
 10
0.0
 20
0.0
 30
0.0
  9
$EXTMIN
 10
0.0
 20
0.0
 30
0.0
  9
$EXTMAX
 10
841.0
 20
594.0
 30
0.0
  9
$LIMMIN
 10
0.0
 20
0.0
  9
$LIMMAX
 10
841.0
 20
594.0
  9
$ORTHOMODE
 70
     0
  9
$REGENMODE
 70
     1
  9
$FILLMODE
 70
     1
  9
$QTEXTMODE
 70
     0
  9
$MIRRTEXT
 70
     1
  9
$LTSCALE
 40
1.0
  9
$ATTMODE
 70
     1
  9
$TEXTSIZE
 40
3.5
  9
$TRACEWID
 40
1.0
  9
$TEXTSTYLE
  7
Standard
  9
$CLAYER
  8
0
  9
$CELTYPE
  6
ByLayer
  9
$CECOLOR
 62
   256
  9
$CELTSCALE
 40
1.0
  9
$DISPSILH
 70
     0
  9
$DIMSCALE
 40
1.0
  9
$DIMASZ
 40
3.8637032976
  9
$DIMEXO
 40
1.0
  9
$DIMDLI
 40
3.75
  9
$DIMRND
 40
0.0
  9
$DIMDLE
 40
0.0
  9
$DIMEXE
 40
1.0
  9
$DIMTP
 40
0.0
  9
$DIMTM
 40
0.0
  9
$DIMTXT
 40
2.7999999523
  9
$DIMCEN
 40
2.5
  9
$DIMTSZ
 40
0.0
  9
$DIMTOL
 70
     0
  9
$DIMLIM
 70
     0
  9
$DIMTIH
 70
     1
  9
$DIMTOH
 70
     1
  9
$DIMSE1
 70
     0
  9
$DIMSE2
 70
     0
  9
$DIMTAD
 70
     1
  9
$DIMZIN
 70
     1
  9
$DIMBLK
  1

  9
$DIMASO
 70
     1
  9
$DIMSHO
 70
     1
  9
$DIMPOST
  1

  9
$DIMAPOST
  1

  9
$DIMALT
 70
     0
  9
$DIMALTD
 70
     3
  9
$DIMALTF
 40
0.0393700787
  9
$DIMLFAC
 40
1.0
  9
$DIMTOFL
 70
     1
  9
$DIMTVP
 40
0.0
  9
$DIMTIX
 70
     0
  9
$DIMSOXD
 70
     0
  9
$DIMSAH
 70
     0
  9
$DIMBLK1
  1

  9
$DIMBLK2
  1

  9
$DIMSTYLE
  2
ISO-25
  9
$DIMCLRD
 70
     0
  9
$DIMCLRE
 70
     0
  9
$DIMCLRT
 70
     0
  9
$DIMTFAC
 40
1.0
  9
$DIMGAP
 40
1.524
  9
$DIMJUST
 70
     0
  9
$DIMSD1
 70
     0
  9
$DIMSD2
 70
     0
  9
$DIMTOLJ
 70
     0
  9
$DIMTZIN
 70
     1
  9
$DIMALTZ
 70
     0
  9
$DIMALTTZ
 70
     0
  9
$DIMUPT
 70
     0
  9
$DIMDEC
 70
     2
  9
$DIMTDEC
 70
     2
  9
$DIMALTU
 70
     2
  9
$DIMALTTD
 70
     3
  9
$DIMTXSTY
  7
Standard
  9
$DIMAUNIT
 70
     0
  9
$DIMADEC
 70
     0
  9
$DIMALTRND
 40
0.0
  9
$DIMAZIN
 70
     0
  9
$DIMDSEP
 70
    44
  9
$DIMATFIT
 70
     3
  9
$DIMFRAC
 70
     0
  9
$DIMLDRBLK
  1

  9
$DIMLUNIT
 70
     2
  9
$DIMLWD
 70
    -2
  9
$DIMLWE
 70
    -2
  9
$DIMTMOVE
 70
     0
  9
$LUNITS
 70
     2
  9
$LUPREC
 70
     3
  9
$SKETCHINC
 40
1.0
  9
$FILLETRAD
 40
10.0
  9
$AUNITS
 70
     0
  9
$AUPREC
 70
     0
  9
$MENU
  1
.
  9
$ELEVATION
 40
0.0
  9
$PELEVATION
 40
0.0
  9
$THICKNESS
 40
0.0
  9
$LIMCHECK
 70
     0
  9
$CHAMFERA
 40
10.0
  9
$CHAMFERB
 40
10.0
  9
$CHAMFERC
 40
20.0
  9
$CHAMFERD
 40
0.0
  9
$SKPOLY
 70
     0
  9
$TDCREATE
 40
2456413.91277235
  9
$TDUCREATE
 40
2456413.53777235
  9
$TDUPDATE
 40
2456413.912772361
  9
$TDUUPDATE
 40
2456413.537772361
  9
$TDINDWG
 40
0.0000000116
  9
$TDUSRTIMER
 40
0.0000000116
  9
$USRTIMER
 70
     1
  9
$ANGBASE
 50
0.0
  9
$ANGDIR
 70
     0
  9
$PDMODE
 70
     0
  9
$PDSIZE
 40
-1.0
  9
$PLINEWID
 40
0.0
  9
$SPLFRAME
 70
     0
  9
$SPLINETYPE
 70
     6
  9
$SPLINESEGS
 70
     8
  9
$HANDSEED
  5
2BB
  9
$SURFTAB1
 70
     6
  9
$SURFTAB2
 70
     6
  9
$SURFTYPE
 70
     6
  9
$SURFU
 70
     6
  9
$SURFV
 70
     6
  9
$UCSBASE
  2

  9
$UCSNAME
  2

  9
$UCSORG
 10
0.0
 20
0.0
 30
0.0
  9
$UCSXDIR
 10
1.0
 20
0.0
 30
0.0
  9
$UCSYDIR
 10
0.0
 20
1.0
 30
0.0
  9
$UCSORTHOREF
  2

  9
$UCSORTHOVIEW
 70
     0
  9
$UCSORGTOP
 10
0.0
 20
0.0
 30
0.0
  9
$UCSORGBOTTOM
 10
0.0
 20
0.0
 30
0.0
  9
$UCSORGLEFT
 10
0.0
 20
0.0
 30
0.0
  9
$UCSORGRIGHT
 10
0.0
 20
0.0
 30
0.0
  9
$UCSORGFRONT
 10
0.0
 20
0.0
 30
0.0
  9
$UCSORGBACK
 10
0.0
 20
0.0
 30
0.0
  9
$PUCSBASE
  2

  9
$PUCSNAME
  2

  9
$PUCSORG
 10
0.0
 20
0.0
 30
0.0
  9
$PUCSXDIR
 10
1.0
 20
0.0
 30
0.0
  9
$PUCSYDIR
 10
0.0
 20
1.0
 30
0.0
  9
$PUCSORTHOREF
  2

  9
$PUCSORTHOVIEW
 70
     0
  9
$PUCSORGTOP
 10
0.0
 20
0.0
 30
0.0
  9
$PUCSORGBOTTOM
 10
0.0
 20
0.0
 30
0.0
  9
$PUCSORGLEFT
 10
0.0
 20
0.0
 30
0.0
  9
$PUCSORGRIGHT
 10
0.0
 20
0.0
 30
0.0
  9
$PUCSORGFRONT
 10
0.0
 20
0.0
 30
0.0
  9
$PUCSORGBACK
 10
0.0
 20
0.0
 30
0.0
  9
$USERI1
 70
     0
  9
$USERI2
 70
     0
  9
$USERI3
 70
     0
  9
$USERI4
 70
     0
  9
$USERI5
 70
     0
  9
$USERR1
 40
0.0
  9
$USERR2
 40
0.0
  9
$USERR3
 40
0.0
  9
$USERR4
 40
0.0
  9
$USERR5
 40
0.0
  9
$WORLDVIEW
 70
     1
  9
$SHADEDGE
 70
     3
  9
$SHADEDIF
 70
    70
  9
$TILEMODE
 70
     1
  9
$MAXACTVP
 70
    64
  9
$PINSBASE
 10
0.0
 20
0.0
 30
0.0
  9
$PLIMCHECK
 70
     0
  9
$PEXTMIN
 10
1.0000000000E+20
 20
1.0000000000E+20
 30
1.0000000000E+20
  9
$PEXTMAX
 10
-1.0000000000E+20
 20
-1.0000000000E+20
 30
-1.0000000000E+20
  9
$PLIMMIN
 10
0.0
 20
0.0
  9
$PLIMMAX
 10
420.0
 20
297.0
  9
$UNITMODE
 70
     0
  9
$VISRETAIN
 70
     1
  9
$PLINEGEN
 70
     0
  9
$PSLTSCALE
 70
     1
  9
$TREEDEPTH
 70
  3020
  9
$CMLSTYLE
  2
Standard
  9
$CMLJUST
 70
     0
  9
$CMLSCALE
 40
20.0
  9
$PROXYGRAPHICS
 70
     1
  9
$MEASUREMENT
 70
     1
  9
$CELWEIGHT
370
    -1
  9
$ENDCAPS
280
     0
  9
$JOINSTYLE
280
     0
  9
$LWDISPLAY
290
     1
  9
$INSUNITS
 70
     4
  9
$HYPERLINKBASE
  1

  9
$STYLESHEET
  1

  9
$XEDIT
290
     1
  9
$CEPSNTYPE
380
     0
  9
$PSTYLEMODE
290
     1
  9
$FINGERPRINTGUID
  2
{C70F4502-8686-43F6-9EDB-D7E5A6C32378}
  9
$VERSIONGUID
  2
{FAEB1C32-E019-11D5-929B-00C0DF256EC4}
  9
$EXTNAMES
290
     1
  9
$PSVPSCALE
 40
0.0
  9
$OLESTARTUP
290
     0
  0
ENDSEC
  0
SECTION
  2
CLASSES
  0
CLASS
  1
ACDBDICTIONARYWDFLT
  2
AcDbDictionaryWithDefault
  3
ObjectDBX Classes
 90
        0
280
     0
281
     0
  0
CLASS
  1
VISUALSTYLE
  2
AcDbVisualStyle
  3
ObjectDBX Classes
 90
     4095
280
     0
281
     0
  0
CLASS
  1
DICTIONARYVAR
  2
AcDbDictionaryVar
  3
ObjectDBX Classes
 90
        0
280
     0
281
     0
  0
CLASS
  1
ACDBPLACEHOLDER
  2
AcDbPlaceHolder
  3
ObjectDBX Classes
 90
        0
280
     0
281
     0
  0
CLASS
  1
LAYOUT
  2
AcDbLayout
  3
ObjectDBX Classes
 90
        0
280
     0
281
     0
  0
ENDSEC
  0
SECTION
  2
TABLES
  0
TABLE
  2
VPORT
  5
8
330
0
100
AcDbSymbolTable
 70
     1
  0
VPORT
  5
29
330
8
100
AcDbSymbolTableRecord
100
AcDbViewportTableRecord
  2
*Active
 70
     0
 10
0.0
 20
0.0
 11
1.0
 21
1.0
 12
420.5
 22
297.0
 13
0.0
 23
0.0
 14
10.0
 24
10.0
 15
10.0
 25
10.0
 16
0.0
 26
0.0
 36
1.0
 17
0.0
 27
0.0
 37
0.0
 40
594.0
 41
1.4158249158
 42
50.0
 43
0.0
 44
0.0
 50
0.0
 51
0.0
 71
     0
 72
  2000
 73
     1
 74
     3
 75
     0
 76
     0
 77
     0
 78
     0
281
     0
 65
     1
110
0.0
120
0.0
130
0.0
111
1.0
121
0.0
131
0.0
112
0.0
122
1.0
132
0.0
 79
     0
146
0.0
  0
ENDTAB
  0
TABLE
  2
LTYPE
  5
5
330
0
100
AcDbSymbolTable
 70
     6
  0
LTYPE
  5
14
330
5
100
AcDbSymbolTableRecord
100
AcDbLinetypeTableRecord
  2
ByBlock
 70
     0
  3

 72
    65
 73
     0
 40
0.0
  0
LTYPE
  5
15
330
5
100
AcDbSymbolTableRecord
100
AcDbLinetypeTableRecord
  2
ByLayer
 70
     0
  3

 72
    65
 73
     0
 40
0.0
  0
LTYPE
  5
16
330
5
100
AcDbSymbolTableRecord
100
AcDbLinetypeTableRecord
  2
Continuous
 70
     0
  3
Solid line
 72
    65
 73
     0
 40
0.0
  0
LTYPE
  5
3B
330
5
100
AcDbSymbolTableRecord
100
AcDbLinetypeTableRecord
  2
HIDDEN
 70
     0
  3
Hidden __ __ __ __ __ __ __ __ __ __ __ __ __ __
 72
    65
 73
     2
 40
1.905
 49
1.27
 74
     0
 49
-0.635
 74
     0
  0
LTYPE
  5
3C
330
5
100
AcDbSymbolTableRecord
100
AcDbLinetypeTableRecord
  2
PHANTOM
 70
     0
  3
Phantom ______  __  __  ______  __  __  ______
 72
    65
 73
     6
 40
12.7
 49
6.35
 74
     0
 49
-1.27
 74
     0
 49
1.27
 74
     0
 49
-1.27
 74
     0
 49
1.27
 74
     0
 49
-1.27
 74
     0
  0
LTYPE
  5
3D
330
5
100
AcDbSymbolTableRecord
100
AcDbLinetypeTableRecord
  2
CENTER
 70
     0
  3
Center ____ _ ____ _ ____ _ ____ _ ____ _ ____
 72
    65
 73
     4
 40
10.16
 49
6.35
 74
     0
 49
-1.27
 74
     0
 49
1.27
 74
     0
 49
-1.27
 74
     0
  0
LTYPE
  5
3E
330
5
100
AcDbSymbolTableRecord
100
AcDbLinetypeTableRecord
  2
CENTERX2
 70
     0
  3
Center (2x) ________  __  ________  __  _____
 72
    65
 73
     4
 40
20.32
 49
12.7
 74
     0
 49
-2.54
 74
     0
 49
2.54
 74
     0
 49
-2.54
 74
     0
  0
LTYPE
  5
3F
330
5
100
AcDbSymbolTableRecord
100
AcDbLinetypeTableRecord
  2
DOT2
 70
     0
  3
Dot (.5x) ........................................
 72
    65
 73
     2
 40
0.635
 49
0.0
 74
     0
 49
-0.635
 74
     0
  0
ENDTAB
  0
TABLE
  2
LAYER
  5
2
330
0
100
AcDbSymbolTable
 70
     4
  0
LAYER
  5
10
330
2
100
AcDbSymbolTableRecord
100
AcDbLayerTableRecord
  2
0
 70
     0
 62
     7
  6
Continuous
370
    -3
390
F
  0
LAYER
  5
40
330
2
100
AcDbSymbolTableRecord
100
AcDbLayerTableRecord
  2
SLD-0
 70
     0
 62
     3
  6
Continuous
370
    -3
390
F
  0
LAYER
  5
41
330
2
100
AcDbSymbolTableRecord
100
AcDbLayerTableRecord
  2
SLD-DEFPOINTS
 70
     0
 62
   179
  6
Continuous
370
    -3
390
F
  0
LAYER
  5
42
330
2
100
AcDbSymbolTableRecord
100
AcDbLayerTableRecord
  2
AM_REFDIM
 70
     0
 62
     4
  6
Continuous
370
    15
390
F
  0
ENDTAB
  0
TABLE
  2
STYLE
  5
3
330
0
100
AcDbSymbolTable
 70
     1
  0
STYLE
  5
11
330
3
100
AcDbSymbolTableRecord
100
AcDbTextStyleTableRecord
  2
Standard
 70
     0
 40
0.0
 41
1.0
 50
0.0
 71
     0
 42
2.5
  3
txt
  4
bigfont
  0
ENDTAB
  0
TABLE
  2
VIEW
  5
6
330
0
100
AcDbSymbolTable
 70
     0
  0
ENDTAB
  0
TABLE
  2
UCS
  5
7
330
0
100
AcDbSymbolTable
 70
     0
  0
ENDTAB
  0
TABLE
  2
APPID
  5
9
330
0
100
AcDbSymbolTable
 70
     1
  0
APPID
  5
12
330
9
100
AcDbSymbolTableRecord
100
AcDbRegAppTableRecord
  2
ACAD
 70
     0
  0
ENDTAB
  0
TABLE
  2
DIMSTYLE
  5
A
330
0
100
AcDbSymbolTable
 70
     1
100
AcDbDimStyleTable
  0
DIMSTYLE
105
27
330
A
100
AcDbSymbolTableRecord
100
AcDbDimStyleTableRecord
  2
ISO-25
 70
     0
 41
2.5
 42
0.625
 43
3.75
 44
1.25
 73
     0
 74
     0
 77
     1
 78
     8
140
2.5
141
2.5
143
0.0393700787
147
0.625
171
     3
172
     1
271
     2
272
     2
274
     3
278
    44
283
     0
284
     8
340
11
  0
ENDTAB
  0
TABLE
  2
BLOCK_RECORD
  5
1
330
0
100
AcDbSymbolTable
 70
     2
  0
BLOCK_RECORD
  5
1F
330
1
100
AcDbSymbolTableRecord
100
AcDbBlockTableRecord
  2
*Model_Space
340
22
  0
BLOCK_RECORD
  5
1B
330
1
100
AcDbSymbolTableRecord
100
AcDbBlockTableRecord
  2
*Paper_Space
340
1E
  0
BLOCK_RECORD
  5
23
330
1
100
AcDbSymbolTableRecord
100
AcDbBlockTableRecord
  2
*Paper_Space0
340
26
  0
BLOCK_RECORD
  5
29D
330
1
100
AcDbSymbolTableRecord
100
AcDbBlockTableRecord
  2
SW_CENTERMARKSYMBOL_0
340
0
102
{BLKREFS
331
2A8
102
}
  0
ENDTAB
  0
ENDSEC
  0
SECTION
  2
BLOCKS
  0
BLOCK
  5
20
330
1F
100
AcDbEntity
  8
0
100
AcDbBlockBegin
  2
*Model_Space
 70
     0
 10
0.0
 20
0.0
 30
0.0
  3
*Model_Space
  1

  0
ENDBLK
  5
21
330
1F
100
AcDbEntity
  8
0
100
AcDbBlockEnd
  0
BLOCK
  5
1C
330
1B
100
AcDbEntity
 67
     1
  8
0
100
AcDbBlockBegin
  2
*Paper_Space
 70
     0
 10
0.0
 20
0.0
 30
0.0
  3
*Paper_Space
  1

  0
ENDBLK
  5
1D
330
1B
100
AcDbEntity
 67
     1
  8
0
100
AcDbBlockEnd
  0
BLOCK
  5
24
330
23
100
AcDbEntity
  8
0
100
AcDbBlockBegin
  2
*Paper_Space0
 70
     0
 10
0.0
 20
0.0
 30
0.0
  3
*Paper_Space0
  1

  0
ENDBLK
  5
25
330
23
100
AcDbEntity
  8
0
100
AcDbBlockEnd
  0
BLOCK
  5
29E
330
29D
100
AcDbEntity
  8
0
100
AcDbBlockBegin
  2
SW_CENTERMARKSYMBOL_0
 70
     0
 10
0.0
 20
0.0
 30
0.0
  3
SW_CENTERMARKSYMBOL_0
  1

  0
LINE
  5
2A0
330
29D
100
AcDbEntity
  8
SLD-0
 62
     0
100
AcDbLine
 10
0.0
 20
0.0
 30
0.0
 11
0.0
 21
2.5
 31
0.0
  0
LINE
  5
2A1
330
29D
100
AcDbEntity
  8
SLD-0
 62
     0
100
AcDbLine
 10
0.0
 20
0.0
 30
0.0
 11
-2.5
 21
0.0
 31
0.0
  0
LINE
  5
2A2
330
29D
100
AcDbEntity
  8
SLD-0
 62
     0
100
AcDbLine
 10
0.0
 20
0.0
 30
0.0
 11
0.0
 21
-2.5
 31
0.0
  0
LINE
  5
2A3
330
29D
100
AcDbEntity
  8
SLD-0
 62
     0
100
AcDbLine
 10
0.0
 20
0.0
 30
0.0
 11
2.5
 21
0.0
 31
0.0
  0
LINE
  5
2A4
330
29D
100
AcDbEntity
  8
SLD-0
 62
     0
100
AcDbLine
 10
0.0
 20
5.0
 30
0.0
 11
0.0
 21
166.071740691
 31
0.0
  0
LINE
  5
2A5
330
29D
100
AcDbEntity
  8
SLD-0
 62
     0
100
AcDbLine
 10
-5.0
 20
0.0
 30
0.0
 11
-107.8289296589
 21
0.0
 31
0.0
  0
LINE
  5
2A6
330
29D
100
AcDbEntity
  8
SLD-0
 62
     0
100
AcDbLine
 10
0.0
 20
-5.0
 30
0.0
 11
0.0
 21
-165.1419757062
 31
0.0
  0
LINE
  5
2A7
330
29D
100
AcDbEntity
  8
SLD-0
 62
     0
100
AcDbLine
 10
5.0
 20
0.0
 30
0.0
 11
97.8065099417
 21
0.0
 31
0.0
  0
ENDBLK
  5
29F
330
29D
100
AcDbEntity
  8
0
100
AcDbBlockEnd
  0
ENDSEC
  0
SECTION
  2
ENTITIES
  0
LINE
  5
43
330
1F
100
AcDbEntity
  8
0
  6
Continuous
 62
     7
370
    15
100
AcDbLine
 10
212.4005316687
 20
208.5442053057
 30
0.0
 11
212.4005316687
 21
211.4979470052
 31
0.0
  0
LINE
  5
44
330
1F
100
AcDbEntity
  8
0
  6
Continuous
 62
     7
370
    15
100
AcDbLine
 10
192.400535841
 20
211.4979470052
 30
0.0
 11
192.400535841
 21
208.5442053057
 31
0.0
  0
ARC
  5
45
330
1F
100
AcDbEntity
  8
0
  6
Continuous
 62
     7
370
    15
100
AcDbCircle
 10
210.8660616854
 20
205.8080101545
 30
0.0
 40
2.210970144531347
100
AcDbArc
 50
119.4475602042
 51
185.5246818373
  0
ARC
  5
46
330
1F
100
AcDbEntity
  8
0
  6
Continuous
 62
     7
370
    15
100
AcDbCircle
 10
193.7264039532
 20
205.6812149598
 30
0.0
 40
2.425826571493478
100
AcDbArc
 50
357.8559486396
 51
58.1202446073
  0
LWPOLYLINE
  5
47
330
1F
100
AcDbEntity
  8
0
  6
Continuous
 62
     7
370
    15
100
AcDbPolyline
 90
        6
 70
   128
 43
0.0
 10
206.800533731
 20
203.0763583161
 10
207.6076178742
 20
203.3197725095
 10
208.0816089106
 20
203.5740682759
 10
208.4312125039
 20
203.921321211
 10
208.635790546
 20
204.4213892795
 10
208.6217983556
 20
204.6035038211
  0
LWPOLYLINE
  5
48
330
1F
100
AcDbEntity
  8
0
  6
Continuous
 62
     7
370
    15
100
AcDbPolyline
 90
        6
 70
   128
 43
0.0
 10
196.1505322647
 20
204.605876831
 10
196.2945892406
 20
204.0430823244
 10
196.5616776538
 20
203.7022815921
 10
196.9180985284
 20
203.4499229767
 10
197.4541752529
 20
203.2242821433
 10
198.0005337787
 20
203.0875937917
  0
LINE
  5
49
330
1F
100
AcDbEntity
  8
0
  6
Continuous
 62
     7
370
    15
100
AcDbLine
 10
208.650535245
 20
204.605876831
 30
0.0
 11
208.650535245
 21
205.590459881
 31
0.0
  0
LINE
  5
4A
330
1F
100
AcDbEntity
  8
0
  6
Continuous
 62
     7
370
    15
100
AcDbLine
 10
196.1505322647
 20
205.590459881
 30
0.0
 11
196.1505322647
 21
204.605876831
 31
0.0
  0
LINE
  5
4B
330
1F
100
AcDbEntity
  8
0
  6
Continuous
 62
     7
370
    15
100
AcDbLine
 10
206.800533731
 20
198.6983897068
 30
0.0
 11
206.800533731
 21
203.6212975063
 31
0.0
  0
LINE
  5
4C
330
1F
100
AcDbEntity
  8
0
  6
Continuous
 62
     7
370
    15
100
AcDbLine
 10
198.0005337787
 20
203.6212975063
 30
0.0
 11
198.0005337787
 21
198.6983897068
 31
0.0
  0
ARC
  5
4D
330
1F
100
AcDbEntity
  8
0
  6
Continuous
 62
     7
370
    15
100
AcDbCircle
 10
217.4005325628
 20
260.2681549658
 30
0.0
 40
5.599999999999994
100
AcDbArc
 50
0.0
 51
90.0
  0
ARC
  5
4E
330
1F
100
AcDbEntity
  8
0
  6
Continuous
 62
     7
370
    15
100
AcDbCircle
 10
171.4005325628
 20
260.2681549658
 30
0.0
 40
5.600000000000023
100
AcDbArc
 50
90.0
 51
180.0
  0
LINE
  5
4F
330
1F
100
AcDbEntity
  8
0
  6
Continuous
 62
     7
370
    15
100
AcDbLine
 10
217.4005343509
 20
265.8681547173
 30
0.0
 11
171.4005305362
 21
265.8681547173
 31
0.0
  0
LINE
  5
50
330
1F
100
AcDbEntity
  8
0
  6
Continuous
 62
     7
370
    15
100
AcDbLine
 10
242.4005328608
 20
371.4868420638
 30
0.0
 11
237.4005339039
 21
371.4868420638
 31
0.0
  0
LINE
  5
51
330
1F
100
AcDbEntity
  8
0
  6
Continuous
 62
     7
370
    15
100
AcDbLine
 10
217.4005343509
 20
371.4868420638
 30
0.0
 11
182.4005304766
 21
371.4868420638
 31
0.0
  0
LINE
  5
52
330
1F
100
AcDbEntity
  8
0
  6
Continuous
 62
     7
370
    15
100
AcDbLine
 10
182.4005304766
 20
323.4868490972
 30
0.0
 11
217.4005343509
 21
323.4868490972
 31
0.0
  0
LINE
  5
53
330
1F
100
AcDbEntity
  8
0
  6
Continuous
 62
     7
370
    15
100
AcDbLine
 10
237.4005339039
 20
323.4868490972
 30
0.0
 11
242.4005328608
 21
323.4868490972
 31
0.0
  0
LINE
  5
54
330
1F
100
AcDbEntity
  8
0
  6
Continuous
 62
     7
370
    15
100
AcDbLine
 10
277.4005330098
 20
369.9868464746
 30
0.0
 11
242.4005328608
 21
369.9868464746
 31
0.0
  0
LINE
  5
55
330
1F
100
AcDbEntity
  8
0
  6
Continuous
 62
     7
370
    15
100
AcDbLine
 10
242.4005328608
 20
324.986852137
 30
0.0
 11
277.4005330098
 21
324.986852137
 31
0.0
  0
LINE
  5
56
330
1F
100
AcDbEntity
  8
0
  6
Continuous
 62
     7
370
    15
100
AcDbLine
 10
237.4005339039
 20
371.9368422307
 30
0.0
 11
217.4005343509
 21
371.9368422307
 31
0.0
  0
ARC
  5
57
330
1F
100
AcDbEntity
  8
0
  6
Continuous
 62
     7
370
    15
100
AcDbCircle
 10
372.9005325628
 20
179.7225657225
 30
0.0
 40
3.0
100
AcDbArc
 50
180.0
 51
270.0
  0
LINE
  5
58
330
1F
100
AcDbEntity
  8
0
  6
Continuous
 62
     7
370
    15
100
AcDbLine
 10
372.9005291057
 20
176.7225632347
 30
0.0
 11
379.4005348277
 21
176.7225632347
 31
0.0
  0
LINE
  5
59
330
1F
100
AcDbEntity
  8
0
  6
Continuous
 62
     7
370
    15
100
AcDbLine
 10
339.9005330098
 20
394.9509108342
 30
0.0
 11
339.9005330098
 21
392.9509067811
 31
0.0
  0
LINE
  5
5A
330
1F
100
AcDbEntity
  8
0
  6
Continuous
 62
     7
370
    15
100
AcDbLine
 10
424.9005301786
 20
392.9509067811
 30
0.0
 11
424.9005301786
 21
394.9509108342
 31
0.0
  0
LINE
  5
5B
330
1F
100
AcDbEntity
  8
0
  6
Continuous
 62
     7
370
    15
100
AcDbLine
 10
424.9005301786
 20
94.9508989133
 30
0.0
 11
424.9005301786
 21
96.9509029664
 31
0.0
  0
LINE
  5
5C
330
1F
100
AcDbEntity
  8
0
  6
Continuous
 62
     7
370
    15
100
AcDbLine
 10
339.9005330098
 20
96.9509029664
 30
0.0
 11
339.9005330098
 21
94.9508989133
 31
0.0
  0
ARC
  5
5D
330
1F
100
AcDbEntity
  8
0
  6
Continuous
 62
     7
370
    15
100
AcDbCircle
 10
408.7732218977
 20
373.9508971576
 30
0.0
 40
5.000003717071803
100
AcDbArc
 50
90.0996630045
 51
172.7979043745
  0
ARC
  5
5E
330
1F
100
AcDbEntity
  8
0
  6
Continuous
 62
     7
370
    15
100
AcDbCircle
 10
356.0278659576
 20
373.9509256185
 30
0.0
 40
4.999974969811525
100
AcDbArc
 50
7.1357217639
 51
89.9022412666
  0
ARC
  5
5F
330
1F
100
AcDbEntity
  8
0
  6
Continuous
 62
     7
370
    15
100
AcDbCircle
 10
353.400542282
 20
115.9509051212
 30
0.0
 40
5.000004453235618
100
AcDbArc
 50
270.0337605301
 51
0.1503392297
  0
ARC
  5
60
330
1F
100
AcDbEntity
  8
0
  6
Continuous
 62
     7
370
    15
100
AcDbCircle
 10
411.400532282
 20
115.9509048738
 30
0.0
 40
5.000000000000014
100
AcDbArc
 50
180.0430302335
 51
269.99985673
  0
LINE
  5
61
330
1F
100
AcDbEntity
  8
0
  6
Continuous
 62
     7
370
    15
100
AcDbLine
 10
409.9005295825
 20
274.9509042032
 30
0.0
 11
404.9257024122
 21
274.9509042032
 31
0.0
  0
LWPOLYLINE
  5
62
330
1F
100
AcDbEntity
  8
0
  6
Continuous
 62
     7
370
    15
100
AcDbPolyline
 90
       18
 70
   128
 43
0.0
 10
443.9001216483
 20
227.9068523921
 10
443.9001216483
 20
228.2863123246
 10
443.9000322414
 20
233.748089885
 10
443.6843975377
 20
238.7960514888
 10
442.8645356488
 20
243.3023074545
 10
441.3845672202
 20
247.7977663648
 10
439.3792136502
 20
251.8904268645
 10
436.8979318929
 20
255.6082731016
 10
433.9760377002
 20
258.9470468365
 10
432.3054387164
 20
260.5146946289
 10
430.4839803767
 20
262.0051087715
 10
428.5099639487
 20
263.4023087003
 10
426.2017740798
 20
264.78880587
 10
423.1559320283
 20
266.2652650751
 10
419.2797004175
 20
267.6381127812
 10
416.1962105823
 20
268.3678598978
 10
412.6920907688
 20
268.8376339056
 10
409.9003284168
 20
268.9180573352
  0
LWPOLYLINE
  5
63
330
1F
100
AcDbEntity
  8
0
  6
Continuous
 62
     7
370
    15
100
AcDbPolyline
 90
        3
 70
   128
 43
0.0
 10
443.9003749681
 20
194.9510382392
 10
443.9003600669
 20
199.3981594123
 10
443.9003451658
 20
201.9890392103
  0
LWPOLYLINE
  5
64
330
1F
100
AcDbEntity
  8
0
  6
Continuous
 62
     7
370
    15
100
AcDbPolyline
 90
       13
 70
   128
 43
0.0
 10
406.4005001378
 20
115.9508818664
 10
406.4004181814
 20
119.9799695887
 10
406.4914046717
 20
124.7747981824
 10
407.2272761655
 20
129.1053438463
 10
408.5324390722
 20
132.9113686361
 10
410.8713774872
 20
137.1776530422
 10
413.5473652673
 20
140.5123094
 10
416.0205258918
 20
143.2255277314
 10
418.3889462543
 20
145.8237910547
 10
420.8252712083
 20
148.4965601839
 10
425.8086069417
 20
153.963565258
 10
431.0539646936
 20
159.7180584349
 10
431.2662019325
 20
159.9509039797
  0
LINE
  5
65
330
1F
100
AcDbEntity
  8
0
  6
Continuous
 62
     7
370
    15
100
AcDbLine
 10
403.0144347739
 20
368.2889858164
 30
0.0
 11
403.8128389907
 21
374.5793247499
 31
0.0
  0
ARC
  5
66
330
1F
100
AcDbEntity
  8
0
  6
Continuous
 62
     7
370
    15
100
AcDbCircle
 10
487.8862267959
 20
298.2648304227
 30
0.0
 40
93.03675799497194
100
AcDbArc
 50
172.8995659518
 51
178.1055536564
  0
LWPOLYLINE
  5
67
330
1F
100
AcDbEntity
  8
0
  6
Continuous
 62
     7
370
    15
100
AcDbPolyline
 90
       18
 70
   128
 43
0.0
 10
360.9884886933
 20
374.5772683896
 10
362.0191945625
 20
366.4567017831
 10
363.1542309118
 20
357.5010592021
 10
364.1398533178
 20
349.6985876836
 10
364.9745344115
 20
343.0605078019
 10
365.6578346086
 20
337.6016834654
 10
366.1901040864
 20
333.3672353901
 10
366.4614393306
 20
331.2223324456
 10
366.6663451982
 20
329.6101013102
 10
366.8194024754
 20
328.4104684271
 10
367.1016528201
 20
326.2098276891
 10
367.4679531646
 20
323.3770275392
 10
367.915315826
 20
319.9613312163
 10
368.3827354503
 20
316.4347628035
 10
368.6095981789
 20
314.724437324
 10
368.8104658318
 20
313.1951460518
 10
368.9857258392
 20
311.8343347587
 10
369.0415232373
 20
311.3864878096
  0
LWPOLYLINE
  5
68
330
1F
100
AcDbEntity
  8
0
  6
Continuous
 62
     7
370
    15
100
AcDbPolyline
 90
        9
 70
   128
 43
0.0
 10
379.3756796909
 20
162.4003643073
 10
374.4282930088
 20
156.9726535954
 10
369.3629114819
 20
151.0864341535
 10
365.2736081672
 20
144.8345253147
 10
362.1801569057
 20
138.3171895422
 10
360.0369750452
 20
131.6629791536
 10
358.79470994
 20
124.9830270089
 10
358.4006301058
 20
118.3723354615
 10
358.4006003034
 20
115.9484529771
  0
ARC
  5
69
330
1F
100
AcDbEntity
  8
0
  6
Continuous
 62
     7
370
    15
100
AcDbCircle
 10
405.9236927054
 20
367.9024444639
 30
0.0
 40
2.925463982881358
100
AcDbArc
 50
172.4654544876
 51
270.8058041896
  0
LINE
  5
6A
330
1F
100
AcDbEntity
  8
0
  6
Continuous
 62
     7
370
    15
100
AcDbLine
 10
412.2258036328
 20
334.9509084501
 30
0.0
 11
412.4005346489
 21
334.9509084501
 31
0.0
  0
LINE
  5
6B
330
1F
100
AcDbEntity
  8
0
  6
Continuous
 62
     7
370
    15
100
AcDbLine
 10
412.4005346489
 20
364.9509021916
 30
0.0
 11
405.960997839
 21
364.9509021916
 31
0.0
  0
LINE
  5
6C
330
1F
100
AcDbEntity
  8
0
  6
Continuous
 62
     7
370
    15
100
AcDbLine
 10
443.870229919
 20
201.9509034135
 30
0.0
 11
447.9005320859
 21
201.9509034135
 31
0.0
  0
LINE
  5
6D
330
1F
100
AcDbEntity
  8
0
  6
Continuous
 62
     7
370
    15
100
AcDbLine
 10
447.9005320859
 20
227.9509039499
 30
0.0
 11
443.8722713781
 21
227.9509039499
 31
0.0
  0
ARC
  5
6E
330
1F
100
AcDbEntity
  8
0
  6
Continuous
 62
     7
370
    15
100
AcDbCircle
 10
447.9005325628
 20
225.9509048738
 30
0.0
 40
2.0
100
AcDbArc
 50
0.0
 51
90.0
  0
ARC
  5
6F
330
1F
100
AcDbEntity
  8
0
  6
Continuous
 62
     7
370
    15
100
AcDbCircle
 10
447.9005325628
 20
203.9509048738
 30
0.0
 40
2.0
100
AcDbArc
 50
270.0
 51
0.0
  0
LINE
  5
70
330
1F
100
AcDbEntity
  8
0
  6
Continuous
 62
     7
370
    15
100
AcDbLine
 10
352.4005322647
 20
178.4509042181
 30
0.0
 11
369.9005304766
 21
178.4509042181
 31
0.0
  0
LINE
  5
71
330
1F
100
AcDbEntity
  8
0
  6
Continuous
 62
     7
370
    15
100
AcDbLine
 10
369.0737618995
 20
311.4509055294
 30
0.0
 11
352.4005322647
 21
311.4509055294
 31
0.0
  0
LWPOLYLINE
  5
72
330
1F
100
AcDbEntity
  8
0
  6
Continuous
 62
     7
370
    15
100
AcDbPolyline
 90
       11
 70
   128
 43
0.0
 10
434.5452322555
 20
162.4509015955
 10
435.5718626571
 20
163.5772058644
 10
438.3129014564
 20
166.8681645669
 10
440.2267618966
 20
169.7780931272
 10
441.5015711379
 20
172.1639776506
 10
442.3684759927
 20
174.107111422
 10
443.2917668414
 20
176.6473943271
 10
444.1776706767
 20
180.0081724204
 10
444.7888716054
 20
184.2280359842
 10
444.9005260062
 20
189.3090339281
 10
444.9005260062
 20
195.1843755223
  0
ARC
  5
73
330
1F
100
AcDbEntity
  8
0
  6
Continuous
 62
     7
370
    15
100
AcDbCircle
 10
153.3472132808
 20
183.9509048738
 30
0.0
 40
8.000000000000028
100
AcDbArc
 50
195.2555633432
 51
270.0
  0
LINE
  5
74
330
1F
100
AcDbEntity
  8
0
  6
Continuous
 62
     7
370
    15
100
AcDbLine
 10
157.4005319667
 20
313.9509031452
 30
0.0
 11
128.4005328012
 21
313.9509031452
 31
0.0
  0
LINE
  5
75
330
1F
100
AcDbEntity
  8
0
  6
Continuous
 62
     7
370
    15
100
AcDbLine
 10
153.3472075057
 20
175.9509066023
 30
0.0
 11
157.4005319667
 21
175.9509066023
 31
0.0
  0
ARC
  5
76
330
1F
100
AcDbEntity
  8
0
  6
Continuous
 62
     7
370
    15
100
AcDbCircle
 10
261.4005325628
 20
213.4208928642
 30
0.0
 40
120.0
100
AcDbArc
 50
180.0
 51
195.2555633432
  0
ARC
  5
77
330
1F
100
AcDbEntity
  8
0
  6
Continuous
 62
     7
370
    15
100
AcDbCircle
 10
128.4005325628
 20
310.9509048738
 30
0.0
 40
3.0
100
AcDbArc
 50
90.0
 51
180.0
  0
LINE
  5
78
330
1F
100
AcDbEntity
  8
0
  6
Continuous
 62
     7
370
    15
100
AcDbLine
 10
130.4005368543
 20
221.9509048291
 30
0.0
 11
141.4005293441
 21
221.9509048291
 31
0.0
  0
LINE
  5
79
330
1F
100
AcDbEntity
  8
0
  6
Continuous
 62
     7
370
    15
100
AcDbLine
 10
297.4005325628
 20
313.5509038247
 30
0.0
 11
237.4005339039
 21
313.5509038247
 31
0.0
  0
LINE
  5
7A
330
1F
100
AcDbEntity
  8
0
  6
Continuous
 62
     7
370
    15
100
AcDbLine
 10
217.4005343509
 20
313.5509038247
 30
0.0
 11
157.4005319667
 21
313.5509038247
 31
0.0
  0
LINE
  5
7B
330
1F
100
AcDbEntity
  8
0
  6
Continuous
 62
     7
370
    15
100
AcDbLine
 10
157.4005319667
 20
176.3509059228
 30
0.0
 11
297.4005325628
 21
176.3509059228
 31
0.0
  0
LINE
  5
7C
330
1F
100
AcDbEntity
  8
0
  6
Continuous
 62
     7
370
    15
100
AcDbLine
 10
297.4005325628
 20
174.9509045758
 30
0.0
 11
347.9005343211
 21
174.9509045758
 31
0.0
  0
LINE
  5
7D
330
1F
100
AcDbEntity
  8
0
  6
Continuous
 62
     7
370
    15
100
AcDbLine
 10
347.9005343211
 20
314.9509051718
 30
0.0
 11
297.4005325628
 21
314.9509051718
 31
0.0
  0
LINE
  5
7E
330
1F
100
AcDbEntity
  8
0
  6
Continuous
 62
     7
370
    15
100
AcDbLine
 10
313.4005333227
 20
224.9509053208
 30
0.0
 11
344.4005309534
 21
224.9509053208
 31
0.0
  0
LINE
  5
7F
330
1F
100
AcDbEntity
  8
0
  6
Continuous
 62
     7
370
    15
100
AcDbLine
 10
344.4005309534
 20
264.9509044267
 30
0.0
 11
313.4005333227
 21
264.9509044267
 31
0.0
  0
LINE
  5
80
330
1F
100
AcDbEntity
  8
0
  6
Continuous
 62
     7
370
    15
100
AcDbLine
 10
344.4005309534
 20
272.3486324676
 30
0.0
 11
340.9005313111
 21
271.9509055741
 31
0.0
  0
LINE
  5
81
330
1F
100
AcDbEntity
  8
0
  6
Continuous
 62
     7
370
    15
100
AcDbLine
 10
340.9005313111
 20
217.9509041734
 30
0.0
 11
344.4005309534
 21
217.55317728
 31
0.0
  0
LINE
  5
82
330
1F
100
AcDbEntity
  8
0
  6
Continuous
 62
     7
370
    15
100
AcDbLine
 10
313.4005333227
 20
307.6429286875
 30
0.0
 11
344.4005309534
 21
307.6429286875
 31
0.0
  0
LINE
  5
83
330
1F
100
AcDbEntity
  8
0
  6
Continuous
 62
     7
370
    15
100
AcDbLine
 10
344.4005309534
 20
182.2588810601
 30
0.0
 11
313.4005333227
 21
182.2588810601
 31
0.0
  0
ARC
  5
84
330
1F
100
AcDbEntity
  8
0
  6
Continuous
 62
     7
370
    15
100
AcDbCircle
 10
347.9005325628
 20
311.9509048738
 30
0.0
 40
3.000000000001473
100
AcDbArc
 50
12.8395884068
 51
90.0
  0
ARC
  5
85
330
1F
100
AcDbEntity
  8
0
  6
Continuous
 62
     7
370
    15
100
AcDbCircle
 10
347.9005325628
 20
177.9509048738
 30
0.0
 40
3.000000000002906
100
AcDbArc
 50
270.0
 51
347.1604115933
  0
ARC
  5
86
330
1F
100
AcDbEntity
  8
0
  6
Continuous
 62
     7
370
    15
100
AcDbCircle
 10
352.2880147565
 20
312.9509048738
 30
0.0
 40
1.500000000000057
100
AcDbArc
 50
192.8395884071
 51
270.0
  0
ARC
  5
87
330
1F
100
AcDbEntity
  8
0
  6
Continuous
 62
     7
370
    15
100
AcDbCircle
 10
352.2880147565
 20
176.9509048738
 30
0.0
 40
1.5
100
AcDbArc
 50
90.0
 51
167.1604115926
  0
LINE
  5
88
330
1F
100
AcDbEntity
  8
0
  6
Continuous
 62
     7
370
    15
100
AcDbLine
 10
352.4005322647
 20
311.4509055294
 30
0.0
 11
352.2880135966
 21
311.4509055294
 31
0.0
  0
LINE
  5
89
330
1F
100
AcDbEntity
  8
0
  6
Continuous
 62
     7
370
    15
100
AcDbLine
 10
352.2880135966
 20
178.4509042181
 30
0.0
 11
352.4005322647
 21
178.4509042181
 31
0.0
  0
LINE
  5
8A
330
1F
100
AcDbEntity
  8
0
  6
Continuous
 62
     7
370
    15
100
AcDbLine
 10
329.8371306551
 20
295.2508920707
 30
0.0
 11
340.9005313111
 21
267.7023554124
 31
0.0
  0
LINE
  5
8B
330
1F
100
AcDbEntity
  8
0
  6
Continuous
 62
     7
370
    15
100
AcDbLine
 10
325.7943673921
 20
299.9509045758
 30
0.0
 11
327.9812003416
 21
294.5055583395
 31
0.0
  0
LWPOLYLINE
  5
8C
330
1F
100
AcDbEntity
  8
0
  6
Continuous
 62
     7
370
    15
100
AcDbPolyline
 90
       22
 70
   128
 43
0.0
 10
212.4005316687
 20
208.5442053057
 10
212.2198178363
 20
208.8752569534
 10
211.6842104984
 20
209.1943429686
 10
210.8130662632
 20
209.4899298527
 10
209.6378712845
 20
209.7513409235
 10
208.2011013222
 20
209.969117669
 10
206.5546794725
 20
210.1353960015
 10
204.7581209731
 20
210.2441670276
 10
202.8763501835
 20
210.2914931156
 10
200.9773834539
 20
210.2756718077
 10
199.1298555327
 20
210.1972656228
 10
197.4005310726
 20
210.0591169574
 10
195.8519278956
 20
209.8662139751
 10
194.5399998617
 20
209.6255304195
 10
193.5121773672
 20
209.3457648434
 10
192.8056015563
 20
209.0370314099
 10
192.4458130193
 20
208.7104836382
 10
192.4458130193
 20
208.3779269733
 10
192.8056015563
 20
208.0513792016
 10
193.5121773672
 20
207.7426420428
 10
194.5399998617
 20
207.4628764667
 10
195.3720807028
 20
207.2998726644
  0
LWPOLYLINE
  5
8D
330
1F
100
AcDbEntity
  8
0
  6
Continuous
 62
     7
370
    15
100
AcDbPolyline
 90
        6
 70
   128
 43
0.0
 10
209.4065754605
 20
207.2960095383
 10
209.6378712845
 20
207.337069688
 10
210.8130662632
 20
207.5984770335
 10
211.6842104984
 20
207.8940639176
 10
212.2198178363
 20
208.2131536581
 10
212.4005316687
 20
208.5442053057
  0
LWPOLYLINE
  5
8E
330
1F
100
AcDbEntity
  8
0
  6
Continuous
 62
     7
370
    15
100
AcDbPolyline
 90
       18
 70
   128
 43
0.0
 10
212.4005316687
 20
211.4979470052
 10
212.2198178363
 20
211.8289986529
 10
211.6842104984
 20
212.1480883934
 10
210.8130662632
 20
212.4436752774
 10
209.6378712845
 20
212.7050826229
 10
208.2011013222
 20
212.9228630938
 10
206.5546794725
 20
213.0891414263
 10
204.7581209731
 20
213.1979087271
 10
202.8763501835
 20
213.2452385403
 10
200.9773834539
 20
213.2294135072
 10
199.1298555327
 20
213.1510110475
 10
197.4005310726
 20
213.0128623821
 10
195.8519278956
 20
212.8199593999
 10
194.5399998617
 20
212.5792758443
 10
193.5121773672
 20
212.2995102681
 10
192.8056015563
 20
211.9907731094
 10
192.4458130193
 20
211.6642253377
 10
192.400535841
 20
211.4979470052
  0
LWPOLYLINE
  5
8F
330
1F
100
AcDbEntity
  8
0
  6
Continuous
 62
     7
370
    15
100
AcDbPolyline
 90
       12
 70
   128
 43
0.0
 10
206.800533731
 20
203.6212975063
 10
206.622300942
 20
203.838139204
 10
206.1020492506
 20
204.0374161579
 10
205.2819191408
 20
204.2029829599
 10
204.228362341
 20
204.3214211144
 10
203.0267178011
 20
204.383141724
 10
201.7743497086
 20
204.383141724
 10
200.5727051687
 20
204.3214211144
 10
199.5191483689
 20
204.2029829599
 10
198.6990182591
 20
204.0374161579
 10
198.1787665677
 20
203.838139204
 10
198.0005337787
 20
203.6212975063
  0
LWPOLYLINE
  5
90
330
1F
100
AcDbEntity
  8
0
  6
Continuous
 62
     7
370
    15
100
AcDbPolyline
 90
       23
 70
   128
 43
0.0
 10
206.800533731
 20
198.6983897068
 10
206.622300942
 20
198.9152351298
 10
206.1020492506
 20
199.1145083584
 10
205.2819191408
 20
199.2800751604
 10
204.228362341
 20
199.3985133149
 10
203.0267178011
 20
199.4602339246
 10
201.7743497086
 20
199.4602339246
 10
200.5727051687
 20
199.3985133149
 10
199.5191483689
 20
199.2800751604
 10
198.6990182591
 20
199.1145083584
 10
198.1787665677
 20
198.9152351298
 10
198.0005337787
 20
198.6983897068
 10
198.1787665677
 20
198.4815480091
 10
198.6990182591
 20
198.2822710552
 10
199.5191483689
 20
198.1167042531
 10
200.5727051687
 20
197.9982660987
 10
201.7743497086
 20
197.936545489
 10
203.0267178011
 20
197.936545489
 10
204.228362341
 20
197.9982660987
 10
205.2819191408
 20
198.1167042531
 10
206.1020492506
 20
198.2822710552
 10
206.622300942
 20
198.4815480091
 10
206.800533731
 20
198.6983897068
  0
LINE
  5
91
330
1F
100
AcDbEntity
  8
0
  6
Continuous
 62
     7
370
    15
100
AcDbLine
 10
223.0005322886
 20
260.2681549169
 30
0.0
 11
223.0005322886
 21
219.7886681088
 31
0.0
  0
LINE
  5
92
330
1F
100
AcDbEntity
  8
0
  6
Continuous
 62
     7
370
    15
100
AcDbLine
 10
165.8005251479
 20
219.7886681088
 30
0.0
 11
165.8005251479
 21
260.2681549169
 31
0.0
  0
LWPOLYLINE
  5
93
330
1F
100
AcDbEntity
  8
0
  6
Continuous
 62
     7
370
    15
100
AcDbPolyline
 90
       28
 70
   128
 43
0.0
 10
186.9005321455
 20
211.4979470052
 10
186.7253242922
 20
211.2357312717
 10
186.2091480685
 20
210.9876530148
 10
185.3798239422
 20
210.7670823015
 10
184.2820628476
 20
210.5859139838
 10
182.975052197
 20
210.4539120473
 10
181.5292446804
 20
210.378195522
 10
180.0225882721
 20
210.362847326
 10
178.5363092017
 20
210.4086907484
 10
177.150531013
 20
210.5132559218
 10
175.9399606776
 20
210.6709064819
 10
174.9698652816
 20
210.8731413163
 10
174.2925329995
 20
211.1090639509
 10
173.9444865775
 20
211.3659487941
 10
173.9444865775
 20
211.6299489416
 10
174.2925329995
 20
211.8868337848
 10
174.9698652816
 20
212.1227526941
 10
175.9399606776
 20
212.3249912538
 10
177.150531013
 20
212.4826418139
 10
178.5363092017
 20
212.5872069873
 10
180.0225882721
 20
212.6330504097
 10
181.5292446804
 20
212.6177022137
 10
182.975052197
 20
212.5419856884
 10
184.2820628476
 20
212.4099837519
 10
185.3798239422
 20
212.2288154342
 10
186.2091480685
 20
212.0082447209
 10
186.7253242922
 20
211.7601627387
 10
186.9005321455
 20
211.4979470052
  0
LINE
  5
94
330
1F
100
AcDbEntity
  8
0
  6
Continuous
 62
     7
370
    15
100
AcDbLine
 10
223.0005322886
 20
219.7886681088
 30
0.0
 11
223.0005322886
 21
215.1505792417
 31
0.0
  0
LWPOLYLINE
  5
95
330
1F
100
AcDbEntity
  8
0
  6
Continuous
 62
     7
370
    15
100
AcDbPolyline
 90
        3
 70
   128
 43
0.0
 10
165.8005251479
 20
215.1505792417
 10
166.0630091024
 20
213.2223578073
 10
166.202841599
 20
212.7819539882
  0
LINE
  5
96
330
1F
100
AcDbEntity
  8
0
  6
Continuous
 62
     7
370
    15
100
AcDbLine
 10
165.8005251479
 20
215.1505792417
 30
0.0
 11
165.8005251479
 21
219.7886681088
 31
0.0
  0
ARC
  5
97
330
1F
100
AcDbEntity
  8
0
  6
Continuous
 62
     7
370
    15
100
AcDbCircle
 10
194.4005361688
 20
258.0628214985
 30
0.0
 40
4.641680039442875
100
AcDbArc
 50
178.0086177875
 51
1.9913822125
  0
ARC
  5
98
330
1F
100
AcDbEntity
  8
0
  6
Continuous
 62
     7
370
    15
100
AcDbCircle
 10
194.4005324435
 20
258.162805663
 30
0.0
 40
3.500241624587679
100
AcDbArc
 50
180.6737252808
 51
359.3262747192
  0
ARC
  5
99
330
1F
100
AcDbEntity
  8
0
  6
Continuous
 62
     7
370
    15
100
AcDbCircle
 10
197.999400853
 20
263.4030604695
 30
0.0
 40
5.282337572052832
100
AcDbArc
 50
268.9275403543
 51
281.3548506067
  0
ARC
  5
9A
330
1F
100
AcDbEntity
  8
0
  6
Continuous
 62
     7
370
    15
100
AcDbCircle
 10
190.8016556991
 20
263.4028922111
 30
0.0
 40
5.282169499146473
100
AcDbArc
 50
258.6449579326
 51
271.0725841989
  0
CIRCLE
  5
9B
330
1F
100
AcDbEntity
  8
0
  6
Continuous
 62
     7
370
    15
100
AcDbCircle
 10
194.4240802654
 20
258.112116638
 30
0.0
 40
2.376474666531443
  0
ARC
  5
9C
330
1F
100
AcDbEntity
  8
0
  6
Continuous
 62
     7
370
    15
100
AcDbCircle
 10
194.4005324435
 20
257.9858525862
 30
0.0
 40
2.400853457604118
100
AcDbArc
 50
1.9887506657
 51
178.0112493343
  0
LWPOLYLINE
  5
9D
330
1F
100
AcDbEntity
  8
0
  6
Continuous
 62
     7
370
    15
100
AcDbPolyline
 90
       13
 70
   128
 43
0.0
 10
186.6773798061
 20
211.7933215477
 10
186.2091480685
 20
211.5784020998
 10
185.3798239422
 20
211.3578313865
 10
184.2820628476
 20
211.1766630687
 10
182.975052197
 20
211.0446611323
 10
181.5292446804
 20
210.968944607
 10
180.0225882721
 20
210.9535926856
 10
178.5363092017
 20
210.999436108
 10
177.150531013
 20
211.1040050067
 10
175.9399606776
 20
211.2616555669
 10
174.9698652816
 20
211.4638904013
 10
174.2925329995
 20
211.6998093106
 10
174.1236879421
 20
211.7933215477
  0
LINE
  5
9E
330
1F
100
AcDbEntity
  8
0
  6
Continuous
 62
     7
370
    15
100
AcDbLine
 10
224.4005336356
 20
257.5117800288
 30
0.0
 11
224.4005336356
 21
216.1187393494
 31
0.0
  0
LINE
  5
9F
330
1F
100
AcDbEntity
  8
0
  6
Continuous
 62
     7
370
    15
100
AcDbLine
 10
164.4005312515
 20
257.5117800288
 30
0.0
 11
164.4005312515
 21
216.1187393494
 31
0.0
  0
ARC
  5
A0
330
1F
100
AcDbEntity
  8
0
  6
Continuous
 62
     7
370
    15
100
AcDbCircle
 10
169.8907127123
 20
258.092214509
 30
0.0
 40
5.495032350277421
100
AcDbArc
 50
132.8517772643
 51
182.4076599388
  0
ARC
  5
A1
330
1F
100
AcDbEntity
  8
0
  6
Continuous
 62
     7
370
    15
100
AcDbCircle
 10
219.0129624041
 20
258.2020146201
 30
0.0
 40
5.398329451352041
100
AcDbArc
 50
356.3821521727
 51
48.8145939533
  0
LINE
  5
A2
330
1F
100
AcDbEntity
  8
0
  6
Continuous
 62
     7
370
    15
100
AcDbLine
 10
164.4005312515
 20
257.8613724463
 30
0.0
 11
164.4005312515
 21
257.5117800288
 31
0.0
  0
LINE
  5
A3
330
1F
100
AcDbEntity
  8
0
  6
Continuous
 62
     7
370
    15
100
AcDbLine
 10
224.4005336356
 20
257.8613724463
 30
0.0
 11
224.4005336356
 21
257.5117800288
 31
0.0
  0
LINE
  5
A4
330
1F
100
AcDbEntity
  8
0
  6
Continuous
 62
     7
370
    15
100
AcDbLine
 10
164.4005312515
 20
216.1187393494
 30
0.0
 11
164.4005312515
 21
212.9093887188
 31
0.0
  0
LINE
  5
A5
330
1F
100
AcDbEntity
  8
0
  6
Continuous
 62
     7
370
    15
100
AcDbLine
 10
224.4005336356
 20
216.1187393494
 30
0.0
 11
224.4005336356
 21
212.9093887188
 31
0.0
  0
LWPOLYLINE
  5
A6
330
1F
100
AcDbEntity
  8
0
  6
Continuous
 62
     7
370
    15
100
AcDbPolyline
 90
        3
 70
   128
 43
0.0
 10
223.7047686172
 20
210.1890960612
 10
224.2265253258
 20
211.5126283743
 10
224.4005336356
 20
212.9093887188
  0
LWPOLYLINE
  5
A7
330
1F
100
AcDbEntity
  8
0
  6
Continuous
 62
     7
370
    15
100
AcDbPolyline
 90
        3
 70
   128
 43
0.0
 10
164.4005312515
 20
212.9093887188
 10
164.7913887096
 20
210.8399862327
 10
165.0962962699
 20
210.1890960612
  0
ARC
  5
A8
330
1F
100
AcDbEntity
  8
0
  6
Continuous
 62
     7
370
    15
100
AcDbCircle
 10
217.6909661709
 20
213.753542772
 30
0.0
 40
6.990786809624749
100
AcDbArc
 50
267.6189649937
 51
329.3443123377
  0
ARC
  5
A9
330
1F
100
AcDbEntity
  8
0
  6
Continuous
 62
     7
370
    15
100
AcDbCircle
 10
171.1618962932
 20
213.8490149906
 30
0.0
 40
7.084243799637602
100
AcDbArc
 50
211.1063370965
 51
271.9303855721
  0
LINE
  5
AA
330
1F
100
AcDbEntity
  8
0
  6
Continuous
 62
     7
370
    15
100
AcDbLine
 10
217.4005343509
 20
206.7687915541
 30
0.0
 11
208.9440955711
 21
206.7687915541
 31
0.0
  0
LINE
  5
AB
330
1F
100
AcDbEntity
  8
0
  6
Continuous
 62
     7
370
    15
100
AcDbLine
 10
195.853127439
 20
206.7687915541
 30
0.0
 11
171.4005305362
 21
206.7687915541
 31
0.0
  0
LINE
  5
AC
330
1F
100
AcDbEntity
  8
0
  6
Continuous
 62
     7
370
    15
100
AcDbLine
 10
182.4005304766
 20
371.4868420638
 30
0.0
 11
182.4005304766
 21
323.4868490972
 31
0.0
  0
LINE
  5
AD
330
1F
100
AcDbEntity
  8
0
  6
Continuous
 62
     7
370
    15
100
AcDbLine
 10
242.4005328608
 20
371.4868420638
 30
0.0
 11
242.4005328608
 21
323.4868490972
 31
0.0
  0
LINE
  5
AE
330
1F
100
AcDbEntity
  8
0
  6
Continuous
 62
     7
370
    15
100
AcDbLine
 10
277.4005330098
 20
369.9868464746
 30
0.0
 11
277.4005330098
 21
324.986852137
 31
0.0
  0
LINE
  5
AF
330
1F
100
AcDbEntity
  8
0
  6
Continuous
 62
     7
370
    15
100
AcDbLine
 10
237.4005339039
 20
325.1931959667
 30
0.0
 11
237.4005339039
 21
371.9368422307
 31
0.0
  0
LINE
  5
B0
330
1F
100
AcDbEntity
  8
0
  6
Continuous
 62
     7
370
    15
100
AcDbLine
 10
217.4005343509
 20
325.1931959667
 30
0.0
 11
217.4005343509
 21
371.9368422307
 31
0.0
  0
LINE
  5
B1
330
1F
100
AcDbEntity
  8
0
  6
Continuous
 62
     7
370
    15
100
AcDbLine
 10
229.8005356384
 20
305.0796272136
 30
0.0
 11
237.4005339039
 21
305.0796272136
 31
0.0
  0
LINE
  5
B2
330
1F
100
AcDbEntity
  8
0
  6
Continuous
 62
     7
370
    15
100
AcDbLine
 10
229.8005356384
 20
305.0796272136
 30
0.0
 11
229.8005356384
 21
307.9884866156
 31
0.0
  0
LWPOLYLINE
  5
B3
330
1F
100
AcDbEntity
  8
0
  6
Continuous
 62
     7
370
    15
100
AcDbPolyline
 90
        9
 70
   128
 43
0.0
 10
229.8005356384
 20
307.9884866156
 10
229.6178399515
 20
308.4337556638
 10
229.0975882602
 20
308.8112318792
 10
228.3189727855
 20
309.0634563841
 10
227.4005322647
 20
309.1520288863
 10
226.482091744
 20
309.0634563841
 10
225.7034762693
 20
308.8112318792
 10
225.1832245779
 20
308.4337556638
 10
225.0005288911
 20
307.9884866156
  0
LINE
  5
B4
330
1F
100
AcDbEntity
  8
0
  6
Continuous
 62
     7
370
    15
100
AcDbLine
 10
225.0005288911
 20
307.9884866156
 30
0.0
 11
225.0005288911
 21
305.0796272136
 31
0.0
  0
LINE
  5
B5
330
1F
100
AcDbEntity
  8
0
  6
Continuous
 62
     7
370
    15
100
AcDbLine
 10
217.4005343509
 20
305.0796272136
 30
0.0
 11
225.0005288911
 21
305.0796272136
 31
0.0
  0
LINE
  5
B6
330
1F
100
AcDbEntity
  8
0
  6
Continuous
 62
     7
370
    15
100
AcDbLine
 10
237.4005339039
 20
305.0796272136
 30
0.0
 11
237.4005339039
 21
311.1880266942
 31
0.0
  0
LINE
  5
B7
330
1F
100
AcDbEntity
  8
0
  6
Continuous
 62
     7
370
    15
100
AcDbLine
 10
217.4005343509
 20
305.0796272136
 30
0.0
 11
217.4005343509
 21
311.1880266942
 31
0.0
  0
LINE
  5
B8
330
1F
100
AcDbEntity
  8
0
  6
Continuous
 62
     7
370
    15
100
AcDbLine
 10
217.4005343509
 20
304.0300862767
 30
0.0
 11
225.0005288911
 21
304.0300862767
 31
0.0
  0
LINE
  5
B9
330
1F
100
AcDbEntity
  8
0
  6
Continuous
 62
     7
370
    15
100
AcDbLine
 10
225.0005288911
 20
304.0300862767
 30
0.0
 11
225.0005288911
 21
305.0796272136
 31
0.0
  0
LINE
  5
BA
330
1F
100
AcDbEntity
  8
0
  6
Continuous
 62
     7
370
    15
100
AcDbLine
 10
217.4005343509
 20
304.0300862767
 30
0.0
 11
217.4005343509
 21
305.0796272136
 31
0.0
  0
LINE
  5
BB
330
1F
100
AcDbEntity
  8
0
  6
Continuous
 62
     7
370
    15
100
AcDbLine
 10
229.8005356384
 20
304.0300862767
 30
0.0
 11
237.4005339039
 21
304.0300862767
 31
0.0
  0
LINE
  5
BC
330
1F
100
AcDbEntity
  8
0
  6
Continuous
 62
     7
370
    15
100
AcDbLine
 10
229.8005356384
 20
305.0796272136
 30
0.0
 11
229.8005356384
 21
304.0300862767
 31
0.0
  0
LINE
  5
BD
330
1F
100
AcDbEntity
  8
0
  6
Continuous
 62
     7
370
    15
100
AcDbLine
 10
237.4005339039
 20
304.0300862767
 30
0.0
 11
237.4005339039
 21
305.0796272136
 31
0.0
  0
LWPOLYLINE
  5
BE
330
1F
100
AcDbEntity
  8
0
  6
Continuous
 62
     7
370
    15
100
AcDbPolyline
 90
        9
 70
   128
 43
0.0
 10
229.8005356384
 20
306.9389419534
 10
229.6178399515
 20
307.3842110016
 10
229.0975882602
 20
307.7616909422
 10
228.3189727855
 20
308.0139154472
 10
227.4005322647
 20
308.1024879493
 10
226.482091744
 20
308.0139154472
 10
225.7034762693
 20
307.7616909422
 10
225.1832245779
 20
307.3842110016
 10
225.0005288911
 20
306.9389419534
  0
LINE
  5
BF
330
1F
100
AcDbEntity
  8
0
  6
Continuous
 62
     7
370
    15
100
AcDbLine
 10
237.4005339039
 20
325.1931959667
 30
0.0
 11
237.4005339039
 21
323.6824566402
 31
0.0
  0
LINE
  5
C0
330
1F
100
AcDbEntity
  8
0
  6
Continuous
 62
     7
370
    15
100
AcDbLine
 10
217.4005343509
 20
323.6824566402
 30
0.0
 11
217.4005343509
 21
325.1931959667
 31
0.0
  0
ARC
  5
C1
330
1F
100
AcDbEntity
  8
0
  6
Continuous
 62
     7
370
    15
100
AcDbCircle
 10
227.4005322647
 20
316.9123875285
 30
0.0
 40
2.400122662240325
100
AcDbArc
 50
180.5712447382
 51
359.4287552618
  0
LINE
  5
C2
330
1F
100
AcDbEntity
  8
0
  6
Continuous
 62
     7
370
    15
100
AcDbLine
 10
229.8005356384
 20
318.863830892
 30
0.0
 11
229.8005356384
 21
316.8884584584
 31
0.0
  0
ARC
  5
C3
330
1F
100
AcDbEntity
  8
0
  6
Continuous
 62
     7
370
    15
100
AcDbCircle
 10
227.4005322647
 20
318.8399018219
 30
0.0
 40
2.400122662240326
100
AcDbArc
 50
0.5712447382
 51
179.4287552618
  0
LINE
  5
C4
330
1F
100
AcDbEntity
  8
0
  6
Continuous
 62
     7
370
    15
100
AcDbLine
 10
225.0005288911
 20
316.8884584584
 30
0.0
 11
225.0005288911
 21
318.863830892
 31
0.0
  0
LINE
  5
C5
330
1F
100
AcDbEntity
  8
0
  6
Continuous
 62
     7
370
    15
100
AcDbLine
 10
237.4005339039
 20
313.2501387872
 30
0.0
 11
237.4005339039
 21
323.6824566402
 31
0.0
  0
LINE
  5
C6
330
1F
100
AcDbEntity
  8
0
  6
Continuous
 62
     7
370
    15
100
AcDbLine
 10
217.4005343509
 20
313.2501387872
 30
0.0
 11
217.4005343509
 21
323.6824566402
 31
0.0
  0
LINE
  5
C7
330
1F
100
AcDbEntity
  8
0
  6
Continuous
 62
     7
370
    15
100
AcDbLine
 10
237.4005339039
 20
313.2501387872
 30
0.0
 11
237.4005339039
 21
311.1880266942
 31
0.0
  0
LINE
  5
C8
330
1F
100
AcDbEntity
  8
0
  6
Continuous
 62
     7
370
    15
100
AcDbLine
 10
217.4005343509
 20
311.1880266942
 30
0.0
 11
217.4005343509
 21
313.2501387872
 31
0.0
  0
ARC
  5
C9
330
1F
100
AcDbEntity
  8
0
  6
Continuous
 62
     7
370
    15
100
AcDbCircle
 10
227.4005322647
 20
317.1001074213
 30
0.0
 40
2.400122687312865
100
AcDbArc
 50
180.5713047657
 51
359.4286952343
  0
ARC
  5
CA
330
1F
100
AcDbEntity
  8
0
  6
Continuous
 62
     7
370
    15
100
AcDbCircle
 10
227.4005322647
 20
320.6464745387
 30
0.0
 40
2.408943789061758
100
AcDbArc
 50
202.1630226289
 51
337.8369773711
  0
ARC
  5
CB
330
1F
100
AcDbEntity
  8
0
  6
Continuous
 62
     7
370
    15
100
AcDbCircle
 10
227.4005322647
 20
320.8353934803
 30
0.0
 40
2.409906153554994
100
AcDbArc
 50
204.6163159355
 51
335.3836840645
  0
LWPOLYLINE
  5
CC
330
1F
100
AcDbEntity
  8
0
  6
Continuous
 62
     7
370
    15
100
AcDbPolyline
 90
        3
 70
   128
 43
0.0
 10
332.0324516785
 20
315.8674606957
 10
330.8216541004
 20
315.3897592701
 10
329.9715614808
 20
314.9509051718
  0
ARC
  5
CD
330
1F
100
AcDbEntity
  8
0
  6
Continuous
 62
     7
370
    15
100
AcDbCircle
 10
334.1660951101
 20
311.4704516939
 30
0.0
 40
4.887343087514236
100
AcDbArc
 50
68.543494663
 51
115.8849256083
  0
LINE
  5
CE
330
1F
100
AcDbEntity
  8
0
  6
Continuous
 62
     7
370
    15
100
AcDbLine
 10
335.5589083326
 20
317.8449043907
 30
0.0
 11
328.5059950245
 21
315.5183637418
 31
0.0
  0
LINE
  5
CF
330
1F
100
AcDbEntity
  8
0
  6
Continuous
 62
     7
370
    15
100
AcDbLine
 10
338.0700408411
 20
316.7171398081
 30
0.0
 11
335.5589083326
 21
317.8449043907
 31
0.0
  0
LINE
  5
D0
330
1F
100
AcDbEntity
  8
0
  6
Continuous
 62
     7
370
    15
100
AcDbLine
 10
328.5059950245
 20
315.5183637418
 30
0.0
 11
327.994236995
 21
314.9509051718
 31
0.0
  0
LINE
  5
D1
330
1F
100
AcDbEntity
  8
0
  6
Continuous
 62
     7
370
    15
100
AcDbLine
 10
323.6370704067
 20
314.9509051718
 30
0.0
 11
321.2173174066
 21
320.976234404
 31
0.0
  0
LINE
  5
D2
330
1F
100
AcDbEntity
  8
0
  6
Continuous
 62
     7
370
    15
100
AcDbLine
 10
324.7437740606
 20
324.8865226187
 30
0.0
 11
321.2173174066
 21
320.976234404
 31
0.0
  0
LINE
  5
D3
330
1F
100
AcDbEntity
  8
0
  6
Continuous
 62
     7
370
    15
100
AcDbLine
 10
328.5059950245
 20
315.5183637418
 30
0.0
 11
324.7437740606
 21
324.8865226187
 31
0.0
  0
LINE
  5
D4
330
1F
100
AcDbEntity
  8
0
  6
Continuous
 62
     7
370
    15
100
AcDbLine
 10
331.7966855061
 20
327.2130632676
 30
0.0
 11
324.7437740606
 21
324.8865226187
 31
0.0
  0
LINE
  5
D5
330
1F
100
AcDbEntity
  8
0
  6
Continuous
 62
     7
370
    15
100
AcDbLine
 10
335.5589083326
 20
317.8449043907
 30
0.0
 11
331.7966855061
 21
327.2130632676
 31
0.0
  0
LINE
  5
D6
330
1F
100
AcDbEntity
  8
0
  6
Continuous
 62
     7
370
    15
100
AcDbLine
 10
335.3231421602
 20
325.6293082513
 30
0.0
 11
331.7966855061
 21
327.2130632676
 31
0.0
  0
LINE
  5
D7
330
1F
100
AcDbEntity
  8
0
  6
Continuous
 62
     7
370
    15
100
AcDbLine
 10
338.8048953307
 20
316.9595444478
 30
0.0
 11
335.3231421602
 21
325.6293082513
 31
0.0
  0
LINE
  5
D8
330
1F
100
AcDbEntity
  8
0
  6
Continuous
 62
     7
370
    15
100
AcDbLine
 10
322.007613529
 20
331.6997283973
 30
0.0
 11
318.4811568749
 21
327.7894401826
 31
0.0
  0
LINE
  5
D9
330
1F
100
AcDbEntity
  8
0
  6
Continuous
 62
     7
370
    15
100
AcDbLine
 10
324.0597343934
 20
326.5898222007
 30
0.0
 11
322.007613529
 21
331.6997283973
 31
0.0
  0
LINE
  5
DA
330
1F
100
AcDbEntity
  8
0
  6
Continuous
 62
     7
370
    15
100
AcDbLine
 10
320.5332777393
 20
322.679533986
 30
0.0
 11
324.0597343934
 21
326.5898222007
 31
0.0
  0
LINE
  5
DB
330
1F
100
AcDbEntity
  8
0
  6
Continuous
 62
     7
370
    15
100
AcDbLine
 10
320.5332777393
 20
322.679533986
 30
0.0
 11
318.4811568749
 21
327.7894401826
 31
0.0
  0
LINE
  5
DC
330
1F
100
AcDbEntity
  8
0
  6
Continuous
 62
     7
370
    15
100
AcDbLine
 10
324.0597343934
 20
326.5898222007
 30
0.0
 11
331.1126477015
 21
328.9163628496
 31
0.0
  0
LINE
  5
DD
330
1F
100
AcDbEntity
  8
0
  6
Continuous
 62
     7
370
    15
100
AcDbLine
 10
331.1126477015
 20
328.9163628496
 30
0.0
 11
334.6391043556
 21
327.3326152839
 31
0.0
  0
LINE
  5
DE
330
1F
100
AcDbEntity
  8
0
  6
Continuous
 62
     7
370
    15
100
AcDbLine
 10
334.6391043556
 20
327.3326152839
 30
0.0
 11
333.7429932249
 21
326.3389686026
 31
0.0
  0
LINE
  5
DF
330
1F
100
AcDbEntity
  8
0
  6
Continuous
 62
     7
370
    15
100
AcDbLine
 10
322.1134285373
 20
321.9698810853
 30
0.0
 11
320.5332777393
 21
322.679533986
 31
0.0
  0
LWPOLYLINE
  5
E0
330
1F
100
AcDbEntity
  8
0
  6
Continuous
 62
     7
370
    15
100
AcDbPolyline
 90
       11
 70
   128
 43
0.0
 10
323.8354607415
 20
323.879345683
 10
323.9216602338
 20
324.1734275498
 10
324.330998857
 20
324.7775206246
 10
325.0295764697
 20
325.4019314327
 10
325.9553204221
 20
325.9911680497
 10
327.0259744418
 20
326.4928677954
 10
328.1464057905
 20
326.8624612965
 10
329.2170598102
 20
327.0671138443
 10
330.1428018999
 20
327.0886236705
 10
330.8413795126
 20
326.9250983276
 10
330.8755106223
 20
326.909191338
  0
LINE
  5
E1
330
1F
100
AcDbEntity
  8
0
  6
Continuous
 62
     7
370
    15
100
AcDbLine
 10
329.0605268371
 20
334.0262690462
 30
0.0
 11
322.007613529
 21
331.6997283973
 31
0.0
  0
LINE
  5
E2
330
1F
100
AcDbEntity
  8
0
  6
Continuous
 62
     7
370
    15
100
AcDbLine
 10
331.1126477015
 20
328.9163628496
 30
0.0
 11
329.0605268371
 21
334.0262690462
 31
0.0
  0
LINE
  5
E3
330
1F
100
AcDbEntity
  8
0
  6
Continuous
 62
     7
370
    15
100
AcDbLine
 10
332.5869834912
 20
332.4425140299
 30
0.0
 11
329.0605268371
 21
334.0262690462
 31
0.0
  0
LINE
  5
E4
330
1F
100
AcDbEntity
  8
0
  6
Continuous
 62
     7
370
    15
100
AcDbLine
 10
334.6391043556
 20
327.3326152839
 30
0.0
 11
332.5869834912
 21
332.4425140299
 31
0.0
  0
LINE
  5
E5
330
1F
100
AcDbEntity
  8
0
  6
Continuous
 62
     7
370
    15
100
AcDbLine
 10
369.9005304766
 20
233.4388516747
 30
0.0
 11
369.9005304766
 21
256.4629580729
 31
0.0
  0
LINE
  5
E6
330
1F
100
AcDbEntity
  8
0
  6
Continuous
 62
     7
370
    15
100
AcDbLine
 10
352.4005322647
 20
256.4629580729
 30
0.0
 11
352.4005322647
 21
233.4388516747
 31
0.0
  0
LINE
  5
E7
330
1F
100
AcDbEntity
  8
0
  6
Continuous
 62
     7
370
    15
100
AcDbLine
 10
369.9005304766
 20
194.4294007398
 30
0.0
 11
369.9005304766
 21
233.4388516747
 31
0.0
  0
LINE
  5
E8
330
1F
100
AcDbEntity
  8
0
  6
Continuous
 62
     7
370
    15
100
AcDbLine
 10
352.4005322647
 20
233.4388516747
 30
0.0
 11
352.4005322647
 21
194.4294007398
 31
0.0
  0
LINE
  5
E9
330
1F
100
AcDbEntity
  8
0
  6
Continuous
 62
     7
370
    15
100
AcDbLine
 10
369.9005304766
 20
256.4629580729
 30
0.0
 11
369.9005304766
 21
295.4724090077
 31
0.0
  0
LINE
  5
EA
330
1F
100
AcDbEntity
  8
0
  6
Continuous
 62
     7
370
    15
100
AcDbLine
 10
352.4005322647
 20
295.4724090077
 30
0.0
 11
352.4005322647
 21
256.4629580729
 31
0.0
  0
LINE
  5
EB
330
1F
100
AcDbEntity
  8
0
  6
Continuous
 62
     7
370
    15
100
AcDbLine
 10
394.9005289865
 20
269.3506920614
 30
0.0
 11
394.9005289865
 21
215.0504918672
 31
0.0
  0
LWPOLYLINE
  5
EC
330
1F
100
AcDbEntity
  8
0
  6
Continuous
 62
     7
370
    15
100
AcDbPolyline
 90
        7
 70
   128
 43
0.0
 10
391.9005303574
 20
213.6807100751
 10
392.893461783
 20
213.7579074033
 10
393.7744482351
 20
213.9807952471
 10
394.4442181778
 20
214.3242614247
 10
394.8272823286
 20
214.7496318348
 10
394.8999031377
 20
215.022436706
 10
394.9005289865
 20
215.0504918672
  0
LWPOLYLINE
  5
ED
330
1F
100
AcDbEntity
  8
0
  6
Continuous
 62
     7
370
    15
100
AcDbPolyline
 90
       10
 70
   128
 43
0.0
 10
391.9005303574
 20
293.0613117196
 10
392.003750701
 20
293.0507020928
 10
392.1152635408
 20
293.0152969338
 10
392.2782002878
 20
292.9182791986
 10
392.653389175
 20
292.4805352368
 10
393.4102042508
 20
290.4999324955
 10
394.1909207893
 20
285.9012255348
 10
394.631294806
 20
280.4424459018
 10
394.8344572377
 20
275.1524666228
 10
394.9005289865
 20
269.3506920614
  0
LWPOLYLINE
  5
EE
330
1F
100
AcDbEntity
  8
0
  6
Continuous
 62
     7
370
    15
100
AcDbPolyline
 90
        7
 70
   128
 43
0.0
 10
369.9005304766
 20
215.0504918672
 10
369.9011637759
 20
215.022436706
 10
369.973784585
 20
214.7496318348
 10
370.3568487358
 20
214.3242614247
 10
371.0266186786
 20
213.9807952471
 10
371.9076051307
 20
213.7579074033
 10
372.9005291057
 20
213.6807100751
  0
LWPOLYLINE
  5
EF
330
1F
100
AcDbEntity
  8
0
  6
Continuous
 62
     7
370
    15
100
AcDbPolyline
 90
       17
 70
   128
 43
0.0
 10
369.9005304766
 20
269.3506920614
 10
369.9540852499
 20
274.5982533224
 10
370.0683548045
 20
278.3259929992
 10
370.2538295579
 20
281.8305747487
 10
370.5303206039
 20
285.1785825469
 10
370.9282412124
 20
288.239113418
 10
371.2622209382
 20
289.9733291842
 10
371.5536578489
 20
291.0750241854
 10
371.8025519443
 20
291.7840810396
 10
372.0132022095
 20
292.245290605
 10
372.1913083387
 20
292.5475830116
 10
372.3426668835
 20
292.7465544917
 10
372.4727912736
 20
292.8774611928
 10
372.656045754
 20
293.0016176678
 10
372.7530299616
 20
293.0396268048
 10
372.8479429078
 20
293.0585587301
 10
372.9005291057
 20
293.0613117196
  0
LINE
  5
F0
330
1F
100
AcDbEntity
  8
0
  6
Continuous
 62
     7
370
    15
100
AcDbLine
 10
391.9005303574
 20
213.6807100751
 30
0.0
 11
372.9005291057
 21
213.6807100751
 31
0.0
  0
LINE
  5
F1
330
1F
100
AcDbEntity
  8
0
  6
Continuous
 62
     7
370
    15
100
AcDbLine
 10
391.9005303574
 20
293.0613117196
 30
0.0
 11
372.9005291057
 21
293.0613117196
 31
0.0
  0
LINE
  5
F2
330
1F
100
AcDbEntity
  8
0
  6
Continuous
 62
     7
370
    15
100
AcDbLine
 10
382.4005334568
 20
378.9509082116
 30
0.0
 11
424.4584127259
 21
378.9509082116
 31
0.0
  0
LINE
  5
F3
330
1F
100
AcDbEntity
  8
0
  6
Continuous
 62
     7
370
    15
100
AcDbLine
 10
424.4584127259
 20
392.9509067811
 30
0.0
 11
382.4005334568
 21
392.9509067811
 31
0.0
  0
LINE
  5
F4
330
1F
100
AcDbEntity
  8
0
  6
Continuous
 62
     7
370
    15
100
AcDbLine
 10
340.3426541877
 20
378.9509082116
 30
0.0
 11
382.4005334568
 21
378.9509082116
 31
0.0
  0
LINE
  5
F5
330
1F
100
AcDbEntity
  8
0
  6
Continuous
 62
     7
370
    15
100
AcDbLine
 10
382.4005334568
 20
392.9509067811
 30
0.0
 11
340.3426541877
 21
392.9509067811
 31
0.0
  0
LINE
  5
F6
330
1F
100
AcDbEntity
  8
0
  6
Continuous
 62
     7
370
    15
100
AcDbLine
 10
382.4005334568
 20
96.9509029664
 30
0.0
 11
340.3426541877
 21
96.9509029664
 31
0.0
  0
LINE
  5
F7
330
1F
100
AcDbEntity
  8
0
  6
Continuous
 62
     7
370
    15
100
AcDbLine
 10
340.3426541877
 20
110.9509015359
 30
0.0
 11
382.4005334568
 21
110.9509015359
 31
0.0
  0
LINE
  5
F8
330
1F
100
AcDbEntity
  8
0
  6
Continuous
 62
     7
370
    15
100
AcDbLine
 10
424.4584127259
 20
96.9509029664
 30
0.0
 11
382.4005334568
 21
96.9509029664
 31
0.0
  0
LINE
  5
F9
330
1F
100
AcDbEntity
  8
0
  6
Continuous
 62
     7
370
    15
100
AcDbLine
 10
382.4005334568
 20
110.9509015359
 30
0.0
 11
424.4584127259
 21
110.9509015359
 31
0.0
  0
LINE
  5
FA
330
1F
100
AcDbEntity
  8
0
  6
Continuous
 62
     7
370
    15
100
AcDbLine
 10
369.9005304766
 20
186.3115200676
 30
0.0
 11
369.9005304766
 21
194.4294007398
 31
0.0
  0
LINE
  5
FB
330
1F
100
AcDbEntity
  8
0
  6
Continuous
 62
     7
370
    15
100
AcDbLine
 10
352.4005322647
 20
194.4294007398
 30
0.0
 11
352.4005322647
 21
186.3115200676
 31
0.0
  0
LINE
  5
FC
330
1F
100
AcDbEntity
  8
0
  6
Continuous
 62
     7
370
    15
100
AcDbLine
 10
369.9005304766
 20
295.4724090077
 30
0.0
 11
369.9005304766
 21
303.5902896799
 31
0.0
  0
LINE
  5
FD
330
1F
100
AcDbEntity
  8
0
  6
Continuous
 62
     7
370
    15
100
AcDbLine
 10
352.4005322647
 20
303.5902896799
 30
0.0
 11
352.4005322647
 21
295.4724090077
 31
0.0
  0
ARC
  5
FE
330
1F
100
AcDbEntity
  8
0
  6
Continuous
 62
     7
370
    15
100
AcDbCircle
 10
391.7277812514
 20
186.4841575322
 30
0.0
 40
3.177644423875357
100
AcDbArc
 50
273.1163576654
 51
3.1812076645
  0
LINE
  5
FF
330
1F
100
AcDbEntity
  8
0
  6
Continuous
 62
     7
370
    15
100
AcDbLine
 10
394.9005289865
 20
215.0504918672
 30
0.0
 11
394.9005289865
 21
186.6604978122
 31
0.0
  0
LINE
  5
100
330
1F
100
AcDbEntity
  8
0
  6
Continuous
 62
     7
370
    15
100
AcDbLine
 10
398.710130055
 20
183.3112122394
 30
0.0
 11
391.9005303574
 21
183.3112122394
 31
0.0
  0
LINE
  5
101
330
1F
100
AcDbEntity
  8
0
  6
Continuous
 62
     7
370
    15
100
AcDbLine
 10
385.4005320859
 20
183.3779210128
 30
0.0
 11
379.4005348277
 21
183.3779210128
 31
0.0
  0
LINE
  5
102
330
1F
100
AcDbEntity
  8
0
  6
Continuous
 62
     7
370
    15
100
AcDbLine
 10
340.3426541877
 20
96.9509029664
 30
0.0
 11
328.4876069916
 21
96.9509029664
 31
0.0
  0
LINE
  5
103
330
1F
100
AcDbEntity
  8
0
  6
Continuous
 62
     7
370
    15
100
AcDbLine
 10
328.4876069916
 20
110.9509015359
 30
0.0
 11
340.3426541877
 21
110.9509015359
 31
0.0
  0
LINE
  5
104
330
1F
100
AcDbEntity
  8
0
  6
Continuous
 62
     7
370
    15
100
AcDbLine
 10
328.4876069916
 20
378.9509082116
 30
0.0
 11
340.3426541877
 21
378.9509082116
 31
0.0
  0
LINE
  5
105
330
1F
100
AcDbEntity
  8
0
  6
Continuous
 62
     7
370
    15
100
AcDbLine
 10
340.3426541877
 20
392.9509067811
 30
0.0
 11
328.4876069916
 21
392.9509067811
 31
0.0
  0
LINE
  5
106
330
1F
100
AcDbEntity
  8
0
  6
Continuous
 62
     7
370
    15
100
AcDbLine
 10
424.4584127259
 20
378.9509082116
 30
0.0
 11
436.3134636474
 21
378.9509082116
 31
0.0
  0
LINE
  5
107
330
1F
100
AcDbEntity
  8
0
  6
Continuous
 62
     7
370
    15
100
AcDbLine
 10
436.3134636474
 20
392.9509067811
 30
0.0
 11
424.4584127259
 21
392.9509067811
 31
0.0
  0
LINE
  5
108
330
1F
100
AcDbEntity
  8
0
  6
Continuous
 62
     7
370
    15
100
AcDbLine
 10
436.3134636474
 20
96.9509029664
 30
0.0
 11
424.4584127259
 21
96.9509029664
 31
0.0
  0
LINE
  5
109
330
1F
100
AcDbEntity
  8
0
  6
Continuous
 62
     7
370
    15
100
AcDbLine
 10
424.4584127259
 20
110.9509015359
 30
0.0
 11
436.3134636474
 21
110.9509015359
 31
0.0
  0
LINE
  5
10A
330
1F
100
AcDbEntity
  8
0
  6
Continuous
 62
     7
370
    15
100
AcDbLine
 10
379.4005348277
 20
375.6610000409
 30
0.0
 11
379.4005348277
 21
378.9509082116
 31
0.0
  0
LINE
  5
10B
330
1F
100
AcDbEntity
  8
0
  6
Continuous
 62
     7
370
    15
100
AcDbLine
 10
385.4005320859
 20
378.9509082116
 30
0.0
 11
385.4005320859
 21
375.6610000409
 31
0.0
  0
LINE
  5
10C
330
1F
100
AcDbEntity
  8
0
  6
Continuous
 62
     7
370
    15
100
AcDbLine
 10
394.9005289865
 20
296.3848853387
 30
0.0
 11
394.9005289865
 21
269.3506920614
 31
0.0
  0
LINE
  5
10D
330
1F
100
AcDbEntity
  8
0
  6
Continuous
 62
     7
370
    15
100
AcDbLine
 10
369.9005304766
 20
179.4549295582
 30
0.0
 11
369.9005304766
 21
186.3115200676
 31
0.0
  0
LINE
  5
10E
330
1F
100
AcDbEntity
  8
0
  6
Continuous
 62
     7
370
    15
100
AcDbLine
 10
352.4005322647
 20
186.3115200676
 30
0.0
 11
352.4005322647
 21
179.4549295582
 31
0.0
  0
LINE
  5
10F
330
1F
100
AcDbEntity
  8
0
  6
Continuous
 62
     7
370
    15
100
AcDbLine
 10
369.489109416
 20
310.4468801894
 30
0.0
 11
369.6562855435
 21
310.1787039913
 31
0.0
  0
LINE
  5
110
330
1F
100
AcDbEntity
  8
0
  6
Continuous
 62
     7
370
    15
100
AcDbLine
 10
369.9005304766
 20
310.0314209141
 30
0.0
 11
369.6562855435
 21
310.1787039913
 31
0.0
  0
LINE
  5
111
330
1F
100
AcDbEntity
  8
0
  6
Continuous
 62
     7
370
    15
100
AcDbLine
 10
369.9005304766
 20
303.5902896799
 30
0.0
 11
369.9005304766
 21
310.0314209141
 31
0.0
  0
LINE
  5
112
330
1F
100
AcDbEntity
  8
0
  6
Continuous
 62
     7
370
    15
100
AcDbLine
 10
352.4005322647
 20
310.4468801894
 30
0.0
 11
352.4005322647
 21
303.5902896799
 31
0.0
  0
LINE
  5
113
330
1F
100
AcDbEntity
  8
0
  6
Continuous
 62
     7
370
    15
100
AcDbLine
 10
379.4005348277
 20
183.3779210128
 30
0.0
 11
379.4005348277
 21
110.9509015359
 31
0.0
  0
LINE
  5
114
330
1F
100
AcDbEntity
  8
0
  6
Continuous
 62
     7
370
    15
100
AcDbLine
 10
385.4005320859
 20
183.3779210128
 30
0.0
 11
385.4005320859
 21
110.9509015359
 31
0.0
  0
LINE
  5
115
330
1F
100
AcDbEntity
  8
0
  6
Continuous
 62
     7
370
    15
100
AcDbLine
 10
395.0952424598
 20
293.8589820542
 30
0.0
 11
394.9005289865
 21
293.8589820542
 31
0.0
  0
LINE
  5
116
330
1F
100
AcDbEntity
  8
0
  6
Continuous
 62
     7
370
    15
100
AcDbLine
 10
395.0952424598
 20
201.9542636253
 30
0.0
 11
395.0952424598
 21
293.8589820542
 31
0.0
  0
LINE
  5
117
330
1F
100
AcDbEntity
  8
0
  6
Continuous
 62
     7
370
    15
100
AcDbLine
 10
394.9005289865
 20
201.9542636253
 30
0.0
 11
395.0952424598
 21
201.9542636253
 31
0.0
  0
LINE
  5
118
330
1F
100
AcDbEntity
  8
0
  6
Continuous
 62
     7
370
    15
100
AcDbLine
 10
401.095239718
 20
274.8005272724
 30
0.0
 11
395.0952424598
 21
293.8589820542
 31
0.0
  0
LINE
  5
119
330
1F
100
AcDbEntity
  8
0
  6
Continuous
 62
     7
370
    15
100
AcDbLine
 10
401.095239718
 20
226.3038879164
 30
0.0
 11
401.095239718
 21
274.8005272724
 31
0.0
  0
LWPOLYLINE
  5
11A
330
1F
100
AcDbEntity
  8
0
  6
Continuous
 62
     7
370
    15
100
AcDbPolyline
 90
        3
 70
   128
 43
0.0
 10
395.0952424598
 20
201.9542636253
 10
398.3139603329
 20
214.0684680917
 10
401.095239718
 20
226.3038879164
  0
LINE
  5
11B
330
1F
100
AcDbEntity
  8
0
  6
Continuous
 62
     7
370
    15
100
AcDbLine
 10
379.4005348277
 20
296.8893716015
 30
0.0
 11
385.4005320859
 21
296.8893716015
 31
0.0
  0
LINE
  5
11C
330
1F
100
AcDbEntity
  8
0
  6
Continuous
 62
     7
370
    15
100
AcDbLine
 10
379.4005348277
 20
375.6610000409
 30
0.0
 11
379.4005348277
 21
296.8893716015
 31
0.0
  0
LINE
  5
11D
330
1F
100
AcDbEntity
  8
0
  6
Continuous
 62
     7
370
    15
100
AcDbLine
 10
385.4005320859
 20
375.6610000409
 30
0.0
 11
385.4005320859
 21
296.8893716015
 31
0.0
  0
LINE
  5
11E
330
1F
100
AcDbEntity
  8
0
  6
Continuous
 62
     7
370
    15
100
AcDbLine
 10
339.9005330098
 20
394.9509108342
 30
0.0
 11
424.9005301786
 21
394.9509108342
 31
0.0
  0
LINE
  5
11F
330
1F
100
AcDbEntity
  8
0
  6
Continuous
 62
     7
370
    15
100
AcDbLine
 10
339.9005330098
 20
94.9508989133
 30
0.0
 11
424.9005301786
 21
94.9508989133
 31
0.0
  0
LINE
  5
120
330
1F
100
AcDbEntity
  8
0
  6
Continuous
 62
     7
370
    15
100
AcDbLine
 10
322.4005329353
 20
378.9509082116
 30
0.0
 11
322.4005329353
 21
392.9509067811
 31
0.0
  0
LINE
  5
121
330
1F
100
AcDbEntity
  8
0
  6
Continuous
 62
     7
370
    15
100
AcDbLine
 10
322.4005329353
 20
378.9509082116
 30
0.0
 11
328.4876069916
 21
378.9509082116
 31
0.0
  0
LINE
  5
122
330
1F
100
AcDbEntity
  8
0
  6
Continuous
 62
     7
370
    15
100
AcDbLine
 10
328.4876069916
 20
392.9509067811
 30
0.0
 11
322.4005329353
 21
392.9509067811
 31
0.0
  0
LINE
  5
123
330
1F
100
AcDbEntity
  8
0
  6
Continuous
 62
     7
370
    15
100
AcDbLine
 10
322.4005329353
 20
110.9509015359
 30
0.0
 11
322.4005329353
 21
96.9509029664
 31
0.0
  0
LINE
  5
124
330
1F
100
AcDbEntity
  8
0
  6
Continuous
 62
     7
370
    15
100
AcDbLine
 10
328.4876069916
 20
96.9509029664
 30
0.0
 11
322.4005329353
 21
96.9509029664
 31
0.0
  0
LINE
  5
125
330
1F
100
AcDbEntity
  8
0
  6
Continuous
 62
     7
370
    15
100
AcDbLine
 10
322.4005329353
 20
110.9509015359
 30
0.0
 11
328.4876069916
 21
110.9509015359
 31
0.0
  0
LINE
  5
126
330
1F
100
AcDbEntity
  8
0
  6
Continuous
 62
     7
370
    15
100
AcDbLine
 10
442.4005283904
 20
378.9509082116
 30
0.0
 11
442.4005283904
 21
392.9509067811
 31
0.0
  0
LINE
  5
127
330
1F
100
AcDbEntity
  8
0
  6
Continuous
 62
     7
370
    15
100
AcDbLine
 10
436.3134636474
 20
378.9509082116
 30
0.0
 11
442.4005283904
 21
378.9509082116
 31
0.0
  0
LINE
  5
128
330
1F
100
AcDbEntity
  8
0
  6
Continuous
 62
     7
370
    15
100
AcDbLine
 10
442.4005283904
 20
392.9509067811
 30
0.0
 11
436.3134636474
 21
392.9509067811
 31
0.0
  0
LINE
  5
129
330
1F
100
AcDbEntity
  8
0
  6
Continuous
 62
     7
370
    15
100
AcDbLine
 10
442.4005283904
 20
110.9509015359
 30
0.0
 11
442.4005283904
 21
96.9509029664
 31
0.0
  0
LINE
  5
12A
330
1F
100
AcDbEntity
  8
0
  6
Continuous
 62
     7
370
    15
100
AcDbLine
 10
442.4005283904
 20
96.9509029664
 30
0.0
 11
436.3134636474
 21
96.9509029664
 31
0.0
  0
LINE
  5
12B
330
1F
100
AcDbEntity
  8
0
  6
Continuous
 62
     7
370
    15
100
AcDbLine
 10
436.3134636474
 20
110.9509015359
 30
0.0
 11
442.4005283904
 21
110.9509015359
 31
0.0
  0
LINE
  5
12C
330
1F
100
AcDbEntity
  8
0
  6
Continuous
 62
     7
370
    15
100
AcDbLine
 10
404.9074112368
 20
274.8005272724
 30
0.0
 11
401.095239718
 21
274.8005272724
 31
0.0
  0
LINE
  5
12D
330
1F
100
AcDbEntity
  8
0
  6
Continuous
 62
     7
370
    15
100
AcDbLine
 10
409.9005295825
 20
274.9509042032
 30
0.0
 11
409.9005295825
 21
226.3038879164
 31
0.0
  0
LINE
  5
12E
330
1F
100
AcDbEntity
  8
0
  6
Continuous
 62
     7
370
    15
100
AcDbLine
 10
409.9005295825
 20
226.3038879164
 30
0.0
 11
401.095239718
 21
226.3038879164
 31
0.0
  0
LWPOLYLINE
  5
12F
330
1F
100
AcDbEntity
  8
0
  6
Continuous
 62
     7
370
    15
100
AcDbPolyline
 90
       14
 70
   128
 43
0.0
 10
409.9005295825
 20
236.3919200279
 10
412.8435536218
 20
232.2931041844
 10
415.3164311242
 20
227.891047848
 10
417.2356634331
 20
223.558876095
 10
418.7755270791
 20
219.0772084423
 10
419.3966223788
 20
216.7413601555
 10
419.6600749088
 20
214.3557624795
 10
419.2134871078
 20
211.2279752173
 10
418.3232321334
 20
208.1695454099
 10
415.7390131545
 20
200.7064254858
 10
412.8204270196
 20
193.3582195916
 10
409.8705633474
 20
186.0220612861
 10
408.8161497307
 20
183.3112122394
 10
407.4408992124
 20
179.7754907884
  0
ARC
  5
130
330
1F
100
AcDbEntity
  8
0
  6
Continuous
 62
     7
370
    15
100
AcDbCircle
 10
471.8738059339
 20
210.5911108458
 30
0.0
 40
32.92211569037767
100
AcDbArc
 50
148.2670589839
 51
166.2108025747
  0
ARC
  5
131
330
1F
100
AcDbEntity
  8
0
  6
Continuous
 62
     7
370
    15
100
AcDbCircle
 10
461.621400174
 20
215.6621723562
 30
0.0
 40
22.40580504241398
100
AcDbArc
 50
194.2034824779
 51
217.6075635312
  0
LINE
  5
132
330
1F
100
AcDbEntity
  8
0
  6
Continuous
 62
     7
370
    15
100
AcDbLine
 10
443.7044097972
 20
192.4509065129
 30
0.0
 11
443.9005388808
 21
194.9509041287
 31
0.0
  0
LWPOLYLINE
  5
133
330
1F
100
AcDbEntity
  8
0
  6
Continuous
 62
     7
370
    15
100
AcDbPolyline
 90
        4
 70
   128
 43
0.0
 10
442.4883558345
 20
177.4509021916
 10
443.6143918824
 20
182.9838821568
 10
443.8499494386
 20
188.7766862191
 10
443.8512011361
 20
192.4509065129
  0
LINE
  5
134
330
1F
100
AcDbEntity
  8
0
  6
Continuous
 62
     7
370
    15
100
AcDbLine
 10
441.9529422117
 20
176.2009033837
 30
0.0
 11
442.4883558345
 21
177.4509021916
 31
0.0
  0
LWPOLYLINE
  5
135
330
1F
100
AcDbEntity
  8
0
  6
Continuous
 62
     7
370
    15
100
AcDbPolyline
 90
        6
 70
   128
 43
0.0
 10
431.1074747634
 20
159.9509039797
 10
433.7869568658
 20
162.8537395872
 10
436.3614900899
 20
165.8456021823
 10
438.6655970407
 20
169.1467607297
 10
440.5656441045
 20
172.6959044017
 10
441.9529422117
 20
176.2009033837
  0
LWPOLYLINE
  5
136
330
1F
100
AcDbEntity
  8
0
  6
Continuous
 62
     7
370
    15
100
AcDbPolyline
 90
        3
 70
   128
 43
0.0
 10
369.0472229314
 20
311.387173263
 10
369.1618650151
 20
311.0847318448
 10
369.489109416
 20
310.4468801894
  0
LINE
  5
137
330
1F
100
AcDbEntity
  8
0
  6
Continuous
 62
     7
370
    15
100
AcDbLine
 10
403.0047639203
 20
368.2902226128
 30
0.0
 11
403.0003159237
 21
368.287607459
 31
0.0
  0
LWPOLYLINE
  5
138
330
1F
100
AcDbEntity
  8
0
  6
Continuous
 62
     7
370
    15
100
AcDbPolyline
 90
        4
 70
   128
 43
0.0
 10
395.5998702836
 20
309.7604805507
 10
396.4612542582
 20
316.7863035478
 10
397.7534308028
 20
326.6617724575
 10
398.5076381755
 20
332.5844997443
  0
LINE
  5
139
330
1F
100
AcDbEntity
  8
0
  6
Continuous
 62
     7
370
    15
100
AcDbLine
 10
394.9005289865
 20
301.3555699863
 30
0.0
 11
394.8993890476
 21
301.3203063883
 31
0.0
  0
LINE
  5
13A
330
1F
100
AcDbEntity
  8
0
  6
Continuous
 62
     7
370
    15
100
AcDbLine
 10
394.9005289865
 20
301.3866016545
 30
0.0
 11
394.9005289865
 21
301.3555699863
 31
0.0
  0
LWPOLYLINE
  5
13B
330
1F
100
AcDbEntity
  8
0
  6
Continuous
 62
     7
370
    15
100
AcDbPolyline
 90
       10
 70
   128
 43
0.0
 10
398.710130055
 20
183.3112122394
 10
401.948070426
 20
183.0561155357
 10
405.08043607
 20
182.2265753426
 10
406.0147239757
 20
181.8172180929
 10
406.9436996174
 20
181.2222892322
 10
407.2799368692
 20
180.872469572
 10
407.4752389384
 20
180.5088290848
 10
407.5254707527
 20
180.1771366872
 10
407.4667452765
 20
179.8475528039
 10
407.4408992124
 20
179.7754907884
  0
LWPOLYLINE
  5
13C
330
1F
100
AcDbEntity
  8
0
  6
Continuous
 62
     7
370
    15
100
AcDbPolyline
 90
        9
 70
   128
 43
0.0
 10
392.6032989216
 20
310.7418263234
 10
392.5755529595
 20
308.9552516021
 10
392.6472275448
 20
306.8948307909
 10
392.8322701645
 20
304.669103948
 10
393.1294812751
 20
302.4361835696
 10
393.5198469949
 20
300.3719517865
 10
393.9701973391
 20
298.6266756334
 10
394.4419681025
 20
297.2907939829
 10
394.9005289865
 20
296.3848853387
  0
ARC
  5
13D
330
1F
100
AcDbEntity
  8
0
  6
Continuous
 62
     7
370
    15
100
AcDbCircle
 10
381.6735654718
 20
172.2346315064
 30
0.0
 40
4.988917662515733
100
AcDbArc
 50
318.3354071454
 51
41.6645928546
  0
LINE
  5
13E
330
1F
100
AcDbEntity
  8
0
  6
Continuous
 62
     7
370
    15
100
AcDbLine
 10
394.9005289865
 20
299.2026725687
 30
0.0
 11
394.9005289865
 21
296.3848853387
 31
0.0
  0
ARC
  5
13F
330
1F
100
AcDbEntity
  8
0
  6
Continuous
 62
     7
370
    15
100
AcDbCircle
 10
401.518845399
 20
332.2210652746
 30
0.0
 40
3.033060097752942
100
AcDbArc
 50
90.5831701193
 51
173.1180342827
  0
LINE
  5
140
330
1F
100
AcDbEntity
  8
0
  6
Continuous
 62
     7
370
    15
100
AcDbLine
 10
412.2626765561
 20
335.2539682664
 30
0.0
 11
401.4879747224
 21
335.2539682664
 31
0.0
  0
LINE
  5
141
330
1F
100
AcDbEntity
  8
0
  6
Continuous
 62
     7
370
    15
100
AcDbLine
 10
412.4005346489
 20
364.9509021916
 30
0.0
 11
412.4005346489
 21
334.9509084501
 31
0.0
  0
LINE
  5
142
330
1F
100
AcDbEntity
  8
0
  6
Continuous
 62
     7
370
    15
100
AcDbLine
 10
439.9005307746
 20
218.4381088145
 30
0.0
 11
439.9005307746
 21
210.1645426728
 31
0.0
  0
LINE
  5
143
330
1F
100
AcDbEntity
  8
0
  6
Continuous
 62
     7
370
    15
100
AcDbLine
 10
449.900536139
 20
225.9509054847
 30
0.0
 11
449.900536139
 21
203.9509037413
 31
0.0
  0
LINE
  5
144
330
1F
100
AcDbEntity
  8
0
  6
Continuous
 62
     7
370
    15
100
AcDbLine
 10
394.8993890476
 20
301.3203063883
 30
0.0
 11
394.9005289865
 21
300.0698121168
 31
0.0
  0
LINE
  5
145
330
1F
100
AcDbEntity
  8
0
  6
Continuous
 62
     7
370
    15
100
AcDbLine
 10
394.9005289865
 20
300.0698121168
 30
0.0
 11
394.9005289865
 21
299.2026725687
 31
0.0
  0
LINE
  5
146
330
1F
100
AcDbEntity
  8
0
  6
Continuous
 62
     7
370
    15
100
AcDbLine
 10
369.9005304766
 20
178.4509042181
 30
0.0
 11
369.9005304766
 21
179.4549295582
 31
0.0
  0
LINE
  5
147
330
1F
100
AcDbEntity
  8
0
  6
Continuous
 62
     7
370
    15
100
AcDbLine
 10
352.4005322647
 20
179.4549295582
 30
0.0
 11
352.4005322647
 21
178.4509042181
 31
0.0
  0
LINE
  5
148
330
1F
100
AcDbEntity
  8
0
  6
Continuous
 62
     7
370
    15
100
AcDbLine
 10
352.4005322647
 20
311.4509055294
 30
0.0
 11
352.4005322647
 21
310.4468801894
 31
0.0
  0
LINE
  5
149
330
1F
100
AcDbEntity
  8
0
  6
Continuous
 62
     7
370
    15
100
AcDbLine
 10
394.9005289865
 20
301.3555699863
 30
0.0
 11
394.9005289865
 21
300.0698121168
 31
0.0
  0
LINE
  5
14A
330
1F
100
AcDbEntity
  8
0
  6
Continuous
 62
     7
370
    15
100
AcDbLine
 10
412.2626765561
 20
335.2539682664
 30
0.0
 11
404.9074112368
 21
274.8005272724
 31
0.0
  0
LINE
  5
14B
330
1F
100
AcDbEntity
  8
0
  6
Continuous
 62
     7
370
    15
100
AcDbLine
 10
432.10747679
 20
159.9509039797
 30
0.0
 11
434.5452322555
 21
162.4509015955
 31
0.0
  0
LWPOLYLINE
  5
14C
330
1F
100
AcDbEntity
  8
0
  6
Continuous
 62
     7
370
    15
100
AcDbPolyline
 90
        5
 70
   128
 43
0.0
 10
442.952929337
 20
176.2009033837
 10
440.7249226165
 20
170.9990197696
 10
437.5661297631
 20
166.1071846165
 10
434.8794653011
 20
162.9960084237
 10
432.10747679
 20
159.9509039797
  0
LINE
  5
14D
330
1F
100
AcDbEntity
  8
0
  6
Continuous
 62
     7
370
    15
100
AcDbLine
 10
443.4883429599
 20
177.4509021916
 30
0.0
 11
442.952929337
 21
176.2009033837
 31
0.0
  0
ARC
  5
14E
330
1F
100
AcDbEntity
  8
0
  6
Continuous
 62
     7
370
    15
100
AcDbCircle
 10
396.2734723249
 20
189.3026339075
 30
0.0
 40
48.679642087319
100
AcDbArc
 50
345.9089314541
 51
3.708094563
  0
LINE
  5
14F
330
1F
100
AcDbEntity
  8
0
  6
Continuous
 62
     7
370
    15
100
AcDbLine
 10
444.7044118238
 20
192.4509065129
 30
0.0
 11
444.8512031627
 21
192.4509065129
 31
0.0
  0
LINE
  5
150
330
1F
100
AcDbEntity
  8
0
  6
Continuous
 62
     7
370
    15
100
AcDbLine
 10
444.9005260062
 20
194.9509041287
 30
0.0
 11
444.7044118238
 21
192.4509065129
 31
0.0
  0
LINE
  5
151
330
1F
100
AcDbEntity
  8
0
  6
Continuous
 62
     7
370
    15
100
AcDbLine
 10
444.9005260062
 20
194.9509041287
 30
0.0
 11
443.9005388808
 21
194.9509041287
 31
0.0
  0
LINE
  5
152
330
1F
100
AcDbEntity
  8
0
  6
Continuous
 62
     7
370
    15
100
AcDbLine
 10
444.7044118238
 20
192.4509065129
 30
0.0
 11
443.7044097972
 21
192.4509065129
 31
0.0
  0
LINE
  5
153
330
1F
100
AcDbEntity
  8
0
  6
Continuous
 62
     7
370
    15
100
AcDbLine
 10
443.4883429599
 20
177.4509021916
 30
0.0
 11
442.4883558345
 21
177.4509021916
 31
0.0
  0
LINE
  5
154
330
1F
100
AcDbEntity
  8
0
  6
Continuous
 62
     7
370
    15
100
AcDbLine
 10
442.952929337
 20
176.2009033837
 30
0.0
 11
441.9529422117
 21
176.2009033837
 31
0.0
  0
LINE
  5
155
330
1F
100
AcDbEntity
  8
0
  6
Continuous
 62
     7
370
    15
100
AcDbLine
 10
432.10747679
 20
159.9509039797
 30
0.0
 11
431.1074747634
 21
159.9509039797
 31
0.0
  0
ARC
  5
156
330
1F
100
AcDbEntity
  8
0
  6
Continuous
 62
     7
370
    15
100
AcDbCircle
 10
153.6131678091
 20
299.2008072129
 30
0.0
 40
8.130325942198978
100
AcDbArc
 50
91.8746015899
 51
169.1149974348
  0
LINE
  5
157
330
1F
100
AcDbEntity
  8
0
  6
Continuous
 62
     7
370
    15
100
AcDbLine
 10
153.3472075057
 20
307.3267819263
 30
0.0
 11
128.4005328012
 21
307.3267819263
 31
0.0
  0
LINE
  5
158
330
1F
100
AcDbEntity
  8
0
  6
Continuous
 62
     7
370
    15
100
AcDbLine
 10
157.4005319667
 20
313.9509031452
 30
0.0
 11
157.4005319667
 21
175.9509066023
 31
0.0
  0
LINE
  5
159
330
1F
100
AcDbEntity
  8
0
  6
Continuous
 62
     7
370
    15
100
AcDbLine
 10
141.4005293441
 20
265.9509045907
 30
0.0
 11
141.4005293441
 21
213.4208934285
 31
0.0
  0
ARC
  5
15A
330
1F
100
AcDbEntity
  8
0
  6
Continuous
 62
     7
370
    15
100
AcDbCircle
 10
300.6769008604
 20
264.6565699506
 30
0.0
 40
159.1902894335348
100
AcDbArc
 50
166.9004183863
 51
179.5341378576
  0
LINE
  5
15B
330
1F
100
AcDbEntity
  8
0
  6
Continuous
 62
     7
370
    15
100
AcDbLine
 10
125.4005267215
 20
268.9509050824
 30
0.0
 11
125.4005267215
 21
305.3971635081
 31
0.0
  0
LWPOLYLINE
  5
15C
330
1F
100
AcDbEntity
  8
0
  6
Continuous
 62
     7
370
    15
100
AcDbPolyline
 90
        7
 70
   128
 43
0.0
 10
128.4005328012
 20
307.3267819263
 10
127.5212450814
 20
307.2432907202
 10
126.7437471938
 20
307.0099869646
 10
126.0973795247
 20
306.6405834533
 10
125.6127490592
 20
306.1171093859
 10
125.4005416227
 20
305.4034219958
 10
125.4005267215
 20
305.3971635081
  0
ARC
  5
15D
330
1F
100
AcDbEntity
  8
0
  6
Continuous
 62
     7
370
    15
100
AcDbCircle
 10
128.4005325628
 20
268.9509048738
 30
0.0
 40
3.0
100
AcDbArc
 50
180.0
 51
270.0000000022
  0
LINE
  5
15E
330
1F
100
AcDbEntity
  8
0
  6
Continuous
 62
     7
370
    15
100
AcDbLine
 10
141.4918734622
 20
265.9509045907
 30
0.0
 11
128.4005328012
 21
265.9509045907
 31
0.0
  0
LINE
  5
15F
330
1F
100
AcDbEntity
  8
0
  6
Continuous
 62
     7
370
    15
100
AcDbLine
 10
125.4005267215
 20
305.3971635081
 30
0.0
 11
125.4005267215
 21
310.9509045162
 31
0.0
  0
LINE
  5
160
330
1F
100
AcDbEntity
  8
0
  6
Continuous
 62
     7
370
    15
100
AcDbLine
 10
133.4005280328
 20
244.9509048738
 30
0.0
 11
133.4005280328
 21
265.9509045907
 31
0.0
  0
LINE
  5
161
330
1F
100
AcDbEntity
  8
0
  6
Continuous
 62
     7
370
    15
100
AcDbLine
 10
130.4005368543
 20
244.9509048738
 30
0.0
 11
133.4005280328
 21
244.9509048738
 31
0.0
  0
LINE
  5
162
330
1F
100
AcDbEntity
  8
0
  6
Continuous
 62
     7
370
    15
100
AcDbLine
 10
130.4005368543
 20
221.9509048291
 30
0.0
 11
130.4005368543
 21
244.9509048738
 31
0.0
  0
LWPOLYLINE
  5
163
330
1F
100
AcDbEntity
  8
0
  6
Continuous
 62
     7
370
    15
100
AcDbPolyline
 90
       20
 70
   128
 43
0.0
 10
229.4005288673
 20
306.608177153
 10
229.2878462863
 20
306.3151681699
 10
228.9625166846
 20
306.0503931619
 10
228.4610553575
 20
305.8460051097
 10
227.8399079037
 20
305.727909682
 10
227.1693631006
 20
305.7114513494
 10
226.525081594
 20
305.7987013735
 10
225.9793712688
 20
305.97831252
 10
225.5936696124
 20
306.227471111
 10
225.4116891814
 20
306.5153987982
 10
225.4539339733
 20
306.8080427028
 10
225.7154568029
 20
307.0728177108
 10
226.1669172836
 20
307.2820374646
 10
226.7576142144
 20
307.4148850419
 10
227.4207456899
 20
307.4586683788
 10
228.0813588691
 20
307.4093865134
 10
228.6652310682
 20
307.2716476299
 10
229.1067599249
 20
307.058460442
 10
229.3559892965
 20
306.7910330273
 10
229.4005288673
 20
306.608177153
  0
ARC
  5
164
330
1F
100
AcDbEntity
  8
0
  6
Continuous
 62
     7
370
    15
100
AcDbCircle
 10
179.5527319587
 20
207.0998374618
 30
0.0
 40
3.165183610486293
100
AcDbArc
 50
185.1916518999
 51
276.3085898628
  0
LINE
  5
165
330
1F
100
AcDbEntity
  8
0
  6
Continuous
 62
     7
370
    15
100
AcDbLine
 10
196.3645427418
 20
203.9538206436
 30
0.0
 11
179.9005328608
 21
203.9538206436
 31
0.0
  0
LWPOLYLINE
  5
166
330
1F
100
AcDbEntity
  8
0
  6
Continuous
 62
     7
370
    15
100
AcDbPolyline
 90
        6
 70
   128
 43
0.0
 10
176.4005332184
 20
184.3108491875
 10
176.597444613
 20
184.8611155428
 10
177.1664976073
 20
185.3638397433
 10
178.0431329203
 20
185.7548573889
 10
179.1292487574
 20
185.9822453834
 10
179.9005328608
 20
186.026255963
  0
LINE
  5
167
330
1F
100
AcDbEntity
  8
0
  6
Continuous
 62
     7
370
    15
100
AcDbLine
 10
176.4005332184
 20
184.2823507168
 30
0.0
 11
176.4005332184
 21
184.3108491875
 31
0.0
  0
LWPOLYLINE
  5
168
330
1F
100
AcDbEntity
  8
0
  6
Continuous
 62
     7
370
    15
100
AcDbPolyline
 90
        6
 70
   128
 43
0.0
 10
179.9005328608
 20
182.7276864924
 10
178.7420420838
 20
182.8110100605
 10
177.714152534
 20
183.0544726826
 10
176.9328772021
 20
183.4379428901
 10
176.4862446976
 20
183.9264849104
 10
176.4005332184
 20
184.2823507168
  0
LINE
  5
169
330
1F
100
AcDbEntity
  8
0
  6
Continuous
 62
     7
370
    15
100
AcDbLine
 10
185.900530119
 20
182.7276864924
 30
0.0
 11
179.9005328608
 21
182.7276864924
 31
0.0
  0
LWPOLYLINE
  5
16A
330
1F
100
AcDbEntity
  8
0
  6
Continuous
 62
     7
370
    15
100
AcDbPolyline
 90
        6
 70
   128
 43
0.0
 10
189.4005297613
 20
184.2823507168
 10
189.2036258173
 20
183.7502898552
 10
188.6345653725
 20
183.2926975467
 10
187.7579300595
 20
182.9541915931
 10
186.6718142224
 20
182.763959644
 10
185.900530119
 20
182.7276864924
  0
LINE
  5
16B
330
1F
100
AcDbEntity
  8
0
  6
Continuous
 62
     7
370
    15
100
AcDbLine
 10
189.4005297613
 20
184.2823507168
 30
0.0
 11
189.4005297613
 21
184.3108491875
 31
0.0
  0
LWPOLYLINE
  5
16C
330
1F
100
AcDbEntity
  8
0
  6
Continuous
 62
     7
370
    15
100
AcDbPolyline
 90
        6
 70
   128
 43
0.0
 10
185.900530119
 20
186.026255963
 10
187.0590283466
 20
185.9254794099
 10
188.0869104457
 20
185.6372462489
 10
188.8681857777
 20
185.2011525907
 10
189.3148257327
 20
184.6749739625
 10
189.4005297613
 20
184.3108491875
  0
LINE
  5
16D
330
1F
100
AcDbEntity
  8
0
  6
Continuous
 62
     7
370
    15
100
AcDbLine
 10
185.900530119
 20
186.026255963
 30
0.0
 11
179.9005328608
 21
186.026255963
 31
0.0
  0
LWPOLYLINE
  5
16E
330
1F
100
AcDbEntity
  8
0
  6
Continuous
 62
     7
370
    15
100
AcDbPolyline
 90
        6
 70
   128
 43
0.0
 10
176.4005332184
 20
178.2815599717
 10
176.597444613
 20
178.5639593281
 10
177.1664976073
 20
178.8304516949
 10
178.0431329203
 20
179.0429199018
 10
179.1292487574
 20
179.1684398331
 10
179.9005328608
 20
179.1929000892
  0
LINE
  5
16F
330
1F
100
AcDbEntity
  8
0
  6
Continuous
 62
     7
370
    15
100
AcDbLine
 10
176.4005332184
 20
178.2672176041
 30
0.0
 11
176.4005332184
 21
178.2815599717
 31
0.0
  0
LWPOLYLINE
  5
170
330
1F
100
AcDbEntity
  8
0
  6
Continuous
 62
     7
370
    15
100
AcDbPolyline
 90
        6
 70
   128
 43
0.0
 10
179.9005328608
 20
177.5325754561
 10
178.7420420838
 20
177.569314269
 10
177.714152534
 20
177.6785248794
 10
176.9328772021
 20
177.8558635988
 10
176.4862446976
 20
178.0905568876
 10
176.4005332184
 20
178.2672176041
  0
LINE
  5
171
330
1F
100
AcDbEntity
  8
0
  6
Continuous
 62
     7
370
    15
100
AcDbLine
 10
185.900530119
 20
177.5325754561
 30
0.0
 11
179.9005328608
 21
177.5325754561
 31
0.0
  0
LWPOLYLINE
  5
172
330
1F
100
AcDbEntity
  8
0
  6
Continuous
 62
     7
370
    15
100
AcDbPolyline
 90
        6
 70
   128
 43
0.0
 10
189.4005297613
 20
178.2672176041
 10
189.2036258173
 20
178.0048305072
 10
188.6345653725
 20
177.7879515566
 10
187.7579300595
 20
177.6332104482
 10
186.6718142224
 20
177.5485345997
 10
185.900530119
 20
177.5325754561
  0
LINE
  5
173
330
1F
100
AcDbEntity
  8
0
  6
Continuous
 62
     7
370
    15
100
AcDbLine
 10
189.4005297613
 20
178.2672176041
 30
0.0
 11
189.4005297613
 21
178.2815599717
 31
0.0
  0
LWPOLYLINE
  5
174
330
1F
100
AcDbEntity
  8
0
  6
Continuous
 62
     7
370
    15
100
AcDbPolyline
 90
        6
 70
   128
 43
0.0
 10
185.900530119
 20
179.1929000892
 10
187.0590283466
 20
179.1369685807
 10
188.0869104457
 20
178.9785468854
 10
188.8681857777
 20
178.7433693089
 10
189.3148257327
 20
178.467302946
 10
189.4005297613
 20
178.2815599717
  0
LINE
  5
175
330
1F
100
AcDbEntity
  8
0
  6
Continuous
 62
     7
370
    15
100
AcDbLine
 10
185.900530119
 20
179.1929000892
 30
0.0
 11
179.9005328608
 21
179.1929000892
 31
0.0
  0
LWPOLYLINE
  5
176
330
1F
100
AcDbEntity
  8
0
  6
Continuous
 62
     7
370
    15
100
AcDbPolyline
 90
        6
 70
   128
 43
0.0
 10
278.4005331737
 20
184.2823507168
 10
278.2036217791
 20
183.7502898552
 10
277.6345669222
 20
183.2926975467
 10
276.7579297465
 20
182.9541915931
 10
275.6718176347
 20
182.763959644
 10
274.9005316687
 20
182.7276864924
  0
LINE
  5
177
330
1F
100
AcDbEntity
  8
0
  6
Continuous
 62
     7
370
    15
100
AcDbLine
 10
278.4005331737
 20
184.2823507168
 30
0.0
 11
278.4005331737
 21
184.3108491875
 31
0.0
  0
LWPOLYLINE
  5
178
330
1F
100
AcDbEntity
  8
0
  6
Continuous
 62
     7
370
    15
100
AcDbPolyline
 90
        6
 70
   128
 43
0.0
 10
274.9005316687
 20
186.026255963
 10
276.059026171
 20
185.9254794099
 10
277.0869119954
 20
185.6372462489
 10
277.8681873274
 20
185.2011525907
 10
278.3148216945
 20
184.6749739625
 10
278.4005331737
 20
184.3108491875
  0
LINE
  5
179
330
1F
100
AcDbEntity
  8
0
  6
Continuous
 62
     7
370
    15
100
AcDbLine
 10
268.9005325479
 20
186.026255963
 30
0.0
 11
274.9005316687
 21
186.026255963
 31
0.0
  0
LWPOLYLINE
  5
17A
330
1F
100
AcDbEntity
  8
0
  6
Continuous
 62
     7
370
    15
100
AcDbPolyline
 90
        6
 70
   128
 43
0.0
 10
265.4005310428
 20
184.3108491875
 10
265.5974424374
 20
184.8611155428
 10
266.166499157
 20
185.3638397433
 10
267.04313447
 20
185.7548573889
 10
268.1292465818
 20
185.9822453834
 10
268.9005325479
 20
186.026255963
  0
LINE
  5
17B
330
1F
100
AcDbEntity
  8
0
  6
Continuous
 62
     7
370
    15
100
AcDbLine
 10
265.4005310428
 20
184.2823507168
 30
0.0
 11
265.4005310428
 21
184.3108491875
 31
0.0
  0
LWPOLYLINE
  5
17C
330
1F
100
AcDbEntity
  8
0
  6
Continuous
 62
     7
370
    15
100
AcDbPolyline
 90
        6
 70
   128
 43
0.0
 10
268.9005325479
 20
182.7276864924
 10
267.7420399082
 20
182.8110100605
 10
266.7141540838
 20
183.0544726826
 10
265.9328787518
 20
183.4379428901
 10
265.486242522
 20
183.9264849104
 10
265.4005310428
 20
184.2823507168
  0
LINE
  5
17D
330
1F
100
AcDbEntity
  8
0
  6
Continuous
 62
     7
370
    15
100
AcDbLine
 10
268.9005325479
 20
182.7276864924
 30
0.0
 11
274.9005316687
 21
182.7276864924
 31
0.0
  0
LWPOLYLINE
  5
17E
330
1F
100
AcDbEntity
  8
0
  6
Continuous
 62
     7
370
    15
100
AcDbPolyline
 90
        6
 70
   128
 43
0.0
 10
256.9005324435
 20
191.714122323
 10
255.7420379412
 20
191.8387668111
 10
254.7141521168
 20
192.2011220731
 10
253.9328767848
 20
192.7665429093
 10
253.4862442804
 20
193.4781553127
 10
253.4005328012
 20
193.990822313
  0
LINE
  5
17F
330
1F
100
AcDbEntity
  8
0
  6
Continuous
 62
     7
370
    15
100
AcDbLine
 10
256.9005324435
 20
191.714122323
 30
0.0
 11
274.9005316687
 21
191.714122323
 31
0.0
  0
LWPOLYLINE
  5
180
330
1F
100
AcDbEntity
  8
0
  6
Continuous
 62
     7
370
    15
100
AcDbPolyline
 90
        6
 70
   128
 43
0.0
 10
278.4005331737
 20
193.990822313
 10
278.2036217791
 20
193.2225854971
 10
277.6345669222
 20
192.5531173028
 10
276.7579297465
 20
192.0522035934
 10
275.6718176347
 20
191.7684258796
 10
274.9005316687
 20
191.714122323
  0
LINE
  5
181
330
1F
100
AcDbEntity
  8
0
  6
Continuous
 62
     7
370
    15
100
AcDbLine
 10
278.4005331737
 20
193.990822313
 30
0.0
 11
278.4005331737
 21
194.031681297
 31
0.0
  0
LWPOLYLINE
  5
182
330
1F
100
AcDbEntity
  8
0
  6
Continuous
 62
     7
370
    15
100
AcDbPolyline
 90
        6
 70
   128
 43
0.0
 10
274.9005316687
 20
196.4433783569
 10
276.059026171
 20
196.3040748514
 10
277.0869119954
 20
195.9041202344
 10
277.8681873274
 20
195.2945100047
 10
278.3148216945
 20
194.5512847878
 10
278.4005331737
 20
194.031681297
  0
LINE
  5
183
330
1F
100
AcDbEntity
  8
0
  6
Continuous
 62
     7
370
    15
100
AcDbLine
 10
256.9005324435
 20
196.4433783569
 30
0.0
 11
274.9005316687
 21
196.4433783569
 31
0.0
  0
LWPOLYLINE
  5
184
330
1F
100
AcDbEntity
  8
0
  6
Continuous
 62
     7
370
    15
100
AcDbPolyline
 90
        6
 70
   128
 43
0.0
 10
253.4005328012
 20
194.031681297
 10
253.5974441958
 20
194.8152104296
 10
254.16649719
 20
195.5225797273
 10
255.0431362283
 20
196.0676008739
 10
256.1292483402
 20
196.3825778939
 10
256.9005324435
 20
196.4433783569
  0
LINE
  5
185
330
1F
100
AcDbEntity
  8
0
  6
Continuous
 62
     7
370
    15
100
AcDbLine
 10
253.4005328012
 20
194.031681297
 30
0.0
 11
253.4005328012
 21
193.990822313
 31
0.0
  0
ARC
  5
186
330
1F
100
AcDbEntity
  8
0
  6
Continuous
 62
     7
370
    15
100
AcDbCircle
 10
256.5527302077
 20
207.0998358294
 30
0.0
 40
3.165182134459292
100
AcDbArc
 50
185.191624655
 51
276.3086171077
  0
LINE
  5
187
330
1F
100
AcDbEntity
  8
0
  6
Continuous
 62
     7
370
    15
100
AcDbLine
 10
256.9005324435
 20
203.9538206436
 30
0.0
 11
274.9005316687
 21
203.9538206436
 31
0.0
  0
ARC
  5
188
330
1F
100
AcDbEntity
  8
0
  6
Continuous
 62
     7
370
    15
100
AcDbCircle
 10
275.1584615305
 20
207.2098367066
 30
0.0
 40
3.266216223129081
100
AcDbArc
 50
265.4706931277
 51
353.0290352298
  0
LINE
  5
189
330
1F
100
AcDbEntity
  8
0
  6
Continuous
 62
     7
370
    15
100
AcDbLine
 10
278.4005331737
 20
206.8134279825
 30
0.0
 11
278.4005331737
 21
206.8641515352
 31
0.0
  0
ARC
  5
18A
330
1F
100
AcDbEntity
  8
0
  6
Continuous
 62
     7
370
    15
100
AcDbCircle
 10
275.1769917149
 20
206.6024536935
 30
0.0
 40
3.234146764878369
100
AcDbArc
 50
4.6412837536
 51
94.9037194238
  0
LINE
  5
18B
330
1F
100
AcDbEntity
  8
0
  6
Continuous
 62
     7
370
    15
100
AcDbLine
 10
256.9005324435
 20
209.82476267
 30
0.0
 11
274.9005316687
 21
209.82476267
 31
0.0
  0
ARC
  5
18C
330
1F
100
AcDbEntity
  8
0
  6
Continuous
 62
     7
370
    15
100
AcDbCircle
 10
256.6997149479
 20
206.5130319884
 30
0.0
 40
3.317813703870166
100
AcDbArc
 50
86.5299341669
 51
173.9250927255
  0
LINE
  5
18D
330
1F
100
AcDbEntity
  8
0
  6
Continuous
 62
     7
370
    15
100
AcDbLine
 10
253.4005328012
 20
206.8641515352
 30
0.0
 11
253.4005328012
 21
206.8134279825
 31
0.0
  0
ARC
  5
18E
330
1F
100
AcDbEntity
  8
0
  6
Continuous
 62
     7
370
    15
100
AcDbCircle
 10
256.7629620476
 20
222.0597258979
 30
0.0
 40
3.363718879762029
100
AcDbArc
 50
181.5866268095
 51
272.3439539394
  0
LINE
  5
18F
330
1F
100
AcDbEntity
  8
0
  6
Continuous
 62
     7
370
    15
100
AcDbLine
 10
256.9005324435
 20
218.6988213934
 30
0.0
 11
274.9005316687
 21
218.6988213934
 31
0.0
  0
ARC
  5
190
330
1F
100
AcDbEntity
  8
0
  6
Continuous
 62
     7
370
    15
100
AcDbCircle
 10
275.0031707295
 20
222.0971416385
 30
0.0
 40
3.399869889411775
100
AcDbArc
 50
268.2700283161
 51
357.7993605148
  0
LINE
  5
191
330
1F
100
AcDbEntity
  8
0
  6
Continuous
 62
     7
370
    15
100
AcDbLine
 10
278.4005331737
 20
221.9665901639
 30
0.0
 11
278.4005331737
 21
222.0240788438
 31
0.0
  0
ARC
  5
192
330
1F
100
AcDbEntity
  8
0
  6
Continuous
 62
     7
370
    15
100
AcDbCircle
 10
274.9908680278
 20
221.9432571377
 30
0.0
 40
3.410622898453192
100
AcDbArc
 50
1.3578681358
 51
91.5177572098
  0
LINE
  5
193
330
1F
100
AcDbEntity
  8
0
  6
Continuous
 62
     7
370
    15
100
AcDbLine
 10
256.9005324435
 20
225.3526834674
 30
0.0
 11
274.9005316687
 21
225.3526834674
 31
0.0
  0
ARC
  5
194
330
1F
100
AcDbEntity
  8
0
  6
Continuous
 62
     7
370
    15
100
AcDbCircle
 10
256.8354186389
 20
221.9167377428
 30
0.0
 40
3.436562647471714
100
AcDbArc
 50
88.9143310223
 51
178.2100740856
  0
LINE
  5
195
330
1F
100
AcDbEntity
  8
0
  6
Continuous
 62
     7
370
    15
100
AcDbLine
 10
253.4005328012
 20
222.0240788438
 30
0.0
 11
253.4005328012
 21
221.9665901639
 31
0.0
  0
LWPOLYLINE
  5
196
330
1F
100
AcDbEntity
  8
0
  6
Continuous
 62
     7
370
    15
100
AcDbPolyline
 90
        6
 70
   128
 43
0.0
 10
278.4005331737
 20
178.2672176041
 10
278.2036217791
 20
178.0048305072
 10
277.6345669222
 20
177.7879515566
 10
276.7579297465
 20
177.6332104482
 10
275.6718176347
 20
177.5485345997
 10
274.9005316687
 20
177.5325754561
  0
LINE
  5
197
330
1F
100
AcDbEntity
  8
0
  6
Continuous
 62
     7
370
    15
100
AcDbLine
 10
278.4005331737
 20
178.2672176041
 30
0.0
 11
278.4005331737
 21
178.2815599717
 31
0.0
  0
LWPOLYLINE
  5
198
330
1F
100
AcDbEntity
  8
0
  6
Continuous
 62
     7
370
    15
100
AcDbPolyline
 90
        6
 70
   128
 43
0.0
 10
274.9005316687
 20
179.1929000892
 10
276.059026171
 20
179.1369685807
 10
277.0869119954
 20
178.9785468854
 10
277.8681873274
 20
178.7433693089
 10
278.3148216945
 20
178.467302946
 10
278.4005331737
 20
178.2815599717
  0
LINE
  5
199
330
1F
100
AcDbEntity
  8
0
  6
Continuous
 62
     7
370
    15
100
AcDbLine
 10
268.9005325479
 20
179.1929000892
 30
0.0
 11
274.9005316687
 21
179.1929000892
 31
0.0
  0
LWPOLYLINE
  5
19A
330
1F
100
AcDbEntity
  8
0
  6
Continuous
 62
     7
370
    15
100
AcDbPolyline
 90
        6
 70
   128
 43
0.0
 10
265.4005310428
 20
178.2815599717
 10
265.5974424374
 20
178.5639593281
 10
266.166499157
 20
178.8304516949
 10
267.04313447
 20
179.0429199018
 10
268.1292465818
 20
179.1684398331
 10
268.9005325479
 20
179.1929000892
  0
LINE
  5
19B
330
1F
100
AcDbEntity
  8
0
  6
Continuous
 62
     7
370
    15
100
AcDbLine
 10
265.4005310428
 20
178.2672176041
 30
0.0
 11
265.4005310428
 21
178.2815599717
 31
0.0
  0
LWPOLYLINE
  5
19C
330
1F
100
AcDbEntity
  8
0
  6
Continuous
 62
     7
370
    15
100
AcDbPolyline
 90
        6
 70
   128
 43
0.0
 10
268.9005325479
 20
177.5325754561
 10
267.7420399082
 20
177.569314269
 10
266.7141540838
 20
177.6785248794
 10
265.9328787518
 20
177.8558635988
 10
265.486242522
 20
178.0905568876
 10
265.4005310428
 20
178.2672176041
  0
LINE
  5
19D
330
1F
100
AcDbEntity
  8
0
  6
Continuous
 62
     7
370
    15
100
AcDbLine
 10
268.9005325479
 20
177.5325754561
 30
0.0
 11
274.9005316687
 21
177.5325754561
 31
0.0
  0
LWPOLYLINE
  5
19E
330
1F
100
AcDbEntity
  8
0
  6
Continuous
 62
     7
370
    15
100
AcDbPolyline
 90
        6
 70
   128
 43
0.0
 10
176.4005332184
 20
194.031681297
 10
176.597444613
 20
194.8152104296
 10
177.1664976073
 20
195.5225797273
 10
178.0431329203
 20
196.0676008739
 10
179.1292487574
 20
196.3825778939
 10
179.9005328608
 20
196.4433783569
  0
LINE
  5
19F
330
1F
100
AcDbEntity
  8
0
  6
Continuous
 62
     7
370
    15
100
AcDbLine
 10
176.4005332184
 20
193.990822313
 30
0.0
 11
176.4005332184
 21
194.031681297
 31
0.0
  0
LWPOLYLINE
  5
1A0
330
1F
100
AcDbEntity
  8
0
  6
Continuous
 62
     7
370
    15
100
AcDbPolyline
 90
        6
 70
   128
 43
0.0
 10
179.9005328608
 20
191.714122323
 10
178.7420420838
 20
191.8387668111
 10
177.714152534
 20
192.2011220731
 10
176.9328772021
 20
192.7665429093
 10
176.4862446976
 20
193.4781553127
 10
176.4005332184
 20
193.990822313
  0
LINE
  5
1A1
330
1F
100
AcDbEntity
  8
0
  6
Continuous
 62
     7
370
    15
100
AcDbLine
 10
197.9005320859
 20
191.714122323
 30
0.0
 11
179.9005328608
 21
191.714122323
 31
0.0
  0
LWPOLYLINE
  5
1A2
330
1F
100
AcDbEntity
  8
0
  6
Continuous
 62
     7
370
    15
100
AcDbPolyline
 90
        6
 70
   128
 43
0.0
 10
201.4005317283
 20
193.990822313
 10
201.2036203337
 20
193.2225854971
 10
200.6345673394
 20
192.5531173028
 10
199.7579320264
 20
192.0522035934
 10
198.6718161893
 20
191.7684258796
 10
197.9005320859
 20
191.714122323
  0
LINE
  5
1A3
330
1F
100
AcDbEntity
  8
0
  6
Continuous
 62
     7
370
    15
100
AcDbLine
 10
201.4005317283
 20
194.031681297
 30
0.0
 11
201.4005317283
 21
193.990822313
 31
0.0
  0
LWPOLYLINE
  5
1A4
330
1F
100
AcDbEntity
  8
0
  6
Continuous
 62
     7
370
    15
100
AcDbPolyline
 90
        6
 70
   128
 43
0.0
 10
197.9005320859
 20
196.4433783569
 10
199.0590228629
 20
196.3040748514
 10
200.0869124127
 20
195.9041202344
 10
200.8681877446
 20
195.2945100047
 10
201.3148202491
 20
194.5512847878
 10
201.4005317283
 20
194.031681297
  0
LINE
  5
1A5
330
1F
100
AcDbEntity
  8
0
  6
Continuous
 62
     7
370
    15
100
AcDbLine
 10
197.9005320859
 20
196.4433783569
 30
0.0
 11
179.9005328608
 21
196.4433783569
 31
0.0
  0
ARC
  5
1A6
330
1F
100
AcDbEntity
  8
0
  6
Continuous
 62
     7
370
    15
100
AcDbCircle
 10
179.5768779904
 20
208.151997076
 30
0.0
 40
3.258091965180352
100
AcDbArc
 50
205.1218448199
 51
275.7010955862
  0
LINE
  5
1A7
330
1F
100
AcDbEntity
  8
0
  6
Continuous
 62
     7
370
    15
100
AcDbLine
 10
196.1505322647
 20
204.9100207068
 30
0.0
 11
179.9005328608
 21
204.9100207068
 31
0.0
  0
ARC
  5
1A8
330
1F
100
AcDbEntity
  8
0
  6
Continuous
 62
     7
370
    15
100
AcDbCircle
 10
179.5375461585
 20
188.9186974828
 30
0.0
 40
4.753621298769552
100
AcDbArc
 50
234.7432444458
 51
274.3793708577
  0
ARC
  5
1A9
330
1F
100
AcDbEntity
  8
0
  6
Continuous
 62
     7
370
    15
100
AcDbCircle
 10
186.4294748388
 20
188.302463933
 30
0.0
 40
4.157295526044342
100
AcDbArc
 50
262.6902793523
 51
308.2550330289
  0
LINE
  5
1AA
330
1F
100
AcDbEntity
  8
0
  6
Continuous
 62
     7
370
    15
100
AcDbLine
 10
185.900530119
 20
184.1789552845
 30
0.0
 11
179.9005328608
 21
184.1789552845
 31
0.0
  0
LINE
  5
1AB
330
1F
100
AcDbEntity
  8
0
  6
Continuous
 62
     7
370
    15
100
AcDbLine
 10
185.900530119
 20
179.1050204911
 30
0.0
 11
179.9005328608
 21
179.1050204911
 31
0.0
  0
LWPOLYLINE
  5
1AC
330
1F
100
AcDbEntity
  8
0
  6
Continuous
 62
     7
370
    15
100
AcDbPolyline
 90
        3
 70
   128
 43
0.0
 10
178.8679792476
 20
179.1430482544
 10
179.2467816663
 20
179.1164273299
 10
179.9005328608
 20
179.1050204911
  0
LINE
  5
1AD
330
1F
100
AcDbEntity
  8
0
  6
Continuous
 62
     7
370
    15
100
AcDbLine
 10
185.900530119
 20
179.1050204911
 30
0.0
 11
186.9363247347
 21
179.1378701009
 31
0.0
  0
ARC
  5
1AE
330
1F
100
AcDbEntity
  8
0
  6
Continuous
 62
     7
370
    15
100
AcDbCircle
 10
275.2938675102
 20
208.0229902963
 30
0.0
 40
3.137720948312623
100
AcDbArc
 50
262.7986172148
 51
345.2171885019
  0
LINE
  5
1AF
330
1F
100
AcDbEntity
  8
0
  6
Continuous
 62
     7
370
    15
100
AcDbLine
 10
256.9005324435
 20
204.9100207068
 30
0.0
 11
274.9005316687
 21
204.9100207068
 31
0.0
  0
ARC
  5
1B0
330
1F
100
AcDbEntity
  8
0
  6
Continuous
 62
     7
370
    15
100
AcDbCircle
 10
256.6193174912
 20
208.1300613145
 30
0.0
 40
3.232296917720768
100
AcDbArc
 50
194.6326057983
 51
274.9911336842
  0
ARC
  5
1B1
330
1F
100
AcDbEntity
  8
0
  6
Continuous
 62
     7
370
    15
100
AcDbCircle
 10
275.29263595
 20
196.3723101846
 30
0.0
 40
3.438941849196068
100
AcDbArc
 50
263.4529614853
 51
329.3900208993
  0
LINE
  5
1B2
330
1F
100
AcDbEntity
  8
0
  6
Continuous
 62
     7
370
    15
100
AcDbLine
 10
256.9005324435
 20
192.9557951071
 30
0.0
 11
274.9005316687
 21
192.9557951071
 31
0.0
  0
ARC
  5
1B3
330
1F
100
AcDbEntity
  8
0
  6
Continuous
 62
     7
370
    15
100
AcDbCircle
 10
256.4589966694
 20
196.221645572
 30
0.0
 40
3.295562637676563
100
AcDbArc
 50
208.1925029153
 51
277.6995773228
  0
ARC
  5
1B4
330
1F
100
AcDbEntity
  8
0
  6
Continuous
 62
     7
370
    15
100
AcDbCircle
 10
275.0368677519
 20
222.6747138674
 30
0.0
 40
3.366360080892869
100
AcDbArc
 50
267.6789116523
 51
357.5487827594
  0
LINE
  5
1B5
330
1F
100
AcDbEntity
  8
0
  6
Continuous
 62
     7
370
    15
100
AcDbLine
 10
256.9005324435
 20
219.3111156948
 30
0.0
 11
274.9005316687
 21
219.3111156948
 31
0.0
  0
ARC
  5
1B6
330
1F
100
AcDbEntity
  8
0
  6
Continuous
 62
     7
370
    15
100
AcDbCircle
 10
256.7734527307
 20
222.6847752131
 30
0.0
 40
3.376052102480009
100
AcDbArc
 50
182.6150960712
 51
272.1572095171
  0
ARC
  5
1B7
330
1F
100
AcDbEntity
  8
0
  6
Continuous
 62
     7
370
    15
100
AcDbCircle
 10
275.4294758124
 20
188.3024604323
 30
0.0
 40
4.1572919804333
100
AcDbArc
 50
262.6902810887
 51
308.2550489782
  0
LINE
  5
1B8
330
1F
100
AcDbEntity
  8
0
  6
Continuous
 62
     7
370
    15
100
AcDbLine
 10
268.9005325479
 20
184.1789552845
 30
0.0
 11
274.9005316687
 21
184.1789552845
 31
0.0
  0
ARC
  5
1B9
330
1F
100
AcDbEntity
  8
0
  6
Continuous
 62
     7
370
    15
100
AcDbCircle
 10
268.5375505001
 20
188.9187202931
 30
0.0
 40
4.753643687096266
100
AcDbArc
 50
234.7433390054
 51
274.3792939261
  0
LINE
  5
1BA
330
1F
100
AcDbEntity
  8
0
  6
Continuous
 62
     7
370
    15
100
AcDbLine
 10
274.9005316687
 20
179.1050204911
 30
0.0
 11
275.9363262844
 21
179.1378701009
 31
0.0
  0
LINE
  5
1BB
330
1F
100
AcDbEntity
  8
0
  6
Continuous
 62
     7
370
    15
100
AcDbLine
 10
268.9005325479
 20
179.1050204911
 30
0.0
 11
274.9005316687
 21
179.1050204911
 31
0.0
  0
LWPOLYLINE
  5
1BC
330
1F
100
AcDbEntity
  8
0
  6
Continuous
 62
     7
370
    15
100
AcDbPolyline
 90
        3
 70
   128
 43
0.0
 10
267.867977072
 20
179.1430482544
 10
268.2467850787
 20
179.1164273299
 10
268.9005325479
 20
179.1050204911
  0
LINE
  5
1BD
330
1F
100
AcDbEntity
  8
0
  6
Continuous
 62
     7
370
    15
100
AcDbLine
 10
197.9005320859
 20
192.9557951071
 30
0.0
 11
179.9005328608
 21
192.9557951071
 31
0.0
  0
ARC
  5
1BE
330
1F
100
AcDbEntity
  8
0
  6
Continuous
 62
     7
370
    15
100
AcDbCircle
 10
179.4589879239
 20
196.2216276309
 30
0.0
 40
3.295546085988479
100
AcDbArc
 50
208.1923032592
 51
277.6997769789
  0
ARC
  5
1BF
330
1F
100
AcDbEntity
  8
0
  6
Continuous
 62
     7
370
    15
100
AcDbCircle
 10
198.2926412917
 20
196.3722936531
 30
0.0
 40
3.438925987006603
100
AcDbArc
 50
263.4528485685
 51
329.3901845676
  0
LINE
  5
1C0
330
1F
100
AcDbEntity
  8
0
  6
Continuous
 62
     7
370
    15
100
AcDbLine
 10
297.4005325628
 20
244.9509048738
 30
0.0
 11
297.4005325628
 21
314.9509051718
 31
0.0
  0
LINE
  5
1C1
330
1F
100
AcDbEntity
  8
0
  6
Continuous
 62
     7
370
    15
100
AcDbLine
 10
297.4005325628
 20
174.9509045758
 30
0.0
 11
297.4005325628
 21
244.9509048738
 31
0.0
  0
LINE
  5
1C2
330
1F
100
AcDbEntity
  8
0
  6
Continuous
 62
     7
370
    15
100
AcDbLine
 10
313.4005333227
 20
263.0990533062
 30
0.0
 11
313.4005333227
 21
312.5574508585
 31
0.0
  0
LINE
  5
1C3
330
1F
100
AcDbEntity
  8
0
  6
Continuous
 62
     7
370
    15
100
AcDbLine
 10
313.4005333227
 20
177.344358889
 30
0.0
 11
313.4005333227
 21
226.8027564414
 31
0.0
  0
LINE
  5
1C4
330
1F
100
AcDbEntity
  8
0
  6
Continuous
 62
     7
370
    15
100
AcDbLine
 10
352.4005322647
 20
233.4388516747
 30
0.0
 11
352.4005322647
 21
256.4629580729
 31
0.0
  0
LINE
  5
1C5
330
1F
100
AcDbEntity
  8
0
  6
Continuous
 62
     7
370
    15
100
AcDbLine
 10
344.4005309534
 20
264.8731781073
 30
0.0
 11
344.4005309534
 21
267.2605657853
 31
0.0
  0
LINE
  5
1C6
330
1F
100
AcDbEntity
  8
0
  6
Continuous
 62
     7
370
    15
100
AcDbLine
 10
344.4005309534
 20
222.6412439622
 30
0.0
 11
344.4005309534
 21
225.0286316402
 31
0.0
  0
LINE
  5
1C7
330
1F
100
AcDbEntity
  8
0
  6
Continuous
 62
     7
370
    15
100
AcDbLine
 10
344.4005309534
 20
267.2605657853
 30
0.0
 11
344.4005309534
 21
295.4724090077
 31
0.0
  0
LINE
  5
1C8
330
1F
100
AcDbEntity
  8
0
  6
Continuous
 62
     7
370
    15
100
AcDbLine
 10
352.4005322647
 20
295.4724090077
 30
0.0
 11
352.4005322647
 21
256.4629580729
 31
0.0
  0
LINE
  5
1C9
330
1F
100
AcDbEntity
  8
0
  6
Continuous
 62
     7
370
    15
100
AcDbLine
 10
344.4005309534
 20
194.4294007398
 30
0.0
 11
344.4005309534
 21
222.6412439622
 31
0.0
  0
LINE
  5
1CA
330
1F
100
AcDbEntity
  8
0
  6
Continuous
 62
     7
370
    15
100
AcDbLine
 10
352.4005322647
 20
233.4388516747
 30
0.0
 11
352.4005322647
 21
194.4294007398
 31
0.0
  0
LINE
  5
1CB
330
1F
100
AcDbEntity
  8
0
  6
Continuous
 62
     7
370
    15
100
AcDbLine
 10
344.4005309534
 20
295.4724090077
 30
0.0
 11
344.4005309534
 21
303.5902896799
 31
0.0
  0
LINE
  5
1CC
330
1F
100
AcDbEntity
  8
0
  6
Continuous
 62
     7
370
    15
100
AcDbLine
 10
352.4005322647
 20
303.5902896799
 30
0.0
 11
352.4005322647
 21
295.4724090077
 31
0.0
  0
LINE
  5
1CD
330
1F
100
AcDbEntity
  8
0
  6
Continuous
 62
     7
370
    15
100
AcDbLine
 10
344.4005309534
 20
186.3115200676
 30
0.0
 11
344.4005309534
 21
194.4294007398
 31
0.0
  0
LINE
  5
1CE
330
1F
100
AcDbEntity
  8
0
  6
Continuous
 62
     7
370
    15
100
AcDbLine
 10
352.4005322647
 20
194.4294007398
 30
0.0
 11
352.4005322647
 21
186.3115200676
 31
0.0
  0
LINE
  5
1CF
330
1F
100
AcDbEntity
  8
0
  6
Continuous
 62
     7
370
    15
100
AcDbLine
 10
344.4005309534
 20
303.5902896799
 30
0.0
 11
344.4005309534
 21
308.5490086951
 31
0.0
  0
LINE
  5
1D0
330
1F
100
AcDbEntity
  8
0
  6
Continuous
 62
     7
370
    15
100
AcDbLine
 10
352.4005322647
 20
310.4468801894
 30
0.0
 11
352.4005322647
 21
303.5902896799
 31
0.0
  0
LINE
  5
1D1
330
1F
100
AcDbEntity
  8
0
  6
Continuous
 62
     7
370
    15
100
AcDbLine
 10
344.4005309534
 20
181.3528010525
 30
0.0
 11
344.4005309534
 21
186.3115200676
 31
0.0
  0
LINE
  5
1D2
330
1F
100
AcDbEntity
  8
0
  6
Continuous
 62
     7
370
    15
100
AcDbLine
 10
352.4005322647
 20
186.3115200676
 30
0.0
 11
352.4005322647
 21
179.4549295582
 31
0.0
  0
LINE
  5
1D3
330
1F
100
AcDbEntity
  8
0
  6
Continuous
 62
     7
370
    15
100
AcDbLine
 10
340.9005313111
 20
217.9509041734
 30
0.0
 11
340.9005313111
 21
224.9509053208
 31
0.0
  0
LINE
  5
1D4
330
1F
100
AcDbEntity
  8
0
  6
Continuous
 62
     7
370
    15
100
AcDbLine
 10
340.9005313111
 20
264.9509044267
 30
0.0
 11
340.9005313111
 21
271.9509055741
 31
0.0
  0
LINE
  5
1D5
330
1F
100
AcDbEntity
  8
0
  6
Continuous
 62
     7
370
    15
100
AcDbLine
 10
344.4005309534
 20
308.5490086951
 30
0.0
 11
344.4005309534
 21
310.7614660539
 31
0.0
  0
LINE
  5
1D6
330
1F
100
AcDbEntity
  8
0
  6
Continuous
 62
     7
370
    15
100
AcDbLine
 10
344.4005309534
 20
179.1403436937
 30
0.0
 11
344.4005309534
 21
181.3528010525
 31
0.0
  0
LINE
  5
1D7
330
1F
100
AcDbEntity
  8
0
  6
Continuous
 62
     7
370
    15
100
AcDbLine
 10
352.4005322647
 20
310.4468801894
 30
0.0
 11
352.4005322647
 21
311.4509055294
 31
0.0
  0
LINE
  5
1D8
330
1F
100
AcDbEntity
  8
0
  6
Continuous
 62
     7
370
    15
100
AcDbLine
 10
352.4005322647
 20
178.4509042181
 30
0.0
 11
352.4005322647
 21
179.4549295582
 31
0.0
  0
LINE
  5
1D9
330
1F
100
AcDbEntity
  8
0
  6
Continuous
 62
     7
370
    15
100
AcDbLine
 10
344.4005309534
 20
189.9509051718
 30
0.0
 11
313.4005333227
 21
189.9509051718
 31
0.0
  0
LINE
  5
1DA
330
1F
100
AcDbEntity
  8
0
  6
Continuous
 62
     7
370
    15
100
AcDbLine
 10
344.4005309534
 20
299.9509045758
 30
0.0
 11
313.4005333227
 21
299.9509045758
 31
0.0
  0
LWPOLYLINE
  5
1DB
330
1F
100
AcDbEntity
  8
0
  6
Continuous
 62
     7
370
    15
100
AcDbPolyline
 90
        7
 70
   128
 43
0.0
 10
329.8371306551
 20
295.2508920707
 10
329.7779097152
 20
295.432824073
 10
329.7779097152
 20
296.2279835619
 10
330.1455064607
 20
297.1270302214
 10
330.8646364999
 20
298.0906622388
 10
331.9038658333
 20
299.0767726578
 10
333.0801225198
 20
299.9509045758
  0
LWPOLYLINE
  5
1DC
330
1F
100
AcDbEntity
  8
0
  6
Continuous
 62
     7
370
    15
100
AcDbPolyline
 90
       11
 70
   128
 43
0.0
 10
330.7731508208
 20
292.9201418437
 10
329.9400157225
 20
293.0823484339
 10
328.9358525467
 20
293.4804851093
 10
328.2467893255
 20
294.0531292834
 10
327.8962897998
 20
294.7807790615
 10
327.8962897998
 20
295.6386538126
 10
328.2467893255
 20
296.5975398101
 10
328.9358525467
 20
297.6247848846
 10
329.9400157225
 20
298.6854048349
 10
331.225080688
 20
299.7432866968
 10
331.5114810062
 20
299.9509045758
  0
LINE
  5
1DD
330
1F
100
AcDbEntity
  8
0
  6
Continuous
 62
     7
370
    15
100
AcDbLine
 10
332.7441348624
 20
314.9509051718
 30
0.0
 11
333.400531013
 21
315.1768142261
 31
0.0
  0
LINE
  5
1DE
330
1F
100
AcDbEntity
  8
0
  6
Continuous
 62
     7
370
    15
100
AcDbLine
 10
344.4005309534
 20
318.8053736367
 30
0.0
 11
333.400531013
 21
315.1768142261
 31
0.0
  0
LINE
  5
1DF
330
1F
100
AcDbEntity
  8
0
  6
Continuous
 62
     7
370
    15
100
AcDbLine
 10
344.4005309534
 20
318.8053736367
 30
0.0
 11
344.4005309534
 21
314.9509051718
 31
0.0
  0
LINE
  5
1E0
330
1F
100
AcDbEntity
  8
SLD-0
  6
CENTERX2
370
     0
100
AcDbLine
 10
456.9240135572
 20
244.9509048738
 30
0.0
 11
123.820421208
 21
244.9509048738
 31
0.0
  0
LINE
  5
1E1
330
1F
100
AcDbEntity
  8
SLD-0
  6
CENTERX2
370
     0
100
AcDbLine
 10
382.4005325628
 20
87.8961432108
 30
0.0
 11
382.4005325628
 21
153.4104977069
 31
0.0
  0
LINE
  5
1E2
330
1F
100
AcDbEntity
  8
SLD-0
  6
CENTERX2
370
     0
100
AcDbLine
 10
382.4005325628
 20
331.3353010847
 30
0.0
 11
382.4005325628
 21
403.4857440509
 31
0.0
  0
LINE
  5
1E3
330
1F
100
AcDbEntity
  8
0
  6
Continuous
 62
     7
370
    15
100
AcDbLine
 10
578.4433125388
 20
206.7949319162
 30
0.0
 11
578.9680941832
 21
209.7486773409
 31
0.0
  0
LINE
  5
1E4
330
1F
100
AcDbEntity
  8
0
  6
Continuous
 62
     7
370
    15
100
AcDbLine
 10
559.2764629852
 20
213.2472203948
 30
0.0
 11
558.7516813409
 21
210.29347497
 31
0.0
  0
ARC
  5
1E5
330
1F
100
AcDbEntity
  8
0
  6
Continuous
 62
     7
370
    15
100
AcDbCircle
 10
558.9653375679
 20
207.208535627
 30
0.0
 40
3.000000000000024
100
AcDbArc
 50
349.925583395
 51
79.925583395
  0
ARC
  5
1E6
330
1F
100
AcDbEntity
  8
0
  6
Continuous
 62
     7
370
    15
100
AcDbCircle
 10
577.1800932017
 20
203.9723840235
 30
0.0
 40
2.999999999999996
100
AcDbArc
 50
79.925583395
 51
169.925583395
  0
ARC
  5
1E7
330
1F
100
AcDbEntity
  8
0
  6
Continuous
 62
     7
370
    15
100
AcDbCircle
 10
562.7287359966
 20
205.5242457866
 30
0.0
 40
1.00000000000014
100
AcDbArc
 50
169.925583395
 51
259.925583395
  0
ARC
  5
1E8
330
1F
100
AcDbEntity
  8
0
  6
Continuous
 62
     7
370
    15
100
AcDbCircle
 10
573.0668405455
 20
203.6875110927
 30
0.0
 40
1.000000000000028
100
AcDbArc
 50
259.925583395
 51
349.925583395
  0
LINE
  5
1E9
330
1F
100
AcDbEntity
  8
0
  6
Continuous
 62
     7
370
    15
100
AcDbLine
 10
574.0514187943
 20
203.5125823595
 30
0.0
 11
574.2263509762
 21
204.4971654095
 31
0.0
  0
LINE
  5
1EA
330
1F
100
AcDbEntity
  8
0
  6
Continuous
 62
     7
370
    15
100
AcDbLine
 10
561.9190796148
 20
206.6837543525
 30
0.0
 11
561.7441548836
 21
205.6991713025
 31
0.0
  0
LINE
  5
1EB
330
1F
100
AcDbEntity
  8
0
  6
Continuous
 62
     7
370
    15
100
AcDbLine
 10
571.1803822648
 20
197.9287112035
 30
0.0
 11
572.0550208222
 21
202.851619003
 31
0.0
  0
LINE
  5
1EC
330
1F
100
AcDbEntity
  8
0
  6
Continuous
 62
     7
370
    15
100
AcDbLine
 10
563.3907033932
 20
204.3909760095
 30
0.0
 11
562.5160648357
 21
199.4680682101
 31
0.0
  0
LWPOLYLINE
  5
1ED
330
1F
100
AcDbEntity
  8
0
  6
Continuous
 62
     7
370
    15
100
AcDbPolyline
 90
        4
 70
   128
 43
0.0
 10
556.3425137531
 20
251.7518772647
 10
556.2620996367
 20
251.5583093181
 10
556.1580671799
 20
251.3047902748
 10
556.1537458431
 20
251.2942174353
  0
LINE
  5
1EE
330
1F
100
AcDbEntity
  8
0
  6
Continuous
 62
     7
370
    15
100
AcDbLine
 10
683.219963206
 20
326.6965443172
 30
0.0
 11
683.1767721903
 21
326.6039261498
 31
0.0
  0
LINE
  5
1EF
330
1F
100
AcDbEntity
  8
0
  6
Continuous
 62
     7
370
    15
100
AcDbLine
 10
690.4272339177
 20
323.2229793348
 30
0.0
 11
690.4704249334
 21
323.3156049527
 31
0.0
  0
LWPOLYLINE
  5
1F0
330
1F
100
AcDbEntity
  8
0
  6
Continuous
 62
     7
370
    15
100
AcDbPolyline
 90
       31
 70
   128
 43
0.0
 10
673.5091428142
 20
132.4712926425
 10
673.5079060178
 20
134.9353114046
 10
673.5061923843
 20
138.8074377455
 10
673.505033819
 20
142.4883672871
 10
673.5045495313
 20
145.9762895383
 10
673.5047879499
 20
149.2703253307
 10
673.5065425616
 20
154.0550136842
 10
673.5095525962
 20
158.442727653
 10
673.5123558771
 20
162.7868333735
 10
673.5143749844
 20
168.7302881755
 10
673.5152094495
 20
174.7717926182
 10
673.5154758077
 20
180.7626852669
 10
673.5154925715
 20
186.6484502234
 10
673.515485121
 20
191.2398779668
 10
673.5155167859
 20
195.1765151598
 10
673.5155745279
 20
198.4570169725
 10
673.5156322699
 20
201.4329465009
 10
673.5156564843
 20
205.3515085854
 10
673.5156639349
 20
210.320513127
 10
673.5156620722
 20
214.3822567441
 10
673.5156620722
 20
217.8125021883
 10
673.5156639349
 20
220.7147715517
 10
673.5156657975
 20
221.9963123925
 10
673.5156676602
 20
223.239305792
 10
673.5156657975
 20
225.5847709157
 10
673.5156602096
 20
228.7191482164
 10
673.5156490337
 20
232.4824690722
 10
673.5156341326
 20
235.5757284813
 10
673.5156117808
 20
238.7471705578
 10
673.5155801159
 20
241.8126078692
 10
673.5155670773
 20
242.5891767625
  0
LWPOLYLINE
  5
1F1
330
1F
100
AcDbEntity
  8
0
  6
Continuous
 62
     7
370
    15
100
AcDbPolyline
 90
       31
 70
   128
 43
0.0
 10
625.5140318405
 20
242.4736678504
 10
625.5140318405
 20
241.3701330215
 10
625.5140299779
 20
237.9608502515
 10
625.5140299779
 20
234.5863873042
 10
625.5140318405
 20
231.5041091196
 10
625.5140318405
 20
228.8979323484
 10
625.5140318405
 20
226.8947599359
 10
625.5140337032
 20
224.4562426485
 10
625.5140337032
 20
221.799138365
 10
625.5140337032
 20
219.0124051549
 10
625.5140337032
 20
216.2246884682
 10
625.5140355658
 20
211.4918002762
 10
625.5140374284
 20
206.4408579745
 10
625.5140411537
 20
201.3508858063
 10
625.5140430164
 20
196.656029103
 10
625.5140430164
 20
192.3815751352
 10
625.5140411537
 20
189.5855659522
 10
625.5140392911
 20
186.9959117748
 10
625.5140374284
 20
184.084757594
 10
625.5140355658
 20
180.532097248
 10
625.5140337032
 20
176.3378972091
 10
625.5140337032
 20
171.507723061
 10
625.5140318405
 20
166.1414200343
 10
625.5140318405
 20
161.0923627295
 10
625.5140318405
 20
155.8174112715
 10
625.5140318405
 20
150.2646798171
 10
625.5140318405
 20
144.1459873595
 10
625.5140318405
 20
140.8729920067
 10
625.5140318405
 20
137.458428172
 10
625.5140318405
 20
133.9038530268
 10
625.5140318405
 20
131.8394834079
  0
LINE
  5
1F2
330
1F
100
AcDbEntity
  8
0
  6
Continuous
 62
     7
370
    15
100
AcDbLine
 10
692.0148557853
 20
94.9508989133
 30
0.0
 11
692.0148557853
 21
96.9509029664
 31
0.0
  0
LINE
  5
1F3
330
1F
100
AcDbEntity
  8
0
  6
Continuous
 62
     7
370
    15
100
AcDbLine
 10
607.0148548912
 20
96.9509029664
 30
0.0
 11
607.0148548912
 21
94.9508989133
 31
0.0
  0
LINE
  5
1F4
330
1F
100
AcDbEntity
  8
0
  6
Continuous
 62
     7
370
    15
100
AcDbLine
 10
607.0148548912
 20
394.9509108342
 30
0.0
 11
607.0148548912
 21
392.9509067811
 31
0.0
  0
LINE
  5
1F5
330
1F
100
AcDbEntity
  8
0
  6
Continuous
 62
     7
370
    15
100
AcDbLine
 10
692.0148557853
 20
392.9509067811
 30
0.0
 11
692.0148557853
 21
394.9509108342
 31
0.0
  0
LINE
  5
1F6
330
1F
100
AcDbEntity
  8
0
  6
Continuous
 62
     7
370
    15
100
AcDbLine
 10
709.5150477123
 20
359.9509069599
 30
0.0
 11
709.5150477123
 21
389.9304861106
 31
0.0
  0
LINE
  5
1F7
330
1F
100
AcDbEntity
  8
0
  6
Continuous
 62
     7
370
    15
100
AcDbLine
 10
709.5150477123
 20
99.9713236369
 30
0.0
 11
709.5150477123
 21
129.9509027876
 31
0.0
  0
ARC
  5
1F8
330
1F
100
AcDbEntity
  8
0
  6
Continuous
 62
     7
370
    15
100
AcDbCircle
 10
687.7569402812
 20
330.4276026541
 30
0.0
 40
12.86514748925343
100
AcDbArc
 50
219.2936485951
 51
244.2113589779
  0
LINE
  5
1F9
330
1F
100
AcDbEntity
  8
0
  6
Continuous
 62
     7
370
    15
100
AcDbLine
 10
702.4016058874
 20
359.9509069599
 30
0.0
 11
709.5150477123
 21
359.9509069599
 31
0.0
  0
LINE
  5
1FA
330
1F
100
AcDbEntity
  8
0
  6
Continuous
 62
     7
370
    15
100
AcDbLine
 10
709.5150477123
 20
129.9509027876
 30
0.0
 11
692.5148567986
 21
129.9509027876
 31
0.0
  0
ARC
  5
1FB
330
1F
100
AcDbEntity
  8
0
  6
Continuous
 62
     7
370
    15
100
AcDbCircle
 10
702.4016066842
 20
354.9509048738
 30
0.0
 40
5.000000000000044
100
AcDbArc
 50
88.5726708034
 51
150.0
  0
LWPOLYLINE
  5
1FC
330
1F
100
AcDbEntity
  8
0
  6
Continuous
 62
     7
370
    15
100
AcDbPolyline
 90
       10
 70
   128
 43
0.0
 10
568.5974969398
 20
208.5442053057
 10
566.7341663372
 20
208.8752569534
 10
564.938174082
 20
209.1943429686
 10
563.2744445335
 20
209.4899298527
 10
561.8031038773
 20
209.7513409235
 10
560.5773343574
 20
209.969117669
 10
559.6414296758
 20
210.1353960015
 10
559.0292229187
 20
210.2441670276
 10
558.76283486
 20
210.2914931156
 10
558.7516813409
 20
210.29347497
  0
LWPOLYLINE
  5
1FD
330
1F
100
AcDbEntity
  8
0
  6
Continuous
 62
     7
370
    15
100
AcDbPolyline
 90
       10
 70
   128
 43
0.0
 10
578.4433125388
 20
206.7949319162
 10
578.4321590197
 20
206.7969137706
 10
578.165770961
 20
206.8442435839
 10
577.5535642039
 20
206.9530108847
 10
576.6176595222
 20
207.1192892172
 10
575.3918825519
 20
207.337069688
 10
573.9205418956
 20
207.5984770335
 10
572.2568197977
 20
207.8940639176
 10
570.4608275425
 20
208.2131536581
 10
568.5974969398
 20
208.5442053057
  0
LWPOLYLINE
  5
1FE
330
1F
100
AcDbEntity
  8
0
  6
Continuous
 62
     7
370
    15
100
AcDbPolyline
 90
       13
 70
   128
 43
0.0
 10
572.8919147384
 20
202.7029314913
 10
572.7157830131
 20
202.7342239298
 10
572.1993907225
 20
202.825966654
 10
571.3779344093
 20
202.971912352
 10
570.3073902857
 20
203.1621144988
 10
569.0607069861
 20
203.3836053588
 10
567.7228583824
 20
203.6212975063
 10
566.3850097787
 20
203.8589896538
 10
565.1383339297
 20
204.0804805137
 10
564.0677898061
 20
204.2706826605
 10
563.2463334929
 20
204.4166283585
 10
562.7299412023
 20
204.5083710827
 10
562.553809477
 20
204.5396635212
  0
LWPOLYLINE
  5
1FF
330
1F
100
AcDbEntity
  8
0
  6
Continuous
 62
     7
370
    15
100
AcDbPolyline
 90
        7
 70
   128
 43
0.0
 10
566.8482272756
 20
198.6983897068
 10
565.6277178657
 20
198.9152351298
 10
564.5060851108
 20
199.1145083584
 10
563.5741962921
 20
199.2800751604
 10
562.9075555932
 20
199.3985133149
 10
562.5601648223
 20
199.4602339246
 10
562.5160648357
 20
199.4680682101
  0
LWPOLYLINE
  5
200
330
1F
100
AcDbEntity
  8
0
  6
Continuous
 62
     7
370
    15
100
AcDbPolyline
 90
        7
 70
   128
 43
0.0
 10
571.1803822648
 20
197.9287112035
 10
571.1362897288
 20
197.936545489
 10
570.7888915073
 20
197.9982660987
 10
570.1222508084
 20
198.1167042531
 10
569.1903694403
 20
198.2822710552
 10
568.0687366855
 20
198.4815480091
 10
566.8482272756
 20
198.6983897068
  0
ARC
  5
201
330
1F
100
AcDbEntity
  8
0
  6
Continuous
 62
     7
370
    15
100
AcDbCircle
 10
580.9443383668
 20
266.4776602326
 30
0.0
 40
2.999999999999982
100
AcDbArc
 50
259.925583395
 51
292.0756648412
  0
LINE
  5
202
330
1F
100
AcDbEntity
  8
0
  6
Continuous
 62
     7
370
    15
100
AcDbLine
 10
588.2455943953
 20
207.0873113252
 30
0.0
 11
587.7371220719
 21
206.7687915541
 31
0.0
  0
ARC
  5
203
330
1F
100
AcDbEntity
  8
0
  6
Continuous
 62
     7
370
    15
100
AcDbCircle
 10
640.7882524624
 20
240.0015827263
 30
0.0
 40
62.60064572193308
100
AcDbArc
 50
208.4396540116
 51
212.0642413743
  0
LWPOLYLINE
  5
204
330
1F
100
AcDbEntity
  8
0
  6
Continuous
 62
     7
370
    15
100
AcDbPolyline
 90
        3
 70
   128
 43
0.0
 10
585.7423036229
 20
210.1890960612
 10
585.0458084475
 20
211.5126283743
 10
584.3537538182
 20
212.9093887188
  0
LINE
  5
205
330
1F
100
AcDbEntity
  8
0
  6
Continuous
 62
     7
370
    15
100
AcDbLine
 10
585.5241953265
 20
211.8952901937
 30
0.0
 11
584.8383395802
 21
213.212947724
 31
0.0
  0
ARC
  5
206
330
1F
100
AcDbEntity
  8
0
  6
Continuous
 62
     7
370
    15
100
AcDbCircle
 10
640.7886726199
 20
240.0017698386
 30
0.0
 40
62.00110199458815
100
AcDbArc
 50
206.9570373079
 51
212.0641835685
  0
LINE
  5
207
330
1F
100
AcDbEntity
  8
0
  6
Continuous
 62
     7
370
    15
100
AcDbLine
 10
584.8383395802
 20
213.212947724
 30
0.0
 11
583.3505778443
 21
216.2046017029
 31
0.0
  0
ARC
  5
208
330
1F
100
AcDbEntity
  8
0
  6
Continuous
 62
     7
370
    15
100
AcDbCircle
 10
640.7877294844
 20
240.0011981916
 30
0.0
 40
62.6
100
AcDbArc
 50
202.4271801237
 51
205.6438937209
  0
ARC
  5
209
330
1F
100
AcDbEntity
  8
0
  6
Continuous
 62
     7
370
    15
100
AcDbCircle
 10
640.7877294844
 20
240.0011981916
 30
0.0
 40
62.6
100
AcDbArc
 50
164.0691487281
 51
202.4271801237
  0
ARC
  5
20A
330
1F
100
AcDbEntity
  8
0
  6
Continuous
 62
     7
370
    15
100
AcDbCircle
 10
640.7877294844
 20
240.0011981916
 30
0.0
 40
62.17157287525379
100
AcDbArc
 50
168.0380900979
 51
202.5045537878
  0
ARC
  5
20B
330
1F
100
AcDbEntity
  8
0
  6
Continuous
 62
     7
370
    15
100
AcDbCircle
 10
584.9023560335
 20
205.647376945
 30
0.0
 40
2.999999999999996
100
AcDbArc
 50
31.5798476138
 51
79.925583395
  0
LINE
  5
20C
330
1F
100
AcDbEntity
  8
0
  6
Continuous
 62
     7
370
    15
100
AcDbLine
 10
567.710944904
 20
265.7818099387
 30
0.0
 11
580.4195566904
 21
263.5239152141
 31
0.0
  0
LINE
  5
20D
330
1F
100
AcDbEntity
  8
0
  6
Continuous
 62
     7
370
    15
100
AcDbLine
 10
585.4271366131
 20
208.6011202909
 30
0.0
 11
553.4915118348
 21
214.2750112243
 31
0.0
  0
ARC
  5
20E
330
1F
100
AcDbEntity
  8
0
  6
Continuous
 62
     7
370
    15
100
AcDbCircle
 10
649.8299867811
 20
213.0031903492
 30
0.0
 40
101.2000000000001
100
AcDbArc
 50
150.3695827411
 51
175.9298493727
  0
ARC
  5
20F
330
1F
100
AcDbEntity
  8
0
  6
Continuous
 62
     7
370
    15
100
AcDbCircle
 10
566.7313518959
 20
260.2681549658
 30
0.0
 40
5.600000000000054
100
AcDbArc
 50
79.925583395
 51
150.3695827411
  0
ARC
  5
210
330
1F
100
AcDbEntity
  8
0
  6
Continuous
 62
     7
370
    15
100
AcDbCircle
 10
554.4710999634
 20
219.7886678471
 30
0.0
 40
5.599999999999989
100
AcDbArc
 50
175.9298493727
 51
259.925583395
  0
ARC
  5
211
330
1F
100
AcDbEntity
  8
0
  6
Continuous
 62
     7
370
    15
100
AcDbCircle
 10
633.2747572348
 20
347.486848873
 30
0.0
 40
22.50000000000013
100
AcDbArc
 50
178.6967553836
 51
221.3032446164
  0
ARC
  5
212
330
1F
100
AcDbEntity
  8
0
  6
Continuous
 62
     7
370
    15
100
AcDbCircle
 10
633.2747572348
 20
347.486848873
 30
0.0
 40
24.00000000000008
100
AcDbArc
 50
170.8610302213
 51
229.1389697787
  0
LINE
  5
213
330
1F
100
AcDbEntity
  8
0
  6
Continuous
 62
     7
370
    15
100
AcDbLine
 10
620.2998901587
 20
308.5628965773
 30
0.0
 11
624.3224381339
 21
310.7926318325
 31
0.0
  0
ARC
  5
214
330
1F
100
AcDbEntity
  8
0
  6
Continuous
 62
     7
370
    15
100
AcDbCircle
 10
633.2747572348
 20
347.486848873
 30
0.0
 40
24.45000000000003
100
AcDbArc
 50
169.0220707884
 51
230.9779292116
  0
LINE
  5
215
330
1F
100
AcDbEntity
  8
0
  6
Continuous
 62
     7
370
    15
100
AcDbLine
 10
683.6121580433
 20
318.07280275
 30
0.0
 11
687.1358132791
 21
325.6293082513
 31
0.0
  0
LINE
  5
216
330
1F
100
AcDbEntity
  8
0
  6
Continuous
 62
     7
370
    15
100
AcDbLine
 10
692.4843727481
 20
321.7190200366
 30
0.0
 11
687.1358132791
 21
325.6293082513
 31
0.0
  0
LINE
  5
217
330
1F
100
AcDbEntity
  8
0
  6
Continuous
 62
     7
370
    15
100
AcDbLine
 10
689.2178929281
 20
314.7140363135
 30
0.0
 11
692.4843727481
 21
321.7190200366
 31
0.0
  0
LINE
  5
218
330
1F
100
AcDbEntity
  8
0
  6
Continuous
 62
     7
370
    15
100
AcDbLine
 10
678.1941591632
 20
321.8341836609
 30
0.0
 11
680.7023729067
 21
327.2130632676
 31
0.0
  0
LINE
  5
219
330
1F
100
AcDbEntity
  8
0
  6
Continuous
 62
     7
370
    15
100
AcDbLine
 10
687.1358132791
 20
325.6293082513
 30
0.0
 11
680.7023729067
 21
327.2130632676
 31
0.0
  0
LINE
  5
21A
330
1F
100
AcDbEntity
  8
0
  6
Continuous
 62
     7
370
    15
100
AcDbLine
 10
680.7023729067
 20
327.2130632676
 30
0.0
 11
681.0749373269
 21
328.0120337285
 31
0.0
  0
LINE
  5
21B
330
1F
100
AcDbEntity
  8
0
  6
Continuous
 62
     7
370
    15
100
AcDbLine
 10
681.5845570397
 20
328.894718913
 30
0.0
 11
687.9300749731
 21
327.3326152839
 31
0.0
  0
LINE
  5
21C
330
1F
100
AcDbEntity
  8
0
  6
Continuous
 62
     7
370
    15
100
AcDbLine
 10
687.9300749731
 20
327.3326152839
 30
0.0
 11
693.278634442
 21
323.4223270692
 31
0.0
  0
LINE
  5
21D
330
1F
100
AcDbEntity
  8
0
  6
Continuous
 62
     7
370
    15
100
AcDbLine
 10
693.278634442
 20
323.4223270692
 30
0.0
 11
692.4843727481
 21
321.7190200366
 31
0.0
  0
LWPOLYLINE
  5
21E
330
1F
100
AcDbEntity
  8
0
  6
Continuous
 62
     7
370
    15
100
AcDbPolyline
 90
       13
 70
   128
 43
0.0
 10
683.219963206
 20
326.6965443172
 10
683.3466268014
 20
326.8624612965
 10
683.829834206
 20
327.0671138443
 10
684.5809719395
 20
327.0886236705
 10
685.5332939755
 20
326.9250983276
 10
686.6021840703
 20
326.5910515465
 10
687.6926659476
 20
326.1161813416
 10
688.7078485321
 20
325.5426654496
 10
689.5575239193
 20
324.9214732923
 10
690.1661991012
 20
324.3077987708
 10
690.4797865879
 20
323.7561726846
 10
690.4704249334
 20
323.3156049527
 10
690.4704249334
 20
323.3156049527
  0
LINE
  5
21F
330
1F
100
AcDbEntity
  8
0
  6
Continuous
 62
     7
370
    15
100
AcDbLine
 10
695.6614232492
 20
328.5322258152
 30
0.0
 11
690.3128637802
 21
332.4425140299
 31
0.0
  0
LINE
  5
220
330
1F
100
AcDbEntity
  8
0
  6
Continuous
 62
     7
370
    15
100
AcDbLine
 10
693.278634442
 20
323.4223270692
 30
0.0
 11
695.6614232492
 21
328.5322258152
 31
0.0
  0
LINE
  5
221
330
1F
100
AcDbEntity
  8
0
  6
Continuous
 62
     7
370
    15
100
AcDbLine
 10
687.9300749731
 20
327.3326152839
 30
0.0
 11
690.3128637802
 21
332.4425140299
 31
0.0
  0
LINE
  5
222
330
1F
100
AcDbEntity
  8
0
  6
Continuous
 62
     7
370
    15
100
AcDbLine
 10
690.3128637802
 20
332.4425140299
 30
0.0
 11
684.464150561
 21
333.8823238291
 31
0.0
  0
CIRCLE
  5
223
330
1F
100
AcDbEntity
  8
0
  6
Continuous
 62
     7
370
    15
100
AcDbCircle
 10
649.5148553383
 20
214.9509048738
 30
0.0
 40
13.00000000000011
  0
LINE
  5
224
330
1F
100
AcDbEntity
  8
0
  6
Continuous
 62
     7
370
    15
100
AcDbLine
 10
652.0148552824
 20
176.2009033837
 30
0.0
 11
650.7648553103
 21
177.4509021916
 31
0.0
  0
LINE
  5
225
330
1F
100
AcDbEntity
  8
0
  6
Continuous
 62
     7
370
    15
100
AcDbLine
 10
652.0148552824
 20
159.9509039797
 30
0.0
 11
652.0148552824
 21
176.2009033837
 31
0.0
  0
LINE
  5
226
330
1F
100
AcDbEntity
  8
0
  6
Continuous
 62
     7
370
    15
100
AcDbLine
 10
649.5148553383
 20
162.4509015955
 30
0.0
 11
652.0148552824
 21
159.9509039797
 31
0.0
  0
LINE
  5
227
330
1F
100
AcDbEntity
  8
0
  6
Continuous
 62
     7
370
    15
100
AcDbLine
 10
647.0148553942
 20
159.9509039797
 30
0.0
 11
649.5148553383
 21
162.4509015955
 31
0.0
  0
LINE
  5
228
330
1F
100
AcDbEntity
  8
0
  6
Continuous
 62
     7
370
    15
100
AcDbLine
 10
647.0148553942
 20
176.2009033837
 30
0.0
 11
647.0148553942
 21
159.9509039797
 31
0.0
  0
LINE
  5
229
330
1F
100
AcDbEntity
  8
0
  6
Continuous
 62
     7
370
    15
100
AcDbLine
 10
648.2648553662
 20
177.4509021916
 30
0.0
 11
647.0148553942
 21
176.2009033837
 31
0.0
  0
LINE
  5
22A
330
1F
100
AcDbEntity
  8
0
  6
Continuous
 62
     7
370
    15
100
AcDbLine
 10
647.0148553942
 20
192.4509065129
 30
0.0
 11
648.2648553662
 21
192.4509065129
 31
0.0
  0
LINE
  5
22B
330
1F
100
AcDbEntity
  8
0
  6
Continuous
 62
     7
370
    15
100
AcDbLine
 10
650.7648553103
 20
192.4509065129
 30
0.0
 11
652.0148552824
 21
192.4509065129
 31
0.0
  0
LINE
  5
22C
330
1F
100
AcDbEntity
  8
0
  6
Continuous
 62
     7
370
    15
100
AcDbLine
 10
648.2648553662
 20
192.4509065129
 30
0.0
 11
648.2648553662
 21
177.4509021916
 31
0.0
  0
LINE
  5
22D
330
1F
100
AcDbEntity
  8
0
  6
Continuous
 62
     7
370
    15
100
AcDbLine
 10
650.7648553103
 20
177.4509021916
 30
0.0
 11
650.7648553103
 21
192.4509065129
 31
0.0
  0
LINE
  5
22E
330
1F
100
AcDbEntity
  8
0
  6
Continuous
 62
     7
370
    15
100
AcDbLine
 10
649.5148553383
 20
194.9509041287
 30
0.0
 11
647.0148553942
 21
192.4509065129
 31
0.0
  0
LINE
  5
22F
330
1F
100
AcDbEntity
  8
0
  6
Continuous
 62
     7
370
    15
100
AcDbLine
 10
652.0148552824
 20
192.4509065129
 30
0.0
 11
649.5148553383
 21
194.9509041287
 31
0.0
  0
LWPOLYLINE
  5
230
330
1F
100
AcDbEntity
  8
0
  6
Continuous
 62
     7
370
    15
100
AcDbPolyline
 90
        3
 70
   128
 43
0.0
 10
625.5652247798
 20
131.8381944575
 10
625.5269660484
 20
130.3195202627
 10
625.7053739261
 20
115.9504497327
  0
LWPOLYLINE
  5
231
330
1F
100
AcDbEntity
  8
0
  6
Continuous
 62
     7
370
    15
100
AcDbPolyline
 90
       20
 70
   128
 43
0.0
 10
673.4339757692
 20
242.5871518344
 10
673.3514102977
 20
245.9136954412
 10
672.4024168085
 20
250.9638810434
 10
670.5932575148
 20
255.6493760921
 10
667.7833176088
 20
260.0528331377
 10
664.8255507332
 20
263.1507882752
 10
661.2353524994
 20
265.7444564529
 10
657.6605825555
 20
267.4582520403
 10
653.7255318705
 20
268.5600513496
 10
649.8921229665
 20
268.9477721133
 10
645.9342164323
 20
268.6686770894
 10
642.2346299384
 20
267.7658827879
 10
638.6371548157
 20
266.2175552823
 10
635.4056740981
 20
264.1348181196
 10
632.4793337714
 20
261.4812547244
 10
630.0306855571
 20
258.3899212904
 10
628.0556688886
 20
254.8561798312
 10
626.6291639637
 20
250.9705143884
 10
625.7828394752
 20
246.8183732262
 10
625.5670389962
 20
242.4710366313
  0
LINE
  5
232
330
1F
100
AcDbEntity
  8
0
  6
Continuous
 62
     7
370
    15
100
AcDbLine
 10
673.448768897
 20
132.4734458603
 30
0.0
 11
673.5130878966
 21
132.6829636373
 31
0.0
  0
LINE
  5
233
330
1F
100
AcDbEntity
  8
0
  6
Continuous
 62
     7
370
    15
100
AcDbLine
 10
649.5148553383
 20
110.9509015359
 30
0.0
 11
691.5727346074
 21
110.9509015359
 31
0.0
  0
LINE
  5
234
330
1F
100
AcDbEntity
  8
0
  6
Continuous
 62
     7
370
    15
100
AcDbLine
 10
691.5727346074
 20
96.9509029664
 30
0.0
 11
649.5148553383
 21
96.9509029664
 31
0.0
  0
LINE
  5
235
330
1F
100
AcDbEntity
  8
0
  6
Continuous
 62
     7
370
    15
100
AcDbLine
 10
649.5148553383
 20
378.9509082116
 30
0.0
 11
691.5727346074
 21
378.9509082116
 31
0.0
  0
LINE
  5
236
330
1F
100
AcDbEntity
  8
0
  6
Continuous
 62
     7
370
    15
100
AcDbLine
 10
691.5727346074
 20
392.9509067811
 30
0.0
 11
649.5148553383
 21
392.9509067811
 31
0.0
  0
LINE
  5
237
330
1F
100
AcDbEntity
  8
0
  6
Continuous
 62
     7
370
    15
100
AcDbLine
 10
607.4569760692
 20
110.9509015359
 30
0.0
 11
649.5148553383
 21
110.9509015359
 31
0.0
  0
LINE
  5
238
330
1F
100
AcDbEntity
  8
0
  6
Continuous
 62
     7
370
    15
100
AcDbLine
 10
649.5148553383
 20
96.9509029664
 30
0.0
 11
607.4569760692
 21
96.9509029664
 31
0.0
  0
LINE
  5
239
330
1F
100
AcDbEntity
  8
0
  6
Continuous
 62
     7
370
    15
100
AcDbLine
 10
607.4569760692
 20
378.9509082116
 30
0.0
 11
649.5148553383
 21
378.9509082116
 31
0.0
  0
LINE
  5
23A
330
1F
100
AcDbEntity
  8
0
  6
Continuous
 62
     7
370
    15
100
AcDbLine
 10
649.5148553383
 20
392.9509067811
 30
0.0
 11
607.4569760692
 21
392.9509067811
 31
0.0
  0
LINE
  5
23B
330
1F
100
AcDbEntity
  8
0
  6
Continuous
 62
     7
370
    15
100
AcDbLine
 10
691.5727346074
 20
110.9509015359
 30
0.0
 11
703.4277818036
 21
110.9509015359
 31
0.0
  0
LINE
  5
23C
330
1F
100
AcDbEntity
  8
0
  6
Continuous
 62
     7
370
    15
100
AcDbLine
 10
703.4277818036
 20
96.9509029664
 30
0.0
 11
691.5727346074
 21
96.9509029664
 31
0.0
  0
LINE
  5
23D
330
1F
100
AcDbEntity
  8
0
  6
Continuous
 62
     7
370
    15
100
AcDbLine
 10
691.5727346074
 20
378.9509082116
 30
0.0
 11
703.4277818036
 21
378.9509082116
 31
0.0
  0
LINE
  5
23E
330
1F
100
AcDbEntity
  8
0
  6
Continuous
 62
     7
370
    15
100
AcDbLine
 10
703.4277818036
 20
392.9509067811
 30
0.0
 11
691.5727346074
 21
392.9509067811
 31
0.0
  0
LINE
  5
23F
330
1F
100
AcDbEntity
  8
0
  6
Continuous
 62
     7
370
    15
100
AcDbLine
 10
595.601928873
 20
378.9509082116
 30
0.0
 11
607.4569760692
 21
378.9509082116
 31
0.0
  0
LINE
  5
240
330
1F
100
AcDbEntity
  8
0
  6
Continuous
 62
     7
370
    15
100
AcDbLine
 10
607.4569760692
 20
392.9509067811
 30
0.0
 11
595.601928873
 21
392.9509067811
 31
0.0
  0
LINE
  5
241
330
1F
100
AcDbEntity
  8
0
  6
Continuous
 62
     7
370
    15
100
AcDbLine
 10
595.601928873
 20
110.9509015359
 30
0.0
 11
607.4569760692
 21
110.9509015359
 31
0.0
  0
LINE
  5
242
330
1F
100
AcDbEntity
  8
0
  6
Continuous
 62
     7
370
    15
100
AcDbLine
 10
607.4569760692
 20
96.9509029664
 30
0.0
 11
595.601928873
 21
96.9509029664
 31
0.0
  0
LINE
  5
243
330
1F
100
AcDbEntity
  8
0
  6
Continuous
 62
     7
370
    15
100
AcDbLine
 10
649.5148553383
 20
94.9508989133
 30
0.0
 11
692.0148557853
 21
94.9508989133
 31
0.0
  0
LINE
  5
244
330
1F
100
AcDbEntity
  8
0
  6
Continuous
 62
     7
370
    15
100
AcDbLine
 10
607.0148548912
 20
94.9508989133
 30
0.0
 11
649.5148553383
 21
94.9508989133
 31
0.0
  0
LINE
  5
245
330
1F
100
AcDbEntity
  8
0
  6
Continuous
 62
     7
370
    15
100
AcDbLine
 10
649.5148553383
 20
394.9509108342
 30
0.0
 11
692.0148557853
 21
394.9509108342
 31
0.0
  0
LINE
  5
246
330
1F
100
AcDbEntity
  8
0
  6
Continuous
 62
     7
370
    15
100
AcDbLine
 10
607.0148548912
 20
394.9509108342
 30
0.0
 11
649.5148553383
 21
394.9509108342
 31
0.0
  0
LINE
  5
247
330
1F
100
AcDbEntity
  8
0
  6
Continuous
 62
     7
370
    15
100
AcDbLine
 10
709.5148539972
 20
389.9509007015
 30
0.0
 11
709.5148539972
 21
392.9509067811
 31
0.0
  0
LWPOLYLINE
  5
248
330
1F
100
AcDbEntity
  8
0
  6
Continuous
 62
     7
370
    15
100
AcDbPolyline
 90
       10
 70
   128
 43
0.0
 10
708.7407461237
 20
374.2009097614
 10
708.8222741019
 20
370.0004214324
 10
708.9162520003
 20
367.7332842626
 10
709.0362510514
 20
365.6082669176
 10
709.1631120872
 20
363.796613542
 10
709.2893249225
 20
362.2533449806
 10
709.3945606481
 20
361.1053744234
 10
709.4727023374
 20
360.3238010682
 10
709.5110132229
 20
359.9755832829
 10
709.5096944701
 20
360.0065180935
  0
LINE
  5
249
330
1F
100
AcDbEntity
  8
0
  6
Continuous
 62
     7
370
    15
100
AcDbLine
 10
709.5132111442
 20
389.9304861106
 30
0.0
 11
709.5148539972
 21
389.9509007015
 31
0.0
  0
LWPOLYLINE
  5
24A
330
1F
100
AcDbEntity
  8
0
  6
Continuous
 62
     7
370
    15
100
AcDbPolyline
 90
        6
 70
   128
 43
0.0
 10
708.1466293764
 20
378.9509082116
 10
708.3632885348
 20
378.6664152421
 10
708.5399865043
 20
377.8421277084
 10
708.6635655593
 20
376.5763783731
 10
708.7295516264
 20
375.0197434701
 10
708.7407461237
 20
374.2009097614
  0
LINE
  5
24B
330
1F
100
AcDbEntity
  8
0
  6
Continuous
 62
     7
370
    15
100
AcDbLine
 10
703.4277818036
 20
378.9509082116
 30
0.0
 11
708.1466293764
 21
378.9509082116
 31
0.0
  0
LINE
  5
24C
330
1F
100
AcDbEntity
  8
0
  6
Continuous
 62
     7
370
    15
100
AcDbLine
 10
709.5148539972
 20
392.9509067811
 30
0.0
 11
703.4277818036
 21
392.9509067811
 31
0.0
  0
LWPOLYLINE
  5
24D
330
1F
100
AcDbEntity
  8
0
  6
Continuous
 62
     7
370
    15
100
AcDbPolyline
 90
        6
 70
   128
 43
0.0
 10
708.7407461237
 20
115.7008999862
 10
708.7034187149
 20
114.0685522832
 10
708.6091018152
 20
112.6484865226
 10
708.4602913689
 20
111.5968370714
 10
708.2641622853
 20
111.0296392717
 10
708.1466293764
 20
110.9509015359
  0
LWPOLYLINE
  5
24E
330
1F
100
AcDbEntity
  8
0
  6
Continuous
 62
     7
370
    15
100
AcDbPolyline
 90
       10
 70
   128
 43
0.0
 10
708.7407461237
 20
115.7008999862
 10
708.8222741019
 20
119.9013883151
 10
708.9162520003
 20
122.168525485
 10
709.0362510514
 20
124.2935428299
 10
709.1631120872
 20
126.1051962055
 10
709.2893249225
 20
127.6484647669
 10
709.3945606481
 20
128.7964353241
 10
709.4727023374
 20
129.5780086793
 10
709.5110132229
 20
129.9262264647
 10
709.5099813175
 20
129.9020865835
  0
LINE
  5
24F
330
1F
100
AcDbEntity
  8
0
  6
Continuous
 62
     7
370
    15
100
AcDbLine
 10
709.5132111442
 20
99.9713236369
 30
0.0
 11
709.5148539972
 21
99.9509090461
 31
0.0
  0
LINE
  5
250
330
1F
100
AcDbEntity
  8
0
  6
Continuous
 62
     7
370
    15
100
AcDbLine
 10
709.5148539972
 20
99.9509090461
 30
0.0
 11
709.5148539972
 21
96.9509029664
 31
0.0
  0
LINE
  5
251
330
1F
100
AcDbEntity
  8
0
  6
Continuous
 62
     7
370
    15
100
AcDbLine
 10
703.4277818036
 20
110.9509015359
 30
0.0
 11
708.1466293764
 21
110.9509015359
 31
0.0
  0
LINE
  5
252
330
1F
100
AcDbEntity
  8
0
  6
Continuous
 62
     7
370
    15
100
AcDbLine
 10
709.5148539972
 20
96.9509029664
 30
0.0
 11
703.4277818036
 21
96.9509029664
 31
0.0
  0
LINE
  5
253
330
1F
100
AcDbEntity
  8
0
  6
Continuous
 62
     7
370
    15
100
AcDbLine
 10
589.5148566794
 20
110.9509015359
 30
0.0
 11
589.5148566794
 21
96.9509029664
 31
0.0
  0
LINE
  5
254
330
1F
100
AcDbEntity
  8
0
  6
Continuous
 62
     7
370
    15
100
AcDbLine
 10
589.5148566794
 20
110.9509015359
 30
0.0
 11
595.601928873
 21
110.9509015359
 31
0.0
  0
LINE
  5
255
330
1F
100
AcDbEntity
  8
0
  6
Continuous
 62
     7
370
    15
100
AcDbLine
 10
595.601928873
 20
96.9509029664
 30
0.0
 11
589.5148566794
 21
96.9509029664
 31
0.0
  0
LINE
  5
256
330
1F
100
AcDbEntity
  8
0
  6
Continuous
 62
     7
370
    15
100
AcDbLine
 10
589.5148566794
 20
378.9509082116
 30
0.0
 11
589.5148566794
 21
392.9509067811
 31
0.0
  0
LINE
  5
257
330
1F
100
AcDbEntity
  8
0
  6
Continuous
 62
     7
370
    15
100
AcDbLine
 10
589.5148566794
 20
378.9509082116
 30
0.0
 11
595.601928873
 21
378.9509082116
 31
0.0
  0
LINE
  5
258
330
1F
100
AcDbEntity
  8
0
  6
Continuous
 62
     7
370
    15
100
AcDbLine
 10
595.601928873
 20
392.9509067811
 30
0.0
 11
589.5148566794
 21
392.9509067811
 31
0.0
  0
ARC
  5
259
330
1F
100
AcDbEntity
  8
0
  6
Continuous
 62
     7
370
    15
100
AcDbCircle
 10
620.6897518304
 20
115.966517531
 30
0.0
 40
5.01564783263765
100
AcDbArc
 50
269.7958525002
 51
359.8164507089
  0
CIRCLE
  5
25A
330
1F
100
AcDbEntity
  8
0
  6
Continuous
 62
     7
370
    15
100
AcDbCircle
 10
649.5148553383
 20
349.9509048738
 30
0.0
 40
15.00000000000011
  0
LINE
  5
25B
330
1F
100
AcDbEntity
  8
0
  6
Continuous
 62
     7
370
    15
100
AcDbLine
 10
652.5148553644
 20
335.2539682664
 30
0.0
 11
652.5148553644
 21
274.8005272724
 31
0.0
  0
LINE
  5
25C
330
1F
100
AcDbEntity
  8
0
  6
Continuous
 62
     7
370
    15
100
AcDbLine
 10
646.5148553122
 20
335.2539682664
 30
0.0
 11
646.5148553122
 21
274.8005272724
 31
0.0
  0
ARC
  5
25D
330
1F
100
AcDbEntity
  8
0
  6
Continuous
 62
     7
370
    15
100
AcDbCircle
 10
620.6652662656
 20
373.9348330282
 30
0.0
 40
5.016085110956489
100
AcDbArc
 50
0.1208654431
 51
90.1139921502
  0
ARC
  5
25E
330
1F
100
AcDbEntity
  8
0
  6
Continuous
 62
     7
370
    15
100
AcDbCircle
 10
649.5148553383
 20
244.9509048738
 30
0.0
 40
30.00000000000003
100
AcDbArc
 50
323.362850286
 51
216.7137384772
  0
LWPOLYLINE
  5
25F
330
1F
100
AcDbEntity
  8
0
  6
Continuous
 62
     7
370
    15
100
AcDbPolyline
 90
        2
 70
   128
 43
0.0
 10
682.159924401
 20
318.8437590279
 10
682.159924401
 20
318.8437590279
  0
LWPOLYLINE
  5
260
330
1F
100
AcDbEntity
  8
0
  6
Continuous
 62
     7
370
    15
100
AcDbPolyline
 90
        6
 70
   128
 43
0.0
 10
682.159924401
 20
318.8437590279
 10
682.007858051
 20
318.7716225066
 10
681.5681173336
 20
318.5630286016
 10
680.8879948091
 20
318.2404035606
 10
680.0491842311
 20
317.8425053038
 10
679.4494218063
 20
317.5579974331
  0
LINE
  5
261
330
1F
100
AcDbEntity
  8
0
  6
Continuous
 62
     7
370
    15
100
AcDbLine
 10
679.4494218063
 20
317.5579974331
 30
0.0
 11
678.7147424054
 21
317.2094965257
 31
0.0
  0
LINE
  5
262
330
1F
100
AcDbEntity
  8
0
  6
Continuous
 62
     7
370
    15
100
AcDbLine
 10
678.7147424054
 20
317.2094965257
 30
0.0
 11
652.5148553644
 21
304.7812500872
 31
0.0
  0
ARC
  5
263
330
1F
100
AcDbEntity
  8
0
  6
Continuous
 62
     7
370
    15
100
AcDbCircle
 10
634.3994424165
 20
321.5359842216
 30
0.0
 40
10.88023201389172
100
AcDbArc
 50
259.7634623817
 51
262.7882350492
  0
LWPOLYLINE
  5
264
330
1F
100
AcDbEntity
  8
0
  6
Continuous
 62
     7
370
    15
100
AcDbPolyline
 90
        8
 70
   128
 43
0.0
 10
632.4658910614
 20
310.8289385118
 10
630.1090228241
 20
314.9392226614
 10
628.2278257292
 20
319.2879477419
 10
626.3561486136
 20
326.1106455602
 10
625.637661187
 20
333.148873774
 10
625.5947011393
 20
344.7276348151
 10
625.6607449483
 20
356.3072824754
 10
625.6813402157
 20
373.9454144515
  0
ARC
  5
265
330
1F
100
AcDbEntity
  8
0
  6
Continuous
 62
     7
370
    15
100
AcDbCircle
 10
649.5148553383
 20
244.9509048738
 30
0.0
 40
49.00000000000004
100
AcDbArc
 50
299.3343805854
 51
86.4898998995
  0
ARC
  5
266
330
1F
100
AcDbEntity
  8
0
  6
Continuous
 62
     7
370
    15
100
AcDbCircle
 10
649.5148553383
 20
244.9509048738
 30
0.0
 40
49.00000000000003
100
AcDbArc
 50
93.5101001005
 51
240.6381854873
  0
ARC
  5
267
330
1F
100
AcDbEntity
  8
0
  6
Continuous
 62
     7
370
    15
100
AcDbCircle
 10
676.5399084006
 20
132.6745622416
 30
0.0
 40
3.026832163553317
100
AcDbArc
 50
179.840967353
 51
269.5051442089
  0
LINE
  5
268
330
1F
100
AcDbEntity
  8
0
  6
Continuous
 62
     7
370
    15
100
AcDbLine
 10
691.8010241222
 20
260.3418113567
 30
0.0
 11
690.07667665
 21
257.1364952155
 31
0.0
  0
LINE
  5
269
330
1F
100
AcDbEntity
  8
0
  6
Continuous
 62
     7
370
    15
100
AcDbLine
 10
695.0063384008
 20
258.6174648158
 30
0.0
 11
691.8010241222
 21
260.3418113567
 31
0.0
  0
LINE
  5
26A
330
1F
100
AcDbEntity
  8
0
  6
Continuous
 62
     7
370
    15
100
AcDbLine
 10
693.8091940116
 20
258.2578187712
 30
0.0
 11
695.0063384008
 21
258.6174648158
 31
0.0
  0
ARC
  5
26B
330
1F
100
AcDbEntity
  8
0
  6
Continuous
 62
     7
370
    15
100
AcDbCircle
 10
649.5148553383
 20
244.9509048738
 30
0.0
 40
46.25000000000012
100
AcDbArc
 50
1.526179454
 51
16.7213289831
  0
LINE
  5
26C
330
1F
100
AcDbEntity
  8
0
  6
Continuous
 62
     7
370
    15
100
AcDbLine
 10
697.0148547422
 20
244.9510466304
 30
0.0
 11
695.7484497559
 21
246.1827137877
 31
0.0
  0
ARC
  5
26D
330
1F
100
AcDbEntity
  8
0
  6
Continuous
 62
     7
370
    15
100
AcDbCircle
 10
649.5148553383
 20
244.9509048738
 30
0.0
 40
47.50000000000006
100
AcDbArc
 50
340.0
 51
0.0001709907
  0
LINE
  5
26E
330
1F
100
AcDbEntity
  8
0
  6
Continuous
 62
     7
370
    15
100
AcDbLine
 10
692.5904876422
 20
231.9320751257
 30
0.0
 11
694.1502555143
 21
228.7049474098
 31
0.0
  0
LINE
  5
26F
330
1F
100
AcDbEntity
  8
0
  6
Continuous
 62
     7
370
    15
100
AcDbLine
 10
689.45179273
 20
230.4150484406
 30
0.0
 11
692.5904876422
 21
231.9320751257
 31
0.0
  0
ARC
  5
270
330
1F
100
AcDbEntity
  8
0
  6
Continuous
 62
     7
370
    15
100
AcDbCircle
 10
649.5148553383
 20
244.9509048738
 30
0.0
 40
42.50000000000009
100
AcDbArc
 50
340.0
 51
0.0
  0
LINE
  5
271
330
1F
100
AcDbEntity
  8
0
  6
Continuous
 62
     7
370
    15
100
AcDbLine
 10
693.2465224397
 20
246.2173116064
 30
0.0
 11
692.0148557853
 21
244.9509048738
 31
0.0
  0
ARC
  5
272
330
1F
100
AcDbEntity
  8
0
  6
Continuous
 62
     7
370
    15
100
AcDbCircle
 10
649.5148553383
 20
244.9509048738
 30
0.0
 40
43.75000000000011
100
AcDbArc
 50
1.6587405132
 51
16.7213289831
  0
LINE
  5
273
330
1F
100
AcDbEntity
  8
0
  6
Continuous
 62
     7
370
    15
100
AcDbLine
 10
690.07667665
 20
257.1364952155
 30
0.0
 11
691.4149052333
 21
257.5385266818
 31
0.0
  0
LINE
  5
274
330
1F
100
AcDbEntity
  8
0
  6
Continuous
 62
     7
370
    15
100
AcDbLine
 10
692.625158919
 20
129.6478429713
 30
0.0
 11
676.5137663912
 21
129.6478429713
 31
0.0
  0
LWPOLYLINE
  5
275
330
1F
100
AcDbEntity
  8
0
  6
Continuous
 62
     7
370
    15
100
AcDbPolyline
 90
        7
 70
   128
 43
0.0
 10
595.3532880973
 20
213.6807100751
 10
595.5037413966
 20
213.7579074033
 10
595.9381251466
 20
213.9807952471
 10
596.6074853074
 20
214.3242614247
 10
597.436429454
 20
214.7496318348
 10
597.9680470061
 20
215.022436706
 10
598.0227156412
 20
215.0504918672
  0
ARC
  5
276
330
1F
100
AcDbEntity
  8
0
  6
Continuous
 62
     7
370
    15
100
AcDbCircle
 10
646.3225806388
 20
240.8145307962
 30
0.0
 40
57.74178085086891
100
AcDbArc
 50
115.1989341959
 51
208.0288840479
  0
ARC
  5
277
330
1F
100
AcDbEntity
  8
0
  6
Continuous
 62
     7
370
    15
100
AcDbCircle
 10
649.5148553383
 20
244.9509048738
 30
0.0
 40
55.55311472886142
100
AcDbArc
 50
97.1682977399
 51
102.4260111823
  0
ARC
  5
278
330
1F
100
AcDbEntity
  8
0
  6
Continuous
 62
     7
370
    15
100
AcDbCircle
 10
645.8350067119
 20
248.6659933045
 30
0.0
 40
79.0216320202087
100
AcDbArc
 50
26.330634253
 51
62.6333326227
  0
LWPOLYLINE
  5
279
330
1F
100
AcDbEntity
  8
0
  6
Continuous
 62
     7
370
    15
100
AcDbPolyline
 90
        7
 70
   128
 43
0.0
 10
716.6580944192
 20
283.7160745539
 10
716.5079130661
 20
283.6383649983
 10
716.0743041765
 20
283.4140056648
 10
715.406128658
 20
283.0682763733
 10
714.5786224734
 20
282.6400877811
 10
714.0435664784
 20
282.3632242061
 10
713.9932080042
 20
282.3371658005
  0
ARC
  5
27A
330
1F
100
AcDbEntity
  8
0
  6
Continuous
 62
     7
370
    15
100
AcDbCircle
 10
654.8402038935
 20
243.0759764762
 30
0.0
 40
66.35341075366539
100
AcDbArc
 50
286.3493768019
 51
296.8255335689
  0
ARC
  5
27B
330
1F
100
AcDbEntity
  8
0
  6
Continuous
 62
     7
370
    15
100
AcDbCircle
 10
654.8402038935
 20
243.0759764762
 30
0.0
 40
66.35341075366539
100
AcDbArc
 50
206.296131121
 51
243.7521933287
  0
ARC
  5
27C
330
1F
100
AcDbEntity
  8
0
  6
Continuous
 62
     7
370
    15
100
AcDbCircle
 10
652.6566905124
 20
249.1323371404
 30
0.0
 40
72.74761118929665
100
AcDbArc
 50
296.2076112824
 51
28.3849695255
  0
ARC
  5
27D
330
1F
100
AcDbEntity
  8
0
  6
Continuous
 62
     7
370
    15
100
AcDbCircle
 10
649.5143051134
 20
244.9527265855
 30
0.0
 40
55.55121899883177
100
AcDbArc
 50
102.4258606724
 51
112.2029502955
  0
ARC
  5
27E
330
1F
100
AcDbEntity
  8
0
  6
Continuous
 62
     7
370
    15
100
AcDbCircle
 10
649.5148553383
 20
244.9509048738
 30
0.0
 40
55.55311472886134
100
AcDbArc
 50
112.2027657855
 51
153.9461650701
  0
ARC
  5
27F
330
1F
100
AcDbEntity
  8
0
  6
Continuous
 62
     7
370
    15
100
AcDbCircle
 10
624.6202371301
 20
305.4982855054
 30
0.0
 40
9.913572107587118
100
AcDbArc
 50
293.1781935216
 51
31.9328820934
  0
LWPOLYLINE
  5
280
330
1F
100
AcDbEntity
  8
0
  6
Continuous
 62
     7
370
    15
100
AcDbPolyline
 90
        6
 70
   128
 43
0.0
 10
680.3295775186
 20
326.721026925
 10
679.4035001528
 20
325.11701378
 10
678.5823753905
 20
323.6947873511
 10
678.0088222455
 20
322.7013641872
 10
677.7203786057
 20
322.2017655052
 10
677.6842060369
 20
322.1391061224
  0
ARC
  5
281
330
1F
100
AcDbEntity
  8
0
  6
Continuous
 62
     7
370
    15
100
AcDbCircle
 10
705.3391453553
 20
352.7652832952
 30
0.0
 40
8.665617411945243
100
AcDbArc
 50
103.1642625959
 51
145.325536577
  0
LWPOLYLINE
  5
282
330
1F
100
AcDbEntity
  8
0
  6
Continuous
 62
     7
370
    15
100
AcDbPolyline
 90
        4
 70
   128
 43
0.0
 10
698.2125616502
 20
357.695266036
 10
698.0075477492
 20
357.3401713647
 10
697.8003694546
 20
356.9813290514
 10
697.5921033751
 20
356.6206017412
  0
LINE
  5
283
330
1F
100
AcDbEntity
  8
0
  6
Continuous
 62
     7
370
    15
100
AcDbLine
 10
625.5140355658
 20
182.3830673374
 30
0.0
 11
599.5148545932
 21
110.9509015359
 31
0.0
  0
LINE
  5
284
330
1F
100
AcDbEntity
  8
0
  6
Continuous
 62
     7
370
    15
100
AcDbLine
 10
692.625158919
 20
129.6478429713
 30
0.0
 11
674.4163757991
 21
179.6760702409
 31
0.0
  0
LINE
  5
285
330
1F
100
AcDbEntity
  8
0
  6
Continuous
 62
     7
370
    15
100
AcDbLine
 10
697.5921033751
 20
356.6206017412
 30
0.0
 11
680.3295775186
 21
326.721026925
 31
0.0
  0
ARC
  5
286
330
1F
100
AcDbEntity
  8
0
  6
Continuous
 62
     7
370
    15
100
AcDbCircle
 10
596.0138176472
 20
373.9509048738
 30
0.0
 40
5.0
100
AcDbArc
 50
20.0
 51
90.0
  0
LINE
  5
287
330
1F
100
AcDbEntity
  8
0
  6
Continuous
 62
     7
370
    15
100
AcDbLine
 10
600.7122821044
 20
375.6610000409
 30
0.0
 11
629.382811008
 21
296.8893716015
 31
0.0
  0
ARC
  5
288
330
1F
100
AcDbEntity
  8
0
  6
Continuous
 62
     7
370
    15
100
AcDbCircle
 10
698.3052232402
 20
293.7412727757
 30
0.0
 40
10.00000000000001
100
AcDbArc
 50
29.9888791968
 51
51.3405045749
  0
ARC
  5
289
330
1F
100
AcDbEntity
  8
0
  6
Continuous
 62
     7
370
    15
100
AcDbCircle
 10
698.3052232402
 20
196.1605369719
 30
0.0
 40
10.00000000000002
100
AcDbArc
 50
279.9688991891
 51
350.0311008109
  0
LINE
  5
28A
330
1F
100
AcDbEntity
  8
0
  6
Continuous
 62
     7
370
    15
100
AcDbLine
 10
700.0363594722
 20
186.3115200676
 30
0.0
 11
684.0622997713
 21
183.5038022973
 31
0.0
  0
LINE
  5
28B
330
1F
100
AcDbEntity
  8
0
  6
Continuous
 62
     7
370
    15
100
AcDbLine
 10
625.2632806879
 20
181.6941196002
 30
0.0
 11
598.9933512043
 21
186.3115200676
 31
0.0
  0
ARC
  5
28C
330
1F
100
AcDbEntity
  8
0
  6
Continuous
 62
     7
370
    15
100
AcDbCircle
 10
600.7244874364
 20
196.1605369719
 30
0.0
 40
9.999999999999998
100
AcDbArc
 50
189.9688991891
 51
260.0311008109
  0
LINE
  5
28D
330
1F
100
AcDbEntity
  8
0
  6
Continuous
 62
     7
370
    15
100
AcDbLine
 10
590.8754705321
 20
194.4294007398
 30
0.0
 11
584.0188800227
 21
233.4388516747
 31
0.0
  0
ARC
  5
28E
330
1F
100
AcDbEntity
  8
0
  6
Continuous
 62
     7
370
    15
100
AcDbCircle
 10
649.5148553383
 20
244.9509048738
 30
0.0
 40
66.4999999999999
100
AcDbArc
 50
170.0311008109
 51
189.9688991891
  0
LINE
  5
28F
330
1F
100
AcDbEntity
  8
0
  6
Continuous
 62
     7
370
    15
100
AcDbLine
 10
584.0188800227
 20
256.4629580729
 30
0.0
 11
590.8754705321
 21
295.4724090077
 31
0.0
  0
ARC
  5
290
330
1F
100
AcDbEntity
  8
0
  6
Continuous
 62
     7
370
    15
100
AcDbCircle
 10
600.7244874364
 20
293.7412727757
 30
0.0
 40
9.999999999999936
100
AcDbArc
 50
99.9688991891
 51
170.0311008109
  0
LINE
  5
291
330
1F
100
AcDbEntity
  8
0
  6
Continuous
 62
     7
370
    15
100
AcDbLine
 10
598.9933512043
 20
303.5902896799
 30
0.0
 11
625.2632806879
 21
308.2076901473
 31
0.0
  0
LINE
  5
292
330
1F
100
AcDbEntity
  8
0
  6
Continuous
 62
     7
370
    15
100
AcDbLine
 10
709.8722136449
 20
204.2035156764
 30
0.0
 11
708.1542401444
 21
194.4294007398
 31
0.0
  0
ARC
  5
293
330
1F
100
AcDbEntity
  8
0
  6
Continuous
 62
     7
370
    15
100
AcDbCircle
 10
649.5148553383
 20
244.9509048738
 30
0.0
 40
69.99999999999993
100
AcDbArc
 50
164.9738862409
 51
195.0261137591
  0
ARC
  5
294
330
1F
100
AcDbEntity
  8
0
  6
Continuous
 62
     7
370
    15
100
AcDbCircle
 10
584.3228312863
 20
227.4509048738
 30
0.0
 40
2.500000000000003
100
AcDbArc
 50
195.0261137591
 51
255.6753329502
  0
ARC
  5
295
330
1F
100
AcDbEntity
  8
0
  6
Continuous
 62
     7
370
    15
100
AcDbCircle
 10
584.3228312863
 20
262.4509048738
 30
0.0
 40
2.499999999999976
100
AcDbArc
 50
104.3246670498
 51
164.9738862409
  0
ARC
  5
296
330
1F
100
AcDbEntity
  8
0
  6
Continuous
 62
     7
370
    15
100
AcDbCircle
 10
582.9620423421
 20
267.7799060419
 30
0.0
 40
3.000000000000039
100
AcDbArc
 50
284.3246670498
 51
350.0311008109
  0
ARC
  5
297
330
1F
100
AcDbEntity
  8
0
  6
Continuous
 62
     7
370
    15
100
AcDbCircle
 10
582.9620423421
 20
222.1219037057
 30
0.0
 40
3.000000000000039
100
AcDbArc
 50
9.9688991891
 51
75.6753329502
  0
ARC
  5
298
330
1F
100
AcDbEntity
  8
0
  6
Continuous
 62
     7
370
    15
100
AcDbCircle
 10
649.5148553383
 20
244.9509048738
 30
0.0
 40
69.99999999999993
100
AcDbArc
 50
151.8362284722
 51
164.9738862409
  0
ARC
  5
299
330
1F
100
AcDbEntity
  8
0
  6
Continuous
 62
     7
370
    15
100
AcDbCircle
 10
649.5148553383
 20
244.9509048738
 30
0.0
 40
69.99999999999997
100
AcDbArc
 50
110.9445488389
 51
118.1637715278
  0
ARC
  5
29A
330
1F
100
AcDbEntity
  8
0
  6
Continuous
 62
     7
370
    15
100
AcDbCircle
 10
649.5148553383
 20
244.9509048738
 30
0.0
 40
69.99999999999996
100
AcDbArc
 50
241.8362284722
 51
249.0554511611
  0
ARC
  5
29B
330
1F
100
AcDbEntity
  8
0
  6
Continuous
 62
     7
370
    15
100
AcDbCircle
 10
649.5148553383
 20
244.9509048738
 30
0.0
 40
69.99999999999996
100
AcDbArc
 50
195.0261137591
 51
208.1637715278
  0
LINE
  5
29C
330
1F
100
AcDbEntity
  8
0
  6
Continuous
 62
     7
370
    15
100
AcDbLine
 10
676.4436098617
 20
180.3378829636
 30
0.0
 11
674.4631132912
 21
179.5476594843
 31
0.0
  0
INSERT
  5
2A8
330
1F
100
AcDbEntity
  8
SLD-0
100
AcDbBlockReference
  2
SW_CENTERMARKSYMBOL_0
 10
649.5148553383
 20
244.9509048738
 30
0.0
  0
LINE
  5
2A9
330
1F
100
AcDbEntity
  8
0
  6
Continuous
 62
     7
370
    15
100
AcDbLine
 10
708.7920286447
 20
457.7709080946
 30
0.0
 11
708.7514453322
 21
457.7709080946
 31
0.0
  0
LINE
  5
2AA
330
1F
100
AcDbEntity
  8
0
  6
Continuous
 62
     7
370
     0
100
AcDbLine
 10
588.5807961911
 20
442.7709112238
 30
0.0
 11
725.4043013543
 21
442.7709112238
 31
0.0
  0
ARC
  5
2AB
330
1F
100
AcDbEntity
  8
0
  6
Continuous
 62
     7
370
    15
100
AcDbCircle
 10
649.5148559787
 20
442.8044664834
 30
0.0
 40
19.96651550321412
100
AcDbArc
 50
359.9037100059
 51
180.0962899941
  0
ARC
  5
2AC
330
1F
100
AcDbEntity
  8
0
  6
Continuous
 62
     7
370
    15
100
AcDbCircle
 10
649.514855513
 20
442.8039701456
 30
0.0
 40
42.46697371493553
100
AcDbArc
 50
359.9553974131
 51
180.0446025869
  0
CIRCLE
  5
2AD
330
1F
100
AcDbEntity
  8
0
  6
Continuous
 62
     7
370
    15
100
AcDbCircle
 10
686.6379608229
 20
479.8940145368
 30
0.0
 40
7.500001544709161
  0
CIRCLE
  5
2AE
330
1F
100
AcDbEntity
  8
0
  6
Continuous
 62
     7
370
    15
100
AcDbCircle
 10
612.3917479828
 20
479.8940145368
 30
0.0
 40
7.500001544709137
  0
ARC
  5
2AF
330
1F
100
AcDbEntity
  8
0
  6
Continuous
 62
     7
370
    15
100
AcDbCircle
 10
559.514979089
 20
442.530734606
 30
0.0
 40
150.0000673656733
100
AcDbArc
 50
0.0917407083
 51
16.3788249768
  0
ARC
  5
2B0
330
1F
100
AcDbEntity
  8
0
  6
Continuous
 62
     7
370
    15
100
AcDbCircle
 10
739.5147282118
 20
442.530734606
 30
0.0
 40
150.0000673656733
100
AcDbArc
 50
163.6211750232
 51
179.9082592917
  0
ARC
  5
2B1
330
1F
100
AcDbEntity
  8
0
  6
Continuous
 62
     7
370
    15
100
AcDbCircle
 10
612.3917724966
 20
479.8939871016
 30
0.0
 40
17.5000352644952
100
AcDbArc
 50
106.3788780596
 51
163.6211039359
  0
ARC
  5
2B2
330
1F
100
AcDbEntity
  8
0
  6
Continuous
 62
     7
370
    15
100
AcDbCircle
 10
649.7550275768
 20
352.7710973595
 30
0.0
 40
150.0000047987251
100
AcDbArc
 50
90.091739007
 51
106.3788309295
  0
ARC
  5
2B3
330
1F
100
AcDbEntity
  8
0
  6
Continuous
 62
     7
370
    15
100
AcDbCircle
 10
649.2746834492
 20
352.7710973595
 30
0.0
 40
150.0000047987251
100
AcDbArc
 50
73.6211690705
 51
89.908260993
  0
ARC
  5
2B4
330
1F
100
AcDbEntity
  8
0
  6
Continuous
 62
     7
370
    15
100
AcDbCircle
 10
686.6379462327
 20
479.8940000809
 30
0.0
 40
17.50002063970601
100
AcDbArc
 50
16.3788658452
 51
73.6211341548
  0
ARC
  5
2B5
330
1F
100
AcDbEntity
  8
SLD-0
  6
CENTERX2
370
     0
100
AcDbCircle
 10
649.5148553383
 20
442.7709098055
 30
0.0
 40
52.5000000000007
100
AcDbArc
 50
358.0090288665
 51
181.9908307206
  0
ENDSEC
  0
SECTION
  2
OBJECTS
  0
DICTIONARY
  5
C
330
0
100
AcDbDictionary
281
     1
  3
ACAD_GROUP
350
D
  3
ACAD_LAYOUT
350
1A
  3
ACAD_MLEADERSTYLE
350
2B7
  3
ACAD_MLINESTYLE
350
17
  3
ACAD_PLOTSETTINGS
350
19
  3
ACAD_PLOTSTYLENAME
350
E
  3
ACAD_TABLESTYLE
350
2B6
  3
ACAD_VISUALSTYLE
350
2A
  3
AcDbVariableDictionary
350
2B8
  0
DICTIONARY
  5
D
102
{ACAD_REACTORS
330
C
102
}
330
C
100
AcDbDictionary
281
     1
  0
DICTIONARY
  5
1A
102
{ACAD_REACTORS
330
C
102
}
330
C
100
AcDbDictionary
281
     1
  3
Layout1
350
1E
  3
Layout2
350
26
  3
Model
350
22
  0
DICTIONARY
  5
2B7
102
{ACAD_REACTORS
330
C
102
}
330
C
100
AcDbDictionary
281
     1
  0
DICTIONARY
  5
17
102
{ACAD_REACTORS
330
C
102
}
330
C
100
AcDbDictionary
281
     1
  3
Standard
350
18
  0
DICTIONARY
  5
19
102
{ACAD_REACTORS
330
C
102
}
330
C
100
AcDbDictionary
281
     1
  0
ACDBDICTIONARYWDFLT
  5
E
102
{ACAD_REACTORS
330
C
102
}
330
C
100
AcDbDictionary
281
     1
  3
Normal
350
F
100
AcDbDictionaryWithDefault
340
F
  0
DICTIONARY
  5
2B6
102
{ACAD_REACTORS
330
C
102
}
330
C
100
AcDbDictionary
281
     1
  0
DICTIONARY
  5
2A
102
{ACAD_REACTORS
330
C
102
}
330
C
100
AcDbDictionary
281
     1
  3
2dWireframe
350
2F
  3
3D Hidden
350
31
  3
3dWireframe
350
30
  3
Basic
350
32
  3
Brighten
350
36
  3
ColorChange
350
3A
  3
Conceptual
350
34
  3
Dim
350
35
  3
Facepattern
350
39
  3
Flat
350
2B
  3
FlatWithEdges
350
2C
  3
Gouraud
350
2D
  3
GouraudWithEdges
350
2E
  3
Linepattern
350
38
  3
Realistic
350
33
  3
Thicken
350
37
  0
DICTIONARY
  5
2B8
102
{ACAD_REACTORS
330
C
102
}
330
C
100
AcDbDictionary
281
     1
  3
PSOLHEIGHT
350
2BA
  3
PSOLWIDTH
350
2B9
  0
LAYOUT
  5
1E
102
{ACAD_REACTORS
330
1A
102
}
330
1A
100
AcDbPlotSettings
  1

  2
none_device
  4

  6

 40
0.0
 41
0.0
 42
0.0
 43
0.0
 44
0.0
 45
0.0
 46
0.0
 47
0.0
 48
0.0
 49
0.0
140
0.0
141
0.0
142
1.0
143
1.0
 70
   688
 72
     0
 73
     0
 74
     5
  7

 75
    16
147
1.0
148
0.0
149
0.0
100
AcDbLayout
  1
Layout1
 70
     1
 71
     1
 10
0.0
 20
0.0
 11
420.0
 21
297.0
 12
0.0
 22
0.0
 32
0.0
 14
1.0000000000E+20
 24
1.0000000000E+20
 34
1.0000000000E+20
 15
-1.0000000000E+20
 25
-1.0000000000E+20
 35
-1.0000000000E+20
146
0.0
 13
0.0
 23
0.0
 33
0.0
 16
1.0
 26
0.0
 36
0.0
 17
0.0
 27
1.0
 37
0.0
 76
     0
330
1B
  0
LAYOUT
  5
26
102
{ACAD_REACTORS
330
1A
102
}
330
1A
100
AcDbPlotSettings
  1

  2
none_device
  4

  6

 40
0.0
 41
0.0
 42
0.0
 43
0.0
 44
0.0
 45
0.0
 46
0.0
 47
0.0
 48
0.0
 49
0.0
140
0.0
141
0.0
142
1.0
143
1.0
 70
   688
 72
     0
 73
     0
 74
     5
  7

 75
    16
147
1.0
148
0.0
149
0.0
100
AcDbLayout
  1
Layout2
 70
     1
 71
     2
 10
0.0
 20
0.0
 11
0.0
 21
0.0
 12
0.0
 22
0.0
 32
0.0
 14
0.0
 24
0.0
 34
0.0
 15
0.0
 25
0.0
 35
0.0
146
0.0
 13
0.0
 23
0.0
 33
0.0
 16
1.0
 26
0.0
 36
0.0
 17
0.0
 27
1.0
 37
0.0
 76
     0
330
23
  0
LAYOUT
  5
22
102
{ACAD_REACTORS
330
1A
102
}
330
1A
100
AcDbPlotSettings
  1

  2
none_device
  4

  6

 40
0.0
 41
0.0
 42
0.0
 43
0.0
 44
0.0
 45
0.0
 46
0.0
 47
0.0
 48
0.0
 49
0.0
140
0.0
141
0.0
142
1.0
143
1.0
 70
  1712
 72
     0
 73
     0
 74
     0
  7

 75
     0
147
1.0
148
0.0
149
0.0
100
AcDbLayout
  1
Model
 70
     1
 71
     0
 10
0.0
 20
0.0
 11
841.0
 21
594.0
 12
0.0
 22
0.0
 32
0.0
 14
0.0
 24
0.0
 34
0.0
 15
841.0
 25
594.0
 35
0.0
146
0.0
 13
0.0
 23
0.0
 33
0.0
 16
1.0
 26
0.0
 36
0.0
 17
0.0
 27
1.0
 37
0.0
 76
     0
330
1F
331
29
  0
MLINESTYLE
  5
18
102
{ACAD_REACTORS
330
17
102
}
330
17
100
AcDbMlineStyle
  2
Standard
 70
     0
  3

 62
   256
 51
90.0
 52
90.0
 71
     2
 49
0.5
 62
   256
  6
BYLAYER
 49
-0.5
 62
   256
  6
BYLAYER
  0
ACDBPLACEHOLDER
  5
F
102
{ACAD_REACTORS
330
E
102
}
330
E
  0
VISUALSTYLE
  5
2F
102
{ACAD_REACTORS
330
2A
102
}
330
2A
100
AcDbVisualStyle
  2
2dWireframe
 70
     4
 71
     0
 72
     2
 73
     0
 90
        0
 40
-0.6
 41
-30.0
 62
     5
 63
     7
 74
     1
 91
        4
 64
     7
 65
   257
 75
     1
175
     1
 42
1.0
 92
        0
 66
   257
 43
1.0
 76
     1
 77
     6
 78
     2
 67
     7
 79
     5
170
     0
171
     0
290
     0
174
     0
 93
        1
 44
0.0
173
     0
291
     0
 45
0.0
1001
ACAD
1000
AcDbSavedByObjectVersion
1070
     0
  0
VISUALSTYLE
  5
31
102
{ACAD_REACTORS
330
2A
102
}
330
2A
100
AcDbVisualStyle
  2
3D Hidden
 70
     6
 71
     1
 72
     2
 73
     2
 90
        0
 40
-0.6
 41
-30.0
 62
     5
 63
     7
 74
     2
 91
        2
 64
     7
 65
   257
 75
     2
175
     1
 42
40.0
 92
        0
 66
   257
 43
1.0
 76
     1
 77
     6
 78
     2
 67
     7
 79
     3
170
     0
171
     0
290
     0
174
     0
 93
        1
 44
0.0
173
     0
291
     0
 45
0.0
1001
ACAD
1000
AcDbSavedByObjectVersion
1070
     0
  0
VISUALSTYLE
  5
30
102
{ACAD_REACTORS
330
2A
102
}
330
2A
100
AcDbVisualStyle
  2
3dWireframe
 70
     5
 71
     0
 72
     2
 73
     0
 90
        0
 40
-0.6
 41
-30.0
 62
     5
 63
     7
 74
     1
 91
        4
 64
     7
 65
   257
 75
     1
175
     1
 42
1.0
 92
        0
 66
   257
 43
1.0
 76
     1
 77
     6
 78
     2
 67
     7
 79
     5
170
     0
171
     0
290
     0
174
     0
 93
        1
 44
0.0
173
     0
291
     0
 45
0.0
1001
ACAD
1000
AcDbSavedByObjectVersion
1070
     0
  0
VISUALSTYLE
  5
32
102
{ACAD_REACTORS
330
2A
102
}
330
2A
100
AcDbVisualStyle
  2
Basic
 70
     7
 71
     1
 72
     0
 73
     1
 90
        0
 40
-0.6
 41
-30.0
 62
     5
 63
     7
 74
     0
 91
        4
 64
     7
 65
   257
 75
     1
175
     1
 42
1.0
 92
        8
 66
     7
 43
1.0
 76
     1
 77
     6
 78
     2
 67
     7
 79
     5
170
     0
171
     0
290
     0
174
     0
 93
        1
 44
0.0
173
     0
291
     1
 45
0.0
1001
ACAD
1000
AcDbSavedByObjectVersion
1070
     0
  0
VISUALSTYLE
  5
36
102
{ACAD_REACTORS
330
2A
102
}
330
2A
100
AcDbVisualStyle
  2
Brighten
 70
    12
 71
     2
 72
     2
 73
     0
 90
        0
 40
-0.6
 41
-30.0
 62
     5
 63
     7
 74
     1
 91
        4
 64
     7
 65
   257
 75
     1
175
     1
 42
1.0
 92
        8
 66
     7
 43
1.0
 76
     1
 77
     6
 78
     2
 67
     7
 79
     5
170
     0
171
     0
290
     0
174
     0
 93
        1
 44
50.0
173
     0
291
     1
 45
0.0
1001
ACAD
1000
AcDbSavedByObjectVersion
1070
     0
  0
VISUALSTYLE
  5
3A
102
{ACAD_REACTORS
330
2A
102
}
330
2A
100
AcDbVisualStyle
  2
ColorChange
 70
    16
 71
     2
 72
     2
 73
     3
 90
        0
 40
-0.6
 41
-30.0
 62
     5
 63
     8
 74
     1
 91
        4
 64
     7
 65
   257
 75
     1
175
     1
 42
1.0
 92
        8
 66
     8
 43
1.0
 76
     1
 77
     6
 78
     2
 67
     7
 79
     5
170
     0
171
     0
290
     0
174
     0
 93
        1
 44
0.0
173
     0
291
     1
 45
0.0
1001
ACAD
1000
AcDbSavedByObjectVersion
1070
     0
  0
VISUALSTYLE
  5
34
102
{ACAD_REACTORS
330
2A
102
}
330
2A
100
AcDbVisualStyle
  2
Conceptual
 70
     9
 71
     3
 72
     2
 73
     0
 90
        0
 40
-0.6
 41
-30.0
 62
     5
 63
     7
 74
     2
 91
        2
 64
     7
 65
   257
 75
     1
175
     1
 42
40.0
 92
        8
 66
     7
 43
1.0
 76
     1
 77
     6
 78
     2
 67
     7
 79
     3
170
     0
171
     0
290
     0
174
     0
 93
        1
 44
0.0
173
     0
291
     0
 45
0.0
1001
ACAD
1000
AcDbSavedByObjectVersion
1070
     0
  0
VISUALSTYLE
  5
35
102
{ACAD_REACTORS
330
2A
102
}
330
2A
100
AcDbVisualStyle
  2
Dim
 70
    11
 71
     2
 72
     2
 73
     0
 90
        0
 40
-0.6
 41
-30.0
 62
     5
 63
     7
 74
     1
 91
        4
 64
     7
 65
   257
 75
     1
175
     1
 42
1.0
 92
        8
 66
     7
 43
1.0
 76
     1
 77
     6
 78
     2
 67
     7
 79
     5
170
     0
171
     0
290
     0
174
     0
 93
        1
 44
-50.0
173
     0
291
     1
 45
0.0
1001
ACAD
1000
AcDbSavedByObjectVersion
1070
     0
  0
VISUALSTYLE
  5
39
102
{ACAD_REACTORS
330
2A
102
}
330
2A
100
AcDbVisualStyle
  2
Facepattern
 70
    15
 71
     2
 72
     2
 73
     0
 90
        0
 40
-0.6
 41
-30.0
 62
     5
 63
     7
 74
     1
 91
        4
 64
     7
 65
   257
 75
     1
175
     1
 42
1.0
 92
        8
 66
     7
 43
1.0
 76
     1
 77
     6
 78
     2
 67
     7
 79
     5
170
     0
171
     0
290
     0
174
     0
 93
        1
 44
0.0
173
     0
291
     1
 45
0.0
1001
ACAD
1000
AcDbSavedByObjectVersion
1070
     0
  0
VISUALSTYLE
  5
2B
102
{ACAD_REACTORS
330
2A
102
}
330
2A
100
AcDbVisualStyle
  2
Flat
 70
     0
 71
     2
 72
     1
 73
     1
 90
        2
 40
-0.6
 41
30.0
 62
     5
 63
     7
 74
     0
 91
        4
 64
     7
 65
   257
 75
     1
175
     1
 42
1.0
 92
        8
 66
     7
 43
1.0
 76
     1
 77
     6
 78
     2
 67
     7
 79
     5
170
     0
171
     0
290
     0
174
     0
 93
       13
 44
0.0
173
     0
291
     1
 45
0.0
1001
ACAD
1000
AcDbSavedByObjectVersion
1070
     0
  0
VISUALSTYLE
  5
2C
102
{ACAD_REACTORS
330
2A
102
}
330
2A
100
AcDbVisualStyle
  2
FlatWithEdges
 70
     1
 71
     2
 72
     1
 73
     1
 90
        2
 40
-0.6
 41
30.0
 62
     5
 63
     7
 74
     1
 91
        4
 64
     7
 65
   257
 75
     1
175
     1
 42
1.0
 92
        0
 66
   257
 43
1.0
 76
     1
 77
     6
 78
     2
 67
     7
 79
     5
170
     0
171
     0
290
     0
174
     0
 93
       13
 44
0.0
173
     0
291
     1
 45
0.0
1001
ACAD
1000
AcDbSavedByObjectVersion
1070
     0
  0
VISUALSTYLE
  5
2D
102
{ACAD_REACTORS
330
2A
102
}
330
2A
100
AcDbVisualStyle
  2
Gouraud
 70
     2
 71
     2
 72
     2
 73
     1
 90
        2
 40
-0.6
 41
30.0
 62
     5
 63
     7
 74
     0
 91
        4
 64
     7
 65
   257
 75
     1
175
     1
 42
1.0
 92
        0
 66
     7
 43
1.0
 76
     1
 77
     6
 78
     2
 67
     7
 79
     5
170
     0
171
     0
290
     0
174
     0
 93
       13
 44
0.0
173
     0
291
     1
 45
0.0
1001
ACAD
1000
AcDbSavedByObjectVersion
1070
     0
  0
VISUALSTYLE
  5
2E
102
{ACAD_REACTORS
330
2A
102
}
330
2A
100
AcDbVisualStyle
  2
GouraudWithEdges
 70
     3
 71
     2
 72
     2
 73
     1
 90
        2
 40
-0.6
 41
30.0
 62
     5
 63
     7
 74
     1
 91
        4
 64
     7
 65
   257
 75
     1
175
     1
 42
1.0
 92
        0
 66
   257
 43
1.0
 76
     1
 77
     6
 78
     2
 67
     7
 79
     5
170
     0
171
     0
290
     0
174
     0
 93
       13
 44
0.0
173
     0
291
     1
 45
0.0
1001
ACAD
1000
AcDbSavedByObjectVersion
1070
     0
  0
VISUALSTYLE
  5
38
102
{ACAD_REACTORS
330
2A
102
}
330
2A
100
AcDbVisualStyle
  2
Linepattern
 70
    14
 71
     2
 72
     2
 73
     0
 90
        0
 40
-0.6
 41
-30.0
 62
     5
 63
     7
 74
     1
 91
        4
 64
     7
 65
   257
 75
     7
175
     7
 42
1.0
 92
        8
 66
     7
 43
1.0
 76
     1
 77
     6
 78
     2
 67
     7
 79
     5
170
     0
171
     0
290
     0
174
     0
 93
        1
 44
0.0
173
     0
291
     1
 45
0.0
1001
ACAD
1000
AcDbSavedByObjectVersion
1070
     0
  0
VISUALSTYLE
  5
33
102
{ACAD_REACTORS
330
2A
102
}
330
2A
100
AcDbVisualStyle
  2
Realistic
 70
     8
 71
     2
 72
     2
 73
     0
 90
        0
 40
-0.6
 41
-30.0
 62
     5
 63
     7
 74
     1
 91
        0
 64
     7
 65
   257
 75
     1
175
     1
 42
1.0
 92
        8
 66
     8
 43
1.0
 76
     1
 77
     6
 78
     2
 67
     7
 79
     5
170
     0
171
     0
290
     0
174
     0
 93
       13
 44
0.0
173
     0
291
     0
 45
0.0
1001
ACAD
1000
AcDbSavedByObjectVersion
1070
     0
  0
VISUALSTYLE
  5
37
102
{ACAD_REACTORS
330
2A
102
}
330
2A
100
AcDbVisualStyle
  2
Thicken
 70
    13
 71
     2
 72
     2
 73
     0
 90
        0
 40
-0.6
 41
-30.0
 62
     5
 63
     7
 74
     1
 91
        4
 64
     7
 65
   257
 75
     1
175
     1
 42
1.0
 92
       12
 66
     7
 43
1.0
 76
     1
 77
     6
 78
     2
 67
     7
 79
     5
170
     0
171
     0
290
     0
174
     0
 93
        1
 44
0.0
173
     0
291
     1
 45
0.0
1001
ACAD
1000
AcDbSavedByObjectVersion
1070
     0
  0
DICTIONARYVAR
  5
2BA
102
{ACAD_REACTORS
330
2B8
102
}
330
2B8
100
DictionaryVariables
280
     0
  1
80.000000
  0
DICTIONARYVAR
  5
2B9
102
{ACAD_REACTORS
330
2B8
102
}
330
2B8
100
DictionaryVariables
280
     0
  1
5.000000
  0
ENDSEC
  0
EOF
