  0
SECTION
  2
HEADER
  9
$ACADVER
  1
AC1014
  9
$ACADMAINTVER
 70
     9
  9
$DWGCODEPAGE
  3
DOS932
  9
$INSBASE
 10
0.0
 20
0.0
 30
0.0
  9
$EXTMIN
 10
0.0
 20
0.0
 30
0.0
  9
$EXTMAX
 10
210.0
 20
297.0
 30
0.0
  9
$LIMMIN
 10
0.0
 20
0.0
  9
$LIMMAX
 10
210.0
 20
297.0
  9
$ORTHOMODE
 70
     0
  9
$REGENMODE
 70
     1
  9
$FILLMODE
 70
     1
  9
$QTEXTMODE
 70
     0
  9
$MIRRTEXT
 70
     1
  9
$DRAGMODE
 70
     2
  9
$LTSCALE
 40
1.0
  9
$OSMODE
 70
    37
  9
$ATTMODE
 70
     1
  9
$TEXTSIZE
 40
3.5
  9
$TRACEWID
 40
1.0
  9
$TEXTSTYLE
  7
STANDARD
  9
$CLAYER
  8
0
  9
$CELTYPE
  6
BYLAYER
  9
$CECOLOR
 62
   256
  9
$CELTSCALE
 40
1.0
  9
$DELOBJ
 70
     1
  9
$DISPSILH
 70
     0
  9
$DIMSCALE
 40
1.0
  9
$DIMASZ
 40
6.0
  9
$DIMEXO
 40
1.0
  9
$DIMDLI
 40
3.75
  9
$DIMRND
 40
0.0
  9
$DIMDLE
 40
0.0
  9
$DIMEXE
 40
1.0
  9
$DIMTP
 40
0.0
  9
$DIMTM
 40
0.0
  9
$DIMTXT
 40
3.5
  9
$DIMCEN
 40
2.5
  9
$DIMTSZ
 40
0.0
  9
$DIMTOL
 70
     0
  9
$DIMLIM
 70
     0
  9
$DIMTIH
 70
     1
  9
$DIMTOH
 70
     1
  9
$DIMSE1
 70
     0
  9
$DIMSE2
 70
     0
  9
$DIMTAD
 70
     1
  9
$DIMZIN
 70
     0
  9
$DIMBLK
  1

  9
$DIMASO
 70
     1
  9
$DIMSHO
 70
     1
  9
$DIMPOST
  1

  9
$DIMAPOST
  1

  9
$DIMALT
 70
     0
  9
$DIMALTD
 70
     3
  9
$DIMALTF
 40
0.0393700787
  9
$DIMLFAC
 40
1.0
  9
$DIMTOFL
 70
     1
  9
$DIMTVP
 40
0.0
  9
$DIMTIX
 70
     0
  9
$DIMSOXD
 70
     0
  9
$DIMSAH
 70
     0
  9
$DIMBLK1
  1

  9
$DIMBLK2
  1

  9
$DIMSTYLE
  2
ISO-25
  9
$DIMCLRD
 70
     0
  9
$DIMCLRE
 70
     0
  9
$DIMCLRT
 70
     0
  9
$DIMTFAC
 40
1.0
  9
$DIMGAP
 40
1.524
  9
$DIMJUST
 70
     0
  9
$DIMSD1
 70
     0
  9
$DIMSD2
 70
     0
  9
$DIMTOLJ
 70
     0
  9
$DIMTZIN
 70
     0
  9
$DIMALTZ
 70
     0
  9
$DIMALTTZ
 70
     0
  9
$DIMFIT
 70
     3
  9
$DIMUPT
 70
     0
  9
$DIMUNIT
 70
     2
  9
$DIMDEC
 70
     2
  9
$DIMTDEC
 70
     2
  9
$DIMALTU
 70
     2
  9
$DIMALTTD
 70
     3
  9
$DIMTXSTY
  7
STANDARD
  9
$DIMAUNIT
 70
     0
  9
$LUNITS
 70
     2
  9
$LUPREC
 70
     2
  9
$SKETCHINC
 40
1.0
  9
$FILLETRAD
 40
10.0
  9
$AUNITS
 70
     0
  9
$AUPREC
 70
     2
  9
$MENU
  1
.
  9
$ELEVATION
 40
0.0
  9
$PELEVATION
 40
0.0
  9
$THICKNESS
 40
0.0
  9
$LIMCHECK
 70
     0
  9
$CHAMFERA
 40
10.0
  9
$CHAMFERB
 40
10.0
  9
$CHAMFERC
 40
20.0
  9
$CHAMFERD
 40
0.0
  9
$SKPOLY
 70
     0
  9
$TDCREATE
 40
2456392.644343738
  9
$TDUPDATE
 40
2456392.64434375
  9
$TDINDWG
 40
0.0000000116
  9
$TDUSRTIMER
 40
0.0000000116
  9
$USRTIMER
 70
     1
  9
$ANGBASE
 50
0.0
  9
$ANGDIR
 70
     0
  9
$PDMODE
 70
     0
  9
$PDSIZE
 40
-1.0
  9
$PLINEWID
 40
0.0
  9
$COORDS
 70
     1
  9
$SPLFRAME
 70
     0
  9
$SPLINETYPE
 70
     6
  9
$SPLINESEGS
 70
     8
  9
$ATTDIA
 70
     0
  9
$ATTREQ
 70
     1
  9
$HANDLING
 70
     1
  9
$HANDSEED
  5
23D
  9
$SURFTAB1
 70
     6
  9
$SURFTAB2
 70
     6
  9
$SURFTYPE
 70
     6
  9
$SURFU
 70
     6
  9
$SURFV
 70
     6
  9
$UCSNAME
  2

  9
$UCSORG
 10
0.0
 20
0.0
 30
0.0
  9
$UCSXDIR
 10
1.0
 20
0.0
 30
0.0
  9
$UCSYDIR
 10
0.0
 20
1.0
 30
0.0
  9
$PUCSNAME
  2

  9
$PUCSORG
 10
0.0
 20
0.0
 30
0.0
  9
$PUCSXDIR
 10
1.0
 20
0.0
 30
0.0
  9
$PUCSYDIR
 10
0.0
 20
1.0
 30
0.0
  9
$USERI1
 70
     0
  9
$USERI2
 70
     0
  9
$USERI3
 70
     0
  9
$USERI4
 70
     0
  9
$USERI5
 70
     0
  9
$USERR1
 40
0.0
  9
$USERR2
 40
0.0
  9
$USERR3
 40
0.0
  9
$USERR4
 40
0.0
  9
$USERR5
 40
0.0
  9
$WORLDVIEW
 70
     1
  9
$SHADEDGE
 70
     3
  9
$SHADEDIF
 70
    70
  9
$TILEMODE
 70
     1
  9
$MAXACTVP
 70
    64
  9
$PINSBASE
 10
0.0
 20
0.0
 30
0.0
  9
$PLIMCHECK
 70
     0
  9
$PEXTMIN
 10
1.0000000000E+20
 20
1.0000000000E+20
 30
1.0000000000E+20
  9
$PEXTMAX
 10
-1.0000000000E+20
 20
-1.0000000000E+20
 30
-1.0000000000E+20
  9
$PLIMMIN
 10
0.0
 20
0.0
  9
$PLIMMAX
 10
420.0
 20
297.0
  9
$UNITMODE
 70
     0
  9
$VISRETAIN
 70
     1
  9
$PLINEGEN
 70
     0
  9
$PSLTSCALE
 70
     1
  9
$TREEDEPTH
 70
  3020
  9
$PICKSTYLE
 70
     1
  9
$CMLSTYLE
  2
STANDARD
  9
$CMLJUST
 70
     0
  9
$CMLSCALE
 40
20.0
  9
$PROXYGRAPHICS
 70
     1
  9
$MEASUREMENT
 70
     1
  0
ENDSEC
  0
SECTION
  2
CLASSES
  0
CLASS
  1
ACDBDICTIONARYWDFLT
  2
AcDbDictionaryWithDefault
  3
ObjectDBX Classes
 90
        0
280
     0
281
     0
  0
CLASS
  1
VISUALSTYLE
  2
AcDbVisualStyle
  3
ObjectDBX Classes
 90
     4095
280
     0
281
     0
  0
CLASS
  1
MATERIAL
  2
AcDbMaterial
  3
ObjectDBX Classes
 90
     1153
280
     0
281
     0
  0
CLASS
  1
XRECORD
  2
AcDbXrecord
  3
AutoCAD 2000
 90
        0
280
     0
281
     0
  0
CLASS
  1
LWPOLYLINE
  2
AcDbPolyline
  3
AutoCAD 2000
 90
        0
280
     0
281
     1
  0
CLASS
  1
HATCH
  2
AcDbHatch
  3
AutoCAD 2000
 90
        0
280
     0
281
     1
  0
ENDSEC
  0
SECTION
  2
TABLES
  0
TABLE
  2
VPORT
  5
8
330
0
100
AcDbSymbolTable
 70
     1
  0
VPORT
  5
29
330
8
100
AcDbSymbolTableRecord
100
AcDbViewportTableRecord
  2
*ACTIVE
 70
     0
 10
0.0
 20
0.0
 11
1.0
 21
1.0
 12
105.0
 22
148.5
 13
0.0
 23
0.0
 14
10.0
 24
10.0
 15
10.0
 25
10.0
 16
0.0
 26
0.0
 36
1.0
 17
0.0
 27
0.0
 37
0.0
 40
297.0
 41
0.7070707071
 42
50.0
 43
0.0
 44
0.0
 50
0.0
 51
0.0
 71
     0
 72
  2000
 73
     1
 74
     3
 75
     0
 76
     0
 77
     0
 78
     0
  0
ENDTAB
  0
TABLE
  2
LTYPE
  5
5
330
0
100
AcDbSymbolTable
 70
     6
  0
LTYPE
  5
14
330
5
100
AcDbSymbolTableRecord
100
AcDbLinetypeTableRecord
  2
BYBLOCK
 70
     0
  3

 72
    65
 73
     0
 40
0.0
  0
LTYPE
  5
15
330
5
100
AcDbSymbolTableRecord
100
AcDbLinetypeTableRecord
  2
BYLAYER
 70
     0
  3

 72
    65
 73
     0
 40
0.0
  0
LTYPE
  5
16
330
5
100
AcDbSymbolTableRecord
100
AcDbLinetypeTableRecord
  2
CONTINUOUS
 70
     0
  3
Solid line
 72
    65
 73
     0
 40
0.0
  0
LTYPE
  5
3F
330
5
100
AcDbSymbolTableRecord
100
AcDbLinetypeTableRecord
  2
HIDDEN
 70
     0
  3
Hidden __ __ __ __ __ __ __ __ __ __ __ __ __ __
 72
    65
 73
     2
 40
1.905
 49
1.27
 74
     0
 49
-0.635
 74
     0
  0
LTYPE
  5
40
330
5
100
AcDbSymbolTableRecord
100
AcDbLinetypeTableRecord
  2
PHANTOM
 70
     0
  3
Phantom ______  __  __  ______  __  __  ______
 72
    65
 73
     6
 40
12.7
 49
6.35
 74
     0
 49
-1.27
 74
     0
 49
1.27
 74
     0
 49
-1.27
 74
     0
 49
1.27
 74
     0
 49
-1.27
 74
     0
  0
LTYPE
  5
41
330
5
100
AcDbSymbolTableRecord
100
AcDbLinetypeTableRecord
  2
CENTER
 70
     0
  3
Center ____ _ ____ _ ____ _ ____ _ ____ _ ____
 72
    65
 73
     4
 40
10.16
 49
6.35
 74
     0
 49
-1.27
 74
     0
 49
1.27
 74
     0
 49
-1.27
 74
     0
  0
LTYPE
  5
42
330
5
100
AcDbSymbolTableRecord
100
AcDbLinetypeTableRecord
  2
CENTERX2
 70
     0
  3
Center (2x) ________  __  ________  __  _____
 72
    65
 73
     4
 40
20.32
 49
12.7
 74
     0
 49
-2.54
 74
     0
 49
2.54
 74
     0
 49
-2.54
 74
     0
  0
LTYPE
  5
43
330
5
100
AcDbSymbolTableRecord
100
AcDbLinetypeTableRecord
  2
DOT2
 70
     0
  3
Dot (.5x) ........................................
 72
    65
 73
     2
 40
0.635
 49
0.0
 74
     0
 49
-0.635
 74
     0
  0
ENDTAB
  0
TABLE
  2
LAYER
  5
2
330
0
100
AcDbSymbolTable
 70
     1
  0
LAYER
  5
10
330
2
100
AcDbSymbolTableRecord
100
AcDbLayerTableRecord
  2
0
 70
     0
 62
     7
  6
CONTINUOUS
  0
ENDTAB
  0
TABLE
  2
STYLE
  5
3
330
0
100
AcDbSymbolTable
 70
     1
  0
STYLE
  5
11
330
3
100
AcDbSymbolTableRecord
100
AcDbTextStyleTableRecord
  2
STANDARD
 70
     0
 40
0.0
 41
1.0
 50
0.0
 71
     0
 42
2.5
  3
txt
  4
bigfont
  0
ENDTAB
  0
TABLE
  2
VIEW
  5
6
330
0
100
AcDbSymbolTable
 70
     0
  0
ENDTAB
  0
TABLE
  2
UCS
  5
7
330
0
100
AcDbSymbolTable
 70
     0
  0
ENDTAB
  0
TABLE
  2
APPID
  5
9
330
0
100
AcDbSymbolTable
 70
     1
  0
APPID
  5
12
330
9
100
AcDbSymbolTableRecord
100
AcDbRegAppTableRecord
  2
ACAD
 70
     0
  0
ENDTAB
  0
TABLE
  2
DIMSTYLE
  5
A
330
0
100
AcDbSymbolTable
 70
     1
  0
DIMSTYLE
105
27
330
A
100
AcDbSymbolTableRecord
100
AcDbDimStyleTableRecord
  2
ISO-25
 70
     0
  3

  4

  5

  6

  7

 40
1.0
 41
2.5
 42
0.625
 43
3.75
 44
1.25
 45
0.0
 46
0.0
 47
0.0
 48
0.0
140
2.5
141
2.5
142
0.0
143
0.0393700787
144
1.0
145
0.0
146
1.0
147
0.625
 71
     0
 72
     0
 73
     0
 74
     0
 75
     0
 76
     0
 77
     1
 78
     8
170
     0
171
     3
172
     1
173
     0
174
     0
175
     0
176
     0
177
     0
178
     0
270
     2
271
     2
272
     2
273
     2
274
     3
340
11
275
     0
280
     0
281
     0
282
     0
283
     0
284
     8
285
     0
286
     0
287
     3
288
     0
  0
ENDTAB
  0
TABLE
  2
BLOCK_RECORD
  5
1
330
0
100
AcDbSymbolTable
 70
     1
  0
BLOCK_RECORD
  5
1F
330
1
100
AcDbSymbolTableRecord
100
AcDbBlockTableRecord
  2
*MODEL_SPACE
  0
BLOCK_RECORD
  5
1B
330
1
100
AcDbSymbolTableRecord
100
AcDbBlockTableRecord
  2
*PAPER_SPACE
  0
BLOCK_RECORD
  5
23
330
1
100
AcDbSymbolTableRecord
100
AcDbBlockTableRecord
  2
*PAPER_SPACE0
  0
ENDTAB
  0
ENDSEC
  0
SECTION
  2
BLOCKS
  0
BLOCK
  5
20
330
1F
100
AcDbEntity
  8
0
100
AcDbBlockBegin
  2
*MODEL_SPACE
 70
     0
 10
0.0
 20
0.0
 30
0.0
  3
*MODEL_SPACE
  1

  0
ENDBLK
  5
21
330
1F
100
AcDbEntity
  8
0
100
AcDbBlockEnd
  0
BLOCK
  5
1C
330
1B
100
AcDbEntity
 67
     1
  8
0
100
AcDbBlockBegin
  2
*PAPER_SPACE
 70
     0
 10
0.0
 20
0.0
 30
0.0
  3
*PAPER_SPACE
  1

  0
ENDBLK
  5
1D
330
1B
100
AcDbEntity
 67
     1
  8
0
100
AcDbBlockEnd
  0
BLOCK
  5
24
330
23
100
AcDbEntity
  8
0
100
AcDbBlockBegin
  2
*PAPER_SPACE0
 70
     0
 10
0.0
 20
0.0
 30
0.0
  3
*PAPER_SPACE0
  1

  0
ENDBLK
  5
25
330
23
100
AcDbEntity
  8
0
100
AcDbBlockEnd
  0
ENDSEC
  0
SECTION
  2
ENTITIES
  0
ARC
  5
44
330
1F
100
AcDbEntity
  8
0
  6
CONTINUOUS
 62
     7
100
AcDbCircle
 10
232.3602885489
 20
46.955
 30
0.0
 40
0.9000000000000057
100
AcDbArc
 50
0.0
 51
90.0
  0
ARC
  5
45
330
1F
100
AcDbEntity
  8
0
  6
CONTINUOUS
 62
     7
100
AcDbCircle
 10
-84.4397114511
 20
46.955
 30
0.0
 40
0.9000000000000057
100
AcDbArc
 50
90.0
 51
180.0
  0
LINE
  5
46
330
1F
100
AcDbEntity
  8
0
  6
CONTINUOUS
 62
     7
100
AcDbLine
 10
-85.3397109265
 20
69.126364668
 30
0.0
 11
-85.3397109265
 21
69.1042848724
 31
0.0
  0
LINE
  5
47
330
1F
100
AcDbEntity
  8
0
  6
CONTINUOUS
 62
     7
100
AcDbLine
 10
233.2602880244
 20
69.1042848724
 30
0.0
 11
233.2602880244
 21
69.126364668
 31
0.0
  0
LINE
  5
48
330
1F
100
AcDbEntity
  8
0
  6
CONTINUOUS
 62
     7
100
AcDbLine
 10
-85.3397109265
 20
46.9549995708
 30
0.0
 11
-85.3397109265
 21
45.5549982238
 31
0.0
  0
LINE
  5
49
330
1F
100
AcDbEntity
  8
0
  6
CONTINUOUS
 62
     7
100
AcDbLine
 10
233.2602880244
 20
45.5549982238
 30
0.0
 11
233.2602880244
 21
46.9549995708
 31
0.0
  0
LINE
  5
4A
330
1F
100
AcDbEntity
  8
0
  6
CONTINUOUS
 62
     7
100
AcDbLine
 10
233.2580528502
 20
69.0296542692
 30
0.0
 11
233.2602880244
 21
69.1042848724
 31
0.0
  0
LINE
  5
4B
330
1F
100
AcDbEntity
  8
0
  6
CONTINUOUS
 62
     7
100
AcDbLine
 10
-85.3397109265
 20
69.1042848724
 30
0.0
 11
-85.3374757524
 21
69.0296542692
 31
0.0
  0
ARC
  5
4C
330
1F
100
AcDbEntity
  8
0
  6
CONTINUOUS
 62
     7
100
AcDbCircle
 10
232.0102885489
 20
69.126363833
 30
0.0
 40
1.249999999999915
100
AcDbArc
 50
0.0
 51
84.5638263335
  0
ARC
  5
4D
330
1F
100
AcDbEntity
  8
0
  6
CONTINUOUS
 62
     7
100
AcDbCircle
 10
-84.0897114511
 20
69.126363833
 30
0.0
 40
1.249999999999972
100
AcDbArc
 50
95.4361736665
 51
180.0
  0
ARC
  5
4E
330
1F
100
AcDbEntity
  8
0
  6
CONTINUOUS
 62
     7
100
AcDbCircle
 10
232.4602885489
 20
73.855
 30
0.0
 40
3.500000000005574
100
AcDbArc
 50
180.0
 51
264.5638263371
  0
ARC
  5
4F
330
1F
100
AcDbEntity
  8
0
  6
CONTINUOUS
 62
     7
100
AcDbCircle
 10
-84.5397114511
 20
73.855
 30
0.0
 40
3.500000000005568
100
AcDbArc
 50
275.4361736629
 51
0.0
  0
ARC
  5
50
330
1F
100
AcDbEntity
  8
0
  6
CONTINUOUS
 62
     7
100
AcDbCircle
 10
231.8602885489
 20
48.155
 30
0.0
 40
0.3000000000000398
100
AcDbArc
 50
180.0
 51
270.0
  0
ARC
  5
51
330
1F
100
AcDbEntity
  8
0
  6
CONTINUOUS
 62
     7
100
AcDbCircle
 10
-83.9397114511
 20
48.155
 30
0.0
 40
0.3000000000000256
100
AcDbArc
 50
270.0
 51
0.0
  0
LINE
  5
52
330
1F
100
AcDbEntity
  8
0
  6
CONTINUOUS
 62
     7
100
AcDbLine
 10
-83.6397119517
 20
66.7050004798
 30
0.0
 11
-83.6397119517
 21
48.1550012577
 31
0.0
  0
LINE
  5
53
330
1F
100
AcDbEntity
  8
0
  6
CONTINUOUS
 62
     7
100
AcDbLine
 10
231.5602890496
 20
48.1550012577
 30
0.0
 11
231.5602890496
 21
66.7050004798
 31
0.0
  0
LINE
  5
54
330
1F
100
AcDbEntity
  8
0
  6
CONTINUOUS
 62
     7
100
AcDbLine
 10
-81.0397126432
 20
291.3825911331
 30
0.0
 11
-81.0397126432
 21
73.8550004411
 31
0.0
  0
LINE
  5
55
330
1F
100
AcDbEntity
  8
0
  6
CONTINUOUS
 62
     7
100
AcDbLine
 10
228.960289741
 20
73.8550004411
 30
0.0
 11
228.960289741
 21
291.3825911331
 31
0.0
  0
ARC
  5
56
330
1F
100
AcDbEntity
  8
0
  6
CONTINUOUS
 62
     7
100
AcDbCircle
 10
-56.0397114511
 20
291.3825956307
 30
0.0
 40
25.00000000000007
100
AcDbArc
 50
99.6490145649
 51
180.0
  0
ARC
  5
57
330
1F
100
AcDbEntity
  8
0
  6
CONTINUOUS
 62
     7
100
AcDbCircle
 10
203.9602885489
 20
291.3825956307
 30
0.0
 40
25.00000000000007
100
AcDbArc
 50
0.0
 51
80.3509854351
  0
ARC
  5
58
330
1F
100
AcDbEntity
  8
0
  6
CONTINUOUS
 62
     7
100
AcDbCircle
 10
73.9602885489
 20
-473.245
 30
0.0
 40
800.5999999999999
100
AcDbArc
 50
80.3509854351
 51
99.6490145649
  0
LINE
  5
59
330
1F
100
AcDbEntity
  8
0
  6
CONTINUOUS
 62
     7
100
AcDbLine
 10
-81.5397062059
 20
-114.6449941349
 30
0.0
 11
-81.0397126432
 21
-114.6449941349
 31
0.0
  0
LINE
  5
5A
330
1F
100
AcDbEntity
  8
0
  6
CONTINUOUS
 62
     7
100
AcDbLine
 10
-81.0397126432
 20
-106.6449928236
 30
0.0
 11
-81.5397062059
 21
-106.6449928236
 31
0.0
  0
LINE
  5
5B
330
1F
100
AcDbEntity
  8
0
  6
CONTINUOUS
 62
     7
100
AcDbLine
 10
229.4602833037
 20
-106.6449928236
 30
0.0
 11
228.960289741
 21
-106.6449928236
 31
0.0
  0
LINE
  5
5C
330
1F
100
AcDbEntity
  8
0
  6
CONTINUOUS
 62
     7
100
AcDbLine
 10
228.960289741
 20
-114.6449941349
 30
0.0
 11
229.4602833037
 21
-114.6449941349
 31
0.0
  0
LINE
  5
5D
330
1F
100
AcDbEntity
  8
0
  6
CONTINUOUS
 62
     7
100
AcDbLine
 10
249.9602875953
 20
-95.1450067711
 30
0.0
 11
239.4602886681
 21
-95.1450067711
 31
0.0
  0
LINE
  5
5E
330
1F
100
AcDbEntity
  8
0
  6
CONTINUOUS
 62
     7
100
AcDbLine
 10
239.4602886681
 20
-126.1449950886
 30
0.0
 11
249.9602875953
 21
-126.1449950886
 31
0.0
  0
LINE
  5
5F
330
1F
100
AcDbEntity
  8
0
  6
CONTINUOUS
 62
     7
100
AcDbLine
 10
239.4602886681
 20
-90.6450051022
 30
0.0
 11
231.4602873568
 21
-90.6450051022
 31
0.0
  0
LINE
  5
60
330
1F
100
AcDbEntity
  8
0
  6
CONTINUOUS
 62
     7
100
AcDbLine
 10
231.4602873568
 20
-130.6449967575
 30
0.0
 11
239.4602886681
 21
-130.6449967575
 31
0.0
  0
LINE
  5
61
330
1F
100
AcDbEntity
  8
0
  6
CONTINUOUS
 62
     7
100
AcDbLine
 10
-102.0397104974
 20
-126.1449950886
 30
0.0
 11
-91.5397115703
 21
-126.1449950886
 31
0.0
  0
LINE
  5
62
330
1F
100
AcDbEntity
  8
0
  6
CONTINUOUS
 62
     7
100
AcDbLine
 10
-91.5397115703
 20
-95.1450067711
 30
0.0
 11
-102.0397104974
 21
-95.1450067711
 31
0.0
  0
LINE
  5
63
330
1F
100
AcDbEntity
  8
0
  6
CONTINUOUS
 62
     7
100
AcDbLine
 10
-91.5397115703
 20
-130.6449967575
 30
0.0
 11
-83.539710259
 21
-130.6449967575
 31
0.0
  0
LINE
  5
64
330
1F
100
AcDbEntity
  8
0
  6
CONTINUOUS
 62
     7
100
AcDbLine
 10
-83.539710259
 20
-90.6450051022
 30
0.0
 11
-91.5397115703
 21
-90.6450051022
 31
0.0
  0
LINE
  5
65
330
1F
100
AcDbEntity
  8
0
  6
CONTINUOUS
 62
     7
100
AcDbLine
 10
231.4602873568
 20
-90.6450051022
 30
0.0
 11
229.4602833037
 21
-90.6450051022
 31
0.0
  0
LINE
  5
66
330
1F
100
AcDbEntity
  8
0
  6
CONTINUOUS
 62
     7
100
AcDbLine
 10
229.4602833037
 20
-130.6449967575
 30
0.0
 11
231.4602873568
 21
-130.6449967575
 31
0.0
  0
LINE
  5
67
330
1F
100
AcDbEntity
  8
0
  6
CONTINUOUS
 62
     7
100
AcDbLine
 10
-83.539710259
 20
-130.6449967575
 30
0.0
 11
-81.5397062059
 21
-130.6449967575
 31
0.0
  0
LINE
  5
68
330
1F
100
AcDbEntity
  8
0
  6
CONTINUOUS
 62
     7
100
AcDbLine
 10
-81.5397062059
 20
-90.6450051022
 30
0.0
 11
-83.539710259
 21
-90.6450051022
 31
0.0
  0
LINE
  5
69
330
1F
100
AcDbEntity
  8
0
  6
CONTINUOUS
 62
     7
100
AcDbLine
 10
228.960289741
 20
-84.6449929428
 30
0.0
 11
228.960289741
 21
45.2049997497
 31
0.0
  0
LINE
  5
6A
330
1F
100
AcDbEntity
  8
0
  6
CONTINUOUS
 62
     7
100
AcDbLine
 10
228.960289741
 20
-155.645002718
 30
0.0
 11
228.960289741
 21
-136.6449940157
 31
0.0
  0
LINE
  5
6B
330
1F
100
AcDbEntity
  8
0
  6
CONTINUOUS
 62
     7
100
AcDbLine
 10
-81.0397126432
 20
-136.6449940157
 30
0.0
 11
-81.0397126432
 21
-155.645002718
 31
0.0
  0
LINE
  5
6C
330
1F
100
AcDbEntity
  8
0
  6
CONTINUOUS
 62
     7
100
AcDbLine
 10
-81.0397126432
 20
45.2049997497
 30
0.0
 11
-81.0397126432
 21
-84.6449929428
 31
0.0
  0
ARC
  5
6D
330
1F
100
AcDbEntity
  8
0
  6
CONTINUOUS
 62
     7
100
AcDbCircle
 10
230.9602885489
 20
-93.0313839824
 30
0.0
 40
2.0
100
AcDbArc
 50
180.0
 51
208.9550243719
  0
ARC
  5
6E
330
1F
100
AcDbEntity
  8
0
  6
CONTINUOUS
 62
     7
100
AcDbCircle
 10
230.9602885489
 20
-128.2586160176
 30
0.0
 40
2.0
100
AcDbArc
 50
151.0449756281
 51
180.0
  0
ARC
  5
6F
330
1F
100
AcDbEntity
  8
0
  6
CONTINUOUS
 62
     7
100
AcDbCircle
 10
-83.0397114511
 20
-128.2586160176
 30
0.0
 40
2.000000000000095
100
AcDbArc
 50
0.0
 51
28.9550243719
  0
ARC
  5
70
330
1F
100
AcDbEntity
  8
0
  6
CONTINUOUS
 62
     7
100
AcDbCircle
 10
-83.0397114511
 20
-93.0313839824
 30
0.0
 40
2.000000000000102
100
AcDbArc
 50
331.0449756281
 51
0.0
  0
ARC
  5
71
330
1F
100
AcDbEntity
  8
0
  6
CONTINUOUS
 62
     7
100
AcDbCircle
 10
227.4602885489
 20
-126.3221243445
 30
0.0
 40
2.000000000000013
100
AcDbArc
 50
331.0449756281
 51
0.0
  0
ARC
  5
72
330
1F
100
AcDbEntity
  8
0
  6
CONTINUOUS
 62
     7
100
AcDbCircle
 10
227.4602885489
 20
-94.9678756555
 30
0.0
 40
2.000000000000013
100
AcDbArc
 50
0.0
 51
28.9550243719
  0
ARC
  5
73
330
1F
100
AcDbEntity
  8
0
  6
CONTINUOUS
 62
     7
100
AcDbCircle
 10
-79.5397114511
 20
-94.9678756555
 30
0.0
 40
2.0
100
AcDbArc
 50
151.0449756281
 51
180.0
  0
ARC
  5
74
330
1F
100
AcDbEntity
  8
0
  6
CONTINUOUS
 62
     7
100
AcDbCircle
 10
-79.5397114511
 20
-126.3221243445
 30
0.0
 40
2.0
100
AcDbArc
 50
180.0
 51
208.9550243719
  0
LINE
  5
75
330
1F
100
AcDbEntity
  8
0
  6
CONTINUOUS
 62
     7
100
AcDbLine
 10
-34.1806792374
 20
-164.8450094414
 30
0.0
 11
-34.1806792374
 21
-165.6449931812
 31
0.0
  0
LINE
  5
76
330
1F
100
AcDbEntity
  8
0
  6
CONTINUOUS
 62
     7
100
AcDbLine
 10
-25.1806758995
 20
-165.6449931812
 30
0.0
 11
-25.1806758995
 21
-164.8450094414
 31
0.0
  0
LINE
  5
77
330
1F
100
AcDbEntity
  8
0
  6
CONTINUOUS
 62
     7
100
AcDbLine
 10
-25.6806769128
 20
-164.8450094414
 30
0.0
 11
-25.6806769128
 21
-163.745005722
 31
0.0
  0
LINE
  5
78
330
1F
100
AcDbEntity
  8
0
  6
CONTINUOUS
 62
     7
100
AcDbLine
 10
-33.6806782241
 20
-163.745005722
 30
0.0
 11
-33.6806782241
 21
-164.8450094414
 31
0.0
  0
ARC
  5
79
330
1F
100
AcDbEntity
  8
0
  6
CONTINUOUS
 62
     7
100
AcDbCircle
 10
-27.680677671
 20
-163.745
 30
0.0
 40
2.000000000000139
100
AcDbArc
 50
0.0
 51
42.3072493592
  0
ARC
  5
7A
330
1F
100
AcDbEntity
  8
0
  6
CONTINUOUS
 62
     7
100
AcDbCircle
 10
-31.680677671
 20
-163.745
 30
0.0
 40
2.000000000000167
100
AcDbArc
 50
137.7525973771
 51
180.0
  0
LINE
  5
7B
330
1F
100
AcDbEntity
  8
0
  6
CONTINUOUS
 62
     7
100
AcDbLine
 10
-85.3397109265
 20
45.4049994099
 30
0.0
 11
-85.139707541
 21
45.2049997497
 31
0.0
  0
LINE
  5
7C
330
1F
100
AcDbEntity
  8
0
  6
CONTINUOUS
 62
     7
100
AcDbLine
 10
233.0602846389
 20
45.2049997497
 30
0.0
 11
233.2602880244
 21
45.4049994099
 31
0.0
  0
LINE
  5
7D
330
1F
100
AcDbEntity
  8
0
  6
CONTINUOUS
 62
     7
100
AcDbLine
 10
-85.3397109265
 20
46.4549985576
 30
0.0
 11
-85.3397109265
 21
45.4049994099
 31
0.0
  0
LINE
  5
7E
330
1F
100
AcDbEntity
  8
0
  6
CONTINUOUS
 62
     7
100
AcDbLine
 10
233.2602880244
 20
45.4049994099
 30
0.0
 11
233.2602880244
 21
46.4549985576
 31
0.0
  0
LINE
  5
7F
330
1F
100
AcDbEntity
  8
0
  6
CONTINUOUS
 62
     7
100
AcDbLine
 10
233.2602880244
 20
68.9549994516
 30
0.0
 11
233.2580528502
 21
69.0296542692
 31
0.0
  0
LINE
  5
80
330
1F
100
AcDbEntity
  8
0
  6
CONTINUOUS
 62
     7
100
AcDbLine
 10
-85.3374757524
 20
69.0296542692
 30
0.0
 11
-85.3397109265
 21
68.9549994516
 31
0.0
  0
ARC
  5
81
330
1F
100
AcDbEntity
  8
0
  6
CONTINUOUS
 62
     7
100
AcDbCircle
 10
232.0102885489
 20
68.4542855685
 30
0.0
 40
1.250000000000028
100
AcDbArc
 50
271.6372459447
 51
0.0
  0
ARC
  5
82
330
1F
100
AcDbEntity
  8
0
  6
CONTINUOUS
 62
     7
100
AcDbCircle
 10
-84.0897114511
 20
68.4542855685
 30
0.0
 40
1.250000000000028
100
AcDbArc
 50
180.0
 51
268.3627540553
  0
LINE
  5
83
330
1F
100
AcDbEntity
  8
0
  6
CONTINUOUS
 62
     7
100
AcDbLine
 10
-85.3397109265
 20
68.9549994516
 30
0.0
 11
-85.3397109265
 21
68.4542850453
 31
0.0
  0
LINE
  5
84
330
1F
100
AcDbEntity
  8
0
  6
CONTINUOUS
 62
     7
100
AcDbLine
 10
233.2602880244
 20
68.4542850453
 30
0.0
 11
233.2602880244
 21
68.9549994516
 31
0.0
  0
ARC
  5
85
330
1F
100
AcDbEntity
  8
0
  6
CONTINUOUS
 62
     7
100
AcDbCircle
 10
-84.1397114511
 20
66.705
 30
0.0
 40
0.5000000005406061
100
AcDbArc
 50
0.0
 51
88.3627570895
  0
ARC
  5
86
330
1F
100
AcDbEntity
  8
0
  6
CONTINUOUS
 62
     7
100
AcDbCircle
 10
232.0602885489
 20
66.705
 30
0.0
 40
0.5000000005406066
100
AcDbArc
 50
91.6372429105
 51
180.0
  0
LINE
  5
87
330
1F
100
AcDbEntity
  8
0
  6
CONTINUOUS
 62
     7
100
AcDbLine
 10
-83.6397119517
 20
66.7050004798
 30
0.0
 11
-83.6397119517
 21
48.1550012577
 31
0.0
  0
LINE
  5
88
330
1F
100
AcDbEntity
  8
0
  6
CONTINUOUS
 62
     7
100
AcDbLine
 10
231.5602890496
 20
48.1550012577
 30
0.0
 11
231.5602890496
 21
66.7050004798
 31
0.0
  0
LINE
  5
89
330
1F
100
AcDbEntity
  8
0
  6
CONTINUOUS
 62
     7
100
AcDbLine
 10
-81.0397126432
 20
276.2239825773
 30
0.0
 11
-81.0397126432
 21
73.8550004411
 31
0.0
  0
LINE
  5
8A
330
1F
100
AcDbEntity
  8
0
  6
CONTINUOUS
 62
     7
100
AcDbLine
 10
228.960289741
 20
73.8550004411
 30
0.0
 11
228.960289741
 21
276.2239825773
 31
0.0
  0
LINE
  5
8B
330
1F
100
AcDbEntity
  8
0
  6
CONTINUOUS
 62
     7
100
AcDbLine
 10
231.4602873568
 20
-163.6038023186
 30
0.0
 11
231.4602873568
 21
-159.2450040531
 31
0.0
  0
LINE
  5
8C
330
1F
100
AcDbEntity
  8
0
  6
CONTINUOUS
 62
     7
100
AcDbLine
 10
-83.539710259
 20
-159.2450040531
 30
0.0
 11
-83.539710259
 21
-163.6038023186
 31
0.0
  0
ARC
  5
8D
330
1F
100
AcDbEntity
  8
0
  6
CONTINUOUS
 62
     7
100
AcDbCircle
 10
-79.9397114511
 20
-159.245
 30
0.0
 40
3.599999999999994
100
AcDbArc
 50
90.0
 51
180.0
  0
ARC
  5
8E
330
1F
100
AcDbEntity
  8
0
  6
CONTINUOUS
 62
     7
100
AcDbCircle
 10
227.8602885489
 20
-159.245
 30
0.0
 40
3.599999999999994
100
AcDbArc
 50
0.0
 51
90.0
  0
LINE
  5
8F
330
1F
100
AcDbEntity
  8
0
  6
CONTINUOUS
 62
     7
100
AcDbLine
 10
235.2345130687
 20
-177.6449876976
 30
0.0
 11
235.2345130687
 21
-176.0449904156
 31
0.0
  0
LINE
  5
90
330
1F
100
AcDbEntity
  8
0
  6
CONTINUOUS
 62
     7
100
AcDbLine
 10
-87.3139359708
 20
-176.0449904156
 30
0.0
 11
-87.3139359708
 21
-177.6449876976
 31
0.0
  0
ARC
  5
91
330
1F
100
AcDbEntity
  8
0
  6
CONTINUOUS
 62
     7
100
AcDbCircle
 10
234.2345186335
 20
-174.045
 30
0.0
 40
2.000000000000057
100
AcDbArc
 50
180.0
 51
270.0
  0
ARC
  5
92
330
1F
100
AcDbEntity
  8
0
  6
CONTINUOUS
 62
     7
100
AcDbCircle
 10
-86.3139415356
 20
-174.045
 30
0.0
 40
2.000000000000057
100
AcDbArc
 50
270.0
 51
0.0
  0
LINE
  5
93
330
1F
100
AcDbEntity
  8
0
  6
CONTINUOUS
 62
     7
100
AcDbLine
 10
232.2345218902
 20
-174.0449863625
 30
0.0
 11
232.2345218902
 21
-166.8037670803
 31
0.0
  0
LINE
  5
94
330
1F
100
AcDbEntity
  8
0
  6
CONTINUOUS
 62
     7
100
AcDbLine
 10
-84.3139447923
 20
-166.8037670803
 30
0.0
 11
-84.3139447923
 21
-174.0449863625
 31
0.0
  0
SPLINE
  5
95
330
1F
100
AcDbEntity
  8
0
  6
CONTINUOUS
 62
     7
100
AcDbSpline
210
0.0
220
0.0
230
1.0
 70
     8
 71
     3
 72
    10
 73
     6
 74
     0
 42
0.00000001
 43
0.00000001
 40
0.0
 40
0.0
 40
0.0
 40
0.0
 40
0.2575699203496901
 40
0.7769489796424921
 40
0.9999999999999999
 40
0.9999999999999999
 40
0.9999999999999999
 40
0.9999999999999999
 10
232.2063437943382
 20
-166.803826684952
 30
0.0
 10
232.212661915059
 20
-166.64344573126
 30
0.0
 10
232.231720264111
 20
-166.1596632377302
 30
0.0
 10
232.0740597154861
 20
-165.5284340489263
 30
0.0
 10
231.8297556918463
 20
-165.1313720642834
 30
0.0
 10
231.7563585286064
 20
-165.0120812606814
 30
0.0
  0
SPLINE
  5
96
330
1F
100
AcDbEntity
  8
0
  6
CONTINUOUS
 62
     7
100
AcDbSpline
210
0.0
220
0.0
230
1.0
 70
     8
 71
     3
 72
    11
 73
     7
 74
     0
 42
0.00000001
 43
0.00000001
 40
0.0
 40
0.0
 40
0.0
 40
0.0
 40
0.198641356941913
 40
0.6115520277718357
 40
0.9775558223838722
 40
1.0
 40
1.0
 40
1.0
 40
1.0
 10
-83.83916399431997
 20
-165.0099652957919
 30
0.0
 10
-83.90574094907419
 20
-165.1163260379721
 30
0.0
 10
-84.11070970437082
 20
-165.4437761146178
 30
0.0
 10
-84.25689933496658
 20
-166.0481936491032
 30
0.0
 10
-84.33399676331047
 20
-166.5526907020743
 30
0.0
 10
-84.31134924166103
 20
-166.7933207594594
 30
0.0
 10
-84.31004068804556
 20
-166.8072241497042
 30
0.0
  0
SPLINE
  5
97
330
1F
100
AcDbEntity
  8
0
  6
CONTINUOUS
 62
     7
100
AcDbSpline
210
0.0
220
0.0
230
1.0
 70
     8
 71
     3
 72
    11
 73
     7
 74
     0
 42
0.00000001
 43
0.00000001
 40
0.0
 40
0.0
 40
0.0
 40
0.0
 40
0.0334021034842589
 40
0.4037512949150951
 40
0.9511869697866202
 40
1.0
 40
1.0
 40
1.0
 40
1.0
 10
231.789692426197
 20
-164.9919646930697
 30
0.0
 10
231.7814738281929
 20
-164.9785497954909
 30
0.0
 10
231.6821306958625
 20
-164.816395867936
 30
0.0
 10
231.5487383028818
 20
-164.3768092431775
 30
0.0
 10
231.4249006833294
 20
-163.9164353441649
 30
0.0
 10
231.4667139057036
 20
-163.6342364381283
 30
0.0
 10
231.4701370243949
 20
-163.6111336898806
 30
0.0
  0
SPLINE
  5
98
330
1F
100
AcDbEntity
  8
0
  6
CONTINUOUS
 62
     7
100
AcDbSpline
210
0.0
220
0.0
230
1.0
 70
     8
 71
     3
 72
    11
 73
     7
 74
     0
 42
0.00000001
 43
0.00000001
 40
0.0
 40
0.0
 40
0.0
 40
0.0
 40
0.089761792879896
 40
0.5055436394031019
 40
0.8607897824613265
 40
1.0
 40
1.0
 40
1.0
 40
1.0
 10
-83.55188450766379
 20
-163.6083322715762
 30
0.0
 10
-83.54765982461068
 20
-163.6513179616793
 30
0.0
 10
-83.52386616388394
 20
-163.893415869038
 30
0.0
 10
-83.60772869070335
 20
-164.305505500457
 30
0.0
 10
-83.73007818986869
 20
-164.7272722474396
 30
0.0
 10
-83.8425817539398
 20
-164.9356980658084
 30
0.0
 10
-83.87425622893149
 20
-164.9943786811832
 30
0.0
  0
LINE
  5
99
330
1F
100
AcDbEntity
  8
0
  6
CONTINUOUS
 62
     7
100
AcDbLine
 10
231.4602873568
 20
-163.6038023186
 30
0.0
 11
231.4602873568
 21
-159.2450040531
 31
0.0
  0
LINE
  5
9A
330
1F
100
AcDbEntity
  8
0
  6
CONTINUOUS
 62
     7
100
AcDbLine
 10
-83.539710259
 20
-159.2450040531
 30
0.0
 11
-83.539710259
 21
-163.6038023186
 31
0.0
  0
LINE
  5
9B
330
1F
100
AcDbEntity
  8
0
  6
CONTINUOUS
 62
     7
100
AcDbLine
 10
235.2345130687
 20
-177.6449876976
 30
0.0
 11
235.2345130687
 21
-176.0449904156
 31
0.0
  0
LINE
  5
9C
330
1F
100
AcDbEntity
  8
0
  6
CONTINUOUS
 62
     7
100
AcDbLine
 10
-87.3139359708
 20
-176.0449904156
 30
0.0
 11
-87.3139359708
 21
-177.6449876976
 31
0.0
  0
LINE
  5
9D
330
1F
100
AcDbEntity
  8
0
  6
CONTINUOUS
 62
     7
100
AcDbLine
 10
232.2345218902
 20
-174.0449863625
 30
0.0
 11
232.2345218902
 21
-166.8037670803
 31
0.0
  0
LINE
  5
9E
330
1F
100
AcDbEntity
  8
0
  6
CONTINUOUS
 62
     7
100
AcDbLine
 10
-84.3139447923
 20
-166.8037670803
 30
0.0
 11
-84.3139447923
 21
-174.0449863625
 31
0.0
  0
SPLINE
  5
9F
330
1F
100
AcDbEntity
  8
0
  6
CONTINUOUS
 62
     7
100
AcDbSpline
210
0.0
220
0.0
230
1.0
 70
     8
 71
     3
 72
    10
 73
     6
 74
     0
 42
0.00000001
 43
0.00000001
 40
0.0
 40
0.0
 40
0.0
 40
0.0
 40
0.2575699203496901
 40
0.7769489796424921
 40
0.9999999999999999
 40
0.9999999999999999
 40
0.9999999999999999
 40
0.9999999999999999
 10
232.2063437943382
 20
-166.803826684952
 30
0.0
 10
232.212661915059
 20
-166.64344573126
 30
0.0
 10
232.231720264111
 20
-166.1596632377302
 30
0.0
 10
232.0740597154861
 20
-165.5284340489263
 30
0.0
 10
231.8297556918463
 20
-165.1313720642834
 30
0.0
 10
231.7563585286064
 20
-165.0120812606814
 30
0.0
  0
SPLINE
  5
A0
330
1F
100
AcDbEntity
  8
0
  6
CONTINUOUS
 62
     7
100
AcDbSpline
210
0.0
220
0.0
230
1.0
 70
     8
 71
     3
 72
    11
 73
     7
 74
     0
 42
0.00000001
 43
0.00000001
 40
0.0
 40
0.0
 40
0.0
 40
0.0
 40
0.198641356941913
 40
0.6115520277718357
 40
0.9775558223838722
 40
1.0
 40
1.0
 40
1.0
 40
1.0
 10
-83.83916399431997
 20
-165.0099652957919
 30
0.0
 10
-83.90574094907419
 20
-165.1163260379721
 30
0.0
 10
-84.11070970437082
 20
-165.4437761146178
 30
0.0
 10
-84.25689933496658
 20
-166.0481936491032
 30
0.0
 10
-84.33399676331047
 20
-166.5526907020743
 30
0.0
 10
-84.31134924166103
 20
-166.7933207594594
 30
0.0
 10
-84.31004068804556
 20
-166.8072241497042
 30
0.0
  0
SPLINE
  5
A1
330
1F
100
AcDbEntity
  8
0
  6
CONTINUOUS
 62
     7
100
AcDbSpline
210
0.0
220
0.0
230
1.0
 70
     8
 71
     3
 72
    11
 73
     7
 74
     0
 42
0.00000001
 43
0.00000001
 40
0.0
 40
0.0
 40
0.0
 40
0.0
 40
0.0334021034842589
 40
0.4037512949150951
 40
0.9511869697866202
 40
1.0
 40
1.0
 40
1.0
 40
1.0
 10
231.789692426197
 20
-164.9919646930697
 30
0.0
 10
231.7814738281929
 20
-164.9785497954909
 30
0.0
 10
231.6821306958625
 20
-164.816395867936
 30
0.0
 10
231.5487383028818
 20
-164.3768092431775
 30
0.0
 10
231.4249006833294
 20
-163.9164353441649
 30
0.0
 10
231.4667139057036
 20
-163.6342364381283
 30
0.0
 10
231.4701370243949
 20
-163.6111336898806
 30
0.0
  0
SPLINE
  5
A2
330
1F
100
AcDbEntity
  8
0
  6
CONTINUOUS
 62
     7
100
AcDbSpline
210
0.0
220
0.0
230
1.0
 70
     8
 71
     3
 72
    11
 73
     7
 74
     0
 42
0.00000001
 43
0.00000001
 40
0.0
 40
0.0
 40
0.0
 40
0.0
 40
0.089761792879896
 40
0.5055436394031019
 40
0.8607897824613265
 40
1.0
 40
1.0
 40
1.0
 40
1.0
 10
-83.55188450766379
 20
-163.6083322715762
 30
0.0
 10
-83.54765982461068
 20
-163.6513179616793
 30
0.0
 10
-83.52386616388394
 20
-163.893415869038
 30
0.0
 10
-83.60772869070335
 20
-164.305505500457
 30
0.0
 10
-83.73007818986869
 20
-164.7272722474396
 30
0.0
 10
-83.8425817539398
 20
-164.9356980658084
 30
0.0
 10
-83.87425622893149
 20
-164.9943786811832
 30
0.0
  0
LINE
  5
A3
330
1F
100
AcDbEntity
  8
0
  6
CONTINUOUS
 62
     7
100
AcDbLine
 10
-84.4397105928
 20
47.8549999046
 30
0.0
 11
232.3602876906
 21
47.8549999046
 31
0.0
  0
LINE
  5
A4
330
1F
100
AcDbEntity
  8
0
  6
CONTINUOUS
 62
     7
100
AcDbLine
 10
-85.3397109265
 20
45.5549982238
 30
0.0
 11
233.2602880244
 21
45.5549982238
 31
0.0
  0
LINE
  5
A5
330
1F
100
AcDbEntity
  8
0
  6
CONTINUOUS
 62
     7
100
AcDbLine
 10
233.0602846389
 20
45.3549985635
 30
0.0
 11
-85.139707541
 21
45.3549985635
 31
0.0
  0
LINE
  5
A6
330
1F
100
AcDbEntity
  8
0
  6
CONTINUOUS
 62
     7
100
AcDbLine
 10
84.0958153178
 20
-105.9214371395
 30
0.0
 11
89.2503206898
 21
-108.0565053177
 31
0.0
  0
ARC
  5
A7
330
1F
100
AcDbEntity
  8
0
  6
CONTINUOUS
 62
     7
100
AcDbCircle
 10
88.8761955466
 20
-112.2311016478
 30
0.0
 40
1.000000000000017
100
AcDbArc
 50
247.5
 51
353.93019088
  0
ARC
  5
A8
330
1F
100
AcDbEntity
  8
0
  6
CONTINUOUS
 62
     7
100
AcDbCircle
 10
73.9602885489
 20
-110.645
 30
0.0
 40
16.00000000000001
100
AcDbArc
 50
353.93019088
 51
6.371503811
  0
LINE
  5
A9
330
1F
100
AcDbEntity
  8
0
  6
CONTINUOUS
 62
     7
100
AcDbLine
 10
88.4935121332
 20
-113.1549823236
 30
0.0
 11
82.1823981871
 21
-110.5408269119
 31
0.0
  0
ARC
  5
AA
330
1F
100
AcDbEntity
  8
0
  6
CONTINUOUS
 62
     7
100
AcDbCircle
 10
88.8676370827
 20
-108.9803800151
 30
0.0
 40
1.000000000000012
100
AcDbArc
 50
6.371503811
 51
67.5
  0
ARC
  5
AB
330
1F
100
AcDbEntity
  8
0
  6
CONTINUOUS
 62
     7
100
AcDbCircle
 10
87.9226494364
 20
-96.6826391126
 30
0.0
 40
9.999999999999993
100
AcDbArc
 50
202.5
 51
247.5
  0
ARC
  5
AC
330
1F
100
AcDbEntity
  8
0
  6
CONTINUOUS
 62
     7
100
AcDbCircle
 10
87.9226494364
 20
-96.6826391126
 30
0.0
 40
15.0
100
AcDbArc
 50
202.5
 51
247.5
  0
ARC
  5
AD
330
1F
100
AcDbEntity
  8
0
  6
CONTINUOUS
 62
     7
100
AcDbCircle
 10
75.5463901968
 20
-125.5609069977
 30
0.0
 40
1.000000000000005
100
AcDbArc
 50
276.06980912
 51
22.5
  0
ARC
  5
AE
330
1F
100
AcDbEntity
  8
0
  6
CONTINUOUS
 62
     7
100
AcDbCircle
 10
73.9602885489
 20
-110.645
 30
0.0
 40
16.00000000000001
100
AcDbArc
 50
263.628496189
 51
276.06980912
  0
ARC
  5
AF
330
1F
100
AcDbEntity
  8
0
  6
CONTINUOUS
 62
     7
100
AcDbCircle
 10
75.6249085338
 20
-95.7376514663
 30
0.0
 40
1.000000000000014
100
AcDbArc
 50
22.5
 51
83.628496189
  0
LINE
  5
B0
330
1F
100
AcDbEntity
  8
0
  6
CONTINUOUS
 62
     7
100
AcDbLine
 10
76.5487881192
 20
-95.3549641323
 30
0.0
 11
78.6838542019
 21
-100.5094695044
 31
0.0
  0
ARC
  5
B1
330
1F
100
AcDbEntity
  8
0
  6
CONTINUOUS
 62
     7
100
AcDbCircle
 10
73.9602885489
 20
-110.645
 30
0.0
 40
16.0
100
AcDbArc
 50
83.628496189
 51
96.06980912
  0
LINE
  5
B2
330
1F
100
AcDbEntity
  8
0
  6
CONTINUOUS
 62
     7
100
AcDbLine
 10
73.8561206501
 20
-118.8671040487
 30
0.0
 11
76.4702697099
 21
-125.1782226515
 31
0.0
  0
LINE
  5
B3
330
1F
100
AcDbEntity
  8
0
  6
CONTINUOUS
 62
     7
100
AcDbLine
 10
74.0644564478
 20
-102.4228978109
 30
0.0
 11
71.450307388
 21
-96.1117792082
 31
0.0
  0
ARC
  5
B4
330
1F
100
AcDbEntity
  8
0
  6
CONTINUOUS
 62
     7
100
AcDbCircle
 10
59.9979276615
 20
-124.6073608874
 30
0.0
 40
15.00000000000001
100
AcDbArc
 50
22.5
 51
67.5
  0
ARC
  5
B5
330
1F
100
AcDbEntity
  8
0
  6
CONTINUOUS
 62
     7
100
AcDbCircle
 10
59.9979276615
 20
-124.6073608874
 30
0.0
 40
10.00000000000001
100
AcDbArc
 50
22.5
 51
67.5
  0
LINE
  5
B6
330
1F
100
AcDbEntity
  8
0
  6
CONTINUOUS
 62
     7
100
AcDbLine
 10
71.3717889787
 20
-125.9350377274
 30
0.0
 11
69.236722896
 21
-120.7805323553
 31
0.0
  0
ARC
  5
B7
330
1F
100
AcDbEntity
  8
0
  6
CONTINUOUS
 62
     7
100
AcDbCircle
 10
72.2956685641
 20
-125.5523485337
 30
0.0
 40
0.9999999999999964
100
AcDbArc
 50
202.5
 51
263.628496189
  0
ARC
  5
B8
330
1F
100
AcDbEntity
  8
0
  6
CONTINUOUS
 62
     7
100
AcDbCircle
 10
72.3741869011
 20
-95.7290930023
 30
0.0
 40
0.9999999999999912
100
AcDbArc
 50
96.06980912
 51
202.5
  0
LINE
  5
B9
330
1F
100
AcDbEntity
  8
0
  6
CONTINUOUS
 62
     7
100
AcDbLine
 10
59.4270649646
 20
-108.135019536
 30
0.0
 11
65.7381789108
 21
-110.7491749477
 31
0.0
  0
LINE
  5
BA
330
1F
100
AcDbEntity
  8
0
  6
CONTINUOUS
 62
     7
100
AcDbLine
 10
63.8247617801
 20
-115.3685647202
 30
0.0
 11
58.670256408
 21
-113.233496542
 31
0.0
  0
ARC
  5
BB
330
1F
100
AcDbEntity
  8
0
  6
CONTINUOUS
 62
     7
100
AcDbCircle
 10
73.9602885489
 20
-110.645
 30
0.0
 40
15.99999999999999
100
AcDbArc
 50
173.93019088
 51
186.371503811
  0
ARC
  5
BC
330
1F
100
AcDbEntity
  8
0
  6
CONTINUOUS
 62
     7
100
AcDbCircle
 10
59.0443815513
 20
-109.0588983522
 30
0.0
 40
1.000000000000012
100
AcDbArc
 50
67.5
 51
173.93019088
  0
ARC
  5
BD
330
1F
100
AcDbEntity
  8
0
  6
CONTINUOUS
 62
     7
100
AcDbCircle
 10
59.0529400152
 20
-112.3096199849
 30
0.0
 40
1.000000000000008
100
AcDbArc
 50
186.371503811
 51
247.5
  0
SPLINE
  5
BE
330
1F
100
AcDbEntity
  8
0
  6
CONTINUOUS
 62
     7
100
AcDbSpline
210
0.0
220
0.0
230
1.0
 70
     8
 71
     3
 72
    12
 73
     8
 74
     0
 42
0.00000001
 43
0.00000001
 40
0.0
 40
0.0
 40
0.0
 40
0.0
 40
0.3010817800479784
 40
0.5270491449037815
 40
0.7493253450742122
 40
0.9379688347377311
 40
1.0
 40
1.0
 40
1.0
 40
1.0
 10
89.37555656777862
 20
-106.3590395402911
 30
0.0
 10
89.46572188857336
 20
-106.7103233012367
 30
0.0
 10
89.62355792640095
 20
-107.3252519289189
 30
0.0
 10
89.76492435542674
 20
-108.1270195530423
 30
0.0
 10
89.83741272105262
 20
-108.6530057604831
 30
0.0
 10
89.85970578328958
 20
-108.8538951327315
 30
0.0
 10
89.86111288546851
 20
-108.8663310188526
 30
0.0
 10
89.86146108256818
 20
-108.8694083642962
 30
0.0
  0
SPLINE
  5
BF
330
1F
100
AcDbEntity
  8
0
  6
CONTINUOUS
 62
     7
100
AcDbSpline
210
0.0
220
0.0
230
1.0
 70
     8
 71
     3
 72
    12
 73
     8
 74
     0
 42
0.00000001
 43
0.00000001
 40
0.0
 40
0.0
 40
0.0
 40
0.0
 40
0.3010815200668524
 40
0.5270523074383083
 40
0.7493255615292864
 40
0.937968888301026
 40
1.0
 40
1.0
 40
1.0
 40
1.0
 10
58.54502053009512
 20
-114.9309623193744
 30
0.0
 10
58.45485486323074
 20
-114.5796796678286
 30
0.0
 10
58.29701713621901
 20
-113.9647487613447
 30
0.0
 10
58.15565477609393
 20
-113.1629689720678
 30
0.0
 10
58.08316370884621
 20
-112.6369974864786
 30
0.0
 10
58.06087134859433
 20
-112.4361065653284
 30
0.0
 10
58.05946421915176
 20
-112.4236708087553
 30
0.0
 10
58.05911601530552
 20
-112.4205934953692
 30
0.0
  0
SPLINE
  5
C0
330
1F
100
AcDbEntity
  8
0
  6
CONTINUOUS
 62
     7
100
AcDbSpline
210
0.0
220
0.0
230
1.0
 70
     8
 71
     3
 72
    12
 73
     8
 74
     0
 42
0.00000001
 43
0.00000001
 40
0.0
 40
0.0
 40
0.0
 40
0.0
 40
0.2246337017468794
 40
0.4463773926783657
 40
0.665458169754495
 40
0.8769428796081427
 40
0.9999999999999999
 40
0.9999999999999999
 40
0.9999999999999999
 40
0.9999999999999999
 10
77.80427916916254
 20
-126.1763769340518
 30
0.0
 10
77.5647450111878
 20
-126.2321838717012
 30
0.0
 10
77.08875840693972
 20
-126.3430797663404
 30
0.0
 10
76.43993183655552
 20
-126.4549453470224
 30
0.0
 10
75.94254080170155
 20
-126.5235165181745
 30
0.0
 10
75.68557047221722
 20
-126.5517614185425
 30
0.0
 10
75.66112300421729
 20
-126.5543473564282
 30
0.0
 10
75.65213030213656
 20
-126.5552985620501
 30
0.0
  0
SPLINE
  5
C1
330
1F
100
AcDbEntity
  8
0
  6
CONTINUOUS
 62
     7
100
AcDbSpline
210
0.0
220
0.0
230
1.0
 70
     8
 71
     3
 72
    12
 73
     8
 74
     0
 42
0.00000001
 43
0.00000001
 40
0.0
 40
0.0
 40
0.0
 40
0.0
 40
0.2246337017468794
 40
0.4463773926783657
 40
0.665458169754495
 40
0.8769428796081427
 40
0.9999999999999999
 40
0.9999999999999999
 40
0.9999999999999999
 40
0.9999999999999999
 10
70.1162979287112
 20
-95.1136249256137
 30
0.0
 10
70.35583208668595
 20
-95.05781798796428
 30
0.0
 10
70.83181869093403
 20
-94.9469220933252
 30
0.0
 10
71.4806452613182
 20
-94.83505651264298
 30
0.0
 10
71.97803629617216
 20
-94.76648534149105
 30
0.0
 10
72.2350066256565
 20
-94.738240441123
 30
0.0
 10
72.25945409365642
 20
-94.73565450323728
 30
0.0
 10
72.26844679573716
 20
-94.73470329761533
 30
0.0
  0
SPLINE
  5
C2
330
1F
100
AcDbEntity
  8
0
  6
CONTINUOUS
 62
     7
100
AcDbSpline
210
0.0
220
0.0
230
1.0
 70
     8
 71
     3
 72
    13
 73
     9
 74
     0
 42
0.00000001
 43
0.00000001
 40
0.0
 40
0.0
 40
0.0
 40
0.0
 40
0.1688099093219325
 40
0.3397475052288432
 40
0.5207797853178558
 40
0.7258255674816639
 40
0.9657851796251116
 40
1.0
 40
1.0
 40
1.0
 40
1.0
 10
75.73588320994915
 20
-94.74382280826596
 30
0.0
 10
75.75807883289903
 20
-94.74621985524054
 30
0.0
 10
75.80274983328354
 20
-94.75104416166185
 30
0.0
 10
76.14300553983003
 20
-94.7927093888423
 30
0.0
 10
76.648320626035
 20
-94.86871535776972
 30
0.0
 10
77.3309564968832
 20
-94.99771325529152
 30
0.0
 10
77.8900963293448
 20
-95.13164159921772
 30
0.0
 10
78.20673995256337
 20
-95.21885164359433
 30
0.0
 10
78.24625459509137
 20
-95.22973477363614
 30
0.0
  0
SPLINE
  5
C3
330
1F
100
AcDbEntity
  8
0
  6
CONTINUOUS
 62
     7
100
AcDbSpline
210
0.0
220
0.0
230
1.0
 70
     8
 71
     3
 72
    13
 73
     9
 74
     0
 42
0.00000001
 43
0.00000001
 40
0.0
 40
0.0
 40
0.0
 40
0.0
 40
0.168810066492234
 40
0.3397474633452252
 40
0.520780295146942
 40
0.7258254533454521
 40
0.9657851653818069
 40
1.0
 40
1.0
 40
1.0
 40
1.0
 10
72.18469388792457
 20
-126.5461790513995
 30
0.0
 10
72.16249839880709
 20
-126.5437736044559
 30
0.0
 10
72.1178277148718
 20
-126.5389323973271
 30
0.0
 10
71.77757019858716
 20
-126.4973052341141
 30
0.0
 10
71.27225894637469
 20
-126.4212588696497
 30
0.0
 10
70.58961855530676
 20
-126.2922980174375
 30
0.0
 10
70.030480803528
 20
-126.1583599842835
 30
0.0
 10
69.71383714919341
 20
-126.0711501854316
 30
0.0
 10
69.67432250278237
 20
-126.0602670860293
 30
0.0
  0
SPLINE
  5
C4
330
1F
100
AcDbEntity
  8
0
  6
CONTINUOUS
 62
     7
100
AcDbSpline
210
0.0
220
0.0
230
1.0
 70
     8
 71
     3
 72
    12
 73
     8
 74
     0
 42
0.00000001
 43
0.00000001
 40
0.0
 40
0.0
 40
0.0
 40
0.0
 40
0.2002122989375989
 40
0.4030734492117632
 40
0.6147441476885175
 40
0.8374293432491895
 40
0.9999999999999999
 40
0.9999999999999999
 40
0.9999999999999999
 40
0.9999999999999999
 10
89.87058990644456
 20
-112.3368489694598
 30
0.0
 10
89.8681665800404
 20
-112.3604166954736
 30
0.0
 10
89.86328786610785
 20
-112.4078639535335
 30
0.0
 10
89.82066073635251
 20
-112.7709513879962
 30
0.0
 10
89.74190594901422
 20
-113.3014038246077
 30
0.0
 10
89.62966972151295
 20
-113.906721528947
 30
0.0
 10
89.53262034276463
 20
-114.3162012210421
 30
0.0
 10
89.49166734712365
 20
-114.4889938783648
 30
0.0
  0
SPLINE
  5
C5
330
1F
100
AcDbEntity
  8
0
  6
CONTINUOUS
 62
     7
100
AcDbSpline
210
0.0
220
0.0
230
1.0
 70
     8
 71
     3
 72
    12
 73
     8
 74
     0
 42
0.00000001
 43
0.00000001
 40
0.0
 40
0.0
 40
0.0
 40
0.0
 40
0.2002125246790807
 40
0.4030762032808401
 40
0.6147437133084747
 40
0.8374291599490569
 40
1.0
 40
1.0
 40
1.0
 40
1.0
 10
58.04998719142914
 20
-108.9531528902057
 30
0.0
 10
58.05241062309073
 20
-108.9295864557723
 30
0.0
 10
58.05728957676573
 20
-108.8821415272821
 30
0.0
 10
58.09991520030175
 20
-108.5190331138983
 30
0.0
 10
58.1786722635746
 20
-107.9885985804054
 30
0.0
 10
58.29090729321578
 20
-107.3832796199639
 30
0.0
 10
58.38795673043536
 20
-106.9738004277029
 30
0.0
 10
58.42890975075009
 20
-106.8010079813006
 30
0.0
  0
ARC
  5
C6
330
1F
100
AcDbEntity
  8
0
  6
CONTINUOUS
 62
     7
100
AcDbCircle
 10
73.9602885489
 20
-110.645
 30
0.0
 40
16.0
100
AcDbArc
 50
15.537728953
 51
74.462271047
  0
ARC
  5
C7
330
1F
100
AcDbEntity
  8
0
  6
CONTINUOUS
 62
     7
100
AcDbCircle
 10
73.9602885489
 20
-110.645
 30
0.0
 40
16.0
100
AcDbArc
 50
283.9012613714
 51
346.0987386286
  0
ARC
  5
C8
330
1F
100
AcDbEntity
  8
0
  6
CONTINUOUS
 62
     7
100
AcDbCircle
 10
73.9602885489
 20
-110.645
 30
0.0
 40
15.99999999999999
100
AcDbArc
 50
103.9012613714
 51
166.0987386286
  0
ARC
  5
C9
330
1F
100
AcDbEntity
  8
0
  6
CONTINUOUS
 62
     7
100
AcDbCircle
 10
73.9602885489
 20
-110.645
 30
0.0
 40
16.00000000000001
100
AcDbArc
 50
195.537728953
 51
254.462271047
  0
LINE
  5
CA
330
1F
100
AcDbEntity
  8
0
  6
CONTINUOUS
 62
     7
100
AcDbLine
 10
97.4602877443
 20
-106.892217989
 30
0.0
 11
97.4602877443
 21
-114.3977838707
 31
0.0
  0
LINE
  5
CB
330
1F
100
AcDbEntity
  8
0
  6
CONTINUOUS
 62
     7
100
AcDbLine
 10
103.9602878784
 20
-103.1394499493
 30
0.0
 11
97.4602877443
 21
-106.892217989
 31
0.0
  0
LINE
  5
CC
330
1F
100
AcDbEntity
  8
0
  6
CONTINUOUS
 62
     7
100
AcDbLine
 10
97.4602877443
 20
-114.3977838707
 30
0.0
 11
103.9602878784
 21
-118.1505519104
 31
0.0
  0
LINE
  5
CD
330
1F
100
AcDbEntity
  8
0
  6
CONTINUOUS
 62
     7
100
AcDbLine
 10
110.4602880125
 20
-106.892217989
 30
0.0
 11
103.9602878784
 21
-103.1394499493
 31
0.0
  0
LINE
  5
CE
330
1F
100
AcDbEntity
  8
0
  6
CONTINUOUS
 62
     7
100
AcDbLine
 10
103.9602878784
 20
-118.1505519104
 30
0.0
 11
110.4602880125
 21
-114.3977838707
 31
0.0
  0
LINE
  5
CF
330
1F
100
AcDbEntity
  8
0
  6
CONTINUOUS
 62
     7
100
AcDbLine
 10
110.4602880125
 20
-114.3977838707
 30
0.0
 11
110.4602880125
 21
-106.892217989
 31
0.0
  0
LINE
  5
D0
330
1F
100
AcDbEntity
  8
0
  6
CONTINUOUS
 62
     7
100
AcDbLine
 10
-98.539710855
 20
-118.1505519104
 30
0.0
 11
-91.5397115703
 21
-118.1505519104
 31
0.0
  0
LINE
  5
D1
330
1F
100
AcDbEntity
  8
0
  6
CONTINUOUS
 62
     7
100
AcDbLine
 10
-98.539710855
 20
-118.1505519104
 30
0.0
 11
-98.539710855
 21
-114.3977838707
 31
0.0
  0
LINE
  5
D2
330
1F
100
AcDbEntity
  8
0
  6
CONTINUOUS
 62
     7
100
AcDbLine
 10
-98.539710855
 20
-114.3977838707
 30
0.0
 11
-91.5397115703
 21
-114.3977838707
 31
0.0
  0
LINE
  5
D3
330
1F
100
AcDbEntity
  8
0
  6
CONTINUOUS
 62
     7
100
AcDbLine
 10
-98.539710855
 20
-106.892217989
 30
0.0
 11
-91.5397115703
 21
-106.892217989
 31
0.0
  0
LINE
  5
D4
330
1F
100
AcDbEntity
  8
0
  6
CONTINUOUS
 62
     7
100
AcDbLine
 10
-98.539710855
 20
-106.892217989
 30
0.0
 11
-98.539710855
 21
-103.1394499493
 31
0.0
  0
LINE
  5
D5
330
1F
100
AcDbEntity
  8
0
  6
CONTINUOUS
 62
     7
100
AcDbLine
 10
-98.539710855
 20
-103.1394499493
 30
0.0
 11
-91.5397115703
 21
-103.1394499493
 31
0.0
  0
LINE
  5
D6
330
1F
100
AcDbEntity
  8
0
  6
CONTINUOUS
 62
     7
100
AcDbLine
 10
-98.539710855
 20
-114.3977838707
 30
0.0
 11
-98.539710855
 21
-106.892217989
 31
0.0
  0
LINE
  5
D7
330
1F
100
AcDbEntity
  8
0
  6
CONTINUOUS
 62
     7
100
AcDbLine
 10
246.4602879529
 20
-106.892217989
 30
0.0
 11
239.4602886681
 21
-106.892217989
 31
0.0
  0
LINE
  5
D8
330
1F
100
AcDbEntity
  8
0
  6
CONTINUOUS
 62
     7
100
AcDbLine
 10
246.4602879529
 20
-106.892217989
 30
0.0
 11
246.4602879529
 21
-114.3977838707
 31
0.0
  0
LINE
  5
D9
330
1F
100
AcDbEntity
  8
0
  6
CONTINUOUS
 62
     7
100
AcDbLine
 10
246.4602879529
 20
-114.3977838707
 30
0.0
 11
239.4602886681
 21
-114.3977838707
 31
0.0
  0
LINE
  5
DA
330
1F
100
AcDbEntity
  8
0
  6
CONTINUOUS
 62
     7
100
AcDbLine
 10
246.4602879529
 20
-103.1394499493
 30
0.0
 11
239.4602886681
 21
-103.1394499493
 31
0.0
  0
LINE
  5
DB
330
1F
100
AcDbEntity
  8
0
  6
CONTINUOUS
 62
     7
100
AcDbLine
 10
246.4602879529
 20
-103.1394499493
 30
0.0
 11
246.4602879529
 21
-106.892217989
 31
0.0
  0
LINE
  5
DC
330
1F
100
AcDbEntity
  8
0
  6
CONTINUOUS
 62
     7
100
AcDbLine
 10
246.4602879529
 20
-114.3977838707
 30
0.0
 11
246.4602879529
 21
-118.1505519104
 31
0.0
  0
LINE
  5
DD
330
1F
100
AcDbEntity
  8
0
  6
CONTINUOUS
 62
     7
100
AcDbLine
 10
246.4602879529
 20
-118.1505519104
 30
0.0
 11
239.4602886681
 21
-118.1505519104
 31
0.0
  0
LINE
  5
DE
330
1F
100
AcDbEntity
  8
0
  6
CONTINUOUS
 62
     7
100
AcDbLine
 10
37.4602890854
 20
-106.892217989
 30
0.0
 11
37.4602890854
 21
-114.3977838707
 31
0.0
  0
LINE
  5
DF
330
1F
100
AcDbEntity
  8
0
  6
CONTINUOUS
 62
     7
100
AcDbLine
 10
43.9602892195
 20
-103.1394499493
 30
0.0
 11
37.4602890854
 21
-106.892217989
 31
0.0
  0
LINE
  5
E0
330
1F
100
AcDbEntity
  8
0
  6
CONTINUOUS
 62
     7
100
AcDbLine
 10
50.4602893536
 20
-106.892217989
 30
0.0
 11
43.9602892195
 21
-103.1394499493
 31
0.0
  0
LINE
  5
E1
330
1F
100
AcDbEntity
  8
0
  6
CONTINUOUS
 62
     7
100
AcDbLine
 10
50.4602893536
 20
-114.3977838707
 30
0.0
 11
50.4602893536
 21
-106.892217989
 31
0.0
  0
LINE
  5
E2
330
1F
100
AcDbEntity
  8
0
  6
CONTINUOUS
 62
     7
100
AcDbLine
 10
37.4602890854
 20
-114.3977838707
 30
0.0
 11
43.9602892195
 21
-118.1505519104
 31
0.0
  0
LINE
  5
E3
330
1F
100
AcDbEntity
  8
0
  6
CONTINUOUS
 62
     7
100
AcDbLine
 10
43.9602892195
 20
-118.1505519104
 30
0.0
 11
50.4602893536
 21
-114.3977838707
 31
0.0
  0
ARC
  5
E4
330
1F
100
AcDbEntity
  8
0
  6
CONTINUOUS
 62
     7
100
AcDbCircle
 10
102.4602885489
 20
-110.645
 30
0.0
 40
9.999999999999996
100
AcDbArc
 50
290.5409775375
 51
69.4590224625
  0
LINE
  5
E5
330
1F
100
AcDbEntity
  8
0
  6
CONTINUOUS
 62
     7
100
AcDbLine
 10
105.9690594022
 20
-120.0092184496
 30
0.0
 11
80.977832554
 21
-129.3734359694
 31
0.0
  0
ARC
  5
E6
330
1F
100
AcDbEntity
  8
0
  6
CONTINUOUS
 62
     7
100
AcDbCircle
 10
73.9602885489
 20
-110.645
 30
0.0
 40
19.99999999999999
100
AcDbArc
 50
249.4590224625
 51
290.5409775375
  0
ARC
  5
E7
330
1F
100
AcDbEntity
  8
0
  6
CONTINUOUS
 62
     7
100
AcDbCircle
 10
45.4602885489
 20
-110.645
 30
0.0
 40
10.00000000000001
100
AcDbArc
 50
110.5409775375
 51
249.4590224625
  0
LINE
  5
E8
330
1F
100
AcDbEntity
  8
0
  6
CONTINUOUS
 62
     7
100
AcDbLine
 10
41.9515176957
 20
-101.2807834101
 30
0.0
 11
66.9427445439
 21
-91.9165658903
 31
0.0
  0
ARC
  5
E9
330
1F
100
AcDbEntity
  8
0
  6
CONTINUOUS
 62
     7
100
AcDbCircle
 10
73.9602885489
 20
-110.645
 30
0.0
 40
20.0
100
AcDbArc
 50
69.4590224625
 51
110.5409775375
  0
LINE
  5
EA
330
1F
100
AcDbEntity
  8
0
  6
CONTINUOUS
 62
     7
100
AcDbLine
 10
80.977832554
 20
-91.9165658903
 30
0.0
 11
105.9690594022
 21
-101.2807834101
 31
0.0
  0
LINE
  5
EB
330
1F
100
AcDbEntity
  8
0
  6
CONTINUOUS
 62
     7
100
AcDbLine
 10
66.9427445439
 20
-129.3734359694
 30
0.0
 11
41.9515176957
 21
-120.0092184496
 31
0.0
  0
LINE
  5
EC
330
1F
100
AcDbEntity
  8
0
  6
CONTINUOUS
 62
     7
100
AcDbLine
 10
231.4602873568
 20
-101.2807834101
 30
0.0
 11
231.4602873568
 21
-120.0092184496
 31
0.0
  0
LINE
  5
ED
330
1F
100
AcDbEntity
  8
0
  6
CONTINUOUS
 62
     7
100
AcDbLine
 10
239.4602886681
 20
-120.0092184496
 30
0.0
 11
239.4602886681
 21
-101.2807834101
 31
0.0
  0
LINE
  5
EE
330
1F
100
AcDbEntity
  8
0
  6
CONTINUOUS
 62
     7
100
AcDbLine
 10
231.4602873568
 20
-91.9165658903
 30
0.0
 11
231.4602873568
 21
-101.2807834101
 31
0.0
  0
LINE
  5
EF
330
1F
100
AcDbEntity
  8
0
  6
CONTINUOUS
 62
     7
100
AcDbLine
 10
239.4602886681
 20
-101.2807834101
 30
0.0
 11
239.4602886681
 21
-91.9165658903
 31
0.0
  0
LINE
  5
F0
330
1F
100
AcDbEntity
  8
0
  6
CONTINUOUS
 62
     7
100
AcDbLine
 10
231.4602873568
 20
-120.0092184496
 30
0.0
 11
231.4602873568
 21
-129.3734359694
 31
0.0
  0
LINE
  5
F1
330
1F
100
AcDbEntity
  8
0
  6
CONTINUOUS
 62
     7
100
AcDbLine
 10
239.4602886681
 20
-129.3734359694
 30
0.0
 11
239.4602886681
 21
-120.0092184496
 31
0.0
  0
LINE
  5
F2
330
1F
100
AcDbEntity
  8
0
  6
CONTINUOUS
 62
     7
100
AcDbLine
 10
249.9602875953
 20
-95.1450067711
 30
0.0
 11
249.9602875953
 21
-126.1449950886
 31
0.0
  0
LINE
  5
F3
330
1F
100
AcDbEntity
  8
0
  6
CONTINUOUS
 62
     7
100
AcDbLine
 10
231.4602873568
 20
-90.6450051022
 30
0.0
 11
231.4602873568
 21
-91.9165658903
 31
0.0
  0
LINE
  5
F4
330
1F
100
AcDbEntity
  8
0
  6
CONTINUOUS
 62
     7
100
AcDbLine
 10
239.4602886681
 20
-91.9165658903
 30
0.0
 11
239.4602886681
 21
-90.6450051022
 31
0.0
  0
LINE
  5
F5
330
1F
100
AcDbEntity
  8
0
  6
CONTINUOUS
 62
     7
100
AcDbLine
 10
231.4602873568
 20
-129.3734359694
 30
0.0
 11
231.4602873568
 21
-130.6449967575
 31
0.0
  0
LINE
  5
F6
330
1F
100
AcDbEntity
  8
0
  6
CONTINUOUS
 62
     7
100
AcDbLine
 10
239.4602886681
 20
-130.6449967575
 30
0.0
 11
239.4602886681
 21
-129.3734359694
 31
0.0
  0
LINE
  5
F7
330
1F
100
AcDbEntity
  8
0
  6
CONTINUOUS
 62
     7
100
AcDbLine
 10
-91.5397115703
 20
-101.2807834101
 30
0.0
 11
-91.5397115703
 21
-120.0092184496
 31
0.0
  0
LINE
  5
F8
330
1F
100
AcDbEntity
  8
0
  6
CONTINUOUS
 62
     7
100
AcDbLine
 10
-83.539710259
 20
-120.0092184496
 30
0.0
 11
-83.539710259
 21
-101.2807834101
 31
0.0
  0
LINE
  5
F9
330
1F
100
AcDbEntity
  8
0
  6
CONTINUOUS
 62
     7
100
AcDbLine
 10
-91.5397115703
 20
-120.0092184496
 30
0.0
 11
-91.5397115703
 21
-129.3734359694
 31
0.0
  0
LINE
  5
FA
330
1F
100
AcDbEntity
  8
0
  6
CONTINUOUS
 62
     7
100
AcDbLine
 10
-83.539710259
 20
-129.3734359694
 30
0.0
 11
-83.539710259
 21
-120.0092184496
 31
0.0
  0
LINE
  5
FB
330
1F
100
AcDbEntity
  8
0
  6
CONTINUOUS
 62
     7
100
AcDbLine
 10
-91.5397115703
 20
-91.9165658903
 30
0.0
 11
-91.5397115703
 21
-101.2807834101
 31
0.0
  0
LINE
  5
FC
330
1F
100
AcDbEntity
  8
0
  6
CONTINUOUS
 62
     7
100
AcDbLine
 10
-83.539710259
 20
-101.2807834101
 30
0.0
 11
-83.539710259
 21
-91.9165658903
 31
0.0
  0
LINE
  5
FD
330
1F
100
AcDbEntity
  8
0
  6
CONTINUOUS
 62
     7
100
AcDbLine
 10
-102.0397104974
 20
-126.1449950886
 30
0.0
 11
-102.0397104974
 21
-95.1450067711
 31
0.0
  0
LINE
  5
FE
330
1F
100
AcDbEntity
  8
0
  6
CONTINUOUS
 62
     7
100
AcDbLine
 10
-91.5397115703
 20
-129.3734359694
 30
0.0
 11
-91.5397115703
 21
-130.6449967575
 31
0.0
  0
LINE
  5
FF
330
1F
100
AcDbEntity
  8
0
  6
CONTINUOUS
 62
     7
100
AcDbLine
 10
-83.539710259
 20
-130.6449967575
 30
0.0
 11
-83.539710259
 21
-129.3734359694
 31
0.0
  0
LINE
  5
100
330
1F
100
AcDbEntity
  8
0
  6
CONTINUOUS
 62
     7
100
AcDbLine
 10
-91.5397115703
 20
-90.6450051022
 30
0.0
 11
-91.5397115703
 21
-91.9165658903
 31
0.0
  0
LINE
  5
101
330
1F
100
AcDbEntity
  8
0
  6
CONTINUOUS
 62
     7
100
AcDbLine
 10
-83.539710259
 20
-91.9165658903
 30
0.0
 11
-83.539710259
 21
-90.6450051022
 31
0.0
  0
LINE
  5
102
330
1F
100
AcDbEntity
  8
0
  6
CONTINUOUS
 62
     7
100
AcDbLine
 10
231.4602873568
 20
-105.3771722269
 30
0.0
 11
229.4602833037
 21
-105.3771722269
 31
0.0
  0
LINE
  5
103
330
1F
100
AcDbEntity
  8
0
  6
CONTINUOUS
 62
     7
100
AcDbLine
 10
231.4602873568
 20
-115.9128296328
 30
0.0
 11
229.4602833037
 21
-115.9128296328
 31
0.0
  0
LINE
  5
104
330
1F
100
AcDbEntity
  8
0
  6
CONTINUOUS
 62
     7
100
AcDbLine
 10
229.4602833037
 20
-105.3771722269
 30
0.0
 11
229.4602833037
 21
-115.9128296328
 31
0.0
  0
LINE
  5
105
330
1F
100
AcDbEntity
  8
0
  6
CONTINUOUS
 62
     7
100
AcDbLine
 10
229.4602833037
 20
-101.2807834101
 30
0.0
 11
229.4602833037
 21
-105.3771722269
 31
0.0
  0
LINE
  5
106
330
1F
100
AcDbEntity
  8
0
  6
CONTINUOUS
 62
     7
100
AcDbLine
 10
231.4602873568
 20
-101.2807834101
 30
0.0
 11
231.4602873568
 21
-105.3771722269
 31
0.0
  0
LINE
  5
107
330
1F
100
AcDbEntity
  8
0
  6
CONTINUOUS
 62
     7
100
AcDbLine
 10
229.4602833037
 20
-115.9128296328
 30
0.0
 11
229.4602833037
 21
-120.0092184496
 31
0.0
  0
LINE
  5
108
330
1F
100
AcDbEntity
  8
0
  6
CONTINUOUS
 62
     7
100
AcDbLine
 10
231.4602873568
 20
-115.9128296328
 30
0.0
 11
231.4602873568
 21
-120.0092184496
 31
0.0
  0
LINE
  5
109
330
1F
100
AcDbEntity
  8
0
  6
CONTINUOUS
 62
     7
100
AcDbLine
 10
229.4602833037
 20
-120.0092184496
 30
0.0
 11
229.4602833037
 21
-129.3734359694
 31
0.0
  0
LINE
  5
10A
330
1F
100
AcDbEntity
  8
0
  6
CONTINUOUS
 62
     7
100
AcDbLine
 10
229.4602833037
 20
-91.9165658903
 30
0.0
 11
229.4602833037
 21
-101.2807834101
 31
0.0
  0
LINE
  5
10B
330
1F
100
AcDbEntity
  8
0
  6
CONTINUOUS
 62
     7
100
AcDbLine
 10
229.4602833037
 20
-90.6450051022
 30
0.0
 11
229.4602833037
 21
-91.9165658903
 31
0.0
  0
LINE
  5
10C
330
1F
100
AcDbEntity
  8
0
  6
CONTINUOUS
 62
     7
100
AcDbLine
 10
229.4602833037
 20
-129.3734359694
 30
0.0
 11
229.4602833037
 21
-130.6449967575
 31
0.0
  0
LINE
  5
10D
330
1F
100
AcDbEntity
  8
0
  6
CONTINUOUS
 62
     7
100
AcDbLine
 10
-81.5397062059
 20
-105.3771722269
 30
0.0
 11
-83.539710259
 21
-105.3771722269
 31
0.0
  0
LINE
  5
10E
330
1F
100
AcDbEntity
  8
0
  6
CONTINUOUS
 62
     7
100
AcDbLine
 10
-81.5397062059
 20
-105.3771722269
 30
0.0
 11
-81.5397062059
 21
-115.9128296328
 31
0.0
  0
LINE
  5
10F
330
1F
100
AcDbEntity
  8
0
  6
CONTINUOUS
 62
     7
100
AcDbLine
 10
-81.5397062059
 20
-115.9128296328
 30
0.0
 11
-83.539710259
 21
-115.9128296328
 31
0.0
  0
LINE
  5
110
330
1F
100
AcDbEntity
  8
0
  6
CONTINUOUS
 62
     7
100
AcDbLine
 10
-83.539710259
 20
-115.9128296328
 30
0.0
 11
-83.539710259
 21
-120.0092184496
 31
0.0
  0
LINE
  5
111
330
1F
100
AcDbEntity
  8
0
  6
CONTINUOUS
 62
     7
100
AcDbLine
 10
-81.5397062059
 20
-115.9128296328
 30
0.0
 11
-81.5397062059
 21
-120.0092184496
 31
0.0
  0
LINE
  5
112
330
1F
100
AcDbEntity
  8
0
  6
CONTINUOUS
 62
     7
100
AcDbLine
 10
-83.539710259
 20
-101.2807834101
 30
0.0
 11
-83.539710259
 21
-105.3771722269
 31
0.0
  0
LINE
  5
113
330
1F
100
AcDbEntity
  8
0
  6
CONTINUOUS
 62
     7
100
AcDbLine
 10
-81.5397062059
 20
-101.2807834101
 30
0.0
 11
-81.5397062059
 21
-105.3771722269
 31
0.0
  0
LINE
  5
114
330
1F
100
AcDbEntity
  8
0
  6
CONTINUOUS
 62
     7
100
AcDbLine
 10
-81.5397062059
 20
-120.0092184496
 30
0.0
 11
-81.5397062059
 21
-129.3734359694
 31
0.0
  0
LINE
  5
115
330
1F
100
AcDbEntity
  8
0
  6
CONTINUOUS
 62
     7
100
AcDbLine
 10
-81.5397062059
 20
-91.9165658903
 30
0.0
 11
-81.5397062059
 21
-101.2807834101
 31
0.0
  0
LINE
  5
116
330
1F
100
AcDbEntity
  8
0
  6
CONTINUOUS
 62
     7
100
AcDbLine
 10
-81.5397062059
 20
-129.3734359694
 30
0.0
 11
-81.5397062059
 21
-130.6449967575
 31
0.0
  0
LINE
  5
117
330
1F
100
AcDbEntity
  8
0
  6
CONTINUOUS
 62
     7
100
AcDbLine
 10
-81.5397062059
 20
-90.6450051022
 30
0.0
 11
-81.5397062059
 21
-91.9165658903
 31
0.0
  0
LINE
  5
118
330
1F
100
AcDbEntity
  8
0
  6
CONTINUOUS
 62
     7
100
AcDbLine
 10
228.960289741
 20
-155.645002718
 30
0.0
 11
-81.0397126432
 21
-155.645002718
 31
0.0
  0
LINE
  5
119
330
1F
100
AcDbEntity
  8
0
  6
CONTINUOUS
 62
     7
100
AcDbLine
 10
228.960289741
 20
-94.6259844255
 30
0.0
 11
228.960289741
 21
-126.6640174341
 31
0.0
  0
LINE
  5
11A
330
1F
100
AcDbEntity
  8
0
  6
CONTINUOUS
 62
     7
100
AcDbLine
 10
-81.0397126432
 20
-126.6640174341
 30
0.0
 11
-81.0397126432
 21
-94.6259844255
 31
0.0
  0
LINE
  5
11B
330
1F
100
AcDbEntity
  8
0
  6
CONTINUOUS
 62
     7
100
AcDbLine
 10
228.960289741
 20
-94.1023874235
 30
0.0
 11
228.960289741
 21
-94.6259844255
 31
0.0
  0
LINE
  5
11C
330
1F
100
AcDbEntity
  8
0
  6
CONTINUOUS
 62
     7
100
AcDbLine
 10
228.960289741
 20
-126.6640174341
 30
0.0
 11
228.960289741
 21
-127.1876144361
 31
0.0
  0
LINE
  5
11D
330
1F
100
AcDbEntity
  8
0
  6
CONTINUOUS
 62
     7
100
AcDbLine
 10
-81.0397126432
 20
-132.1674334955
 30
0.0
 11
-81.0397126432
 21
-126.6640174341
 31
0.0
  0
LINE
  5
11E
330
1F
100
AcDbEntity
  8
0
  6
CONTINUOUS
 62
     7
100
AcDbLine
 10
-81.0397126432
 20
-94.6259844255
 30
0.0
 11
-81.0397126432
 21
-89.1225683641
 31
0.0
  0
LINE
  5
11F
330
1F
100
AcDbEntity
  8
0
  6
CONTINUOUS
 62
     7
100
AcDbLine
 10
228.960289741
 20
-127.1876144361
 30
0.0
 11
228.960289741
 21
-128.5777139616
 31
0.0
  0
LINE
  5
120
330
1F
100
AcDbEntity
  8
0
  6
CONTINUOUS
 62
     7
100
AcDbLine
 10
228.960289741
 20
-92.7122878981
 30
0.0
 11
228.960289741
 21
-94.1023874235
 31
0.0
  0
LINE
  5
121
330
1F
100
AcDbEntity
  8
0
  6
CONTINUOUS
 62
     7
100
AcDbLine
 10
228.960289741
 20
-86.278190012
 30
0.0
 11
228.960289741
 21
-92.7122878981
 31
0.0
  0
SPLINE
  5
122
330
1F
100
AcDbEntity
  8
0
  6
CONTINUOUS
 62
     7
100
AcDbSpline
210
0.0
220
0.0
230
1.0
 70
    24
 71
     3
 72
     9
 73
     5
 74
     0
 42
0.00000001
 43
0.00000001
 40
0.0
 40
0.0
 40
0.0
 40
0.0
 40
0.6960218978404783
 40
1.0
 40
1.0
 40
1.0
 40
1.0
 10
228.9602897410313
 20
-128.5777139616015
 30
0.0
 10
228.9602897410314
 20
-130.0768764252787
 30
0.0
 10
228.9602897410314
 20
-132.2307777153508
 30
0.0
 10
228.9602897410315
 20
-134.3635084166797
 30
0.0
 10
228.9602897410315
 20
-135.011811847687
 30
0.0
  0
LINE
  5
123
330
1F
100
AcDbEntity
  8
0
  6
CONTINUOUS
 62
     7
100
AcDbLine
 10
-81.0397126432
 20
-134.4741630507
 30
0.0
 11
-81.0397126432
 21
-132.1674334955
 31
0.0
  0
LINE
  5
124
330
1F
100
AcDbEntity
  8
0
  6
CONTINUOUS
 62
     7
100
AcDbLine
 10
-81.0397126432
 20
-89.1225683641
 30
0.0
 11
-81.0397126432
 21
-86.815838809
 31
0.0
  0
SPLINE
  5
125
330
1F
100
AcDbEntity
  8
0
  6
CONTINUOUS
 62
     7
100
AcDbSpline
210
0.0
220
0.0
230
1.0
 70
    24
 71
     3
 72
    14
 73
    10
 74
     0
 42
0.00000001
 43
0.00000001
 40
0.0
 40
0.0
 40
0.0
 40
0.0
 40
0.4477358423542867
 40
0.7715421398864512
 40
0.855329103230614
 40
0.9581965445727487
 40
0.9839099571480374
 40
0.9903382988168271
 40
1.0
 40
1.0
 40
1.0
 40
1.0
 10
228.9602897410315
 20
-135.011811847687
 30
0.0
 10
228.9602897410315
 20
-135.4043337438314
 30
0.0
 10
228.9602897410316
 20
-136.0807307508502
 30
0.0
 10
228.9602897410315
 20
-136.447028889659
 30
0.0
 10
228.9602897410316
 20
-136.5832012435214
 30
0.0
 10
228.9602897410316
 20
-136.6214627389409
 30
0.0
 10
228.9602897410315
 20
-136.6379228024088
 30
0.0
 10
228.9602897410316
 20
-136.642466901286
 30
0.0
 10
228.9602897410316
 20
-136.6440458770268
 30
0.0
 10
228.9602897410316
 20
-136.6449940156939
 30
0.0
  0
SPLINE
  5
126
330
1F
100
AcDbEntity
  8
0
  6
CONTINUOUS
 62
     7
100
AcDbSpline
210
0.0
220
0.0
230
1.0
 70
    24
 71
     3
 72
    12
 73
     8
 74
     0
 42
0.00000001
 43
0.00000001
 40
0.0
 40
0.0
 40
0.0
 40
0.0
 40
0.0097266614279356
 40
0.0538928510481884
 40
0.2284451534111712
 40
0.5522567837826429
 40
1.0
 40
1.0
 40
1.0
 40
1.0
 10
228.9602897410316
 20
-84.64499294281033
 30
0.0
 10
228.9602897410316
 20
-84.64596156262519
 30
0.0
 10
228.9602897410315
 20
-84.65132842810003
 30
0.0
 10
228.9602897410317
 20
-84.67987797280924
 30
0.0
 10
228.9602897410315
 20
-84.80336337707098
 30
0.0
 10
228.9602897410315
 20
-85.20960223648282
 30
0.0
 10
228.9602897410315
 20
-85.88578971052152
 30
0.0
 10
228.9602897410315
 20
-86.27819001197845
 30
0.0
  0
SPLINE
  5
127
330
1F
100
AcDbEntity
  8
0
  6
CONTINUOUS
 62
     7
100
AcDbSpline
210
0.0
220
0.0
230
1.0
 70
    24
 71
     3
 72
    13
 73
     9
 74
     0
 42
0.00000001
 43
0.00000001
 40
0.0
 40
0.0
 40
0.0
 40
0.0
 40
0.3671401920974931
 40
0.4761902562406239
 40
0.7457362842180177
 40
0.9185756965693018
 40
0.9905835842083295
 40
1.0
 40
1.0
 40
1.0
 40
1.0
 10
-81.03971264315426
 20
-86.81583880901364
 30
0.0
 10
-81.03971264315426
 20
-86.45281071041053
 30
0.0
 10
-81.03971264315426
 20
-85.98195394501873
 30
0.0
 10
-81.0397126431542
 20
-85.40510208989241
 30
0.0
 10
-81.03971264315432
 20
-85.04354099751025
 30
0.0
 10
-81.0397126431541
 20
-84.7859878426486
 30
0.0
 10
-81.0397126431542
 20
-84.68010769293625
 30
0.0
 10
-81.0397126431542
 20
-84.64863288633387
 30
0.0
 10
-81.0397126431542
 20
-84.64499294281033
 30
0.0
  0
SPLINE
  5
128
330
1F
100
AcDbEntity
  8
0
  6
CONTINUOUS
 62
     7
100
AcDbSpline
210
0.0
220
0.0
230
1.0
 70
    24
 71
     3
 72
    13
 73
     9
 74
     0
 42
0.00000001
 43
0.00000001
 40
0.0
 40
0.0
 40
0.0
 40
0.0
 40
0.0094159711525584
 40
0.0769805698403278
 40
0.2458213492740953
 40
0.5120775384377536
 40
0.8550972265004027
 40
1.0
 40
1.0
 40
1.0
 40
1.0
 10
-81.0397126431542
 20
-136.6449940156939
 30
0.0
 10
-81.0397126431542
 20
-136.6413593734682
 30
0.0
 10
-81.0397126431541
 20
-136.6116442410434
 30
0.0
 10
-81.03971264315443
 20
-136.5095995560289
 30
0.0
 10
-81.0397126431541
 20
-136.2601339949512
 30
0.0
 10
-81.03971264315426
 20
-135.7557583490507
 30
0.0
 10
-81.03971264315432
 20
-135.1210932358464
 30
0.0
 10
-81.03971264315426
 20
-134.6222955411112
 30
0.0
 10
-81.03971264315426
 20
-134.4741630506518
 30
0.0
  0
LINE
  5
129
330
1F
100
AcDbEntity
  8
0
  6
CONTINUOUS
 62
     7
100
AcDbLine
 10
-25.1806758995
 20
-164.8450094414
 30
0.0
 11
-34.1806792374
 21
-164.8450094414
 31
0.0
  0
SPLINE
  5
12A
330
1F
100
AcDbEntity
  8
0
  6
CONTINUOUS
 62
     7
100
AcDbSpline
210
0.0
220
0.0
230
1.0
 70
     8
 71
     3
 72
    10
 73
     6
 74
     0
 42
0.00000001
 43
0.00000001
 40
0.0
 40
0.0
 40
0.0
 40
0.0
 40
0.3971588680080335
 40
0.7941268625166624
 40
0.9999999999999999
 40
0.9999999999999999
 40
0.9999999999999999
 40
0.9999999999999999
 10
-33.13879004670103
 20
-162.4154347133639
 30
0.0
 10
-32.97043804404149
 20
-162.26228951145
 30
0.0
 10
-32.63381494824871
 20
-161.9560727088003
 30
0.0
 10
-32.07640478692856
 20
-161.7686908156807
 30
0.0
 10
-31.73407882885079
 20
-161.7510321782831
 30
0.0
 10
-31.61717287255247
 20
-161.7450016689303
 30
0.0
  0
LINE
  5
12B
330
1F
100
AcDbEntity
  8
0
  6
CONTINUOUS
 62
     7
100
AcDbLine
 10
-31.6171728726
 20
-161.7450016689
 30
0.0
 11
-30.1806785817
 21
-161.7450016689
 31
0.0
  0
SPLINE
  5
12C
330
1F
100
AcDbEntity
  8
0
  6
CONTINUOUS
 62
     7
100
AcDbSpline
210
0.0
220
0.0
230
1.0
 70
    24
 71
     3
 72
    10
 73
     6
 74
     0
 42
0.00000001
 43
0.00000001
 40
0.0
 40
0.0
 40
0.0
 40
0.0
 40
0.4119531482991871
 40
0.8219744957906524
 40
1.0
 40
1.0
 40
1.0
 40
1.0
 10
-30.18067858172377
 20
-161.7450016689303
 30
0.0
 10
-30.18067858172377
 20
-161.7680203939301
 30
0.0
 10
-30.1806785817238
 20
-161.8139499006073
 30
0.0
 10
-30.18067858172377
 20
-162.1059610630872
 30
0.0
 10
-30.18067858172377
 20
-162.3435169601582
 30
0.0
 10
-30.18067858172377
 20
-162.4154347133639
 30
0.0
  0
LINE
  5
12D
330
1F
100
AcDbEntity
  8
0
  6
CONTINUOUS
 62
     7
100
AcDbLine
 10
-30.1806785817
 20
-162.4154347134
 30
0.0
 11
-29.1806765552
 21
-162.4154347134
 31
0.0
  0
SPLINE
  5
12E
330
1F
100
AcDbEntity
  8
0
  6
CONTINUOUS
 62
     7
100
AcDbSpline
210
0.0
220
0.0
230
1.0
 70
    24
 71
     3
 72
    10
 73
     6
 74
     0
 42
0.00000001
 43
0.00000001
 40
0.0
 40
0.0
 40
0.0
 40
0.0
 40
0.3971592943064068
 40
0.7941284178336913
 40
1.0
 40
1.0
 40
1.0
 40
1.0
 10
-29.18067655516585
 20
-162.4154347133639
 30
0.0
 10
-29.18067655516585
 20
-162.2622894735184
 30
0.0
 10
-29.18067655516585
 20
-161.9560723239746
 30
0.0
 10
-29.18067655516585
 20
-161.768691284839
 30
0.0
 10
-29.18067655516585
 20
-161.7510322669332
 30
0.0
 10
-29.18067655516585
 20
-161.7450016689303
 30
0.0
  0
LINE
  5
12F
330
1F
100
AcDbEntity
  8
0
  6
CONTINUOUS
 62
     7
100
AcDbLine
 10
-29.1806765552
 20
-161.7450016689
 30
0.0
 11
-27.7441897149
 21
-161.7450016689
 31
0.0
  0
SPLINE
  5
130
330
1F
100
AcDbEntity
  8
0
  6
CONTINUOUS
 62
     7
100
AcDbSpline
210
0.0
220
0.0
230
1.0
 70
     8
 71
     3
 72
    10
 73
     6
 74
     0
 42
0.00000001
 43
0.00000001
 40
0.0
 40
0.0
 40
0.0
 40
0.0
 40
0.4119585506429431
 40
0.8219771813018013
 40
0.9999999999999999
 40
0.9999999999999999
 40
0.9999999999999999
 40
0.9999999999999999
 10
-27.74418971491774
 20
-161.7450016689304
 30
0.0
 10
-27.50928583455789
 20
-161.7680198541397
 30
0.0
 10
-27.0405842402987
 20
-161.8139478315235
 30
0.0
 10
-26.52882431047529
 20
-162.1059593725191
 30
0.0
 10
-26.29373552838973
 20
-162.3435168928988
 30
0.0
 10
-26.22256509018858
 20
-162.4154347133639
 30
0.0
  0
LINE
  5
131
330
1F
100
AcDbEntity
  8
0
  6
CONTINUOUS
 62
     7
100
AcDbLine
 10
-85.3397109265
 20
45.4049994099
 30
0.0
 11
233.2602880244
 21
45.4049994099
 31
0.0
  0
LINE
  5
132
330
1F
100
AcDbEntity
  8
0
  6
CONTINUOUS
 62
     7
100
AcDbLine
 10
233.0602846389
 20
45.2049997497
 30
0.0
 11
-85.139707541
 21
45.2049997497
 31
0.0
  0
LINE
  5
133
330
1F
100
AcDbEntity
  8
0
  6
CONTINUOUS
 62
     7
100
AcDbLine
 10
-27.9795908089
 20
-176.0449904156
 30
0.0
 11
175.9001679068
 21
-176.0449904156
 31
0.0
  0
LINE
  5
134
330
1F
100
AcDbEntity
  8
0
  6
CONTINUOUS
 62
     7
100
AcDbLine
 10
-27.9795908089
 20
-177.6449876976
 30
0.0
 11
175.9001679068
 21
-177.6449876976
 31
0.0
  0
LINE
  5
135
330
1F
100
AcDbEntity
  8
0
  6
CONTINUOUS
 62
     7
100
AcDbLine
 10
124.5896621888
 20
-165.6262773228
 30
0.0
 11
125.6055190508
 21
-165.6449931812
 31
0.0
  0
LINE
  5
136
330
1F
100
AcDbEntity
  8
0
  6
CONTINUOUS
 62
     7
100
AcDbLine
 10
22.315058047
 20
-165.6449931812
 30
0.0
 11
23.7743436639
 21
-165.6291085434
 31
0.0
  0
LINE
  5
137
330
1F
100
AcDbEntity
  8
0
  6
CONTINUOUS
 62
     7
100
AcDbLine
 10
225.9241632466
 20
-165.6449931812
 30
0.0
 11
226.1183104758
 21
-165.6350988102
 31
0.0
  0
LINE
  5
138
330
1F
100
AcDbEntity
  8
0
  6
CONTINUOUS
 62
     7
100
AcDbLine
 10
-78.2647289987
 20
-165.6209725094
 30
0.0
 11
-78.0035861487
 21
-165.6449931812
 31
0.0
  0
LINE
  5
139
330
1F
100
AcDbEntity
  8
0
  6
CONTINUOUS
 62
     7
100
AcDbLine
 10
125.6055190508
 20
-165.6449931812
 30
0.0
 11
174.5545632486
 21
-165.6449931812
 31
0.0
  0
LINE
  5
13A
330
1F
100
AcDbEntity
  8
0
  6
CONTINUOUS
 62
     7
100
AcDbLine
 10
-26.6339861508
 20
-165.6449931812
 30
0.0
 11
22.315058047
 21
-165.6449931812
 31
0.0
  0
LINE
  5
13B
330
1F
100
AcDbEntity
  8
0
  6
CONTINUOUS
 62
     7
100
AcDbLine
 10
175.9001679068
 20
-176.0449904156
 30
0.0
 11
224.7324875836
 21
-176.0449904156
 31
0.0
  0
LINE
  5
13C
330
1F
100
AcDbEntity
  8
0
  6
CONTINUOUS
 62
     7
100
AcDbLine
 10
175.9001679068
 20
-177.6449876976
 30
0.0
 11
224.7324875836
 21
-177.6449876976
 31
0.0
  0
LINE
  5
13D
330
1F
100
AcDbEntity
  8
0
  6
CONTINUOUS
 62
     7
100
AcDbLine
 10
-76.8119104858
 20
-176.0449904156
 30
0.0
 11
-27.9795908089
 21
-176.0449904156
 31
0.0
  0
LINE
  5
13E
330
1F
100
AcDbEntity
  8
0
  6
CONTINUOUS
 62
     7
100
AcDbLine
 10
-76.8119104858
 20
-177.6449876976
 30
0.0
 11
-27.9795908089
 21
-177.6449876976
 31
0.0
  0
LINE
  5
13F
330
1F
100
AcDbEntity
  8
0
  6
CONTINUOUS
 62
     7
100
AcDbLine
 10
174.5545632486
 20
-165.6449931812
 30
0.0
 11
218.2711205726
 21
-165.6449931812
 31
0.0
  0
LINE
  5
140
330
1F
100
AcDbEntity
  8
0
  6
CONTINUOUS
 62
     7
100
AcDbLine
 10
-70.3505434747
 20
-165.6449931812
 30
0.0
 11
-26.6339861508
 21
-165.6449931812
 31
0.0
  0
LINE
  5
141
330
1F
100
AcDbEntity
  8
0
  6
CONTINUOUS
 62
     7
100
AcDbLine
 10
224.7324875836
 20
-176.0449904156
 30
0.0
 11
235.2345130687
 21
-176.0449904156
 31
0.0
  0
LINE
  5
142
330
1F
100
AcDbEntity
  8
0
  6
CONTINUOUS
 62
     7
100
AcDbLine
 10
224.7324875836
 20
-177.6449876976
 30
0.0
 11
235.2345130687
 21
-177.6449876976
 31
0.0
  0
LINE
  5
143
330
1F
100
AcDbEntity
  8
0
  6
CONTINUOUS
 62
     7
100
AcDbLine
 10
-87.3139359708
 20
-176.0449904156
 30
0.0
 11
-76.8119104858
 21
-176.0449904156
 31
0.0
  0
LINE
  5
144
330
1F
100
AcDbEntity
  8
0
  6
CONTINUOUS
 62
     7
100
AcDbLine
 10
-87.3139359708
 20
-177.6449876976
 30
0.0
 11
-76.8119104858
 21
-177.6449876976
 31
0.0
  0
LINE
  5
145
330
1F
100
AcDbEntity
  8
0
  6
CONTINUOUS
 62
     7
100
AcDbLine
 10
218.2711205726
 20
-165.6449931812
 30
0.0
 11
225.9241632466
 21
-165.6449931812
 31
0.0
  0
LINE
  5
146
330
1F
100
AcDbEntity
  8
0
  6
CONTINUOUS
 62
     7
100
AcDbLine
 10
-78.0035861487
 20
-165.6449931812
 30
0.0
 11
-70.3505434747
 21
-165.6449931812
 31
0.0
  0
LINE
  5
147
330
1F
100
AcDbEntity
  8
0
  6
CONTINUOUS
 62
     7
100
AcDbLine
 10
124.5896621888
 20
-165.6262773228
 30
0.0
 11
125.6055190508
 21
-165.6449931812
 31
0.0
  0
LINE
  5
148
330
1F
100
AcDbEntity
  8
0
  6
CONTINUOUS
 62
     7
100
AcDbLine
 10
22.315058047
 20
-165.6449931812
 30
0.0
 11
23.7743436639
 21
-165.6291085434
 31
0.0
  0
LINE
  5
149
330
1F
100
AcDbEntity
  8
0
  6
CONTINUOUS
 62
     7
100
AcDbLine
 10
225.9241632466
 20
-165.6449931812
 30
0.0
 11
226.1183104758
 21
-165.6350988102
 31
0.0
  0
LINE
  5
14A
330
1F
100
AcDbEntity
  8
0
  6
CONTINUOUS
 62
     7
100
AcDbLine
 10
-78.2647289987
 20
-165.6209725094
 30
0.0
 11
-78.0035861487
 21
-165.6449931812
 31
0.0
  0
LINE
  5
14B
330
1F
100
AcDbEntity
  8
0
  6
CONTINUOUS
 62
     7
100
AcDbLine
 10
232.1287096016
 20
68.3707417717
 30
0.0
 11
-83.7984886809
 21
68.3707417717
 31
0.0
  0
LINE
  5
14C
330
1F
100
AcDbEntity
  8
0
  6
CENTERX2
 62
     7
100
AcDbLine
 10
73.9602885489
 20
327.355
 30
0.0
 11
107.6262030522
 21
327.355
 31
0.0
  0
LINE
  5
14D
330
1F
100
AcDbEntity
  8
0
  6
CONTINUOUS
 62
     7
100
AcDbLine
 10
89.9602893089
 20
443.5720244532
 30
0.0
 11
89.9602893089
 21
455.0720254069
 31
0.0
  0
LINE
  5
14E
330
1F
100
AcDbEntity
  8
0
  6
CONTINUOUS
 62
     7
100
AcDbLine
 10
57.960287789
 20
455.0720254069
 30
0.0
 11
57.960287789
 21
443.5720244532
 31
0.0
  0
SPLINE
  5
14F
330
1F
100
AcDbEntity
  8
0
  6
CONTINUOUS
 62
     7
100
AcDbSpline
210
0.0
220
0.0
230
1.0
 70
     8
 71
     3
 72
    13
 73
     9
 74
     0
 42
0.00000001
 43
0.00000001
 40
0.0
 40
0.0
 40
0.0
 40
0.0
 40
0.0193995102456943
 40
0.2805817821470904
 40
0.5317966846317552
 40
0.7707100464051354
 40
0.9933106382108403
 40
1.0
 40
1.0
 40
1.0
 40
1.0
 10
70.360005488714
 20
449.5695183163226
 30
0.0
 10
70.3692316659403
 20
449.570257502658
 30
0.0
 10
70.50267303717997
 20
449.5809486086032
 30
0.0
 10
70.77272363975091
 20
449.5018511635283
 30
0.0
 10
71.10663941996364
 20
449.2751958566337
 30
0.0
 10
71.31375668257135
 20
448.947730692906
 30
0.0
 10
71.39277730076167
 20
448.6890893977505
 30
0.0
 10
71.37285404668853
 20
448.5662021937991
 30
0.0
 10
71.37227280074896
 20
448.5626170521319
 30
0.0
  0
LINE
  5
150
330
1F
100
AcDbEntity
  8
0
  6
CONTINUOUS
 62
     7
100
AcDbLine
 10
71.3741869015
 20
448.572034586
 30
0.0
 11
71.3741869015
 21
443.5720244532
 31
0.0
  0
ARC
  5
151
330
1F
100
AcDbEntity
  8
0
  6
CONTINUOUS
 62
     7
100
AcDbCircle
 10
72.3741869011
 20
443.5720295792
 30
0.0
 40
1.0
100
AcDbArc
 50
180.0
 51
270.0
  0
LINE
  5
152
330
1F
100
AcDbEntity
  8
0
  6
CONTINUOUS
 62
     7
100
AcDbLine
 10
87.9602889811
 20
455.0720254069
 30
0.0
 11
87.9602889811
 21
456.0720274334
 31
0.0
  0
LINE
  5
153
330
1F
100
AcDbEntity
  8
0
  6
CONTINUOUS
 62
     7
100
AcDbLine
 10
59.9602881168
 20
456.0720274334
 30
0.0
 11
59.9602881168
 21
455.0720254069
 31
0.0
  0
ARC
  5
154
330
1F
100
AcDbEntity
  8
0
  6
CONTINUOUS
 62
     7
100
AcDbCircle
 10
88.9602885489
 20
443.5720295792
 30
0.0
 40
1.0
100
AcDbArc
 50
270.0
 51
0.0
  0
ARC
  5
155
330
1F
100
AcDbEntity
  8
0
  6
CONTINUOUS
 62
     7
100
AcDbCircle
 10
58.9602885489
 20
443.5720295792
 30
0.0
 40
1.0
100
AcDbArc
 50
180.0
 51
270.0
  0
LINE
  5
156
330
1F
100
AcDbEntity
  8
0
  6
CONTINUOUS
 62
     7
100
AcDbLine
 10
61.4602883627
 20
457.3720345383
 30
0.0
 11
61.4602883627
 21
456.0720274334
 31
0.0
  0
LINE
  5
157
330
1F
100
AcDbEntity
  8
0
  6
CONTINUOUS
 62
     7
100
AcDbLine
 10
86.4602887352
 20
456.0720274334
 30
0.0
 11
86.4602887352
 21
457.3720345383
 31
0.0
  0
LINE
  5
158
330
1F
100
AcDbEntity
  8
0
  6
CONTINUOUS
 62
     7
100
AcDbLine
 10
35.4602887576
 20
783.2720229512
 30
0.0
 11
35.4602887576
 21
780.0720283871
 31
0.0
  0
LINE
  5
159
330
1F
100
AcDbEntity
  8
0
  6
CONTINUOUS
 62
     7
100
AcDbLine
 10
112.4602883403
 20
780.0720283871
 30
0.0
 11
112.4602883403
 21
783.2720229512
 31
0.0
  0
LINE
  5
15A
330
1F
100
AcDbEntity
  8
0
  6
CONTINUOUS
 62
     7
100
AcDbLine
 10
83.9602883254
 20
457.3720345383
 30
0.0
 11
83.9602883254
 21
461.8720362073
 31
0.0
  0
LINE
  5
15B
330
1F
100
AcDbEntity
  8
0
  6
CONTINUOUS
 62
     7
100
AcDbLine
 10
63.9602887725
 20
461.8720362073
 30
0.0
 11
63.9602887725
 21
457.3720345383
 31
0.0
  0
LINE
  5
15C
330
1F
100
AcDbEntity
  8
0
  6
CONTINUOUS
 62
     7
100
AcDbLine
 10
35.4602887576
 20
465.0720307713
 30
0.0
 11
35.4602887576
 21
461.8720362073
 31
0.0
  0
LINE
  5
15D
330
1F
100
AcDbEntity
  8
0
  6
CONTINUOUS
 62
     7
100
AcDbLine
 10
112.4602883403
 20
461.8720362073
 30
0.0
 11
112.4602883403
 21
465.0720307713
 31
0.0
  0
LINE
  5
15E
330
1F
100
AcDbEntity
  8
0
  6
CONTINUOUS
 62
     7
100
AcDbLine
 10
-102.0397104974
 20
607.0720298325
 30
0.0
 11
-91.5397115703
 21
607.0720298325
 31
0.0
  0
LINE
  5
15F
330
1F
100
AcDbEntity
  8
0
  6
CONTINUOUS
 62
     7
100
AcDbLine
 10
-91.5397115703
 20
638.0720293259
 30
0.0
 11
-102.0397104974
 21
638.0720293259
 31
0.0
  0
LINE
  5
160
330
1F
100
AcDbEntity
  8
0
  6
CONTINUOUS
 62
     7
100
AcDbLine
 10
-83.539710259
 20
661.0720293706
 30
0.0
 11
-91.5397115703
 21
661.0720293706
 31
0.0
  0
LINE
  5
161
330
1F
100
AcDbEntity
  8
0
  6
CONTINUOUS
 62
     7
100
AcDbLine
 10
-91.5397115703
 20
584.0720297878
 30
0.0
 11
-83.539710259
 21
584.0720297878
 31
0.0
  0
LINE
  5
162
330
1F
100
AcDbEntity
  8
0
  6
CONTINUOUS
 62
     7
100
AcDbLine
 10
249.9602875953
 20
638.0720293259
 30
0.0
 11
239.4602886681
 21
638.0720293259
 31
0.0
  0
LINE
  5
163
330
1F
100
AcDbEntity
  8
0
  6
CONTINUOUS
 62
     7
100
AcDbLine
 10
239.4602886681
 20
607.0720298325
 30
0.0
 11
249.9602875953
 21
607.0720298325
 31
0.0
  0
LINE
  5
164
330
1F
100
AcDbEntity
  8
0
  6
CONTINUOUS
 62
     7
100
AcDbLine
 10
239.4602886681
 20
661.0720293706
 30
0.0
 11
231.4602873568
 21
661.0720293706
 31
0.0
  0
LINE
  5
165
330
1F
100
AcDbEntity
  8
0
  6
CONTINUOUS
 62
     7
100
AcDbLine
 10
231.4602873568
 20
584.0720297878
 30
0.0
 11
239.4602886681
 21
584.0720297878
 31
0.0
  0
LINE
  5
166
330
1F
100
AcDbEntity
  8
0
  6
CONTINUOUS
 62
     7
100
AcDbLine
 10
30.123836482
 20
776.8701562768
 30
0.0
 11
28.0183135812
 21
775.103415001
 31
0.0
  0
LINE
  5
167
330
1F
100
AcDbEntity
  8
0
  6
CONTINUOUS
 62
     7
100
AcDbLine
 10
119.9022635167
 20
775.103415001
 30
0.0
 11
117.7967406158
 21
776.8701562768
 31
0.0
  0
LINE
  5
168
330
1F
100
AcDbEntity
  8
0
  6
CONTINUOUS
 62
     7
100
AcDbLine
 10
228.2584152465
 20
666.4084816461
 30
0.0
 11
226.4916739707
 21
668.5140045469
 31
0.0
  0
LINE
  5
169
330
1F
100
AcDbEntity
  8
0
  6
CONTINUOUS
 62
     7
100
AcDbLine
 10
-78.5710968728
 20
668.5140045469
 30
0.0
 11
-80.3378381486
 21
666.4084816461
 31
0.0
  0
LINE
  5
16A
330
1F
100
AcDbEntity
  8
0
  6
CONTINUOUS
 62
     7
100
AcDbLine
 10
226.4916739707
 20
576.6300546115
 30
0.0
 11
228.2584152465
 21
578.7355775123
 31
0.0
  0
LINE
  5
16B
330
1F
100
AcDbEntity
  8
0
  6
CONTINUOUS
 62
     7
100
AcDbLine
 10
-80.3378381486
 20
578.7355775123
 30
0.0
 11
-78.5710968728
 21
576.6300546115
 31
0.0
  0
LINE
  5
16C
330
1F
100
AcDbEntity
  8
0
  6
CONTINUOUS
 62
     7
100
AcDbLine
 10
28.0183135812
 20
470.0406441575
 30
0.0
 11
30.123836482
 21
468.2739028817
 31
0.0
  0
LINE
  5
16D
330
1F
100
AcDbEntity
  8
0
  6
CONTINUOUS
 62
     7
100
AcDbLine
 10
117.7967406158
 20
468.2739028817
 30
0.0
 11
119.9022635167
 21
470.0406441575
 31
0.0
  0
ARC
  5
16E
330
1F
100
AcDbEntity
  8
0
  6
CONTINUOUS
 62
     7
100
AcDbCircle
 10
115.8683778461
 20
774.5720295792
 30
0.0
 40
3.0
100
AcDbArc
 50
50.0
 51
90.0
  0
ARC
  5
16F
330
1F
100
AcDbEntity
  8
0
  6
CONTINUOUS
 62
     7
100
AcDbCircle
 10
32.0521992517
 20
774.5720295792
 30
0.0
 40
2.999999999999977
100
AcDbArc
 50
90.0
 51
130.0
  0
ARC
  5
170
330
1F
100
AcDbEntity
  8
0
  6
CONTINUOUS
 62
     7
100
AcDbCircle
 10
225.9602885489
 20
664.4801188764
 30
0.0
 40
3.0
100
AcDbArc
 50
360.0
 51
40.0
  0
ARC
  5
171
330
1F
100
AcDbEntity
  8
0
  6
CONTINUOUS
 62
     7
100
AcDbCircle
 10
-78.0397114511
 20
664.4801188764
 30
0.0
 40
3.000000000000014
100
AcDbArc
 50
140.0
 51
180.0
  0
ARC
  5
172
330
1F
100
AcDbEntity
  8
0
  6
CONTINUOUS
 62
     7
100
AcDbCircle
 10
-78.0397114511
 20
580.663940282
 30
0.0
 40
3.0
100
AcDbArc
 50
180.0
 51
220.0
  0
ARC
  5
173
330
1F
100
AcDbEntity
  8
0
  6
CONTINUOUS
 62
     7
100
AcDbCircle
 10
225.9602885489
 20
580.663940282
 30
0.0
 40
3.000000000000028
100
AcDbArc
 50
320.0
 51
0.0
  0
ARC
  5
174
330
1F
100
AcDbEntity
  8
0
  6
CONTINUOUS
 62
     7
100
AcDbCircle
 10
115.8683778461
 20
470.5720295792
 30
0.0
 40
3.000000000000032
100
AcDbArc
 50
270.0
 51
310.0
  0
ARC
  5
175
330
1F
100
AcDbEntity
  8
0
  6
CONTINUOUS
 62
     7
100
AcDbCircle
 10
32.0521992517
 20
470.5720295792
 30
0.0
 40
3.000000000000027
100
AcDbArc
 50
230.0
 51
270.0
  0
CIRCLE
  5
176
330
1F
100
AcDbEntity
  8
0
  6
CONTINUOUS
 62
     7
100
AcDbCircle
 10
73.9602885489
 20
622.5720295792
 30
0.0
 40
154.9999999999999
  0
SPLINE
  5
177
330
1F
100
AcDbEntity
  8
0
  6
CONTINUOUS
 62
     7
100
AcDbSpline
210
0.0
220
0.0
230
1.0
 70
     8
 71
     3
 72
     9
 73
     5
 74
     0
 42
0.00000001
 43
0.00000001
 40
0.0
 40
0.0
 40
0.0
 40
0.0
 40
0.6897912660612949
 40
1.0
 40
1.0
 40
1.0
 40
1.0
 10
-3.093869304186398
 20
757.0623854284831
 30
0.0
 10
-3.153903341814923
 20
757.0596883246308
 30
0.0
 10
-3.240935521812385
 20
757.0557782956337
 30
0.0
 10
-3.33954107753856
 20
757.2370475998263
 30
0.0
 10
-3.370129382139736
 20
757.2932789211818
 30
0.0
  0
SPLINE
  5
178
330
1F
100
AcDbEntity
  8
0
  6
CONTINUOUS
 62
     7
100
AcDbSpline
210
0.0
220
0.0
230
1.0
 70
     8
 71
     3
 72
     9
 73
     5
 74
     0
 42
0.00000001
 43
0.00000001
 40
0.0
 40
0.0
 40
0.0
 40
0.0
 40
0.689789049441934
 40
1.0
 40
1.0
 40
1.0
 40
1.0
 10
10.89814224290231
 20
764.5332018023081
 30
0.0
 10
10.94711823145336
 20
764.4142134003957
 30
0.0
 10
11.01811963194052
 20
764.2417137035555
 30
0.0
 10
10.94425650248172
 20
764.1899596711803
 30
0.0
 10
10.92134335088113
 20
764.173905003602
 30
0.0
  0
SPLINE
  5
179
330
1F
100
AcDbEntity
  8
0
  6
CONTINUOUS
 62
     7
100
AcDbSpline
210
0.0
220
0.0
230
1.0
 70
     8
 71
     3
 72
    11
 73
     7
 74
     0
 42
0.00000001
 43
0.00000001
 40
0.0
 40
0.0
 40
0.0
 40
0.0
 40
0.1882777901159909
 40
0.3933047030150317
 40
0.719372495977913
 40
1.0
 40
1.0
 40
1.0
 40
1.0
 10
9.615591848367272
 20
767.0608112698145
 30
0.0
 10
9.717242987033872
 20
766.8604818514278
 30
0.0
 10
9.92958811217995
 20
766.4420017834645
 30
0.0
 10
10.29174309418837
 20
765.7282756105833
 30
0.0
 10
10.65333563648438
 20
765.015654433157
 30
0.0
 10
10.82071893444093
 20
764.6857837910165
 30
0.0
 10
10.89814224290231
 20
764.5332018023081
 30
0.0
  0
SPLINE
  5
17A
330
1F
100
AcDbEntity
  8
0
  6
CONTINUOUS
 62
     7
100
AcDbSpline
210
0.0
220
0.0
230
1.0
 70
     8
 71
     3
 72
    12
 73
     8
 74
     0
 42
0.00000001
 43
0.00000001
 40
0.0
 40
0.0
 40
0.0
 40
0.0
 40
0.0782876642680373
 40
0.403923540255629
 40
0.6074702281560249
 40
0.9341304400889888
 40
1.0
 40
1.0
 40
1.0
 40
1.0
 10
-3.370129382139736
 20
757.2932789211818
 30
0.0
 10
-3.389358818229493
 20
757.3311734163124
 30
0.0
 10
-3.488572685128061
 20
757.5266892587182
 30
0.0
 10
-3.707045840070144
 20
757.9572423674947
 30
0.0
 10
-4.091265393240715
 20
758.7144822662201
 30
0.0
 10
-4.405072785079761
 20
759.3329082079764
 30
0.0
 10
-4.617099961353468
 20
759.7507682172087
 30
0.0
 10
-4.652679776674773
 20
759.8208883886882
 30
0.0
  0
ARC
  5
17B
330
1F
100
AcDbEntity
  8
0
  6
CONTINUOUS
 62
     7
100
AcDbCircle
 10
73.9602885489
 20
622.5720295792
 30
0.0
 40
159.3000000000001
100
AcDbArc
 50
119.7824696402
 51
114.0252929524
  0
SPLINE
  5
17C
330
1F
100
AcDbEntity
  8
0
  6
CONTINUOUS
 62
     7
100
AcDbSpline
210
0.0
220
0.0
230
1.0
 70
     8
 71
     3
 72
    12
 73
     8
 74
     0
 42
0.00000001
 43
0.00000001
 40
0.0
 40
0.0
 40
0.0
 40
0.0
 40
0.191848807577401
 40
0.42064029662831
 40
0.5641333841764306
 40
0.7922291798015298
 40
0.9999999999999999
 40
0.9999999999999999
 40
0.9999999999999999
 40
0.9999999999999999
 10
9.615591848367272
 20
767.0608112698145
 30
0.0
 10
9.562899856835477
 20
767.1646573923715
 30
0.0
 10
9.447369428329022
 20
767.3923463957469
 30
0.0
 10
9.31095058466659
 20
767.6612011623989
 30
0.0
 10
9.197285768159064
 20
767.8851947944983
 30
0.0
 10
9.118940932343001
 20
768.0396160290135
 30
0.0
 10
9.108079819492701
 20
768.0610040632589
 30
0.0
 10
9.102902496331764
 20
768.0711994057245
 30
0.0
  0
SPLINE
  5
17D
330
1F
100
AcDbEntity
  8
0
  6
CONTINUOUS
 62
     7
100
AcDbSpline
210
0.0
220
0.0
230
1.0
 70
     8
 71
     3
 72
    13
 73
     9
 74
     0
 42
0.00000001
 43
0.00000001
 40
0.0
 40
0.0
 40
0.0
 40
0.0
 40
0.0661430246903934
 40
0.2940620312128701
 40
0.4362925971393276
 40
0.6647306909746158
 40
0.8931532748682859
 40
0.9999999999999999
 40
0.9999999999999999
 40
0.9999999999999999
 40
0.9999999999999999
 10
-5.165361678129685
 20
760.8312765245983
 30
0.0
 10
-5.164809624702365
 20
760.8301930029014
 30
0.0
 10
-5.162355277430864
 20
760.8253758269024
 30
0.0
 10
-5.128624204191926
 20
760.7588603642205
 30
0.0
 10
-5.043067000880017
 20
760.5902821518715
 30
0.0
 10
-4.919841281706111
 20
760.3473925077777
 30
0.0
 10
-4.774279895148573
 20
760.060555898873
 30
0.0
 10
-4.682067026696879
 20
759.8788091303156
 30
0.0
 10
-4.652679776674773
 20
759.8208883886882
 30
0.0
  0
LINE
  5
17E
330
1F
100
AcDbEntity
  8
0
  6
CONTINUOUS
 62
     7
100
AcDbLine
 10
89.9602893089
 20
455.0720254069
 30
0.0
 11
57.960287789
 21
455.0720254069
 31
0.0
  0
LINE
  5
17F
330
1F
100
AcDbEntity
  8
0
  6
CONTINUOUS
 62
     7
100
AcDbLine
 10
75.6249085582
 20
442.5720224267
 30
0.0
 11
72.374186949
 21
442.5720224267
 31
0.0
  0
LINE
  5
180
330
1F
100
AcDbEntity
  8
0
  6
CONTINUOUS
 62
     7
100
AcDbLine
 10
70.3565472552
 20
449.5720366126
 30
0.0
 11
59.399620751
 21
449.5720366126
 31
0.0
  0
LINE
  5
181
330
1F
100
AcDbEntity
  8
0
  6
CONTINUOUS
 62
     7
100
AcDbLine
 10
88.412102433
 20
449.5720366126
 30
0.0
 11
77.9783815426
 21
449.5720366126
 31
0.0
  0
LINE
  5
182
330
1F
100
AcDbEntity
  8
0
  6
CONTINUOUS
 62
     7
100
AcDbLine
 10
77.7599745245
 20
442.5720224267
 30
0.0
 11
75.6249085582
 21
442.5720224267
 31
0.0
  0
LINE
  5
183
330
1F
100
AcDbEntity
  8
0
  6
CONTINUOUS
 62
     7
100
AcDbLine
 10
87.9602889811
 20
456.0720274334
 30
0.0
 11
59.9602881168
 21
456.0720274334
 31
0.0
  0
LINE
  5
184
330
1F
100
AcDbEntity
  8
0
  6
CONTINUOUS
 62
     7
100
AcDbLine
 10
83.7131320779
 20
442.5720224267
 30
0.0
 11
77.7599745245
 21
442.5720224267
 31
0.0
  0
LINE
  5
185
330
1F
100
AcDbEntity
  8
0
  6
CONTINUOUS
 62
     7
100
AcDbLine
 10
88.86763745
 20
442.5720224267
 30
0.0
 11
83.7131320779
 21
442.5720224267
 31
0.0
  0
ARC
  5
186
330
1F
100
AcDbEntity
  8
0
  6
CONTINUOUS
 62
     7
100
AcDbCircle
 10
59.047208362
 20
443.5692434689
 30
0.0
 40
0.9972250482684618
100
AcDbArc
 50
179.8402177391
 51
269.837594733
  0
LINE
  5
187
330
1F
100
AcDbEntity
  8
0
  6
CONTINUOUS
 62
     7
100
AcDbLine
 10
65.3554956709
 20
442.5720224267
 30
0.0
 11
59.0443817248
 21
442.5720224267
 31
0.0
  0
LINE
  5
188
330
1F
100
AcDbEntity
  8
0
  6
CONTINUOUS
 62
     7
100
AcDbLine
 10
88.9602882137
 20
442.5720224267
 30
0.0
 11
88.86763745
 21
442.5720224267
 31
0.0
  0
LINE
  5
189
330
1F
100
AcDbEntity
  8
0
  6
CONTINUOUS
 62
     7
100
AcDbLine
 10
59.0443817248
 20
442.5720224267
 30
0.0
 11
58.9602888842
 21
442.5720224267
 31
0.0
  0
LINE
  5
18A
330
1F
100
AcDbEntity
  8
0
  6
CONTINUOUS
 62
     7
100
AcDbLine
 10
72.374186949
 20
442.5720224267
 30
0.0
 11
65.3554956709
 21
442.5720224267
 31
0.0
  0
LINE
  5
18B
330
1F
100
AcDbEntity
  8
0
  6
CONTINUOUS
 62
     7
100
AcDbLine
 10
61.4602883627
 20
457.3720345383
 30
0.0
 11
86.4602887352
 21
457.3720345383
 31
0.0
  0
LINE
  5
18C
330
1F
100
AcDbEntity
  8
0
  6
CONTINUOUS
 62
     7
100
AcDbLine
 10
110.4602880125
 20
454.8720369225
 30
0.0
 11
110.4602880125
 21
461.8720362073
 31
0.0
  0
LINE
  5
18D
330
1F
100
AcDbEntity
  8
0
  6
CONTINUOUS
 62
     7
100
AcDbLine
 10
110.4602880125
 20
454.8720369225
 30
0.0
 11
103.9602878784
 21
454.8720369225
 31
0.0
  0
LINE
  5
18E
330
1F
100
AcDbEntity
  8
0
  6
CONTINUOUS
 62
     7
100
AcDbLine
 10
103.9602878784
 20
454.8720369225
 30
0.0
 11
103.9602878784
 21
461.8720362073
 31
0.0
  0
LINE
  5
18F
330
1F
100
AcDbEntity
  8
0
  6
CONTINUOUS
 62
     7
100
AcDbLine
 10
103.9602878784
 20
454.8720369225
 30
0.0
 11
97.4602877443
 21
454.8720369225
 31
0.0
  0
LINE
  5
190
330
1F
100
AcDbEntity
  8
0
  6
CONTINUOUS
 62
     7
100
AcDbLine
 10
97.4602877443
 20
454.8720369225
 30
0.0
 11
97.4602877443
 21
461.8720362073
 31
0.0
  0
LINE
  5
191
330
1F
100
AcDbEntity
  8
0
  6
CONTINUOUS
 62
     7
100
AcDbLine
 10
246.4602879529
 20
599.0720303839
 30
0.0
 11
239.4602886681
 21
599.0720303839
 31
0.0
  0
LINE
  5
192
330
1F
100
AcDbEntity
  8
0
  6
CONTINUOUS
 62
     7
100
AcDbLine
 10
246.4602879529
 20
599.0720303839
 30
0.0
 11
246.4602879529
 21
592.5720302498
 31
0.0
  0
LINE
  5
193
330
1F
100
AcDbEntity
  8
0
  6
CONTINUOUS
 62
     7
100
AcDbLine
 10
246.4602879529
 20
592.5720302498
 30
0.0
 11
239.4602886681
 21
592.5720302498
 31
0.0
  0
LINE
  5
194
330
1F
100
AcDbEntity
  8
0
  6
CONTINUOUS
 62
     7
100
AcDbLine
 10
246.4602879529
 20
586.0720301157
 30
0.0
 11
239.4602886681
 21
586.0720301157
 31
0.0
  0
LINE
  5
195
330
1F
100
AcDbEntity
  8
0
  6
CONTINUOUS
 62
     7
100
AcDbLine
 10
246.4602879529
 20
592.5720302498
 30
0.0
 11
246.4602879529
 21
586.0720301157
 31
0.0
  0
LINE
  5
196
330
1F
100
AcDbEntity
  8
0
  6
CONTINUOUS
 62
     7
100
AcDbLine
 10
246.4602879529
 20
659.0720290428
 30
0.0
 11
239.4602886681
 21
659.0720290428
 31
0.0
  0
LINE
  5
197
330
1F
100
AcDbEntity
  8
0
  6
CONTINUOUS
 62
     7
100
AcDbLine
 10
246.4602879529
 20
652.5720289087
 30
0.0
 11
239.4602886681
 21
652.5720289087
 31
0.0
  0
LINE
  5
198
330
1F
100
AcDbEntity
  8
0
  6
CONTINUOUS
 62
     7
100
AcDbLine
 10
246.4602879529
 20
659.0720290428
 30
0.0
 11
246.4602879529
 21
652.5720289087
 31
0.0
  0
LINE
  5
199
330
1F
100
AcDbEntity
  8
0
  6
CONTINUOUS
 62
     7
100
AcDbLine
 10
246.4602879529
 20
646.0720287746
 30
0.0
 11
239.4602886681
 21
646.0720287746
 31
0.0
  0
LINE
  5
19A
330
1F
100
AcDbEntity
  8
0
  6
CONTINUOUS
 62
     7
100
AcDbLine
 10
246.4602879529
 20
652.5720289087
 30
0.0
 11
246.4602879529
 21
646.0720287746
 31
0.0
  0
LINE
  5
19B
330
1F
100
AcDbEntity
  8
0
  6
CONTINUOUS
 62
     7
100
AcDbLine
 10
97.4602877443
 20
790.2720222359
 30
0.0
 11
97.4602877443
 21
783.2720229512
 31
0.0
  0
LINE
  5
19C
330
1F
100
AcDbEntity
  8
0
  6
CONTINUOUS
 62
     7
100
AcDbLine
 10
97.4602877443
 20
790.2720222359
 30
0.0
 11
103.9602878784
 21
790.2720222359
 31
0.0
  0
LINE
  5
19D
330
1F
100
AcDbEntity
  8
0
  6
CONTINUOUS
 62
     7
100
AcDbLine
 10
103.9602878784
 20
790.2720222359
 30
0.0
 11
103.9602878784
 21
783.2720229512
 31
0.0
  0
LINE
  5
19E
330
1F
100
AcDbEntity
  8
0
  6
CONTINUOUS
 62
     7
100
AcDbLine
 10
110.4602880125
 20
790.2720222359
 30
0.0
 11
110.4602880125
 21
783.2720229512
 31
0.0
  0
LINE
  5
19F
330
1F
100
AcDbEntity
  8
0
  6
CONTINUOUS
 62
     7
100
AcDbLine
 10
103.9602878784
 20
790.2720222359
 30
0.0
 11
110.4602880125
 21
790.2720222359
 31
0.0
  0
LINE
  5
1A0
330
1F
100
AcDbEntity
  8
0
  6
CONTINUOUS
 62
     7
100
AcDbLine
 10
43.9602892195
 20
790.2720222359
 30
0.0
 11
43.9602892195
 21
783.2720229512
 31
0.0
  0
LINE
  5
1A1
330
1F
100
AcDbEntity
  8
0
  6
CONTINUOUS
 62
     7
100
AcDbLine
 10
50.4602893536
 20
790.2720222359
 30
0.0
 11
50.4602893536
 21
783.2720229512
 31
0.0
  0
LINE
  5
1A2
330
1F
100
AcDbEntity
  8
0
  6
CONTINUOUS
 62
     7
100
AcDbLine
 10
43.9602892195
 20
790.2720222359
 30
0.0
 11
50.4602893536
 21
790.2720222359
 31
0.0
  0
LINE
  5
1A3
330
1F
100
AcDbEntity
  8
0
  6
CONTINUOUS
 62
     7
100
AcDbLine
 10
37.4602890854
 20
790.2720222359
 30
0.0
 11
37.4602890854
 21
783.2720229512
 31
0.0
  0
LINE
  5
1A4
330
1F
100
AcDbEntity
  8
0
  6
CONTINUOUS
 62
     7
100
AcDbLine
 10
37.4602890854
 20
790.2720222359
 30
0.0
 11
43.9602892195
 21
790.2720222359
 31
0.0
  0
LINE
  5
1A5
330
1F
100
AcDbEntity
  8
0
  6
CONTINUOUS
 62
     7
100
AcDbLine
 10
-98.539710855
 20
592.5720302498
 30
0.0
 11
-91.5397115703
 21
592.5720302498
 31
0.0
  0
LINE
  5
1A6
330
1F
100
AcDbEntity
  8
0
  6
CONTINUOUS
 62
     7
100
AcDbLine
 10
-98.539710855
 20
599.0720303839
 30
0.0
 11
-91.5397115703
 21
599.0720303839
 31
0.0
  0
LINE
  5
1A7
330
1F
100
AcDbEntity
  8
0
  6
CONTINUOUS
 62
     7
100
AcDbLine
 10
-98.539710855
 20
592.5720302498
 30
0.0
 11
-98.539710855
 21
599.0720303839
 31
0.0
  0
LINE
  5
1A8
330
1F
100
AcDbEntity
  8
0
  6
CONTINUOUS
 62
     7
100
AcDbLine
 10
-98.539710855
 20
586.0720301157
 30
0.0
 11
-91.5397115703
 21
586.0720301157
 31
0.0
  0
LINE
  5
1A9
330
1F
100
AcDbEntity
  8
0
  6
CONTINUOUS
 62
     7
100
AcDbLine
 10
-98.539710855
 20
586.0720301157
 30
0.0
 11
-98.539710855
 21
592.5720302498
 31
0.0
  0
LINE
  5
1AA
330
1F
100
AcDbEntity
  8
0
  6
CONTINUOUS
 62
     7
100
AcDbLine
 10
43.9602892195
 20
454.8720369225
 30
0.0
 11
43.9602892195
 21
461.8720362073
 31
0.0
  0
LINE
  5
1AB
330
1F
100
AcDbEntity
  8
0
  6
CONTINUOUS
 62
     7
100
AcDbLine
 10
43.9602892195
 20
454.8720369225
 30
0.0
 11
37.4602890854
 21
454.8720369225
 31
0.0
  0
LINE
  5
1AC
330
1F
100
AcDbEntity
  8
0
  6
CONTINUOUS
 62
     7
100
AcDbLine
 10
37.4602890854
 20
454.8720369225
 30
0.0
 11
37.4602890854
 21
461.8720362073
 31
0.0
  0
LINE
  5
1AD
330
1F
100
AcDbEntity
  8
0
  6
CONTINUOUS
 62
     7
100
AcDbLine
 10
50.4602893536
 20
454.8720369225
 30
0.0
 11
50.4602893536
 21
461.8720362073
 31
0.0
  0
LINE
  5
1AE
330
1F
100
AcDbEntity
  8
0
  6
CONTINUOUS
 62
     7
100
AcDbLine
 10
50.4602893536
 20
454.8720369225
 30
0.0
 11
43.9602892195
 21
454.8720369225
 31
0.0
  0
LINE
  5
1AF
330
1F
100
AcDbEntity
  8
0
  6
CONTINUOUS
 62
     7
100
AcDbLine
 10
-98.539710855
 20
652.5720289087
 30
0.0
 11
-91.5397115703
 21
652.5720289087
 31
0.0
  0
LINE
  5
1B0
330
1F
100
AcDbEntity
  8
0
  6
CONTINUOUS
 62
     7
100
AcDbLine
 10
-98.539710855
 20
652.5720289087
 30
0.0
 11
-98.539710855
 21
659.0720290428
 31
0.0
  0
LINE
  5
1B1
330
1F
100
AcDbEntity
  8
0
  6
CONTINUOUS
 62
     7
100
AcDbLine
 10
-98.539710855
 20
659.0720290428
 30
0.0
 11
-91.5397115703
 21
659.0720290428
 31
0.0
  0
LINE
  5
1B2
330
1F
100
AcDbEntity
  8
0
  6
CONTINUOUS
 62
     7
100
AcDbLine
 10
-98.539710855
 20
646.0720287746
 30
0.0
 11
-91.5397115703
 21
646.0720287746
 31
0.0
  0
LINE
  5
1B3
330
1F
100
AcDbEntity
  8
0
  6
CONTINUOUS
 62
     7
100
AcDbLine
 10
-98.539710855
 20
646.0720287746
 30
0.0
 11
-98.539710855
 21
652.5720289087
 31
0.0
  0
LINE
  5
1B4
330
1F
100
AcDbEntity
  8
0
  6
CONTINUOUS
 62
     7
100
AcDbLine
 10
66.9427445439
 20
783.2720229512
 30
0.0
 11
80.977832554
 21
783.2720229512
 31
0.0
  0
LINE
  5
1B5
330
1F
100
AcDbEntity
  8
0
  6
CONTINUOUS
 62
     7
100
AcDbLine
 10
41.9515176957
 20
780.0720283871
 30
0.0
 11
50.0805891399
 21
780.0720283871
 31
0.0
  0
LINE
  5
1B6
330
1F
100
AcDbEntity
  8
0
  6
CONTINUOUS
 62
     7
100
AcDbLine
 10
41.9515176957
 20
783.2720229512
 30
0.0
 11
66.9427445439
 21
783.2720229512
 31
0.0
  0
LINE
  5
1B7
330
1F
100
AcDbEntity
  8
0
  6
CONTINUOUS
 62
     7
100
AcDbLine
 10
97.8399879579
 20
780.0720283871
 30
0.0
 11
105.9690594022
 21
780.0720283871
 31
0.0
  0
LINE
  5
1B8
330
1F
100
AcDbEntity
  8
0
  6
CONTINUOUS
 62
     7
100
AcDbLine
 10
80.977832554
 20
783.2720229512
 30
0.0
 11
105.9690594022
 21
783.2720229512
 31
0.0
  0
LINE
  5
1B9
330
1F
100
AcDbEntity
  8
0
  6
CONTINUOUS
 62
     7
100
AcDbLine
 10
35.4602887576
 20
780.0720283871
 30
0.0
 11
41.9515176957
 21
780.0720283871
 31
0.0
  0
LINE
  5
1BA
330
1F
100
AcDbEntity
  8
0
  6
CONTINUOUS
 62
     7
100
AcDbLine
 10
35.4602887576
 20
783.2720229512
 30
0.0
 11
41.9515176957
 21
783.2720229512
 31
0.0
  0
LINE
  5
1BB
330
1F
100
AcDbEntity
  8
0
  6
CONTINUOUS
 62
     7
100
AcDbLine
 10
105.9690594022
 20
780.0720283871
 30
0.0
 11
112.4602883403
 21
780.0720283871
 31
0.0
  0
LINE
  5
1BC
330
1F
100
AcDbEntity
  8
0
  6
CONTINUOUS
 62
     7
100
AcDbLine
 10
105.9690594022
 20
783.2720229512
 30
0.0
 11
112.4602883403
 21
783.2720229512
 31
0.0
  0
LINE
  5
1BD
330
1F
100
AcDbEntity
  8
0
  6
CONTINUOUS
 62
     7
100
AcDbLine
 10
66.9427445439
 20
461.8720362073
 30
0.0
 11
80.977832554
 21
461.8720362073
 31
0.0
  0
LINE
  5
1BE
330
1F
100
AcDbEntity
  8
0
  6
CONTINUOUS
 62
     7
100
AcDbLine
 10
105.9690594022
 20
465.0720307713
 30
0.0
 11
97.8399879579
 21
465.0720307713
 31
0.0
  0
LINE
  5
1BF
330
1F
100
AcDbEntity
  8
0
  6
CONTINUOUS
 62
     7
100
AcDbLine
 10
80.977832554
 20
461.8720362073
 30
0.0
 11
105.9690594022
 21
461.8720362073
 31
0.0
  0
LINE
  5
1C0
330
1F
100
AcDbEntity
  8
0
  6
CONTINUOUS
 62
     7
100
AcDbLine
 10
50.0805891399
 20
465.0720307713
 30
0.0
 11
41.9515176957
 21
465.0720307713
 31
0.0
  0
LINE
  5
1C1
330
1F
100
AcDbEntity
  8
0
  6
CONTINUOUS
 62
     7
100
AcDbLine
 10
41.9515176957
 20
461.8720362073
 30
0.0
 11
66.9427445439
 21
461.8720362073
 31
0.0
  0
LINE
  5
1C2
330
1F
100
AcDbEntity
  8
0
  6
CONTINUOUS
 62
     7
100
AcDbLine
 10
41.9515176957
 20
465.0720307713
 30
0.0
 11
35.4602887576
 21
465.0720307713
 31
0.0
  0
LINE
  5
1C3
330
1F
100
AcDbEntity
  8
0
  6
CONTINUOUS
 62
     7
100
AcDbLine
 10
35.4602887576
 20
461.8720362073
 30
0.0
 11
41.9515176957
 21
461.8720362073
 31
0.0
  0
LINE
  5
1C4
330
1F
100
AcDbEntity
  8
0
  6
CONTINUOUS
 62
     7
100
AcDbLine
 10
112.4602883403
 20
465.0720307713
 30
0.0
 11
105.9690594022
 21
465.0720307713
 31
0.0
  0
LINE
  5
1C5
330
1F
100
AcDbEntity
  8
0
  6
CONTINUOUS
 62
     7
100
AcDbLine
 10
105.9690594022
 20
461.8720362073
 30
0.0
 11
112.4602883403
 21
461.8720362073
 31
0.0
  0
LINE
  5
1C6
330
1F
100
AcDbEntity
  8
0
  6
CONTINUOUS
 62
     7
100
AcDbLine
 10
-91.5397115703
 20
629.5895735843
 30
0.0
 11
-91.5397115703
 21
615.5544855742
 31
0.0
  0
LINE
  5
1C7
330
1F
100
AcDbEntity
  8
0
  6
CONTINUOUS
 62
     7
100
AcDbLine
 10
-83.539710259
 20
646.4517289882
 30
0.0
 11
-83.539710259
 21
654.5808004325
 31
0.0
  0
LINE
  5
1C8
330
1F
100
AcDbEntity
  8
0
  6
CONTINUOUS
 62
     7
100
AcDbLine
 10
-91.5397115703
 20
654.5808004325
 30
0.0
 11
-91.5397115703
 21
629.5895735843
 31
0.0
  0
LINE
  5
1C9
330
1F
100
AcDbEntity
  8
0
  6
CONTINUOUS
 62
     7
100
AcDbLine
 10
-83.539710259
 20
590.5632587259
 30
0.0
 11
-83.539710259
 21
598.6923301702
 31
0.0
  0
LINE
  5
1CA
330
1F
100
AcDbEntity
  8
0
  6
CONTINUOUS
 62
     7
100
AcDbLine
 10
-91.5397115703
 20
615.5544855742
 30
0.0
 11
-91.5397115703
 21
590.5632587259
 31
0.0
  0
LINE
  5
1CB
330
1F
100
AcDbEntity
  8
0
  6
CONTINUOUS
 62
     7
100
AcDbLine
 10
-102.0397104974
 20
607.0720298325
 30
0.0
 11
-102.0397104974
 21
638.0720293259
 31
0.0
  0
LINE
  5
1CC
330
1F
100
AcDbEntity
  8
0
  6
CONTINUOUS
 62
     7
100
AcDbLine
 10
-83.539710259
 20
654.5808004325
 30
0.0
 11
-83.539710259
 21
661.0720293706
 31
0.0
  0
LINE
  5
1CD
330
1F
100
AcDbEntity
  8
0
  6
CONTINUOUS
 62
     7
100
AcDbLine
 10
-91.5397115703
 20
661.0720293706
 30
0.0
 11
-91.5397115703
 21
654.5808004325
 31
0.0
  0
LINE
  5
1CE
330
1F
100
AcDbEntity
  8
0
  6
CONTINUOUS
 62
     7
100
AcDbLine
 10
-83.539710259
 20
584.0720297878
 30
0.0
 11
-83.539710259
 21
590.5632587259
 31
0.0
  0
LINE
  5
1CF
330
1F
100
AcDbEntity
  8
0
  6
CONTINUOUS
 62
     7
100
AcDbLine
 10
-91.5397115703
 20
590.5632587259
 30
0.0
 11
-91.5397115703
 21
584.0720297878
 31
0.0
  0
LINE
  5
1D0
330
1F
100
AcDbEntity
  8
0
  6
CONTINUOUS
 62
     7
100
AcDbLine
 10
239.4602886681
 20
615.5544855741
 30
0.0
 11
239.4602886681
 21
629.5895735843
 31
0.0
  0
LINE
  5
1D1
330
1F
100
AcDbEntity
  8
0
  6
CONTINUOUS
 62
     7
100
AcDbLine
 10
239.4602886681
 20
629.5895735843
 30
0.0
 11
239.4602886681
 21
654.5808004325
 31
0.0
  0
LINE
  5
1D2
330
1F
100
AcDbEntity
  8
0
  6
CONTINUOUS
 62
     7
100
AcDbLine
 10
231.4602873568
 20
654.5808004325
 30
0.0
 11
231.4602873568
 21
646.4517289882
 31
0.0
  0
LINE
  5
1D3
330
1F
100
AcDbEntity
  8
0
  6
CONTINUOUS
 62
     7
100
AcDbLine
 10
239.4602886681
 20
590.5632587259
 30
0.0
 11
239.4602886681
 21
615.5544855741
 31
0.0
  0
LINE
  5
1D4
330
1F
100
AcDbEntity
  8
0
  6
CONTINUOUS
 62
     7
100
AcDbLine
 10
231.4602873568
 20
598.6923301702
 30
0.0
 11
231.4602873568
 21
590.5632587259
 31
0.0
  0
LINE
  5
1D5
330
1F
100
AcDbEntity
  8
0
  6
CONTINUOUS
 62
     7
100
AcDbLine
 10
249.9602875953
 20
638.0720293259
 30
0.0
 11
249.9602875953
 21
607.0720298325
 31
0.0
  0
LINE
  5
1D6
330
1F
100
AcDbEntity
  8
0
  6
CONTINUOUS
 62
     7
100
AcDbLine
 10
239.4602886681
 20
654.5808004325
 30
0.0
 11
239.4602886681
 21
661.0720293706
 31
0.0
  0
LINE
  5
1D7
330
1F
100
AcDbEntity
  8
0
  6
CONTINUOUS
 62
     7
100
AcDbLine
 10
231.4602873568
 20
661.0720293706
 30
0.0
 11
231.4602873568
 21
654.5808004325
 31
0.0
  0
LINE
  5
1D8
330
1F
100
AcDbEntity
  8
0
  6
CONTINUOUS
 62
     7
100
AcDbLine
 10
239.4602886681
 20
584.0720297878
 30
0.0
 11
239.4602886681
 21
590.5632587259
 31
0.0
  0
LINE
  5
1D9
330
1F
100
AcDbEntity
  8
0
  6
CONTINUOUS
 62
     7
100
AcDbLine
 10
231.4602873568
 20
590.5632587259
 30
0.0
 11
231.4602873568
 21
584.0720297878
 31
0.0
  0
LINE
  5
1DA
330
1F
100
AcDbEntity
  8
0
  6
CONTINUOUS
 62
     7
100
AcDbLine
 10
36.9602880721
 20
467.0720348244
 30
0.0
 11
36.9602880721
 21
465.0720307713
 31
0.0
  0
LINE
  5
1DB
330
1F
100
AcDbEntity
  8
0
  6
CONTINUOUS
 62
     7
100
AcDbLine
 10
36.9602880721
 20
467.0720348244
 30
0.0
 11
39.3735870068
 21
467.0720348244
 31
0.0
  0
LINE
  5
1DC
330
1F
100
AcDbEntity
  8
0
  6
CONTINUOUS
 62
     7
100
AcDbLine
 10
36.9602880721
 20
465.0720307713
 30
0.0
 11
41.9515176957
 21
465.0720307713
 31
0.0
  0
LINE
  5
1DD
330
1F
100
AcDbEntity
  8
0
  6
CONTINUOUS
 62
     7
100
AcDbLine
 10
110.9602890258
 20
467.0720348244
 30
0.0
 11
110.9602890258
 21
465.0720307713
 31
0.0
  0
LINE
  5
1DE
330
1F
100
AcDbEntity
  8
0
  6
CONTINUOUS
 62
     7
100
AcDbLine
 10
108.5469900911
 20
467.0720348244
 30
0.0
 11
110.9602890258
 21
467.0720348244
 31
0.0
  0
LINE
  5
1DF
330
1F
100
AcDbEntity
  8
0
  6
CONTINUOUS
 62
     7
100
AcDbLine
 10
105.9690594022
 20
465.0720307713
 30
0.0
 11
110.9602890258
 21
465.0720307713
 31
0.0
  0
LINE
  5
1E0
330
1F
100
AcDbEntity
  8
0
  6
CONTINUOUS
 62
     7
100
AcDbLine
 10
-81.5397062059
 20
659.5720300561
 30
0.0
 11
-83.539710259
 21
659.5720300561
 31
0.0
  0
LINE
  5
1E1
330
1F
100
AcDbEntity
  8
0
  6
CONTINUOUS
 62
     7
100
AcDbLine
 10
-83.539710259
 20
659.5720300561
 30
0.0
 11
-83.539710259
 21
654.5808004325
 31
0.0
  0
LINE
  5
1E2
330
1F
100
AcDbEntity
  8
0
  6
CONTINUOUS
 62
     7
100
AcDbLine
 10
-81.5397062059
 20
659.5720300561
 30
0.0
 11
-81.5397062059
 21
657.1587311214
 31
0.0
  0
LINE
  5
1E3
330
1F
100
AcDbEntity
  8
0
  6
CONTINUOUS
 62
     7
100
AcDbLine
 10
-81.5397062059
 20
585.5720291024
 30
0.0
 11
-83.539710259
 21
585.5720291024
 31
0.0
  0
LINE
  5
1E4
330
1F
100
AcDbEntity
  8
0
  6
CONTINUOUS
 62
     7
100
AcDbLine
 10
-83.539710259
 20
590.5632587259
 30
0.0
 11
-83.539710259
 21
585.5720291024
 31
0.0
  0
LINE
  5
1E5
330
1F
100
AcDbEntity
  8
0
  6
CONTINUOUS
 62
     7
100
AcDbLine
 10
-81.5397062059
 20
587.9853280371
 30
0.0
 11
-81.5397062059
 21
585.5720291024
 31
0.0
  0
LINE
  5
1E6
330
1F
100
AcDbEntity
  8
0
  6
CONTINUOUS
 62
     7
100
AcDbLine
 10
231.4602873568
 20
659.5720300561
 30
0.0
 11
229.4602833037
 21
659.5720300561
 31
0.0
  0
LINE
  5
1E7
330
1F
100
AcDbEntity
  8
0
  6
CONTINUOUS
 62
     7
100
AcDbLine
 10
231.4602873568
 20
659.5720300561
 30
0.0
 11
231.4602873568
 21
654.5808004325
 31
0.0
  0
LINE
  5
1E8
330
1F
100
AcDbEntity
  8
0
  6
CONTINUOUS
 62
     7
100
AcDbLine
 10
229.4602833037
 20
659.5720300561
 30
0.0
 11
229.4602833037
 21
657.1587311214
 31
0.0
  0
LINE
  5
1E9
330
1F
100
AcDbEntity
  8
0
  6
CONTINUOUS
 62
     7
100
AcDbLine
 10
231.4602873568
 20
585.5720291024
 30
0.0
 11
229.4602833037
 21
585.5720291024
 31
0.0
  0
LINE
  5
1EA
330
1F
100
AcDbEntity
  8
0
  6
CONTINUOUS
 62
     7
100
AcDbLine
 10
231.4602873568
 20
590.5632587259
 30
0.0
 11
231.4602873568
 21
585.5720291024
 31
0.0
  0
LINE
  5
1EB
330
1F
100
AcDbEntity
  8
0
  6
CONTINUOUS
 62
     7
100
AcDbLine
 10
229.4602833037
 20
587.9853280371
 30
0.0
 11
229.4602833037
 21
585.5720291024
 31
0.0
  0
LINE
  5
1EC
330
1F
100
AcDbEntity
  8
0
  6
CONTINUOUS
 62
     7
100
AcDbLine
 10
36.9602880721
 20
780.0720283871
 30
0.0
 11
36.9602880721
 21
778.072024334
 31
0.0
  0
LINE
  5
1ED
330
1F
100
AcDbEntity
  8
0
  6
CONTINUOUS
 62
     7
100
AcDbLine
 10
36.9602880721
 20
780.0720283871
 30
0.0
 11
41.9515176957
 21
780.0720283871
 31
0.0
  0
LINE
  5
1EE
330
1F
100
AcDbEntity
  8
0
  6
CONTINUOUS
 62
     7
100
AcDbLine
 10
36.9602880721
 20
778.072024334
 30
0.0
 11
39.3735870068
 21
778.072024334
 31
0.0
  0
LINE
  5
1EF
330
1F
100
AcDbEntity
  8
0
  6
CONTINUOUS
 62
     7
100
AcDbLine
 10
110.9602890258
 20
780.0720283871
 30
0.0
 11
110.9602890258
 21
778.072024334
 31
0.0
  0
LINE
  5
1F0
330
1F
100
AcDbEntity
  8
0
  6
CONTINUOUS
 62
     7
100
AcDbLine
 10
105.9690594022
 20
780.0720283871
 30
0.0
 11
110.9602890258
 21
780.0720283871
 31
0.0
  0
LINE
  5
1F1
330
1F
100
AcDbEntity
  8
0
  6
CONTINUOUS
 62
     7
100
AcDbLine
 10
108.5469900911
 20
778.072024334
 30
0.0
 11
110.9602890258
 21
778.072024334
 31
0.0
  0
LINE
  5
1F2
330
1F
100
AcDbEntity
  8
0
  6
CONTINUOUS
 62
     7
100
AcDbLine
 10
110.7229060774
 20
777.5720307713
 30
0.0
 11
115.8683776205
 21
777.5720307713
 31
0.0
  0
LINE
  5
1F3
330
1F
100
AcDbEntity
  8
0
  6
CONTINUOUS
 62
     7
100
AcDbLine
 10
32.0521994774
 20
777.5720307713
 30
0.0
 11
37.1976710205
 21
777.5720307713
 31
0.0
  0
LINE
  5
1F4
330
1F
100
AcDbEntity
  8
0
  6
CONTINUOUS
 62
     7
100
AcDbLine
 10
228.960289741
 20
664.4801186507
 30
0.0
 11
228.960289741
 21
659.3346471077
 31
0.0
  0
LINE
  5
1F5
330
1F
100
AcDbEntity
  8
0
  6
CONTINUOUS
 62
     7
100
AcDbLine
 10
-81.0397126432
 20
659.3346471077
 30
0.0
 11
-81.0397126432
 21
664.4801186507
 31
0.0
  0
LINE
  5
1F6
330
1F
100
AcDbEntity
  8
0
  6
CONTINUOUS
 62
     7
100
AcDbLine
 10
-81.0397126432
 20
580.6639405077
 30
0.0
 11
-81.0397126432
 21
585.8094120508
 31
0.0
  0
LINE
  5
1F7
330
1F
100
AcDbEntity
  8
0
  6
CONTINUOUS
 62
     7
100
AcDbLine
 10
228.960289741
 20
585.8094120508
 30
0.0
 11
228.960289741
 21
580.6639405077
 31
0.0
  0
LINE
  5
1F8
330
1F
100
AcDbEntity
  8
0
  6
CONTINUOUS
 62
     7
100
AcDbLine
 10
115.8683776204
 20
467.5720283871
 30
0.0
 11
110.7229060774
 21
467.5720283871
 31
0.0
  0
LINE
  5
1F9
330
1F
100
AcDbEntity
  8
0
  6
CONTINUOUS
 62
     7
100
AcDbLine
 10
37.1976710205
 20
467.5720283871
 30
0.0
 11
32.0521994774
 21
467.5720283871
 31
0.0
  0
CIRCLE
  5
1FA
330
1F
100
AcDbEntity
  8
0
  6
CONTINUOUS
 62
     7
100
AcDbCircle
 10
-29.680677671
 20
487.8183649871
 30
0.0
 40
4.000000000000227
  0
LINE
  5
1FB
330
1F
100
AcDbEntity
  8
0
  6
CONTINUOUS
 62
     7
100
AcDbLine
 10
-29.1806765552
 20
491.2764826899
 30
0.0
 11
-30.1806785817
 21
491.2764826899
 31
0.0
  0
SPLINE
  5
1FC
330
1F
100
AcDbEntity
  8
0
  6
CONTINUOUS
 62
     7
100
AcDbSpline
210
0.0
220
0.0
230
1.0
 70
    24
 71
     3
 72
    10
 73
     6
 74
     0
 42
0.00000001
 43
0.00000001
 40
0.0
 40
0.0
 40
0.0
 40
0.0
 40
0.3971591160950372
 40
0.7941198054916782
 40
1.0
 40
1.0
 40
1.0
 40
1.0
 10
-30.18067858172371
 20
491.2764826899123
 30
0.0
 10
-30.18067858172369
 20
491.1081279989281
 30
0.0
 10
-30.18067858172366
 20
490.7715027295083
 30
0.0
 10
-30.18067858172377
 20
490.2140905105834
 30
0.0
 10
-30.18067858172371
 20
489.8717616258699
 30
0.0
 10
-30.18067858172371
 20
489.7548506146026
 30
0.0
  0
SPLINE
  5
1FD
330
1F
100
AcDbEntity
  8
0
  6
CONTINUOUS
 62
     7
100
AcDbSpline
210
0.0
220
0.0
230
1.0
 70
    24
 71
     3
 72
    10
 73
     6
 74
     0
 42
0.00000001
 43
0.00000001
 40
0.0
 40
0.0
 40
0.0
 40
0.0
 40
0.4119560180910723
 40
0.8219764146007075
 40
1.0
 40
1.0
 40
1.0
 40
1.0
 10
-31.61717287255244
 20
488.3183637743545
 30
0.0
 10
-31.85207418919489
 20
488.3183637743545
 30
0.0
 10
-32.32077311228246
 20
488.3183637743545
 30
0.0
 10
-32.83253082531596
 20
488.3183637743544
 30
0.0
 10
-33.06761960824458
 20
488.3183637743545
 30
0.0
 10
-33.138790046701
 20
488.3183637743545
 30
0.0
  0
LINE
  5
1FE
330
1F
100
AcDbEntity
  8
0
  6
CONTINUOUS
 62
     7
100
AcDbLine
 10
-33.1387900467
 20
488.3183637744
 30
0.0
 11
-33.1387900467
 21
487.3183617478
 31
0.0
  0
SPLINE
  5
1FF
330
1F
100
AcDbEntity
  8
0
  6
CONTINUOUS
 62
     7
100
AcDbSpline
210
0.0
220
0.0
230
1.0
 70
    24
 71
     3
 72
    10
 73
     6
 74
     0
 42
0.00000001
 43
0.00000001
 40
0.0
 40
0.0
 40
0.0
 40
0.0
 40
0.3971588680080335
 40
0.7941268625166624
 40
0.9999999999999999
 40
0.9999999999999999
 40
0.9999999999999999
 40
0.9999999999999999
 10
-33.13879004670103
 20
487.3183617477965
 30
0.0
 10
-32.97043804404149
 20
487.3183617477965
 30
0.0
 10
-32.63381494824871
 20
487.3183617477965
 30
0.0
 10
-32.07640478692856
 20
487.3183617477965
 30
0.0
 10
-31.73407882885079
 20
487.3183617477965
 30
0.0
 10
-31.61717287255247
 20
487.3183617477965
 30
0.0
  0
SPLINE
  5
200
330
1F
100
AcDbEntity
  8
0
  6
CONTINUOUS
 62
     7
100
AcDbSpline
210
0.0
220
0.0
230
1.0
 70
    24
 71
     3
 72
    10
 73
     6
 74
     0
 42
0.00000001
 43
0.00000001
 40
0.0
 40
0.0
 40
0.0
 40
0.0
 40
0.4119531482991871
 40
0.8219744957906524
 40
1.0
 40
1.0
 40
1.0
 40
1.0
 10
-30.18067858172377
 20
485.8818749075484
 30
0.0
 10
-30.18067858172377
 20
485.6469735599475
 30
0.0
 10
-30.1806785817238
 20
485.1782724041194
 30
0.0
 10
-30.18067858172377
 20
484.6665117714662
 30
0.0
 10
-30.18067858172377
 20
484.4314158512218
 30
0.0
 10
-30.18067858172377
 20
484.3602428322387
 30
0.0
  0
LINE
  5
201
330
1F
100
AcDbEntity
  8
0
  6
CONTINUOUS
 62
     7
100
AcDbLine
 10
-30.1806785817
 20
484.3602428322
 30
0.0
 11
-29.1806765552
 21
484.3602428322
 31
0.0
  0
SPLINE
  5
202
330
1F
100
AcDbEntity
  8
0
  6
CONTINUOUS
 62
     7
100
AcDbSpline
210
0.0
220
0.0
230
1.0
 70
    24
 71
     3
 72
    10
 73
     6
 74
     0
 42
0.00000001
 43
0.00000001
 40
0.0
 40
0.0
 40
0.0
 40
0.0
 40
0.3971592943064068
 40
0.7941284178336913
 40
1.0
 40
1.0
 40
1.0
 40
1.0
 10
-29.18067655516585
 20
484.3602428322387
 30
0.0
 10
-29.18067655516585
 20
484.5285974142996
 30
0.0
 10
-29.18067655516585
 20
484.8652259656233
 30
0.0
 10
-29.18067655516585
 20
485.422640693391
 30
0.0
 10
-29.18067655516585
 20
485.7649689625384
 30
0.0
 10
-29.18067655516585
 20
485.8818749075484
 30
0.0
  0
SPLINE
  5
203
330
1F
100
AcDbEntity
  8
0
  6
CONTINUOUS
 62
     7
100
AcDbSpline
210
0.0
220
0.0
230
1.0
 70
    24
 71
     3
 72
    10
 73
     6
 74
     0
 42
0.00000001
 43
0.00000001
 40
0.0
 40
0.0
 40
0.0
 40
0.0
 40
0.4119585506429431
 40
0.8219771813018013
 40
0.9999999999999999
 40
0.9999999999999999
 40
0.9999999999999999
 40
0.9999999999999999
 10
-27.74418971491774
 20
487.3183617477964
 30
0.0
 10
-27.50928583455789
 20
487.3183617477964
 30
0.0
 10
-27.0405842402987
 20
487.3183617477964
 30
0.0
 10
-26.52882431047529
 20
487.3183617477965
 30
0.0
 10
-26.29373552838973
 20
487.3183617477964
 30
0.0
 10
-26.22256509018858
 20
487.3183617477964
 30
0.0
  0
LINE
  5
204
330
1F
100
AcDbEntity
  8
0
  6
CONTINUOUS
 62
     7
100
AcDbLine
 10
-26.2225650902
 20
487.3183617478
 30
0.0
 11
-26.2225650902
 21
488.3183637744
 31
0.0
  0
SPLINE
  5
205
330
1F
100
AcDbEntity
  8
0
  6
CONTINUOUS
 62
     7
100
AcDbSpline
210
0.0
220
0.0
230
1.0
 70
    24
 71
     3
 72
    10
 73
     6
 74
     0
 42
0.00000001
 43
0.00000001
 40
0.0
 40
0.0
 40
0.0
 40
0.0
 40
0.3971571394235385
 40
0.7941234061784256
 40
1.0
 40
1.0
 40
1.0
 40
1.0
 10
-26.22256509018858
 20
488.3183637743543
 30
0.0
 10
-26.39091709402944
 20
488.3183637743544
 30
0.0
 10
-26.72754019218432
 20
488.3183637743544
 30
0.0
 10
-27.28495276470516
 20
488.3183637743543
 30
0.0
 10
-27.62728126347317
 20
488.3183637743543
 30
0.0
 10
-27.74418971491771
 20
488.3183637743544
 30
0.0
  0
SPLINE
  5
206
330
1F
100
AcDbEntity
  8
0
  6
CONTINUOUS
 62
     7
100
AcDbSpline
210
0.0
220
0.0
230
1.0
 70
    24
 71
     3
 72
    10
 73
     6
 74
     0
 42
0.00000001
 43
0.00000001
 40
0.0
 40
0.0
 40
0.0
 40
0.0
 40
0.4119531482991871
 40
0.8219744957906524
 40
1.0
 40
1.0
 40
1.0
 40
1.0
 10
-29.18067655516579
 20
489.7548506146026
 30
0.0
 10
-29.18067655516579
 20
489.9897519622035
 30
0.0
 10
-29.18067655516582
 20
490.4584531180315
 30
0.0
 10
-29.18067655516579
 20
490.9702137506848
 30
0.0
 10
-29.18067655516579
 20
491.2053096709291
 30
0.0
 10
-29.18067655516579
 20
491.2764826899123
 30
0.0
  0
LINE
  5
207
330
1F
100
AcDbEntity
  8
0
  6
CONTINUOUS
 62
     7
100
AcDbLine
 10
-27.7441897149
 20
488.3183637744
 30
0.0
 11
-29.1806765552
 21
488.3183637744
 31
0.0
  0
LINE
  5
208
330
1F
100
AcDbEntity
  8
0
  6
CONTINUOUS
 62
     7
100
AcDbLine
 10
-29.1806765552
 20
488.3183637744
 30
0.0
 11
-29.1806765552
 21
489.7548506146
 31
0.0
  0
LINE
  5
209
330
1F
100
AcDbEntity
  8
0
  6
CONTINUOUS
 62
     7
100
AcDbLine
 10
-29.1806765552
 20
485.8818749075
 30
0.0
 11
-29.1806765552
 21
487.3183617478
 31
0.0
  0
LINE
  5
20A
330
1F
100
AcDbEntity
  8
0
  6
CONTINUOUS
 62
     7
100
AcDbLine
 10
-29.1806765552
 20
487.3183617478
 30
0.0
 11
-27.7441897149
 21
487.3183617478
 31
0.0
  0
LINE
  5
20B
330
1F
100
AcDbEntity
  8
0
  6
CONTINUOUS
 62
     7
100
AcDbLine
 10
-31.6171728726
 20
487.3183617478
 30
0.0
 11
-30.1806785817
 21
487.3183617478
 31
0.0
  0
LINE
  5
20C
330
1F
100
AcDbEntity
  8
0
  6
CONTINUOUS
 62
     7
100
AcDbLine
 10
-30.1806785817
 20
487.3183617478
 30
0.0
 11
-30.1806785817
 21
485.8818749075
 31
0.0
  0
LINE
  5
20D
330
1F
100
AcDbEntity
  8
0
  6
CONTINUOUS
 62
     7
100
AcDbLine
 10
-30.1806785817
 20
489.7548506146
 30
0.0
 11
-30.1806785817
 21
488.3183637744
 31
0.0
  0
LINE
  5
20E
330
1F
100
AcDbEntity
  8
0
  6
CONTINUOUS
 62
     7
100
AcDbLine
 10
-30.1806785817
 20
488.3183637744
 30
0.0
 11
-31.6171728726
 21
488.3183637744
 31
0.0
  0
CIRCLE
  5
20F
330
1F
100
AcDbEntity
  8
0
  6
CONTINUOUS
 62
     7
100
AcDbCircle
 10
-29.680677671
 20
487.8183649871
 30
0.0
 40
4.500000000000341
  0
SPLINE
  5
210
330
1F
100
AcDbEntity
  8
0
  6
CONTINUOUS
 62
     7
100
AcDbSpline
210
0.0
220
0.0
230
1.0
 70
     8
 71
     3
 72
    13
 73
     9
 74
     0
 42
0.00000001
 43
0.00000001
 40
0.0
 40
0.0
 40
0.0
 40
0.0
 40
0.1244664005528333
 40
0.3395477380323786
 40
0.5545378385257359
 40
0.769293468473344
 40
0.983772886776707
 40
1.0
 40
1.0
 40
1.0
 40
1.0
 10
-1.320497011667768
 20
758.6347112541744
 30
0.0
 10
-1.303322101391183
 20
758.6071197305297
 30
0.0
 10
-1.256468477365588
 20
758.5318493009131
 30
0.0
 10
-1.183528622272306
 20
758.4146990165663
 30
0.0
 10
-1.114309696214774
 20
758.3034927128493
 30
0.0
 10
-1.068422868901242
 20
758.2298249746098
 30
0.0
 10
-1.056198807388262
 20
758.2101197852049
 30
0.0
 10
-1.055916919392094
 20
758.2097139766375
 30
0.0
 10
-1.055897092348615
 20
758.2096854334422
 30
0.0
  0
LWPOLYLINE
  5
211
330
1F
100
AcDbEntity
  8
0
  6
CONTINUOUS
 62
     7
100
AcDbPolyline
 90
        3
 70
   128
 43
0.0
 10
-3.3313789125
 20
761.8648359662
 10
3.3263406997
 20
765.3562525397
 10
9.1398648267
 20
768.0876651888
  0
LINE
  5
212
330
1F
100
AcDbEntity
  8
0
  6
CONTINUOUS
 62
     7
100
AcDbLine
 10
-16.9143535848
 20
753.4089038258
 30
0.0
 11
-16.9113808031
 21
753.4041354542
 31
0.0
  0
SPLINE
  5
213
330
1F
100
AcDbEntity
  8
0
  6
CONTINUOUS
 62
     7
100
AcDbSpline
210
0.0
220
0.0
230
1.0
 70
     8
 71
     3
 72
    13
 73
     9
 74
     0
 42
0.00000001
 43
0.00000001
 40
0.0
 40
0.0
 40
0.0
 40
0.0
 40
0.2061046177911965
 40
0.4211550893969183
 40
0.636045938938506
 40
0.7706122239890248
 40
0.9848911101282329
 40
1.0
 40
1.0
 40
1.0
 40
1.0
 10
-2.669923817640807
 20
760.8023235683986
 30
0.0
 10
-2.741261053967076
 20
760.9169190895891
 30
0.0
 10
-2.8870318788244
 20
761.1510840854477
 30
0.0
 10
-3.083963434477741
 20
761.4674131041011
 30
0.0
 10
-3.21795950041405
 20
761.682651198803
 30
0.0
 10
-3.305774108513848
 20
761.8237201991035
 30
0.0
 10
-3.330769658983781
 20
761.863796675062
 30
0.0
 10
-3.331341263092591
 20
761.8647717422426
 30
0.0
 10
-3.331378912455079
 20
761.8648359661647
 30
0.0
  0
LINE
  5
214
330
1F
100
AcDbEntity
  8
0
  6
CONTINUOUS
 62
     7
100
AcDbLine
 10
-2.6699238176
 20
760.8023235684
 30
0.0
 11
-1.3204970117
 21
758.6347112542
 31
0.0
  0
LWPOLYLINE
  5
215
330
1F
100
AcDbEntity
  8
0
  6
CONTINUOUS
 62
     7
100
AcDbPolyline
 90
        3
 70
   128
 43
0.0
 10
-4.2380251641
 20
759.2880675679
 10
-2.6321195717
 20
760.1941773778
 10
-2.4891727324
 20
760.2736303692
  0
SPLINE
  5
216
330
1F
100
AcDbEntity
  8
0
  6
CONTINUOUS
 62
     7
100
AcDbSpline
210
0.0
220
0.0
230
1.0
 70
     8
 71
     3
 72
     9
 73
     5
 74
     0
 42
0.00000001
 43
0.00000001
 40
0.0
 40
0.0
 40
0.0
 40
0.0
 40
0.8814081525031995
 40
1.0
 40
1.0
 40
1.0
 40
1.0
 10
21.93823748278015
 20
778.1161317711419
 30
0.0
 10
26.35385224610187
 20
778.5612637215098
 30
0.0
 10
31.36357986296291
 20
779.0662873579529
 30
0.0
 10
36.3669313728677
 20
779.4161213483764
 30
0.0
 10
36.96028807210322
 20
779.4576088076178
 30
0.0
  0
SPLINE
  5
217
330
1F
100
AcDbEntity
  8
0
  6
CONTINUOUS
 62
     7
100
AcDbSpline
210
0.0
220
0.0
230
1.0
 70
     8
 71
     3
 72
     9
 73
     5
 74
     0
 42
0.00000001
 43
0.00000001
 40
0.0
 40
0.0
 40
0.0
 40
0.0
 40
0.8814081525031995
 40
1.0
 40
1.0
 40
1.0
 40
1.0
 10
229.5043907408643
 20
674.5940806453749
 30
0.0
 10
229.9495226912321
 20
670.178465882053
 30
0.0
 10
230.4545463276753
 20
665.168738265192
 30
0.0
 10
230.8043803180987
 20
660.1653867552873
 30
0.0
 10
230.8458677773403
 20
659.5720300560519
 30
0.0
  0
SPLINE
  5
218
330
1F
100
AcDbEntity
  8
0
  6
CONTINUOUS
 62
     7
100
AcDbSpline
210
0.0
220
0.0
230
1.0
 70
     8
 71
     3
 72
     9
 73
     5
 74
     0
 42
0.00000001
 43
0.00000001
 40
0.0
 40
0.0
 40
0.0
 40
0.0
 40
0.8814081525031995
 40
1.0
 40
1.0
 40
1.0
 40
1.0
 10
-81.58381364298693
 20
570.5499785130578
 30
0.0
 10
-82.02894559335475
 20
574.9655932763795
 30
0.0
 10
-82.53396922979792
 20
579.9753208932406
 30
0.0
 10
-82.88380322022135
 20
584.9786724031453
 30
0.0
 10
-82.92529067946289
 20
585.5720291023808
 30
0.0
  0
SPLINE
  5
219
330
1F
100
AcDbEntity
  8
0
  6
CONTINUOUS
 62
     7
100
AcDbSpline
210
0.0
220
0.0
230
1.0
 70
     8
 71
     3
 72
     9
 73
     5
 74
     0
 42
0.00000001
 43
0.00000001
 40
0.0
 40
0.0
 40
0.0
 40
0.0
 40
0.8814081525031995
 40
1.0
 40
1.0
 40
1.0
 40
1.0
 10
125.9823396150972
 20
467.0279273872907
 30
0.0
 10
121.5667248517755
 20
466.5827954369228
 30
0.0
 10
116.5569972349145
 20
466.0777718004797
 30
0.0
 10
111.5536457250097
 20
465.7279378100562
 30
0.0
 10
110.9602890257742
 20
465.6864503508147
 30
0.0
  0
SPLINE
  5
21A
330
1F
100
AcDbEntity
  8
0
  6
CONTINUOUS
 62
     7
100
AcDbSpline
210
0.0
220
0.0
230
1.0
 70
     8
 71
     3
 72
     9
 73
     5
 74
     0
 42
0.00000001
 43
0.00000001
 40
0.0
 40
0.0
 40
0.0
 40
0.0
 40
0.5310309288690829
 40
1.0
 40
1.0
 40
1.0
 40
1.0
 10
110.9602890257775
 20
779.4245729332503
 30
0.0
 10
113.6185938207976
 20
779.2333222309327
 30
0.0
 10
118.6245259624176
 20
778.8731723942274
 30
0.0
 10
123.6333541244826
 20
778.3578173483218
 30
0.0
 10
125.9823396151006
 20
778.1161317711408
 30
0.0
  0
SPLINE
  5
21B
330
1F
100
AcDbEntity
  8
0
  6
CONTINUOUS
 62
     7
100
AcDbSpline
210
0.0
220
0.0
230
1.0
 70
     8
 71
     3
 72
     9
 73
     5
 74
     0
 42
0.00000001
 43
0.00000001
 40
0.0
 40
0.0
 40
0.0
 40
0.0
 40
0.5310309288690829
 40
1.0
 40
1.0
 40
1.0
 40
1.0
 10
-82.89225480509535
 20
659.5720300560552
 30
0.0
 10
-82.70100410277767
 20
662.2303348510752
 30
0.0
 10
-82.34085426607238
 20
667.2362669926953
 30
0.0
 10
-81.82549922016678
 20
672.2450951547602
 30
0.0
 10
-81.5838136429858
 20
674.5940806453782
 30
0.0
  0
SPLINE
  5
21C
330
1F
100
AcDbEntity
  8
0
  6
CONTINUOUS
 62
     7
100
AcDbSpline
210
0.0
220
0.0
230
1.0
 70
     8
 71
     3
 72
     9
 73
     5
 74
     0
 42
0.00000001
 43
0.00000001
 40
0.0
 40
0.0
 40
0.0
 40
0.0
 40
0.5310309288690829
 40
1.0
 40
1.0
 40
1.0
 40
1.0
 10
230.8128319029728
 20
585.5720291023775
 30
0.0
 10
230.6215812006551
 20
582.9137243073574
 30
0.0
 10
230.2614313639498
 20
577.9077921657374
 30
0.0
 10
229.7460763180442
 20
572.8989640036724
 30
0.0
 10
229.5043907408632
 20
570.5499785130545
 30
0.0
  0
SPLINE
  5
21D
330
1F
100
AcDbEntity
  8
0
  6
CONTINUOUS
 62
     7
100
AcDbSpline
210
0.0
220
0.0
230
1.0
 70
     8
 71
     3
 72
     9
 73
     5
 74
     0
 42
0.00000001
 43
0.00000001
 40
0.0
 40
0.0
 40
0.0
 40
0.0
 40
0.5310309288690829
 40
1.0
 40
1.0
 40
1.0
 40
1.0
 10
36.96028807209986
 20
465.7194862251822
 30
0.0
 10
34.30198327707978
 20
465.9107369274999
 30
0.0
 10
29.29605113545976
 20
466.2708867642052
 30
0.0
 10
24.2872229733948
 20
466.7862418101109
 30
0.0
 10
21.93823748277685
 20
467.0279273872918
 30
0.0
  0
CIRCLE
  5
21E
330
1F
100
AcDbEntity
  8
0
  6
CONTINUOUS
 62
     7
100
AcDbCircle
 10
-46.2478642528
 20
742.7801823809
 30
0.0
 40
6.000000000000036
  0
CIRCLE
  5
21F
330
1F
100
AcDbEntity
  8
0
  6
CONTINUOUS
 62
     7
100
AcDbCircle
 10
194.1684413507
 20
742.7801823809
 30
0.0
 40
6.000000000000057
  0
ARC
  5
220
330
1F
100
AcDbEntity
  8
0
  6
CONTINUOUS
 62
     7
100
AcDbCircle
 10
73.9602885489
 20
283.8462596638
 30
0.0
 40
497.0000000000001
100
AcDbArc
 50
96.0082772067
 51
101.7639290339
  0
ARC
  5
221
330
1F
100
AcDbEntity
  8
0
  6
CONTINUOUS
 62
     7
100
AcDbCircle
 10
73.9602885489
 20
283.8462596638
 30
0.0
 40
496.9999999999999
100
AcDbArc
 50
78.2360709661
 51
83.9917227933
  0
ARC
  5
222
330
1F
100
AcDbEntity
  8
0
  6
CONTINUOUS
 62
     7
100
AcDbCircle
 10
163.0557429784
 20
711.6674840087
 30
0.0
 40
60.00000000000007
100
AcDbArc
 50
11.7639290339
 51
78.2360709661
  0
ARC
  5
223
330
1F
100
AcDbEntity
  8
0
  6
CONTINUOUS
 62
     7
100
AcDbCircle
 10
-15.1351658806
 20
711.6674840087
 30
0.0
 40
60.00000000000009
100
AcDbArc
 50
101.7639290339
 51
168.2360709661
  0
ARC
  5
224
330
1F
100
AcDbEntity
  8
0
  6
CONTINUOUS
 62
     7
100
AcDbCircle
 10
412.6860584644
 20
622.5720295792
 30
0.0
 40
497.0
100
AcDbArc
 50
168.2360709661
 51
173.9917227933
  0
ARC
  5
225
330
1F
100
AcDbEntity
  8
0
  6
CONTINUOUS
 62
     7
100
AcDbCircle
 10
-264.7654813665
 20
622.5720295792
 30
0.0
 40
497.0000000000001
100
AcDbArc
 50
6.0082772067
 51
11.7639290339
  0
CIRCLE
  5
226
330
1F
100
AcDbEntity
  8
0
  6
CONTINUOUS
 62
     7
100
AcDbCircle
 10
-46.2478642528
 20
502.3638767775
 30
0.0
 40
6.000000000000036
  0
ARC
  5
227
330
1F
100
AcDbEntity
  8
0
  6
CONTINUOUS
 62
     7
100
AcDbCircle
 10
-264.7654813665
 20
622.5720295792
 30
0.0
 40
497.0000000000001
100
AcDbArc
 50
348.2360709661
 51
353.9917227933
  0
ARC
  5
228
330
1F
100
AcDbEntity
  8
0
  6
CONTINUOUS
 62
     7
100
AcDbCircle
 10
412.6860584644
 20
622.5720295792
 30
0.0
 40
496.9999999999999
100
AcDbArc
 50
186.0082772067
 51
191.7639290339
  0
CIRCLE
  5
229
330
1F
100
AcDbEntity
  8
0
  6
CONTINUOUS
 62
     7
100
AcDbCircle
 10
194.1684413507
 20
502.3638767775
 30
0.0
 40
6.0
  0
ARC
  5
22A
330
1F
100
AcDbEntity
  8
0
  6
CONTINUOUS
 62
     7
100
AcDbCircle
 10
163.0557429784
 20
533.4765751497
 30
0.0
 40
60.00000000000003
100
AcDbArc
 50
281.7639290339
 51
348.2360709661
  0
ARC
  5
22B
330
1F
100
AcDbEntity
  8
0
  6
CONTINUOUS
 62
     7
100
AcDbCircle
 10
-15.1351658806
 20
533.4765751497
 30
0.0
 40
60.00000000000007
100
AcDbArc
 50
191.7639290339
 51
258.2360709661
  0
ARC
  5
22C
330
1F
100
AcDbEntity
  8
0
  6
CONTINUOUS
 62
     7
100
AcDbCircle
 10
73.9602885489
 20
961.2977994946
 30
0.0
 40
496.9999999999999
100
AcDbArc
 50
276.0082772067
 51
281.7639290339
  0
ARC
  5
22D
330
1F
100
AcDbEntity
  8
0
  6
CONTINUOUS
 62
     7
100
AcDbCircle
 10
73.9602885489
 20
961.2977994946
 30
0.0
 40
496.9999999999999
100
AcDbArc
 50
258.2360709661
 51
263.9917227933
  0
ARC
  5
22E
330
1F
100
AcDbEntity
  8
0
  6
CONTINUOUS
 62
     7
100
AcDbCircle
 10
163.0557429784
 20
533.4765751497
 30
0.0
 40
63.00000000000004
100
AcDbArc
 50
281.7639290339
 51
348.2360709661
  0
ARC
  5
22F
330
1F
100
AcDbEntity
  8
0
  6
CONTINUOUS
 62
     7
100
AcDbCircle
 10
73.9602885489
 20
961.2977994946
 30
0.0
 40
499.9999999999999
100
AcDbArc
 50
258.2360709661
 51
265.5838537357
  0
LWPOLYLINE
  5
230
330
1F
100
AcDbEntity
  8
0
  6
CONTINUOUS
 62
     7
100
AcDbPolyline
 90
        3
 70
   128
 43
0.0
 10
50.4602893536
 20
461.8503550177
 10
53.4341289942
 20
461.719299305
 10
63.9602887725
 20
461.3978067523
  0
LWPOLYLINE
  5
231
330
1F
100
AcDbEntity
  8
0
  6
CONTINUOUS
 62
     7
100
AcDbPolyline
 90
        3
 70
   128
 43
0.0
 10
83.9602883254
 20
461.3978067523
 10
94.4864481037
 20
461.719299305
 10
97.4602877443
 20
461.8503550177
  0
ARC
  5
232
330
1F
100
AcDbEntity
  8
0
  6
CONTINUOUS
 62
     7
100
AcDbCircle
 10
73.9602885489
 20
961.2977994946
 30
0.0
 40
500.0000000000001
100
AcDbArc
 50
274.4161462643
 51
281.7639290339
  0
ARC
  5
233
330
1F
100
AcDbEntity
  8
0
  6
CONTINUOUS
 62
     7
100
AcDbCircle
 10
-15.1351658806
 20
533.4765751497
 30
0.0
 40
63.00000000000003
100
AcDbArc
 50
191.7639290339
 51
258.2360709661
  0
ARC
  5
234
330
1F
100
AcDbEntity
  8
0
  6
CONTINUOUS
 62
     7
100
AcDbCircle
 10
412.6860584644
 20
622.5720295792
 30
0.0
 40
499.9999999999999
100
AcDbArc
 50
168.2360709661
 51
175.5838537357
  0
ARC
  5
235
330
1F
100
AcDbEntity
  8
0
  6
CONTINUOUS
 62
     7
100
AcDbCircle
 10
412.6860584644
 20
622.5720295792
 30
0.0
 40
499.9999999999998
100
AcDbArc
 50
184.4161462643
 51
191.7639290339
  0
ARC
  5
236
330
1F
100
AcDbEntity
  8
0
  6
CONTINUOUS
 62
     7
100
AcDbCircle
 10
-15.1351658806
 20
711.6674840087
 30
0.0
 40
63.00000000000009
100
AcDbArc
 50
101.7639290339
 51
168.2360709661
  0
ARC
  5
237
330
1F
100
AcDbEntity
  8
0
  6
CONTINUOUS
 62
     7
100
AcDbCircle
 10
163.0557429784
 20
711.6674840087
 30
0.0
 40
63.00000000000004
100
AcDbArc
 50
11.7639290339
 51
78.2360709661
  0
ARC
  5
238
330
1F
100
AcDbEntity
  8
0
  6
CONTINUOUS
 62
     7
100
AcDbCircle
 10
-264.7654813665
 20
622.5720295792
 30
0.0
 40
500.0000000000001
100
AcDbArc
 50
348.2360709661
 51
355.5838537357
  0
ARC
  5
239
330
1F
100
AcDbEntity
  8
0
  6
CONTINUOUS
 62
     7
100
AcDbCircle
 10
-264.7654813665
 20
622.5720295792
 30
0.0
 40
500.0000000000001
100
AcDbArc
 50
4.4161462643
 51
11.7639290339
  0
ARC
  5
23A
330
1F
100
AcDbEntity
  8
0
  6
CONTINUOUS
 62
     7
100
AcDbCircle
 10
73.9602885489
 20
283.8462596638
 30
0.0
 40
499.9999999999999
100
AcDbArc
 50
78.2360709661
 51
85.5838537357
  0
ARC
  5
23B
330
1F
100
AcDbEntity
  8
0
  6
CONTINUOUS
 62
     7
100
AcDbCircle
 10
73.9602885489
 20
283.8462596638
 30
0.0
 40
500.0000000000001
100
AcDbArc
 50
87.3061059394
 51
92.6938940606
  0
ARC
  5
23C
330
1F
100
AcDbEntity
  8
0
  6
CONTINUOUS
 62
     7
100
AcDbCircle
 10
73.9602885489
 20
283.8462596638
 30
0.0
 40
500.0000000000001
100
AcDbArc
 50
94.4161462643
 51
101.7639290339
  0
ENDSEC
  0
SECTION
  2
OBJECTS
  0
DICTIONARY
  5
C
330
0
100
AcDbDictionary
  3
ACAD_GROUP
350
D
  3
ACAD_MLINESTYLE
350
17
  0
DICTIONARY
  5
D
102
{ACAD_REACTORS
330
C
102
}
330
C
100
AcDbDictionary
  0
DICTIONARY
  5
17
102
{ACAD_REACTORS
330
C
102
}
330
C
100
AcDbDictionary
  3
STANDARD
350
18
  0
MLINESTYLE
  5
18
102
{ACAD_REACTORS
330
17
102
}
330
17
100
AcDbMlineStyle
  2
Standard
 70
     0
  3

 62
   256
 51
90.0
 52
90.0
 71
     2
 49
0.5
 62
   256
  6
BYLAYER
 49
-0.5
 62
   256
  6
BYLAYER
  0
ENDSEC
  0
EOF
