  0
SECTION
  2
HEADER
  9
$ACADVER
  1
AC1015
  9
$ACADMAINTVER
 70
     6
  9
$DWGCODEPAGE
  3
DOS932
  9
$INSBASE
 10
0.0
 20
0.0
 30
0.0
  9
$EXTMIN
 10
0.0
 20
0.0
 30
0.0
  9
$EXTMAX
 10
210.0
 20
297.0
 30
0.0
  9
$LIMMIN
 10
0.0
 20
0.0
  9
$LIMMAX
 10
210.0
 20
297.0
  9
$ORTHOMODE
 70
     0
  9
$REGENMODE
 70
     1
  9
$FILLMODE
 70
     1
  9
$QTEXTMODE
 70
     0
  9
$MIRRTEXT
 70
     1
  9
$LTSCALE
 40
1.0
  9
$ATTMODE
 70
     1
  9
$TEXTSIZE
 40
3.5
  9
$TRACEWID
 40
1.0
  9
$TEXTSTYLE
  7
Standard
  9
$CLAYER
  8
0
  9
$CELTYPE
  6
ByLayer
  9
$CECOLOR
 62
   256
  9
$CELTSCALE
 40
1.0
  9
$DISPSILH
 70
     0
  9
$DIMSCALE
 40
1.0
  9
$DIMASZ
 40
3.302
  9
$DIMEXO
 40
1.0
  9
$DIMDLI
 40
3.75
  9
$DIMRND
 40
0.0
  9
$DIMDLE
 40
0.0
  9
$DIMEXE
 40
1.0
  9
$DIMTP
 40
0.0
  9
$DIMTM
 40
0.0
  9
$DIMTXT
 40
3.5
  9
$DIMCEN
 40
2.5
  9
$DIMTSZ
 40
0.0
  9
$DIMTOL
 70
     0
  9
$DIMLIM
 70
     0
  9
$DIMTIH
 70
     1
  9
$DIMTOH
 70
     1
  9
$DIMSE1
 70
     0
  9
$DIMSE2
 70
     0
  9
$DIMTAD
 70
     1
  9
$DIMZIN
 70
     1
  9
$DIMBLK
  1

  9
$DIMASO
 70
     1
  9
$DIMSHO
 70
     1
  9
$DIMPOST
  1

  9
$DIMAPOST
  1

  9
$DIMALT
 70
     0
  9
$DIMALTD
 70
     3
  9
$DIMALTF
 40
0.0393700787
  9
$DIMLFAC
 40
1.0
  9
$DIMTOFL
 70
     1
  9
$DIMTVP
 40
0.0
  9
$DIMTIX
 70
     0
  9
$DIMSOXD
 70
     0
  9
$DIMSAH
 70
     0
  9
$DIMBLK1
  1

  9
$DIMBLK2
  1

  9
$DIMSTYLE
  2
ISO-25
  9
$DIMCLRD
 70
     0
  9
$DIMCLRE
 70
     0
  9
$DIMCLRT
 70
     0
  9
$DIMTFAC
 40
1.0
  9
$DIMGAP
 40
1.524
  9
$DIMJUST
 70
     0
  9
$DIMSD1
 70
     0
  9
$DIMSD2
 70
     0
  9
$DIMTOLJ
 70
     0
  9
$DIMTZIN
 70
     1
  9
$DIMALTZ
 70
     0
  9
$DIMALTTZ
 70
     0
  9
$DIMUPT
 70
     0
  9
$DIMDEC
 70
     4
  9
$DIMTDEC
 70
     4
  9
$DIMALTU
 70
     2
  9
$DIMALTTD
 70
     3
  9
$DIMTXSTY
  7
Standard
  9
$DIMAUNIT
 70
     0
  9
$DIMADEC
 70
     0
  9
$DIMALTRND
 40
0.0
  9
$DIMAZIN
 70
     0
  9
$DIMDSEP
 70
    44
  9
$DIMATFIT
 70
     3
  9
$DIMFRAC
 70
     0
  9
$DIMLDRBLK
  1

  9
$DIMLUNIT
 70
     2
  9
$DIMLWD
 70
    -2
  9
$DIMLWE
 70
    -2
  9
$DIMTMOVE
 70
     0
  9
$LUNITS
 70
     2
  9
$LUPREC
 70
     4
  9
$SKETCHINC
 40
1.0
  9
$FILLETRAD
 40
10.0
  9
$AUNITS
 70
     0
  9
$AUPREC
 70
     0
  9
$MENU
  1
.
  9
$ELEVATION
 40
0.0
  9
$PELEVATION
 40
0.0
  9
$THICKNESS
 40
0.0
  9
$LIMCHECK
 70
     0
  9
$CHAMFERA
 40
10.0
  9
$CHAMFERB
 40
10.0
  9
$CHAMFERC
 40
20.0
  9
$CHAMFERD
 40
0.0
  9
$SKPOLY
 70
     0
  9
$TDCREATE
 40
2456457.618551331
  9
$TDUCREATE
 40
2456457.243551331
  9
$TDUPDATE
 40
2456457.618553496
  9
$TDUUPDATE
 40
2456457.243553496
  9
$TDINDWG
 40
0.0000000116
  9
$TDUSRTIMER
 40
0.0000000116
  9
$USRTIMER
 70
     1
  9
$ANGBASE
 50
0.0
  9
$ANGDIR
 70
     0
  9
$PDMODE
 70
     0
  9
$PDSIZE
 40
-1.0
  9
$PLINEWID
 40
0.0
  9
$SPLFRAME
 70
     0
  9
$SPLINETYPE
 70
     6
  9
$SPLINESEGS
 70
     8
  9
$HANDSEED
  5
663
  9
$SURFTAB1
 70
     6
  9
$SURFTAB2
 70
     6
  9
$SURFTYPE
 70
     6
  9
$SURFU
 70
     6
  9
$SURFV
 70
     6
  9
$UCSBASE
  2

  9
$UCSNAME
  2

  9
$UCSORG
 10
0.0
 20
0.0
 30
0.0
  9
$UCSXDIR
 10
1.0
 20
0.0
 30
0.0
  9
$UCSYDIR
 10
0.0
 20
1.0
 30
0.0
  9
$UCSORTHOREF
  2

  9
$UCSORTHOVIEW
 70
     0
  9
$UCSORGTOP
 10
0.0
 20
0.0
 30
0.0
  9
$UCSORGBOTTOM
 10
0.0
 20
0.0
 30
0.0
  9
$UCSORGLEFT
 10
0.0
 20
0.0
 30
0.0
  9
$UCSORGRIGHT
 10
0.0
 20
0.0
 30
0.0
  9
$UCSORGFRONT
 10
0.0
 20
0.0
 30
0.0
  9
$UCSORGBACK
 10
0.0
 20
0.0
 30
0.0
  9
$PUCSBASE
  2

  9
$PUCSNAME
  2

  9
$PUCSORG
 10
0.0
 20
0.0
 30
0.0
  9
$PUCSXDIR
 10
1.0
 20
0.0
 30
0.0
  9
$PUCSYDIR
 10
0.0
 20
1.0
 30
0.0
  9
$PUCSORTHOREF
  2

  9
$PUCSORTHOVIEW
 70
     0
  9
$PUCSORGTOP
 10
0.0
 20
0.0
 30
0.0
  9
$PUCSORGBOTTOM
 10
0.0
 20
0.0
 30
0.0
  9
$PUCSORGLEFT
 10
0.0
 20
0.0
 30
0.0
  9
$PUCSORGRIGHT
 10
0.0
 20
0.0
 30
0.0
  9
$PUCSORGFRONT
 10
0.0
 20
0.0
 30
0.0
  9
$PUCSORGBACK
 10
0.0
 20
0.0
 30
0.0
  9
$USERI1
 70
     0
  9
$USERI2
 70
     0
  9
$USERI3
 70
     0
  9
$USERI4
 70
     0
  9
$USERI5
 70
     0
  9
$USERR1
 40
0.0
  9
$USERR2
 40
0.0
  9
$USERR3
 40
0.0
  9
$USERR4
 40
0.0
  9
$USERR5
 40
0.0
  9
$WORLDVIEW
 70
     1
  9
$SHADEDGE
 70
     3
  9
$SHADEDIF
 70
    70
  9
$TILEMODE
 70
     0
  9
$MAXACTVP
 70
    64
  9
$PINSBASE
 10
0.0
 20
0.0
 30
0.0
  9
$PLIMCHECK
 70
     0
  9
$PEXTMIN
 10
0.0
 20
0.0
 30
0.0
  9
$PEXTMAX
 10
210.0
 20
297.0
 30
0.0
  9
$PLIMMIN
 10
0.0
 20
0.0
  9
$PLIMMAX
 10
210.0
 20
297.0
  9
$UNITMODE
 70
     0
  9
$VISRETAIN
 70
     1
  9
$PLINEGEN
 70
     0
  9
$PSLTSCALE
 70
     1
  9
$TREEDEPTH
 70
  3020
  9
$CMLSTYLE
  2
Standard
  9
$CMLJUST
 70
     0
  9
$CMLSCALE
 40
20.0
  9
$PROXYGRAPHICS
 70
     1
  9
$MEASUREMENT
 70
     1
  9
$CELWEIGHT
370
    -1
  9
$ENDCAPS
280
     0
  9
$JOINSTYLE
280
     0
  9
$LWDISPLAY
290
     1
  9
$INSUNITS
 70
     4
  9
$HYPERLINKBASE
  1

  9
$STYLESHEET
  1

  9
$XEDIT
290
     1
  9
$CEPSNTYPE
380
     0
  9
$PSTYLEMODE
290
     1
  9
$FINGERPRINTGUID
  2
{F264C008-ADD2-4C80-9909-2F00CD606E19}
  9
$VERSIONGUID
  2
{FAEB1C32-E019-11D5-929B-00C0DF256EC4}
  9
$EXTNAMES
290
     1
  9
$PSVPSCALE
 40
0.0
  9
$OLESTARTUP
290
     0
  0
ENDSEC
  0
SECTION
  2
CLASSES
  0
CLASS
  1
ACDBDICTIONARYWDFLT
  2
AcDbDictionaryWithDefault
  3
ObjectDBX Classes
 90
        0
280
     0
281
     0
  0
CLASS
  1
VISUALSTYLE
  2
AcDbVisualStyle
  3
ObjectDBX Classes
 90
     4095
280
     0
281
     0
  0
CLASS
  1
MATERIAL
  2
AcDbMaterial
  3
ObjectDBX Classes
 90
     1153
280
     0
281
     0
  0
CLASS
  1
ACDBPLACEHOLDER
  2
AcDbPlaceHolder
  3
ObjectDBX Classes
 90
        0
280
     0
281
     0
  0
CLASS
  1
LAYOUT
  2
AcDbLayout
  3
ObjectDBX Classes
 90
        0
280
     0
281
     0
  0
ENDSEC
  0
SECTION
  2
TABLES
  0
TABLE
  2
VPORT
  5
8
330
0
100
AcDbSymbolTable
 70
     1
  0
VPORT
  5
29
330
8
100
AcDbSymbolTableRecord
100
AcDbViewportTableRecord
  2
*Active
 70
     0
 10
0.0
 20
0.0
 11
1.0
 21
1.0
 12
105.0
 22
148.5
 13
0.0
 23
0.0
 14
10.0
 24
10.0
 15
10.0
 25
10.0
 16
0.0
 26
0.0
 36
1.0
 17
0.0
 27
0.0
 37
0.0
 40
297.0
 41
0.7070707071
 42
50.0
 43
0.0
 44
0.0
 50
0.0
 51
0.0
 71
     0
 72
  2000
 73
     1
 74
     3
 75
     0
 76
     0
 77
     0
 78
     0
281
     0
 65
     1
110
0.0
120
0.0
130
0.0
111
1.0
121
0.0
131
0.0
112
0.0
122
1.0
132
0.0
 79
     0
146
0.0
  0
ENDTAB
  0
TABLE
  2
LTYPE
  5
5
330
0
100
AcDbSymbolTable
 70
     6
  0
LTYPE
  5
14
330
5
100
AcDbSymbolTableRecord
100
AcDbLinetypeTableRecord
  2
ByBlock
 70
     0
  3

 72
    65
 73
     0
 40
0.0
  0
LTYPE
  5
15
330
5
100
AcDbSymbolTableRecord
100
AcDbLinetypeTableRecord
  2
ByLayer
 70
     0
  3

 72
    65
 73
     0
 40
0.0
  0
LTYPE
  5
16
330
5
100
AcDbSymbolTableRecord
100
AcDbLinetypeTableRecord
  2
Continuous
 70
     0
  3
Solid line
 72
    65
 73
     0
 40
0.0
  0
LTYPE
  5
3F
330
5
100
AcDbSymbolTableRecord
100
AcDbLinetypeTableRecord
  2
HIDDEN
 70
     0
  3
Hidden __ __ __ __ __ __ __ __ __ __ __ __ __ __
 72
    65
 73
     2
 40
1.905
 49
1.27
 74
     0
 49
-0.635
 74
     0
  0
LTYPE
  5
40
330
5
100
AcDbSymbolTableRecord
100
AcDbLinetypeTableRecord
  2
PHANTOM
 70
     0
  3
Phantom ______  __  __  ______  __  __  ______
 72
    65
 73
     6
 40
12.7
 49
6.35
 74
     0
 49
-1.27
 74
     0
 49
1.27
 74
     0
 49
-1.27
 74
     0
 49
1.27
 74
     0
 49
-1.27
 74
     0
  0
LTYPE
  5
41
330
5
100
AcDbSymbolTableRecord
100
AcDbLinetypeTableRecord
  2
CENTER
 70
     0
  3
Center ____ _ ____ _ ____ _ ____ _ ____ _ ____
 72
    65
 73
     4
 40
10.16
 49
6.35
 74
     0
 49
-1.27
 74
     0
 49
1.27
 74
     0
 49
-1.27
 74
     0
  0
LTYPE
  5
42
330
5
100
AcDbSymbolTableRecord
100
AcDbLinetypeTableRecord
  2
CENTERX2
 70
     0
  3
Center (2x) ________  __  ________  __  _____
 72
    65
 73
     4
 40
20.32
 49
12.7
 74
     0
 49
-2.54
 74
     0
 49
2.54
 74
     0
 49
-2.54
 74
     0
  0
LTYPE
  5
43
330
5
100
AcDbSymbolTableRecord
100
AcDbLinetypeTableRecord
  2
DOT2
 70
     0
  3
Dot (.5x) ........................................
 72
    65
 73
     2
 40
0.635
 49
0.0
 74
     0
 49
-0.635
 74
     0
  0
ENDTAB
  0
TABLE
  2
LAYER
  5
2
330
0
100
AcDbSymbolTable
 70
   260
  0
LAYER
  5
10
330
2
100
AcDbSymbolTableRecord
100
AcDbLayerTableRecord
  2
0
 70
     0
 62
     7
  6
Continuous
370
    -3
390
F
  0
LAYER
  5
44
330
2
100
AcDbSymbolTableRecord
100
AcDbLayerTableRecord
  2
SLD-0
 70
     0
 62
   179
  6
Continuous
370
    -3
390
F
  0
LAYER
  5
45
330
2
100
AcDbSymbolTableRecord
100
AcDbLayerTableRecord
  2
図面枠
 70
     0
 62
   255
  6
Continuous
370
    -3
390
F
  0
LAYER
  5
46
330
2
100
AcDbSymbolTableRecord
100
AcDbLayerTableRecord
  2
ベ_ス
 70
     0
 62
   254
  6
Continuous
370
    -3
390
F
  0
LAYER
  5
47
330
2
100
AcDbSymbolTableRecord
100
AcDbLayerTableRecord
  2
ケ_シングCV
 70
     0
 62
   250
  6
Continuous
370
    -3
390
F
  0
LAYER
  5
48
330
2
100
AcDbSymbolTableRecord
100
AcDbLayerTableRecord
  2
固定金具A
 70
     0
 62
     6
  6
Continuous
370
    -3
390
F
  0
LAYER
  5
49
330
2
100
AcDbSymbolTableRecord
100
AcDbLayerTableRecord
  2
固定金具B
 70
     0
 62
     6
  6
Continuous
370
    -3
390
F
  0
LAYER
  5
4A
330
2
100
AcDbSymbolTableRecord
100
AcDbLayerTableRecord
  2
水栓
 70
     0
 62
    32
  6
Continuous
370
    -3
390
F
  0
LAYER
  5
4B
330
2
100
AcDbSymbolTableRecord
100
AcDbLayerTableRecord
  2
制御箱
 70
     0
 62
   140
  6
Continuous
370
    -3
390
F
  0
LAYER
  5
4C
330
2
100
AcDbSymbolTableRecord
100
AcDbLayerTableRecord
  2
P板完成A
 70
     0
 62
     4
  6
Continuous
370
    -3
390
F
  0
LAYER
  5
4D
330
2
100
AcDbSymbolTableRecord
100
AcDbLayerTableRecord
  2
P板完成B
 70
     0
 62
     3
  6
Continuous
370
    -3
390
F
  0
LAYER
  5
4E
330
2
100
AcDbSymbolTableRecord
100
AcDbLayerTableRecord
  2
制御箱蓋
 70
     0
 62
    23
  6
Continuous
370
    -3
390
F
  0
LAYER
  5
4F
330
2
100
AcDbSymbolTableRecord
100
AcDbLayerTableRecord
  2
フランジ
 70
     0
 62
    28
  6
Continuous
370
    -3
390
F
  0
LAYER
  5
50
330
2
100
AcDbSymbolTableRecord
100
AcDbLayerTableRecord
  2
パッキン
 70
     0
 62
   110
  6
Continuous
370
    -3
390
F
  0
LAYER
  5
51
330
2
100
AcDbSymbolTableRecord
100
AcDbLayerTableRecord
  2
逆止弁弁体
 70
     0
 62
    21
  6
Continuous
370
    -3
390
F
  0
LAYER
  5
52
330
2
100
AcDbSymbolTableRecord
100
AcDbLayerTableRecord
  2
逆止弁弁座
 70
     0
 62
   168
  6
Continuous
370
    -3
390
F
  0
LAYER
  5
53
330
2
100
AcDbSymbolTableRecord
100
AcDbLayerTableRecord
  2
アキュムレ_タ
 70
     0
 62
    22
  6
Continuous
370
    -3
390
F
  0
LAYER
  5
54
330
2
100
AcDbSymbolTableRecord
100
AcDbLayerTableRecord
  2
固定金具C
 70
     0
 62
     6
  6
Continuous
370
    -3
390
F
  0
LAYER
  5
55
330
2
100
AcDbSymbolTableRecord
100
AcDbLayerTableRecord
  2
ボルト_ナット_ネジ
 70
     0
 62
     1
  6
Continuous
370
    -3
390
F
  0
LAYER
  5
56
330
2
100
AcDbSymbolTableRecord
100
AcDbLayerTableRecord
  2
Oリング
 70
     0
 62
   110
  6
Continuous
370
    -3
390
F
  0
LAYER
  5
57
330
2
100
AcDbSymbolTableRecord
100
AcDbLayerTableRecord
  2
ポンプカバ_
 70
     0
 62
   215
  6
Continuous
370
    -3
390
F
  0
LAYER
  5
58
330
2
100
AcDbSymbolTableRecord
100
AcDbLayerTableRecord
  2
補強板
 70
     0
 62
     6
  6
Continuous
370
    -3
390
F
  0
LAYER
  5
59
330
2
100
AcDbSymbolTableRecord
100
AcDbLayerTableRecord
  2
防振ゴム
 70
     0
 62
   252
  6
Continuous
370
    -3
390
F
  0
LAYER
  5
5A
330
2
100
AcDbSymbolTableRecord
100
AcDbLayerTableRecord
  2
キャップA
 70
     0
 62
   255
  6
Continuous
370
    -3
390
F
  0
LAYER
  5
5B
330
2
100
AcDbSymbolTableRecord
100
AcDbLayerTableRecord
  2
ア_スリ_ド線
 70
     0
 62
    40
  6
Continuous
370
    -3
390
F
  0
LAYER
  5
5C
330
2
100
AcDbSymbolTableRecord
100
AcDbLayerTableRecord
  2
表の文字
 70
     0
 62
   255
  6
Continuous
370
    -3
390
F
  0
LAYER
  5
5D
330
2
100
AcDbSymbolTableRecord
100
AcDbLayerTableRecord
  2
ボ_ドスペ_サ
 70
     0
 62
   219
  6
Continuous
370
    -3
390
F
  0
LAYER
  5
5E
330
2
100
AcDbSymbolTableRecord
100
AcDbLayerTableRecord
  2
LAYER060
 70
     0
 62
    31
  6
Continuous
370
    -3
390
F
  0
LAYER
  5
5F
330
2
100
AcDbSymbolTableRecord
100
AcDbLayerTableRecord
  2
LAYER061
 70
     0
 62
    71
  6
Continuous
370
    -3
390
F
  0
LAYER
  5
60
330
2
100
AcDbSymbolTableRecord
100
AcDbLayerTableRecord
  2
LAYER062
 70
     0
 62
    71
  6
Continuous
370
    -3
390
F
  0
LAYER
  5
61
330
2
100
AcDbSymbolTableRecord
100
AcDbLayerTableRecord
  2
LAYER063
 70
     0
 62
    71
  6
Continuous
370
    -3
390
F
  0
LAYER
  5
62
330
2
100
AcDbSymbolTableRecord
100
AcDbLayerTableRecord
  2
LAYER064
 70
     0
 62
    71
  6
Continuous
370
    -3
390
F
  0
LAYER
  5
63
330
2
100
AcDbSymbolTableRecord
100
AcDbLayerTableRecord
  2
LAYER065
 70
     0
 62
    71
  6
Continuous
370
    -3
390
F
  0
LAYER
  5
64
330
2
100
AcDbSymbolTableRecord
100
AcDbLayerTableRecord
  2
LAYER066
 70
     0
 62
    71
  6
Continuous
370
    -3
390
F
  0
LAYER
  5
65
330
2
100
AcDbSymbolTableRecord
100
AcDbLayerTableRecord
  2
LAYER067
 70
     0
 62
    71
  6
Continuous
370
    -3
390
F
  0
LAYER
  5
66
330
2
100
AcDbSymbolTableRecord
100
AcDbLayerTableRecord
  2
LAYER068
 70
     0
 62
    71
  6
Continuous
370
    -3
390
F
  0
LAYER
  5
67
330
2
100
AcDbSymbolTableRecord
100
AcDbLayerTableRecord
  2
LAYER069
 70
     0
 62
    71
  6
Continuous
370
    -3
390
F
  0
LAYER
  5
68
330
2
100
AcDbSymbolTableRecord
100
AcDbLayerTableRecord
  2
LAYER070
 70
     0
 62
    71
  6
Continuous
370
    -3
390
F
  0
LAYER
  5
69
330
2
100
AcDbSymbolTableRecord
100
AcDbLayerTableRecord
  2
LAYER071
 70
     0
 62
   241
  6
Continuous
370
    -3
390
F
  0
LAYER
  5
6A
330
2
100
AcDbSymbolTableRecord
100
AcDbLayerTableRecord
  2
LAYER072
 70
     0
 62
   241
  6
Continuous
370
    -3
390
F
  0
LAYER
  5
6B
330
2
100
AcDbSymbolTableRecord
100
AcDbLayerTableRecord
  2
LAYER073
 70
     0
 62
   241
  6
Continuous
370
    -3
390
F
  0
LAYER
  5
6C
330
2
100
AcDbSymbolTableRecord
100
AcDbLayerTableRecord
  2
LAYER074
 70
     0
 62
   241
  6
Continuous
370
    -3
390
F
  0
LAYER
  5
6D
330
2
100
AcDbSymbolTableRecord
100
AcDbLayerTableRecord
  2
LAYER075
 70
     0
 62
   241
  6
Continuous
370
    -3
390
F
  0
LAYER
  5
6E
330
2
100
AcDbSymbolTableRecord
100
AcDbLayerTableRecord
  2
LAYER076
 70
     0
 62
   241
  6
Continuous
370
    -3
390
F
  0
LAYER
  5
6F
330
2
100
AcDbSymbolTableRecord
100
AcDbLayerTableRecord
  2
LAYER077
 70
     0
 62
   241
  6
Continuous
370
    -3
390
F
  0
LAYER
  5
70
330
2
100
AcDbSymbolTableRecord
100
AcDbLayerTableRecord
  2
LAYER078
 70
     0
 62
   241
  6
Continuous
370
    -3
390
F
  0
LAYER
  5
71
330
2
100
AcDbSymbolTableRecord
100
AcDbLayerTableRecord
  2
LAYER079
 70
     0
 62
   241
  6
Continuous
370
    -3
390
F
  0
LAYER
  5
72
330
2
100
AcDbSymbolTableRecord
100
AcDbLayerTableRecord
  2
LAYER080
 70
     0
 62
   241
  6
Continuous
370
    -3
390
F
  0
LAYER
  5
73
330
2
100
AcDbSymbolTableRecord
100
AcDbLayerTableRecord
  2
LAYER081
 70
     0
 62
   191
  6
Continuous
370
    -3
390
F
  0
LAYER
  5
74
330
2
100
AcDbSymbolTableRecord
100
AcDbLayerTableRecord
  2
LAYER082
 70
     0
 62
   191
  6
Continuous
370
    -3
390
F
  0
LAYER
  5
75
330
2
100
AcDbSymbolTableRecord
100
AcDbLayerTableRecord
  2
LAYER083
 70
     0
 62
   191
  6
Continuous
370
    -3
390
F
  0
LAYER
  5
76
330
2
100
AcDbSymbolTableRecord
100
AcDbLayerTableRecord
  2
LAYER084
 70
     0
 62
   191
  6
Continuous
370
    -3
390
F
  0
LAYER
  5
77
330
2
100
AcDbSymbolTableRecord
100
AcDbLayerTableRecord
  2
LAYER085
 70
     0
 62
   191
  6
Continuous
370
    -3
390
F
  0
LAYER
  5
78
330
2
100
AcDbSymbolTableRecord
100
AcDbLayerTableRecord
  2
LAYER086
 70
     0
 62
   191
  6
Continuous
370
    -3
390
F
  0
LAYER
  5
79
330
2
100
AcDbSymbolTableRecord
100
AcDbLayerTableRecord
  2
LAYER087
 70
     0
 62
   191
  6
Continuous
370
    -3
390
F
  0
LAYER
  5
7A
330
2
100
AcDbSymbolTableRecord
100
AcDbLayerTableRecord
  2
LAYER088
 70
     0
 62
   191
  6
Continuous
370
    -3
390
F
  0
LAYER
  5
7B
330
2
100
AcDbSymbolTableRecord
100
AcDbLayerTableRecord
  2
LAYER089
 70
     0
 62
   191
  6
Continuous
370
    -3
390
F
  0
LAYER
  5
7C
330
2
100
AcDbSymbolTableRecord
100
AcDbLayerTableRecord
  2
LAYER090
 70
     0
 62
   191
  6
Continuous
370
    -3
390
F
  0
LAYER
  5
7D
330
2
100
AcDbSymbolTableRecord
100
AcDbLayerTableRecord
  2
LAYER091
 70
     0
 62
   215
  6
Continuous
370
    -3
390
F
  0
LAYER
  5
7E
330
2
100
AcDbSymbolTableRecord
100
AcDbLayerTableRecord
  2
LAYER092
 70
     0
 62
   215
  6
Continuous
370
    -3
390
F
  0
LAYER
  5
7F
330
2
100
AcDbSymbolTableRecord
100
AcDbLayerTableRecord
  2
LAYER093
 70
     0
 62
   215
  6
Continuous
370
    -3
390
F
  0
LAYER
  5
80
330
2
100
AcDbSymbolTableRecord
100
AcDbLayerTableRecord
  2
LAYER094
 70
     0
 62
   215
  6
Continuous
370
    -3
390
F
  0
LAYER
  5
81
330
2
100
AcDbSymbolTableRecord
100
AcDbLayerTableRecord
  2
LAYER095
 70
     0
 62
   215
  6
Continuous
370
    -3
390
F
  0
LAYER
  5
82
330
2
100
AcDbSymbolTableRecord
100
AcDbLayerTableRecord
  2
LAYER096
 70
     0
 62
   215
  6
Continuous
370
    -3
390
F
  0
LAYER
  5
83
330
2
100
AcDbSymbolTableRecord
100
AcDbLayerTableRecord
  2
LAYER097
 70
     0
 62
   215
  6
Continuous
370
    -3
390
F
  0
LAYER
  5
84
330
2
100
AcDbSymbolTableRecord
100
AcDbLayerTableRecord
  2
LAYER098
 70
     0
 62
   215
  6
Continuous
370
    -3
390
F
  0
LAYER
  5
85
330
2
100
AcDbSymbolTableRecord
100
AcDbLayerTableRecord
  2
LAYER099
 70
     0
 62
   215
  6
Continuous
370
    -3
390
F
  0
LAYER
  5
86
330
2
100
AcDbSymbolTableRecord
100
AcDbLayerTableRecord
  2
LAYER100
 70
     0
 62
   215
  6
Continuous
370
    -3
390
F
  0
LAYER
  5
87
330
2
100
AcDbSymbolTableRecord
100
AcDbLayerTableRecord
  2
LAYER101
 70
     0
 62
   155
  6
Continuous
370
    -3
390
F
  0
LAYER
  5
88
330
2
100
AcDbSymbolTableRecord
100
AcDbLayerTableRecord
  2
LAYER102
 70
     0
 62
   155
  6
Continuous
370
    -3
390
F
  0
LAYER
  5
89
330
2
100
AcDbSymbolTableRecord
100
AcDbLayerTableRecord
  2
LAYER103
 70
     0
 62
   155
  6
Continuous
370
    -3
390
F
  0
LAYER
  5
8A
330
2
100
AcDbSymbolTableRecord
100
AcDbLayerTableRecord
  2
LAYER104
 70
     0
 62
   155
  6
Continuous
370
    -3
390
F
  0
LAYER
  5
8B
330
2
100
AcDbSymbolTableRecord
100
AcDbLayerTableRecord
  2
LAYER105
 70
     0
 62
   155
  6
Continuous
370
    -3
390
F
  0
LAYER
  5
8C
330
2
100
AcDbSymbolTableRecord
100
AcDbLayerTableRecord
  2
LAYER106
 70
     0
 62
   155
  6
Continuous
370
    -3
390
F
  0
LAYER
  5
8D
330
2
100
AcDbSymbolTableRecord
100
AcDbLayerTableRecord
  2
LAYER107
 70
     0
 62
   155
  6
Continuous
370
    -3
390
F
  0
LAYER
  5
8E
330
2
100
AcDbSymbolTableRecord
100
AcDbLayerTableRecord
  2
LAYER108
 70
     0
 62
   155
  6
Continuous
370
    -3
390
F
  0
LAYER
  5
8F
330
2
100
AcDbSymbolTableRecord
100
AcDbLayerTableRecord
  2
LAYER109
 70
     0
 62
   155
  6
Continuous
370
    -3
390
F
  0
LAYER
  5
90
330
2
100
AcDbSymbolTableRecord
100
AcDbLayerTableRecord
  2
LAYER110
 70
     0
 62
   155
  6
Continuous
370
    -3
390
F
  0
LAYER
  5
91
330
2
100
AcDbSymbolTableRecord
100
AcDbLayerTableRecord
  2
LAYER111
 70
     0
 62
   232
  6
Continuous
370
    -3
390
F
  0
LAYER
  5
92
330
2
100
AcDbSymbolTableRecord
100
AcDbLayerTableRecord
  2
LAYER112
 70
     0
 62
   232
  6
Continuous
370
    -3
390
F
  0
LAYER
  5
93
330
2
100
AcDbSymbolTableRecord
100
AcDbLayerTableRecord
  2
LAYER113
 70
     0
 62
   232
  6
Continuous
370
    -3
390
F
  0
LAYER
  5
94
330
2
100
AcDbSymbolTableRecord
100
AcDbLayerTableRecord
  2
LAYER114
 70
     0
 62
   232
  6
Continuous
370
    -3
390
F
  0
LAYER
  5
95
330
2
100
AcDbSymbolTableRecord
100
AcDbLayerTableRecord
  2
LAYER115
 70
     0
 62
   232
  6
Continuous
370
    -3
390
F
  0
LAYER
  5
96
330
2
100
AcDbSymbolTableRecord
100
AcDbLayerTableRecord
  2
LAYER116
 70
     0
 62
   232
  6
Continuous
370
    -3
390
F
  0
LAYER
  5
97
330
2
100
AcDbSymbolTableRecord
100
AcDbLayerTableRecord
  2
LAYER117
 70
     0
 62
   232
  6
Continuous
370
    -3
390
F
  0
LAYER
  5
98
330
2
100
AcDbSymbolTableRecord
100
AcDbLayerTableRecord
  2
LAYER118
 70
     0
 62
   232
  6
Continuous
370
    -3
390
F
  0
LAYER
  5
99
330
2
100
AcDbSymbolTableRecord
100
AcDbLayerTableRecord
  2
LAYER119
 70
     0
 62
   232
  6
Continuous
370
    -3
390
F
  0
LAYER
  5
9A
330
2
100
AcDbSymbolTableRecord
100
AcDbLayerTableRecord
  2
LAYER120
 70
     0
 62
   232
  6
Continuous
370
    -3
390
F
  0
LAYER
  5
9B
330
2
100
AcDbSymbolTableRecord
100
AcDbLayerTableRecord
  2
LAYER121
 70
     0
 62
   254
  6
Continuous
370
    -3
390
F
  0
LAYER
  5
9C
330
2
100
AcDbSymbolTableRecord
100
AcDbLayerTableRecord
  2
LAYER122
 70
     0
 62
   254
  6
Continuous
370
    -3
390
F
  0
LAYER
  5
9D
330
2
100
AcDbSymbolTableRecord
100
AcDbLayerTableRecord
  2
LAYER123
 70
     0
 62
   254
  6
Continuous
370
    -3
390
F
  0
LAYER
  5
9E
330
2
100
AcDbSymbolTableRecord
100
AcDbLayerTableRecord
  2
LAYER124
 70
     0
 62
   254
  6
Continuous
370
    -3
390
F
  0
LAYER
  5
9F
330
2
100
AcDbSymbolTableRecord
100
AcDbLayerTableRecord
  2
LAYER125
 70
     0
 62
   254
  6
Continuous
370
    -3
390
F
  0
LAYER
  5
A0
330
2
100
AcDbSymbolTableRecord
100
AcDbLayerTableRecord
  2
LAYER126
 70
     0
 62
   254
  6
Continuous
370
    -3
390
F
  0
LAYER
  5
A1
330
2
100
AcDbSymbolTableRecord
100
AcDbLayerTableRecord
  2
LAYER127
 70
     0
 62
   254
  6
Continuous
370
    -3
390
F
  0
LAYER
  5
A2
330
2
100
AcDbSymbolTableRecord
100
AcDbLayerTableRecord
  2
LAYER128
 70
     0
 62
   254
  6
Continuous
370
    -3
390
F
  0
LAYER
  5
A3
330
2
100
AcDbSymbolTableRecord
100
AcDbLayerTableRecord
  2
LAYER129
 70
     0
 62
   254
  6
Continuous
370
    -3
390
F
  0
LAYER
  5
A4
330
2
100
AcDbSymbolTableRecord
100
AcDbLayerTableRecord
  2
LAYER130
 70
     0
 62
   254
  6
Continuous
370
    -3
390
F
  0
LAYER
  5
A5
330
2
100
AcDbSymbolTableRecord
100
AcDbLayerTableRecord
  2
LAYER131
 70
     0
 62
     2
  6
Continuous
370
    -3
390
F
  0
LAYER
  5
A6
330
2
100
AcDbSymbolTableRecord
100
AcDbLayerTableRecord
  2
LAYER132
 70
     0
 62
     2
  6
Continuous
370
    -3
390
F
  0
LAYER
  5
A7
330
2
100
AcDbSymbolTableRecord
100
AcDbLayerTableRecord
  2
LAYER133
 70
     0
 62
     2
  6
Continuous
370
    -3
390
F
  0
LAYER
  5
A8
330
2
100
AcDbSymbolTableRecord
100
AcDbLayerTableRecord
  2
LAYER134
 70
     0
 62
     2
  6
Continuous
370
    -3
390
F
  0
LAYER
  5
A9
330
2
100
AcDbSymbolTableRecord
100
AcDbLayerTableRecord
  2
LAYER135
 70
     0
 62
     2
  6
Continuous
370
    -3
390
F
  0
LAYER
  5
AA
330
2
100
AcDbSymbolTableRecord
100
AcDbLayerTableRecord
  2
LAYER136
 70
     0
 62
     2
  6
Continuous
370
    -3
390
F
  0
LAYER
  5
AB
330
2
100
AcDbSymbolTableRecord
100
AcDbLayerTableRecord
  2
LAYER137
 70
     0
 62
     2
  6
Continuous
370
    -3
390
F
  0
LAYER
  5
AC
330
2
100
AcDbSymbolTableRecord
100
AcDbLayerTableRecord
  2
LAYER138
 70
     0
 62
     2
  6
Continuous
370
    -3
390
F
  0
LAYER
  5
AD
330
2
100
AcDbSymbolTableRecord
100
AcDbLayerTableRecord
  2
LAYER139
 70
     0
 62
     2
  6
Continuous
370
    -3
390
F
  0
LAYER
  5
AE
330
2
100
AcDbSymbolTableRecord
100
AcDbLayerTableRecord
  2
LAYER140
 70
     0
 62
     2
  6
Continuous
370
    -3
390
F
  0
LAYER
  5
AF
330
2
100
AcDbSymbolTableRecord
100
AcDbLayerTableRecord
  2
LAYER141
 70
     0
 62
     3
  6
Continuous
370
    -3
390
F
  0
LAYER
  5
B0
330
2
100
AcDbSymbolTableRecord
100
AcDbLayerTableRecord
  2
LAYER142
 70
     0
 62
     3
  6
Continuous
370
    -3
390
F
  0
LAYER
  5
B1
330
2
100
AcDbSymbolTableRecord
100
AcDbLayerTableRecord
  2
LAYER143
 70
     0
 62
     3
  6
Continuous
370
    -3
390
F
  0
LAYER
  5
B2
330
2
100
AcDbSymbolTableRecord
100
AcDbLayerTableRecord
  2
LAYER144
 70
     0
 62
     3
  6
Continuous
370
    -3
390
F
  0
LAYER
  5
B3
330
2
100
AcDbSymbolTableRecord
100
AcDbLayerTableRecord
  2
LAYER145
 70
     0
 62
     3
  6
Continuous
370
    -3
390
F
  0
LAYER
  5
B4
330
2
100
AcDbSymbolTableRecord
100
AcDbLayerTableRecord
  2
LAYER146
 70
     0
 62
     3
  6
Continuous
370
    -3
390
F
  0
LAYER
  5
B5
330
2
100
AcDbSymbolTableRecord
100
AcDbLayerTableRecord
  2
LAYER147
 70
     0
 62
     3
  6
Continuous
370
    -3
390
F
  0
LAYER
  5
B6
330
2
100
AcDbSymbolTableRecord
100
AcDbLayerTableRecord
  2
LAYER148
 70
     0
 62
     3
  6
Continuous
370
    -3
390
F
  0
LAYER
  5
B7
330
2
100
AcDbSymbolTableRecord
100
AcDbLayerTableRecord
  2
LAYER149
 70
     0
 62
     3
  6
Continuous
370
    -3
390
F
  0
LAYER
  5
B8
330
2
100
AcDbSymbolTableRecord
100
AcDbLayerTableRecord
  2
LAYER150
 70
     0
 62
     3
  6
Continuous
370
    -3
390
F
  0
LAYER
  5
B9
330
2
100
AcDbSymbolTableRecord
100
AcDbLayerTableRecord
  2
LAYER151
 70
     0
 62
     5
  6
Continuous
370
    -3
390
F
  0
LAYER
  5
BA
330
2
100
AcDbSymbolTableRecord
100
AcDbLayerTableRecord
  2
LAYER152
 70
     0
 62
     5
  6
Continuous
370
    -3
390
F
  0
LAYER
  5
BB
330
2
100
AcDbSymbolTableRecord
100
AcDbLayerTableRecord
  2
LAYER153
 70
     0
 62
     5
  6
Continuous
370
    -3
390
F
  0
LAYER
  5
BC
330
2
100
AcDbSymbolTableRecord
100
AcDbLayerTableRecord
  2
LAYER154
 70
     0
 62
     5
  6
Continuous
370
    -3
390
F
  0
LAYER
  5
BD
330
2
100
AcDbSymbolTableRecord
100
AcDbLayerTableRecord
  2
LAYER155
 70
     0
 62
     5
  6
Continuous
370
    -3
390
F
  0
LAYER
  5
BE
330
2
100
AcDbSymbolTableRecord
100
AcDbLayerTableRecord
  2
LAYER156
 70
     0
 62
     5
  6
Continuous
370
    -3
390
F
  0
LAYER
  5
BF
330
2
100
AcDbSymbolTableRecord
100
AcDbLayerTableRecord
  2
LAYER157
 70
     0
 62
     5
  6
Continuous
370
    -3
390
F
  0
LAYER
  5
C0
330
2
100
AcDbSymbolTableRecord
100
AcDbLayerTableRecord
  2
LAYER158
 70
     0
 62
     5
  6
Continuous
370
    -3
390
F
  0
LAYER
  5
C1
330
2
100
AcDbSymbolTableRecord
100
AcDbLayerTableRecord
  2
LAYER159
 70
     0
 62
     5
  6
Continuous
370
    -3
390
F
  0
LAYER
  5
C2
330
2
100
AcDbSymbolTableRecord
100
AcDbLayerTableRecord
  2
LAYER160
 70
     0
 62
     5
  6
Continuous
370
    -3
390
F
  0
LAYER
  5
C3
330
2
100
AcDbSymbolTableRecord
100
AcDbLayerTableRecord
  2
LAYER161
 70
     0
 62
     4
  6
Continuous
370
    -3
390
F
  0
LAYER
  5
C4
330
2
100
AcDbSymbolTableRecord
100
AcDbLayerTableRecord
  2
LAYER162
 70
     0
 62
     4
  6
Continuous
370
    -3
390
F
  0
LAYER
  5
C5
330
2
100
AcDbSymbolTableRecord
100
AcDbLayerTableRecord
  2
LAYER163
 70
     0
 62
     4
  6
Continuous
370
    -3
390
F
  0
LAYER
  5
C6
330
2
100
AcDbSymbolTableRecord
100
AcDbLayerTableRecord
  2
LAYER164
 70
     0
 62
     4
  6
Continuous
370
    -3
390
F
  0
LAYER
  5
C7
330
2
100
AcDbSymbolTableRecord
100
AcDbLayerTableRecord
  2
LAYER165
 70
     0
 62
     4
  6
Continuous
370
    -3
390
F
  0
LAYER
  5
C8
330
2
100
AcDbSymbolTableRecord
100
AcDbLayerTableRecord
  2
LAYER166
 70
     0
 62
     4
  6
Continuous
370
    -3
390
F
  0
LAYER
  5
C9
330
2
100
AcDbSymbolTableRecord
100
AcDbLayerTableRecord
  2
LAYER167
 70
     0
 62
     4
  6
Continuous
370
    -3
390
F
  0
LAYER
  5
CA
330
2
100
AcDbSymbolTableRecord
100
AcDbLayerTableRecord
  2
LAYER168
 70
     0
 62
     4
  6
Continuous
370
    -3
390
F
  0
LAYER
  5
CB
330
2
100
AcDbSymbolTableRecord
100
AcDbLayerTableRecord
  2
LAYER169
 70
     0
 62
     4
  6
Continuous
370
    -3
390
F
  0
LAYER
  5
CC
330
2
100
AcDbSymbolTableRecord
100
AcDbLayerTableRecord
  2
LAYER170
 70
     0
 62
     4
  6
Continuous
370
    -3
390
F
  0
LAYER
  5
CD
330
2
100
AcDbSymbolTableRecord
100
AcDbLayerTableRecord
  2
LAYER171
 70
     0
 62
   163
  6
Continuous
370
    -3
390
F
  0
LAYER
  5
CE
330
2
100
AcDbSymbolTableRecord
100
AcDbLayerTableRecord
  2
LAYER172
 70
     0
 62
   163
  6
Continuous
370
    -3
390
F
  0
LAYER
  5
CF
330
2
100
AcDbSymbolTableRecord
100
AcDbLayerTableRecord
  2
LAYER173
 70
     0
 62
   163
  6
Continuous
370
    -3
390
F
  0
LAYER
  5
D0
330
2
100
AcDbSymbolTableRecord
100
AcDbLayerTableRecord
  2
LAYER174
 70
     0
 62
   163
  6
Continuous
370
    -3
390
F
  0
LAYER
  5
D1
330
2
100
AcDbSymbolTableRecord
100
AcDbLayerTableRecord
  2
LAYER175
 70
     0
 62
   163
  6
Continuous
370
    -3
390
F
  0
LAYER
  5
D2
330
2
100
AcDbSymbolTableRecord
100
AcDbLayerTableRecord
  2
LAYER176
 70
     0
 62
   163
  6
Continuous
370
    -3
390
F
  0
LAYER
  5
D3
330
2
100
AcDbSymbolTableRecord
100
AcDbLayerTableRecord
  2
LAYER177
 70
     0
 62
   163
  6
Continuous
370
    -3
390
F
  0
LAYER
  5
D4
330
2
100
AcDbSymbolTableRecord
100
AcDbLayerTableRecord
  2
LAYER178
 70
     0
 62
   163
  6
Continuous
370
    -3
390
F
  0
LAYER
  5
D5
330
2
100
AcDbSymbolTableRecord
100
AcDbLayerTableRecord
  2
LAYER179
 70
     0
 62
   163
  6
Continuous
370
    -3
390
F
  0
LAYER
  5
D6
330
2
100
AcDbSymbolTableRecord
100
AcDbLayerTableRecord
  2
LAYER180
 70
     0
 62
   163
  6
Continuous
370
    -3
390
F
  0
LAYER
  5
D7
330
2
100
AcDbSymbolTableRecord
100
AcDbLayerTableRecord
  2
LAYER181
 70
     0
 62
    31
  6
Continuous
370
    -3
390
F
  0
LAYER
  5
D8
330
2
100
AcDbSymbolTableRecord
100
AcDbLayerTableRecord
  2
LAYER182
 70
     0
 62
    31
  6
Continuous
370
    -3
390
F
  0
LAYER
  5
D9
330
2
100
AcDbSymbolTableRecord
100
AcDbLayerTableRecord
  2
LAYER183
 70
     0
 62
    31
  6
Continuous
370
    -3
390
F
  0
LAYER
  5
DA
330
2
100
AcDbSymbolTableRecord
100
AcDbLayerTableRecord
  2
LAYER184
 70
     0
 62
    31
  6
Continuous
370
    -3
390
F
  0
LAYER
  5
DB
330
2
100
AcDbSymbolTableRecord
100
AcDbLayerTableRecord
  2
LAYER185
 70
     0
 62
    31
  6
Continuous
370
    -3
390
F
  0
LAYER
  5
DC
330
2
100
AcDbSymbolTableRecord
100
AcDbLayerTableRecord
  2
LAYER186
 70
     0
 62
    31
  6
Continuous
370
    -3
390
F
  0
LAYER
  5
DD
330
2
100
AcDbSymbolTableRecord
100
AcDbLayerTableRecord
  2
LAYER187
 70
     0
 62
    31
  6
Continuous
370
    -3
390
F
  0
LAYER
  5
DE
330
2
100
AcDbSymbolTableRecord
100
AcDbLayerTableRecord
  2
LAYER188
 70
     0
 62
    31
  6
Continuous
370
    -3
390
F
  0
LAYER
  5
DF
330
2
100
AcDbSymbolTableRecord
100
AcDbLayerTableRecord
  2
LAYER189
 70
     0
 62
    31
  6
Continuous
370
    -3
390
F
  0
LAYER
  5
E0
330
2
100
AcDbSymbolTableRecord
100
AcDbLayerTableRecord
  2
LAYER190
 70
     0
 62
    31
  6
Continuous
370
    -3
390
F
  0
LAYER
  5
E1
330
2
100
AcDbSymbolTableRecord
100
AcDbLayerTableRecord
  2
LAYER191
 70
     0
 62
    71
  6
Continuous
370
    -3
390
F
  0
LAYER
  5
E2
330
2
100
AcDbSymbolTableRecord
100
AcDbLayerTableRecord
  2
LAYER192
 70
     0
 62
    71
  6
Continuous
370
    -3
390
F
  0
LAYER
  5
E3
330
2
100
AcDbSymbolTableRecord
100
AcDbLayerTableRecord
  2
LAYER193
 70
     0
 62
    71
  6
Continuous
370
    -3
390
F
  0
LAYER
  5
E4
330
2
100
AcDbSymbolTableRecord
100
AcDbLayerTableRecord
  2
LAYER194
 70
     0
 62
    71
  6
Continuous
370
    -3
390
F
  0
LAYER
  5
E5
330
2
100
AcDbSymbolTableRecord
100
AcDbLayerTableRecord
  2
LAYER195
 70
     0
 62
    71
  6
Continuous
370
    -3
390
F
  0
LAYER
  5
E6
330
2
100
AcDbSymbolTableRecord
100
AcDbLayerTableRecord
  2
LAYER196
 70
     0
 62
    71
  6
Continuous
370
    -3
390
F
  0
LAYER
  5
E7
330
2
100
AcDbSymbolTableRecord
100
AcDbLayerTableRecord
  2
LAYER197
 70
     0
 62
    71
  6
Continuous
370
    -3
390
F
  0
LAYER
  5
E8
330
2
100
AcDbSymbolTableRecord
100
AcDbLayerTableRecord
  2
LAYER198
 70
     0
 62
    71
  6
Continuous
370
    -3
390
F
  0
LAYER
  5
E9
330
2
100
AcDbSymbolTableRecord
100
AcDbLayerTableRecord
  2
LAYER199
 70
     0
 62
    71
  6
Continuous
370
    -3
390
F
  0
LAYER
  5
EA
330
2
100
AcDbSymbolTableRecord
100
AcDbLayerTableRecord
  2
LAYER200
 70
     0
 62
    71
  6
Continuous
370
    -3
390
F
  0
LAYER
  5
EB
330
2
100
AcDbSymbolTableRecord
100
AcDbLayerTableRecord
  2
LAYER201
 70
     0
 62
   241
  6
Continuous
370
    -3
390
F
  0
LAYER
  5
EC
330
2
100
AcDbSymbolTableRecord
100
AcDbLayerTableRecord
  2
LAYER202
 70
     0
 62
   241
  6
Continuous
370
    -3
390
F
  0
LAYER
  5
ED
330
2
100
AcDbSymbolTableRecord
100
AcDbLayerTableRecord
  2
LAYER203
 70
     0
 62
   241
  6
Continuous
370
    -3
390
F
  0
LAYER
  5
EE
330
2
100
AcDbSymbolTableRecord
100
AcDbLayerTableRecord
  2
LAYER204
 70
     0
 62
   241
  6
Continuous
370
    -3
390
F
  0
LAYER
  5
EF
330
2
100
AcDbSymbolTableRecord
100
AcDbLayerTableRecord
  2
LAYER205
 70
     0
 62
   241
  6
Continuous
370
    -3
390
F
  0
LAYER
  5
F0
330
2
100
AcDbSymbolTableRecord
100
AcDbLayerTableRecord
  2
LAYER206
 70
     0
 62
   241
  6
Continuous
370
    -3
390
F
  0
LAYER
  5
F1
330
2
100
AcDbSymbolTableRecord
100
AcDbLayerTableRecord
  2
LAYER207
 70
     0
 62
   241
  6
Continuous
370
    -3
390
F
  0
LAYER
  5
F2
330
2
100
AcDbSymbolTableRecord
100
AcDbLayerTableRecord
  2
LAYER208
 70
     0
 62
   241
  6
Continuous
370
    -3
390
F
  0
LAYER
  5
F3
330
2
100
AcDbSymbolTableRecord
100
AcDbLayerTableRecord
  2
LAYER209
 70
     0
 62
   241
  6
Continuous
370
    -3
390
F
  0
LAYER
  5
F4
330
2
100
AcDbSymbolTableRecord
100
AcDbLayerTableRecord
  2
LAYER210
 70
     0
 62
   241
  6
Continuous
370
    -3
390
F
  0
LAYER
  5
F5
330
2
100
AcDbSymbolTableRecord
100
AcDbLayerTableRecord
  2
LAYER211
 70
     0
 62
   191
  6
Continuous
370
    -3
390
F
  0
LAYER
  5
F6
330
2
100
AcDbSymbolTableRecord
100
AcDbLayerTableRecord
  2
LAYER212
 70
     0
 62
   191
  6
Continuous
370
    -3
390
F
  0
LAYER
  5
F7
330
2
100
AcDbSymbolTableRecord
100
AcDbLayerTableRecord
  2
LAYER213
 70
     0
 62
   191
  6
Continuous
370
    -3
390
F
  0
LAYER
  5
F8
330
2
100
AcDbSymbolTableRecord
100
AcDbLayerTableRecord
  2
LAYER214
 70
     0
 62
   191
  6
Continuous
370
    -3
390
F
  0
LAYER
  5
F9
330
2
100
AcDbSymbolTableRecord
100
AcDbLayerTableRecord
  2
LAYER215
 70
     0
 62
   191
  6
Continuous
370
    -3
390
F
  0
LAYER
  5
FA
330
2
100
AcDbSymbolTableRecord
100
AcDbLayerTableRecord
  2
LAYER216
 70
     0
 62
   191
  6
Continuous
370
    -3
390
F
  0
LAYER
  5
FB
330
2
100
AcDbSymbolTableRecord
100
AcDbLayerTableRecord
  2
LAYER217
 70
     0
 62
   191
  6
Continuous
370
    -3
390
F
  0
LAYER
  5
FC
330
2
100
AcDbSymbolTableRecord
100
AcDbLayerTableRecord
  2
LAYER218
 70
     0
 62
   191
  6
Continuous
370
    -3
390
F
  0
LAYER
  5
FD
330
2
100
AcDbSymbolTableRecord
100
AcDbLayerTableRecord
  2
LAYER219
 70
     0
 62
   191
  6
Continuous
370
    -3
390
F
  0
LAYER
  5
FE
330
2
100
AcDbSymbolTableRecord
100
AcDbLayerTableRecord
  2
LAYER220
 70
     0
 62
   191
  6
Continuous
370
    -3
390
F
  0
LAYER
  5
FF
330
2
100
AcDbSymbolTableRecord
100
AcDbLayerTableRecord
  2
LAYER221
 70
     0
 62
   215
  6
Continuous
370
    -3
390
F
  0
LAYER
  5
100
330
2
100
AcDbSymbolTableRecord
100
AcDbLayerTableRecord
  2
LAYER222
 70
     0
 62
   215
  6
Continuous
370
    -3
390
F
  0
LAYER
  5
101
330
2
100
AcDbSymbolTableRecord
100
AcDbLayerTableRecord
  2
LAYER223
 70
     0
 62
   215
  6
Continuous
370
    -3
390
F
  0
LAYER
  5
102
330
2
100
AcDbSymbolTableRecord
100
AcDbLayerTableRecord
  2
LAYER224
 70
     0
 62
   215
  6
Continuous
370
    -3
390
F
  0
LAYER
  5
103
330
2
100
AcDbSymbolTableRecord
100
AcDbLayerTableRecord
  2
LAYER225
 70
     0
 62
   215
  6
Continuous
370
    -3
390
F
  0
LAYER
  5
104
330
2
100
AcDbSymbolTableRecord
100
AcDbLayerTableRecord
  2
LAYER226
 70
     0
 62
   215
  6
Continuous
370
    -3
390
F
  0
LAYER
  5
105
330
2
100
AcDbSymbolTableRecord
100
AcDbLayerTableRecord
  2
LAYER227
 70
     0
 62
   215
  6
Continuous
370
    -3
390
F
  0
LAYER
  5
106
330
2
100
AcDbSymbolTableRecord
100
AcDbLayerTableRecord
  2
LAYER228
 70
     0
 62
   215
  6
Continuous
370
    -3
390
F
  0
LAYER
  5
107
330
2
100
AcDbSymbolTableRecord
100
AcDbLayerTableRecord
  2
LAYER229
 70
     0
 62
   215
  6
Continuous
370
    -3
390
F
  0
LAYER
  5
108
330
2
100
AcDbSymbolTableRecord
100
AcDbLayerTableRecord
  2
LAYER230
 70
     0
 62
   215
  6
Continuous
370
    -3
390
F
  0
LAYER
  5
109
330
2
100
AcDbSymbolTableRecord
100
AcDbLayerTableRecord
  2
LAYER231
 70
     0
 62
   155
  6
Continuous
370
    -3
390
F
  0
LAYER
  5
10A
330
2
100
AcDbSymbolTableRecord
100
AcDbLayerTableRecord
  2
LAYER232
 70
     0
 62
   155
  6
Continuous
370
    -3
390
F
  0
LAYER
  5
10B
330
2
100
AcDbSymbolTableRecord
100
AcDbLayerTableRecord
  2
LAYER233
 70
     0
 62
   155
  6
Continuous
370
    -3
390
F
  0
LAYER
  5
10C
330
2
100
AcDbSymbolTableRecord
100
AcDbLayerTableRecord
  2
LAYER234
 70
     0
 62
   155
  6
Continuous
370
    -3
390
F
  0
LAYER
  5
10D
330
2
100
AcDbSymbolTableRecord
100
AcDbLayerTableRecord
  2
LAYER235
 70
     0
 62
   155
  6
Continuous
370
    -3
390
F
  0
LAYER
  5
10E
330
2
100
AcDbSymbolTableRecord
100
AcDbLayerTableRecord
  2
LAYER236
 70
     0
 62
   155
  6
Continuous
370
    -3
390
F
  0
LAYER
  5
10F
330
2
100
AcDbSymbolTableRecord
100
AcDbLayerTableRecord
  2
LAYER237
 70
     0
 62
   155
  6
Continuous
370
    -3
390
F
  0
LAYER
  5
110
330
2
100
AcDbSymbolTableRecord
100
AcDbLayerTableRecord
  2
LAYER238
 70
     0
 62
   155
  6
Continuous
370
    -3
390
F
  0
LAYER
  5
111
330
2
100
AcDbSymbolTableRecord
100
AcDbLayerTableRecord
  2
LAYER239
 70
     0
 62
   155
  6
Continuous
370
    -3
390
F
  0
LAYER
  5
112
330
2
100
AcDbSymbolTableRecord
100
AcDbLayerTableRecord
  2
LAYER240
 70
     0
 62
   155
  6
Continuous
370
    -3
390
F
  0
LAYER
  5
113
330
2
100
AcDbSymbolTableRecord
100
AcDbLayerTableRecord
  2
LAYER241
 70
     0
 62
   232
  6
Continuous
370
    -3
390
F
  0
LAYER
  5
114
330
2
100
AcDbSymbolTableRecord
100
AcDbLayerTableRecord
  2
LAYER242
 70
     0
 62
   232
  6
Continuous
370
    -3
390
F
  0
LAYER
  5
115
330
2
100
AcDbSymbolTableRecord
100
AcDbLayerTableRecord
  2
LAYER243
 70
     0
 62
   232
  6
Continuous
370
    -3
390
F
  0
LAYER
  5
116
330
2
100
AcDbSymbolTableRecord
100
AcDbLayerTableRecord
  2
LAYER244
 70
     0
 62
   232
  6
Continuous
370
    -3
390
F
  0
LAYER
  5
117
330
2
100
AcDbSymbolTableRecord
100
AcDbLayerTableRecord
  2
LAYER245
 70
     0
 62
   232
  6
Continuous
370
    -3
390
F
  0
LAYER
  5
118
330
2
100
AcDbSymbolTableRecord
100
AcDbLayerTableRecord
  2
LAYER246
 70
     0
 62
   232
  6
Continuous
370
    -3
390
F
  0
LAYER
  5
119
330
2
100
AcDbSymbolTableRecord
100
AcDbLayerTableRecord
  2
LAYER247
 70
     0
 62
   232
  6
Continuous
370
    -3
390
F
  0
LAYER
  5
11A
330
2
100
AcDbSymbolTableRecord
100
AcDbLayerTableRecord
  2
LAYER248
 70
     0
 62
   232
  6
Continuous
370
    -3
390
F
  0
LAYER
  5
11B
330
2
100
AcDbSymbolTableRecord
100
AcDbLayerTableRecord
  2
LAYER249
 70
     0
 62
   232
  6
Continuous
370
    -3
390
F
  0
LAYER
  5
11C
330
2
100
AcDbSymbolTableRecord
100
AcDbLayerTableRecord
  2
LAYER250
 70
     0
 62
   232
  6
Continuous
370
    -3
390
F
  0
LAYER
  5
11D
330
2
100
AcDbSymbolTableRecord
100
AcDbLayerTableRecord
  2
LAYER251
 70
     0
 62
   254
  6
Continuous
370
    -3
390
F
  0
LAYER
  5
11E
330
2
100
AcDbSymbolTableRecord
100
AcDbLayerTableRecord
  2
LAYER252
 70
     0
 62
   254
  6
Continuous
370
    -3
390
F
  0
LAYER
  5
11F
330
2
100
AcDbSymbolTableRecord
100
AcDbLayerTableRecord
  2
LAYER253
 70
     0
 62
   254
  6
Continuous
370
    -3
390
F
  0
LAYER
  5
120
330
2
100
AcDbSymbolTableRecord
100
AcDbLayerTableRecord
  2
LAYER256
 70
     0
 62
   254
  6
Continuous
370
    -3
390
F
  0
LAYER
  5
121
330
2
100
AcDbSymbolTableRecord
100
AcDbLayerTableRecord
  2
ケ_シングカバ_
 70
     0
 62
   150
  6
Continuous
370
    -3
390
F
  0
LAYER
  5
122
330
2
100
AcDbSymbolTableRecord
100
AcDbLayerTableRecord
  2
制御箱カバ_
 70
     0
 62
   110
  6
Continuous
370
    -3
390
F
  0
LAYER
  5
123
330
2
100
AcDbSymbolTableRecord
100
AcDbLayerTableRecord
  2
ネジ_ボルト
 70
     0
 62
     1
  6
Continuous
370
    -3
390
F
  0
LAYER
  5
124
330
2
100
AcDbSymbolTableRecord
100
AcDbLayerTableRecord
  2
逆止弁フランジ
 70
     0
 62
   160
  6
Continuous
370
    -3
390
F
  0
LAYER
  5
125
330
2
100
AcDbSymbolTableRecord
100
AcDbLayerTableRecord
  2
30AフランジPK
 70
     0
 62
   172
  6
Continuous
370
    -3
390
F
  0
LAYER
  5
126
330
2
100
AcDbSymbolTableRecord
100
AcDbLayerTableRecord
  2
30Aフランジ
 70
     0
 62
   162
  6
Continuous
370
    -3
390
F
  0
LAYER
  5
127
330
2
100
AcDbSymbolTableRecord
100
AcDbLayerTableRecord
  2
25AフランジPK
 70
     0
 62
    23
  6
Continuous
370
    -3
390
F
  0
LAYER
  5
128
330
2
100
AcDbSymbolTableRecord
100
AcDbLayerTableRecord
  2
25Aフランジ
 70
     0
 62
    21
  6
Continuous
370
    -3
390
F
  0
LAYER
  5
129
330
2
100
AcDbSymbolTableRecord
100
AcDbLayerTableRecord
  2
電源コ_ド
 70
     0
 62
   129
  6
Continuous
370
    -3
390
F
  0
LAYER
  5
12A
330
2
100
AcDbSymbolTableRecord
100
AcDbLayerTableRecord
  2
ロ_タ完成
 70
     0
 62
   255
  6
Continuous
370
    -3
390
F
  0
LAYER
  5
12B
330
2
100
AcDbSymbolTableRecord
100
AcDbLayerTableRecord
  2
パッキンA
 70
     0
 62
    30
  6
Continuous
370
    -3
390
F
  0
LAYER
  5
12C
330
2
100
AcDbSymbolTableRecord
100
AcDbLayerTableRecord
  2
仕切板
 70
     0
 62
   191
  6
Continuous
370
    -3
390
F
  0
LAYER
  5
12D
330
2
100
AcDbSymbolTableRecord
100
AcDbLayerTableRecord
  2
羽根車
 70
     0
 62
    31
  6
Continuous
370
    -3
390
F
  0
LAYER
  5
12E
330
2
100
AcDbSymbolTableRecord
100
AcDbLayerTableRecord
  2
枠内文字
 70
     0
 62
   255
  6
Continuous
370
    -3
390
F
  0
LAYER
  5
12F
330
2
100
AcDbSymbolTableRecord
100
AcDbLayerTableRecord
  2
吸気用仕切板
 70
     0
 62
   167
  6
Continuous
370
    -3
390
F
  0
LAYER
  5
130
330
2
100
AcDbSymbolTableRecord
100
AcDbLayerTableRecord
  2
トランス
 70
     0
 62
   250
  6
Continuous
370
    -3
390
F
  0
LAYER
  5
131
330
2
100
AcDbSymbolTableRecord
100
AcDbLayerTableRecord
  2
ノズルキャップ
 70
     0
 62
     1
  6
Continuous
370
    -3
390
F
  0
LAYER
  5
132
330
2
100
AcDbSymbolTableRecord
100
AcDbLayerTableRecord
  2
ノズル
 70
     0
 62
     3
  6
Continuous
370
    -3
390
F
  0
LAYER
  5
133
330
2
100
AcDbSymbolTableRecord
100
AcDbLayerTableRecord
  2
ベ_スキャップ
 70
     0
 62
   215
  6
Continuous
370
    -3
390
F
  0
LAYER
  5
134
330
2
100
AcDbSymbolTableRecord
100
AcDbLayerTableRecord
  2
モ_タファン
 70
     0
 62
    93
  6
Continuous
370
    -3
390
F
  0
LAYER
  5
135
330
2
100
AcDbSymbolTableRecord
100
AcDbLayerTableRecord
  2
固定金具
 70
     0
 62
   164
  6
Continuous
370
    -3
390
F
  0
LAYER
  5
136
330
2
100
AcDbSymbolTableRecord
100
AcDbLayerTableRecord
  2
圧力センサ_
 70
     0
 62
   169
  6
Continuous
370
    -3
390
F
  0
LAYER
  5
137
330
2
100
AcDbSymbolTableRecord
100
AcDbLayerTableRecord
  2
ケ_シング
 70
     0
 62
    18
  6
Continuous
370
    -3
390
F
  0
LAYER
  5
138
330
2
100
AcDbSymbolTableRecord
100
AcDbLayerTableRecord
  2
サ_ミスタ
 70
     0
 62
   160
  6
Continuous
370
    -3
390
F
  0
LAYER
  5
139
330
2
100
AcDbSymbolTableRecord
100
AcDbLayerTableRecord
  2
結束バンド
 70
     0
 62
   168
  6
Continuous
370
    -3
390
F
  0
LAYER
  5
13A
330
2
100
AcDbSymbolTableRecord
100
AcDbLayerTableRecord
  2
センサ_リ_ド線
 70
     0
 62
   166
  6
Continuous
370
    -3
390
F
  0
LAYER
  5
13B
330
2
100
AcDbSymbolTableRecord
100
AcDbLayerTableRecord
  2
ファンカバ_
 70
     0
 62
    97
  6
Continuous
370
    -3
390
F
  0
LAYER
  5
13C
330
2
100
AcDbSymbolTableRecord
100
AcDbLayerTableRecord
  2
ACC完成
 70
     0
 62
    27
  6
Continuous
370
    -3
390
F
  0
LAYER
  5
13D
330
2
100
AcDbSymbolTableRecord
100
AcDbLayerTableRecord
  2
モ_タフレ_ム
 70
     0
 62
     4
  6
Continuous
370
    -3
390
F
  0
LAYER
  5
13E
330
2
100
AcDbSymbolTableRecord
100
AcDbLayerTableRecord
  2
防振スペ_サ
 70
     0
 62
   161
  6
Continuous
370
    -3
390
F
  0
LAYER
  5
13F
330
2
100
AcDbSymbolTableRecord
100
AcDbLayerTableRecord
  2
案内羽根
 70
     0
 62
   254
  6
Continuous
370
    -3
390
F
  0
LAYER
  5
140
330
2
100
AcDbSymbolTableRecord
100
AcDbLayerTableRecord
  2
弁体用フタ
 70
     0
 62
   252
  6
Continuous
370
    -3
390
F
  0
LAYER
  5
141
330
2
100
AcDbSymbolTableRecord
100
AcDbLayerTableRecord
  2
パッキンB
 70
     0
 62
   232
  6
Continuous
370
    -3
390
F
  0
LAYER
  5
142
330
2
100
AcDbSymbolTableRecord
100
AcDbLayerTableRecord
  2
メカニカルシ_ル
 70
     0
 62
   241
  6
Continuous
370
    -3
390
F
  0
LAYER
  5
143
330
2
100
AcDbSymbolTableRecord
100
AcDbLayerTableRecord
  2
モ_タ基板
 70
     0
 62
     5
  6
Continuous
370
    -3
390
F
  0
LAYER
  5
144
330
2
100
AcDbSymbolTableRecord
100
AcDbLayerTableRecord
  2
インシュレ_タ完成
 70
     0
 62
     6
  6
Continuous
370
    -3
390
F
  0
LAYER
  5
145
330
2
100
AcDbSymbolTableRecord
100
AcDbLayerTableRecord
  2
モ_タカバ_
 70
     0
 62
     1
  6
Continuous
370
    -3
390
F
  0
LAYER
  5
146
330
2
100
AcDbSymbolTableRecord
100
AcDbLayerTableRecord
  2
SLD-DEFPOINTS
 70
     0
 62
   179
  6
Continuous
370
    -3
390
F
  0
ENDTAB
  0
TABLE
  2
STYLE
  5
3
330
0
100
AcDbSymbolTable
 70
     1
  0
STYLE
  5
11
330
3
100
AcDbSymbolTableRecord
100
AcDbTextStyleTableRecord
  2
Standard
 70
     0
 40
0.0
 41
1.0
 50
0.0
 71
     0
 42
3.5
  3
txt
  4
bigfont
  0
ENDTAB
  0
TABLE
  2
VIEW
  5
6
330
0
100
AcDbSymbolTable
 70
     0
  0
ENDTAB
  0
TABLE
  2
UCS
  5
7
330
0
100
AcDbSymbolTable
 70
     0
  0
ENDTAB
  0
TABLE
  2
APPID
  5
9
330
0
100
AcDbSymbolTable
 70
     1
  0
APPID
  5
12
330
9
100
AcDbSymbolTableRecord
100
AcDbRegAppTableRecord
  2
ACAD
 70
     0
  0
ENDTAB
  0
TABLE
  2
DIMSTYLE
  5
A
330
0
100
AcDbSymbolTable
 70
     1
100
AcDbDimStyleTable
  0
DIMSTYLE
105
27
330
A
100
AcDbSymbolTableRecord
100
AcDbDimStyleTableRecord
  2
ISO-25
 70
     0
 41
2.5
 42
0.625
 43
3.75
 44
1.25
 73
     0
 74
     0
 77
     1
 78
     8
140
2.5
141
2.5
143
0.0393700787
147
0.625
171
     3
172
     1
178
     0
271
     2
272
     2
274
     3
278
    44
283
     0
284
     8
340
11
  0
ENDTAB
  0
TABLE
  2
BLOCK_RECORD
  5
1
330
0
100
AcDbSymbolTable
 70
     2
  0
BLOCK_RECORD
  5
1F
330
1
100
AcDbSymbolTableRecord
100
AcDbBlockTableRecord
  2
*Model_Space
340
22
  0
BLOCK_RECORD
  5
1B
330
1
100
AcDbSymbolTableRecord
100
AcDbBlockTableRecord
  2
*Paper_Space
340
1E
  0
BLOCK_RECORD
  5
147
330
1
100
AcDbSymbolTableRecord
100
AcDbBlockTableRecord
  2
_OPEN30_0
340
0
102
{BLKREFS
331
660
102
}
  0
ENDTAB
  0
ENDSEC
  0
SECTION
  2
BLOCKS
  0
BLOCK
  5
20
330
1F
100
AcDbEntity
  8
0
100
AcDbBlockBegin
  2
*Model_Space
 70
     0
 10
0.0
 20
0.0
 30
0.0
  3
*Model_Space
  1

  0
ENDBLK
  5
21
330
1F
100
AcDbEntity
  8
0
100
AcDbBlockEnd
  0
BLOCK
  5
1C
330
1B
100
AcDbEntity
 67
     1
  8
0
100
AcDbBlockBegin
  2
*Paper_Space
 70
     0
 10
0.0
 20
0.0
 30
0.0
  3
*Paper_Space
  1

  0
ENDBLK
  5
1D
330
1B
100
AcDbEntity
 67
     1
  8
0
100
AcDbBlockEnd
  0
BLOCK
  5
148
330
147
100
AcDbEntity
  8
0
100
AcDbBlockBegin
  2
_OPEN30_0
 70
     0
 10
0.0
 20
0.0
 30
0.0
  3
_OPEN30_0
  1

  0
LINE
  5
14A
330
147
100
AcDbEntity
  8
SLD-0
  6
Continuous
 62
   179
100
AcDbLine
 10
-1.0
 20
0.267949
 30
0.0
 11
0.0
 21
0.0
 31
0.0
  0
LINE
  5
14B
330
147
100
AcDbEntity
  8
SLD-0
  6
Continuous
 62
   179
100
AcDbLine
 10
0.0
 20
0.0
 30
0.0
 11
-1.0
 21
-0.267949
 31
0.0
  0
LINE
  5
14C
330
147
100
AcDbEntity
  8
SLD-0
  6
Continuous
 62
   179
100
AcDbLine
 10
0.0
 20
0.0
 30
0.0
 11
-1.0
 21
0.0
 31
0.0
  0
ENDBLK
  5
149
330
147
100
AcDbEntity
  8
0
100
AcDbBlockEnd
  0
ENDSEC
  0
SECTION
  2
ENTITIES
  0
VIEWPORT
  5
14D
330
1B
100
AcDbEntity
 67
     1
  8
0
100
AcDbViewport
 10
105.0
 20
148.5
 30
0.0
 40
222.18
 41
314.226
 68
     1
 69
     1
 12
105.0
 22
148.5
 13
0.0
 23
0.0
 14
10.0
 24
10.0
 15
10.0
 25
10.0
 16
0.0
 26
0.0
 36
1.0
 17
0.0
 27
0.0
 37
0.0
 42
50.0
 43
0.0
 44
0.0
 45
314.226
 50
0.0
 51
0.0
 72
   100
 90
   557152
  1

281
     0
 71
     1
 74
     0
110
0.0
120
0.0
130
0.0
111
1.0
121
0.0
131
0.0
112
0.0
122
1.0
132
0.0
 79
     0
146
0.0
  0
LINE
  5
14E
330
1B
100
AcDbEntity
 67
     1
  8
図面枠
  6
HIDDEN
 62
   179
100
AcDbLine
 10
96.3130467108
 20
-7.5332490406
 30
0.0
 11
96.3130467108
 21
-22.5443550406
 31
0.0
  0
LINE
  5
14F
330
1B
100
AcDbEntity
 67
     1
  8
図面枠
  6
HIDDEN
 62
   179
100
AcDbLine
 10
102.8130477108
 20
-9.4096380406
 30
0.0
 11
102.8130477108
 21
-20.6679660406
 31
0.0
  0
LINE
  5
150
330
1B
100
AcDbEntity
 67
     1
  8
図面枠
  6
HIDDEN
 62
   179
100
AcDbLine
 10
102.117019497
 20
-18.7915776177
 30
0.0
 11
96.3130467108
 21
-18.7915800406
 31
0.0
  0
LINE
  5
151
330
1B
100
AcDbEntity
 67
     1
  8
図面枠
  6
HIDDEN
 62
   179
100
AcDbLine
 10
102.1170218549
 20
-11.2860237225
 30
0.0
 11
96.3130467108
 21
-11.2860240406
 31
0.0
  0
LINE
  5
152
330
1B
100
AcDbEntity
 67
     1
  8
図面枠
  6
HIDDEN
 62
   179
100
AcDbLine
 10
102.1170230667
 20
-7.5332537673
 30
0.0
 11
96.3130467108
 21
-7.5332490406
 31
0.0
  0
LINE
  5
153
330
1B
100
AcDbEntity
 67
     1
  8
図面枠
  6
HIDDEN
 62
   179
100
AcDbLine
 10
102.1170218549
 20
-22.5443517225
 30
0.0
 11
96.3130467108
 21
-22.5443550406
 31
0.0
  0
LINE
  5
154
330
1B
100
AcDbEntity
 67
     1
  8
図面枠
  6
HIDDEN
 62
   179
100
AcDbLine
 10
68.4851938338
 20
-24.2658494574
 30
0.0
 11
50.4524067108
 21
-39.2598030406
 31
0.0
  0
LINE
  5
155
330
1B
100
AcDbEntity
 67
     1
  8
図面枠
  6
HIDDEN
 62
   179
100
AcDbLine
 10
-7.8590672892
 20
-24.2658510406
 30
0.0
 11
10.173717513
 21
-39.2598015098
 31
0.0
  0
LINE
  5
156
330
1B
100
AcDbEntity
 67
     1
  8
図面枠
  6
HIDDEN
 62
   179
100
AcDbLine
 10
69.3130617108
 20
-11.2860240406
 30
0.0
 11
69.3130617108
 21
-18.7915800406
 31
0.0
  0
LINE
  5
157
330
1B
100
AcDbEntity
 67
     1
  8
図面枠
  6
HIDDEN
 62
   179
100
AcDbLine
 10
62.8130637108
 20
-7.5332490406
 30
0.0
 11
69.3130617108
 21
-11.2860240406
 31
0.0
  0
LINE
  5
158
330
1B
100
AcDbEntity
 67
     1
  8
図面枠
  6
HIDDEN
 62
   179
100
AcDbLine
 10
62.8130637108
 20
-22.5443550406
 30
0.0
 11
56.3130627108
 21
-18.7915800406
 31
0.0
  0
LINE
  5
159
330
1B
100
AcDbEntity
 67
     1
  8
図面枠
  6
HIDDEN
 62
   179
100
AcDbLine
 10
56.3130627108
 20
-11.2860240406
 30
0.0
 11
56.3130627108
 21
-18.7915800406
 31
0.0
  0
LINE
  5
15A
330
1B
100
AcDbEntity
 67
     1
  8
図面枠
  6
HIDDEN
 62
   179
100
AcDbLine
 10
56.3130627108
 20
-11.2860240406
 30
0.0
 11
62.8130637108
 21
-7.5332490406
 31
0.0
  0
LINE
  5
15B
330
1B
100
AcDbEntity
 67
     1
  8
図面枠
  6
HIDDEN
 62
   179
100
AcDbLine
 10
69.3130617108
 20
-18.7915800406
 30
0.0
 11
62.8130637108
 21
-22.5443550406
 31
0.0
  0
LINE
  5
15C
330
1B
100
AcDbEntity
 67
     1
  8
図面枠
  6
HIDDEN
 62
   179
100
AcDbLine
 10
4.3130637108
 20
-11.2860240406
 30
0.0
 11
4.3130637108
 21
-18.7915800406
 31
0.0
  0
LINE
  5
15D
330
1B
100
AcDbEntity
 67
     1
  8
図面枠
  6
HIDDEN
 62
   179
100
AcDbLine
 10
-2.1869372892
 20
-7.5332490406
 30
0.0
 11
4.3130637108
 21
-11.2860240406
 31
0.0
  0
LINE
  5
15E
330
1B
100
AcDbEntity
 67
     1
  8
図面枠
  6
HIDDEN
 62
   179
100
AcDbLine
 10
-2.1869372892
 20
-22.5443550406
 30
0.0
 11
-8.6869382892
 21
-18.7915800406
 31
0.0
  0
LINE
  5
15F
330
1B
100
AcDbEntity
 67
     1
  8
図面枠
  6
HIDDEN
 62
   179
100
AcDbLine
 10
-8.6869382892
 20
-11.2860240406
 30
0.0
 11
-8.6869382892
 21
-18.7915800406
 31
0.0
  0
LINE
  5
160
330
1B
100
AcDbEntity
 67
     1
  8
図面枠
  6
HIDDEN
 62
   179
100
AcDbLine
 10
-8.6869382892
 20
-11.2860240406
 30
0.0
 11
-2.1869372892
 21
-7.5332490406
 31
0.0
  0
LINE
  5
161
330
1B
100
AcDbEntity
 67
     1
  8
図面枠
  6
HIDDEN
 62
   179
100
AcDbLine
 10
4.3130637108
 20
-18.7915800406
 30
0.0
 11
-2.1869372892
 21
-22.5443550406
 31
0.0
  0
LINE
  5
162
330
1B
100
AcDbEntity
 67
     1
  8
図面枠
  6
CENTER
 62
   179
100
AcDbLine
 10
30.3130617108
 20
20.4384359594
 30
0.0
 11
30.3130617108
 21
-50.1761250406
 31
0.0
  0
LINE
  5
163
330
1B
100
AcDbEntity
 67
     1
  8
図面枠
  6
HIDDEN
 62
   179
100
AcDbLine
 10
68.4851937108
 20
-5.8117560406
 30
0.0
 11
50.4524067108
 21
9.1821959594
 31
0.0
  0
LINE
  5
164
330
1B
100
AcDbEntity
 67
     1
  8
図面枠
  6
HIDDEN
 62
   179
100
AcDbLine
 10
-7.8590672892
 20
-5.8117560406
 30
0.0
 11
10.1737197108
 21
9.1821959594
 31
0.0
  0
LINE
  5
165
330
1B
100
AcDbEntity
 67
     1
  8
図面枠
  6
HIDDEN
 62
   179
100
AcDbLine
 10
79.6457420152
 20
15.4786513309
 30
0.0
 11
78.4672227108
 21
-52.0388160406
 31
0.0
  0
LINE
  5
166
330
1B
100
AcDbEntity
 67
     1
  8
図面枠
  6
HIDDEN
 62
   179
100
AcDbLine
 10
80.6455887108
 20
16.4611979594
 30
0.0
 11
90.3130617108
 21
16.4611979594
 31
0.0
  0
LINE
  5
167
330
1B
100
AcDbEntity
 67
     1
  8
図面枠
  6
HIDDEN
 62
   179
100
AcDbLine
 10
90.3130617108
 20
16.4611979594
 30
0.0
 11
90.3130617108
 21
-52.0388010406
 31
0.0
  0
LINE
  5
168
330
1B
100
AcDbEntity
 67
     1
  8
図面枠
  6
Continuous
 62
     1
100
AcDbLine
 10
-83.6869322892
 20
-44.7388170406
 30
0.0
 11
-124.0632572892
 21
-44.7388170406
 31
0.0
  0
LINE
  5
169
330
1B
100
AcDbEntity
 67
     1
  8
図面枠
  6
Continuous
 62
     3
100
AcDbLine
 10
-110.6869322892
 20
-50.9388180406
 30
0.0
 11
-110.6869322892
 21
-52.0388160406
 31
0.0
  0
LINE
  5
16A
330
1B
100
AcDbEntity
 67
     1
  8
図面枠
  6
Continuous
 62
     3
100
AcDbLine
 10
-63.6869312892
 20
-35.7388170406
 30
0.0
 11
-63.6869342892
 21
-51.2388180406
 31
0.0
  0
LINE
  5
16B
330
1B
100
AcDbEntity
 67
     1
  8
図面枠
  6
Continuous
 62
     3
100
AcDbLine
 10
-83.6869352892
 20
-35.7388170406
 30
0.0
 11
-83.6869322892
 21
-51.2388180406
 31
0.0
  0
LINE
  5
16C
330
1B
100
AcDbEntity
 67
     1
  8
図面枠
  6
Continuous
 62
     3
100
AcDbLine
 10
-64.1869322892
 20
-35.2388160406
 30
0.0
 11
-83.1869342892
 21
-35.2388160406
 31
0.0
  0
LINE
  5
16D
330
1B
100
AcDbEntity
 67
     1
  8
図面枠
  6
Continuous
 62
     3
100
AcDbLine
 10
-89.1869342892
 20
-45.2388150406
 30
0.0
 11
-108.1869332892
 21
-45.2388180406
 31
0.0
  0
LINE
  5
16E
330
1B
100
AcDbEntity
 67
     1
  8
図面枠
  6
Continuous
 62
     3
100
AcDbLine
 10
-88.6869332892
 20
-45.7388160406
 30
0.0
 11
-88.6869332892
 21
-51.2388180406
 31
0.0
  0
LINE
  5
16F
330
1B
100
AcDbEntity
 67
     1
  8
図面枠
  6
Continuous
 62
     3
100
AcDbLine
 10
-103.6869332892
 20
-44.7388170406
 30
0.0
 11
-103.6869332892
 21
-45.2388180406
 31
0.0
  0
LINE
  5
170
330
1B
100
AcDbEntity
 67
     1
  8
図面枠
  6
Continuous
 62
     3
100
AcDbLine
 10
-173.6869322892
 20
-44.7388170406
 30
0.0
 11
-173.6869322892
 21
-45.2388180406
 31
0.0
  0
LINE
  5
171
330
1B
100
AcDbEntity
 67
     1
  8
図面枠
  6
Continuous
 62
     3
100
AcDbLine
 10
-168.6869342892
 20
-45.7388160406
 30
0.0
 11
-168.6869342892
 21
-51.2388180406
 31
0.0
  0
LINE
  5
172
330
1B
100
AcDbEntity
 67
     1
  8
図面枠
  6
Continuous
 62
     3
100
AcDbLine
 10
-179.9309192892
 20
-45.2388180406
 30
0.0
 11
-169.1869322892
 21
-45.2388150406
 31
0.0
  0
LINE
  5
173
330
1B
100
AcDbEntity
 67
     1
  8
図面枠
  6
Continuous
 62
     3
100
AcDbLine
 10
-108.6869342892
 20
-45.7388160406
 30
0.0
 11
-108.6869342892
 21
-51.2388180406
 31
0.0
  0
LINE
  5
174
330
1B
100
AcDbEntity
 67
     1
  8
図面枠
  6
Continuous
 62
     3
100
AcDbLine
 10
-89.1869342892
 20
-45.2388150406
 30
0.0
 11
-108.1869332892
 21
-45.2388180406
 31
0.0
  0
LINE
  5
175
330
1B
100
AcDbEntity
 67
     1
  8
図面枠
  6
Continuous
 62
     1
100
AcDbLine
 10
-124.2382352892
 20
-46.7388180406
 30
0.0
 11
-124.0562192892
 21
-46.7388150406
 31
0.0
  0
LINE
  5
176
330
1B
100
AcDbEntity
 67
     1
  8
図面枠
  6
Continuous
 62
     1
100
AcDbLine
 10
-123.5783288291
 20
-47.0917728219
 30
0.0
 11
-122.7612392892
 21
-49.7473230406
 31
0.0
  0
LINE
  5
177
330
1B
100
AcDbEntity
 67
     1
  8
図面枠
  6
Continuous
 62
     1
100
AcDbLine
 10
-153.3176462892
 20
-46.7388150406
 30
0.0
 11
-153.1356302892
 21
-46.7388180406
 31
0.0
  0
LINE
  5
178
330
1B
100
AcDbEntity
 67
     1
  8
図面枠
  6
Continuous
 62
     1
100
AcDbLine
 10
-154.6126262892
 20
-49.7473230406
 30
0.0
 11
-153.7955367493
 21
-47.0917728219
 31
0.0
  0
LINE
  5
179
330
1B
100
AcDbEntity
 67
     1
  8
図面枠
  6
Continuous
 62
     3
100
AcDbLine
 10
-111.7869332892
 20
-50.9388180406
 30
0.0
 11
-111.7869332892
 21
-50.5910910406
 31
0.0
  0
LINE
  5
17A
330
1B
100
AcDbEntity
 67
     1
  8
図面枠
  6
Continuous
 62
     3
100
AcDbLine
 10
-123.5869322892
 20
-50.9388180406
 30
0.0
 11
-123.5869322892
 21
-50.5910910406
 31
0.0
  0
LINE
  5
17B
330
1B
100
AcDbEntity
 67
     1
  8
図面枠
  6
Continuous
 62
     3
100
AcDbLine
 10
-111.7869332892
 20
-50.9388180406
 30
0.0
 11
-123.5869322892
 21
-50.9388180406
 31
0.0
  0
LINE
  5
17C
330
1B
100
AcDbEntity
 67
     1
  8
図面枠
  6
Continuous
 62
     3
100
AcDbLine
 10
-123.5869322892
 20
-50.5910910406
 30
0.0
 11
-111.7869332892
 21
-50.5910910406
 31
0.0
  0
LINE
  5
17D
330
1B
100
AcDbEntity
 67
     1
  8
図面枠
  6
Continuous
 62
     3
100
AcDbLine
 10
-123.3869342892
 20
-50.9388180406
 30
0.0
 11
-110.6869322892
 21
-50.9388180406
 31
0.0
  0
LINE
  5
17E
330
1B
100
AcDbEntity
 67
     1
  8
図面枠
  6
Continuous
 62
     3
100
AcDbLine
 10
-123.3869342892
 20
-53.2388160406
 30
0.0
 11
-115.6248302892
 21
-53.2388160406
 31
0.0
  0
LINE
  5
17F
330
1B
100
AcDbEntity
 67
     1
  8
図面枠
  6
Continuous
 62
     3
100
AcDbLine
 10
-125.3869322892
 20
-43.0388160406
 30
0.0
 11
-125.3869352892
 21
-48.9388170406
 31
0.0
  0
LINE
  5
180
330
1B
100
AcDbEntity
 67
     1
  8
図面枠
  6
Continuous
 62
     3
100
AcDbLine
 10
-127.6869332892
 20
-43.0388160406
 30
0.0
 11
-127.6869332892
 21
-48.9388170406
 31
0.0
  0
LINE
  5
181
330
1B
100
AcDbEntity
 67
     1
  8
図面枠
  6
Continuous
 62
     3
100
AcDbLine
 10
-153.7869332892
 20
-50.9388180406
 30
0.0
 11
-153.7869332892
 21
-50.5910910406
 31
0.0
  0
LINE
  5
182
330
1B
100
AcDbEntity
 67
     1
  8
図面枠
  6
Continuous
 62
     3
100
AcDbLine
 10
-165.5869322892
 20
-50.9388180406
 30
0.0
 11
-165.5869322892
 21
-50.5910910406
 31
0.0
  0
LINE
  5
183
330
1B
100
AcDbEntity
 67
     1
  8
図面枠
  6
Continuous
 62
     3
100
AcDbLine
 10
-153.7869332892
 20
-50.9388180406
 30
0.0
 11
-165.5869322892
 21
-50.9388180406
 31
0.0
  0
LINE
  5
184
330
1B
100
AcDbEntity
 67
     1
  8
図面枠
  6
Continuous
 62
     3
100
AcDbLine
 10
-165.5869322892
 20
-50.5910910406
 30
0.0
 11
-153.7869332892
 21
-50.5910910406
 31
0.0
  0
LINE
  5
185
330
1B
100
AcDbEntity
 67
     1
  8
図面枠
  6
Continuous
 62
     3
100
AcDbLine
 10
-153.9869342892
 20
-53.2388160406
 30
0.0
 11
-161.5303142892
 21
-53.2388160406
 31
0.0
  0
LINE
  5
186
330
1B
100
AcDbEntity
 67
     1
  8
図面枠
  6
Continuous
 62
     3
100
AcDbLine
 10
-166.6869332892
 20
-50.9388180406
 30
0.0
 11
-166.6869332892
 21
-52.0388160406
 31
0.0
  0
LINE
  5
187
330
1B
100
AcDbEntity
 67
     1
  8
図面枠
  6
Continuous
 62
     3
100
AcDbLine
 10
-166.6869332892
 20
-50.9388180406
 30
0.0
 11
-153.9869342892
 21
-50.9388180406
 31
0.0
  0
LINE
  5
188
330
1B
100
AcDbEntity
 67
     1
  8
図面枠
  6
Continuous
 62
     3
100
AcDbLine
 10
-151.9869332892
 20
-43.0388160406
 30
0.0
 11
-151.9869332892
 21
-48.9388170406
 31
0.0
  0
LINE
  5
189
330
1B
100
AcDbEntity
 67
     1
  8
図面枠
  6
Continuous
 62
     3
100
AcDbLine
 10
-148.6869332892
 20
-42.0388170406
 30
0.0
 11
-128.6869322892
 21
-42.0388170406
 31
0.0
  0
LINE
  5
18A
330
1B
100
AcDbEntity
 67
     1
  8
図面枠
  6
Continuous
 62
     3
100
AcDbLine
 10
-149.6869322892
 20
-43.0388160406
 30
0.0
 11
-149.6869352892
 21
-48.9388170406
 31
0.0
  0
LINE
  5
18B
330
1B
100
AcDbEntity
 67
     1
  8
図面枠
  6
Continuous
 62
     3
100
AcDbLine
 10
-148.6293572892
 20
-39.7388160406
 30
0.0
 11
-128.7445112892
 21
-39.7388160406
 31
0.0
  0
LINE
  5
18C
330
1B
100
AcDbEntity
 67
     1
  8
図面枠
  6
CENTER
 62
   179
100
AcDbLine
 10
-76.6869332892
 20
82.1282309594
 30
0.0
 11
-76.6869332892
 21
25.9966859594
 31
0.0
  0
LINE
  5
18D
330
1B
100
AcDbEntity
 67
     1
  8
図面枠
  6
CENTER
 62
   179
100
AcDbLine
 10
-50.6770412892
 20
53.9611829594
 30
0.0
 11
-107.9320082892
 21
53.9611829594
 31
0.0
  0
LINE
  5
18E
330
1B
100
AcDbEntity
 67
     1
  8
図面枠
  6
CENTER
 62
   179
100
AcDbLine
 10
-138.6869342892
 20
82.1282309594
 30
0.0
 11
-138.6869342892
 21
25.9966859594
 31
0.0
  0
LINE
  5
18F
330
1B
100
AcDbEntity
 67
     1
  8
図面枠
  6
CENTER
 62
   179
100
AcDbLine
 10
-107.9320082892
 20
53.9611829594
 30
0.0
 11
-166.6379552892
 21
53.9611829594
 31
0.0
  0
LINE
  5
190
330
1B
100
AcDbEntity
 67
     1
  8
図面枠
  6
Continuous
 62
     1
100
AcDbLine
 10
-161.5303142892
 20
-52.0388160406
 30
0.0
 11
-180.0669182892
 21
-52.0388160406
 31
0.0
  0
LINE
  5
191
330
1B
100
AcDbEntity
 67
     1
  8
図面枠
  6
CENTER
 62
   179
100
AcDbLine
 10
-67.7999312892
 20
29.5443479594
 30
0.0
 11
-58.2251702892
 21
3.2379089594
 31
0.0
  0
LINE
  5
192
330
1B
100
AcDbEntity
 67
     1
  8
図面枠
  6
CENTER
 62
   179
100
AcDbLine
 10
-150.7273892892
 20
24.1600079594
 30
0.0
 11
-162.7395392892
 21
-5.5711080406
 31
0.0
  0
LINE
  5
193
330
1B
100
AcDbEntity
 67
     1
  8
図面枠
  6
HIDDEN
 62
   179
100
AcDbLine
 10
92.3130477108
 20
-46.2888180406
 30
0.0
 11
90.3130467108
 21
-46.2888180406
 31
0.0
  0
LINE
  5
194
330
1B
100
AcDbEntity
 67
     1
  8
図面枠
  6
CENTER
 62
   179
100
AcDbLine
 10
-21.6743072892
 20
-15.0388020406
 30
0.0
 11
130.2783327108
 21
-15.0388020406
 31
0.0
  0
LINE
  5
195
330
1B
100
AcDbEntity
 67
     1
  8
図面枠
  6
HIDDEN
 62
   179
100
AcDbLine
 10
90.3130617108
 20
16.4611979594
 30
0.0
 11
90.3130617108
 21
-46.5388020406
 31
0.0
  0
LINE
  5
196
330
1B
100
AcDbEntity
 67
     1
  8
図面枠
  6
HIDDEN
 62
   179
100
AcDbLine
 10
92.3130477108
 20
16.2112139594
 30
0.0
 11
90.3130467108
 21
16.2112139594
 31
0.0
  0
LINE
  5
197
330
1B
100
AcDbEntity
 67
     1
  8
図面枠
  6
HIDDEN
 62
   179
100
AcDbLine
 10
92.3130477108
 20
16.2111989594
 30
0.0
 11
92.3130477108
 21
-46.2888030406
 31
0.0
  0
LINE
  5
198
330
1B
100
AcDbEntity
 67
     1
  8
図面枠
  6
HIDDEN
 62
   179
100
AcDbLine
 10
95.3130477108
 20
-46.2888000406
 30
0.0
 11
92.3130477108
 21
-46.2888030406
 31
0.0
  0
LINE
  5
199
330
1B
100
AcDbEntity
 67
     1
  8
図面枠
  6
HIDDEN
 62
   179
100
AcDbLine
 10
112.3130457108
 20
-33.0388020406
 30
0.0
 11
98.3130477108
 21
-33.0388020406
 31
0.0
  0
LINE
  5
19A
330
1B
100
AcDbEntity
 67
     1
  8
図面枠
  6
HIDDEN
 62
   179
100
AcDbLine
 10
96.3130467108
 20
-35.0388030406
 30
0.0
 11
96.3130467108
 21
-45.2888010406
 31
0.0
  0
LINE
  5
19B
330
1B
100
AcDbEntity
 67
     1
  8
図面枠
  6
HIDDEN
 62
   179
100
AcDbLine
 10
112.3130457108
 20
2.9611979594
 30
0.0
 11
98.3130477108
 21
2.9611979594
 31
0.0
  0
LINE
  5
19C
330
1B
100
AcDbEntity
 67
     1
  8
図面枠
  6
HIDDEN
 62
   179
100
AcDbLine
 10
96.3130467108
 20
15.2111969594
 30
0.0
 11
96.3130467108
 21
-35.0388030406
 31
0.0
  0
LINE
  5
19D
330
1B
100
AcDbEntity
 67
     1
  8
図面枠
  6
HIDDEN
 62
   179
100
AcDbLine
 10
113.3130447108
 20
1.9611989594
 30
0.0
 11
113.3130447108
 21
-32.0388030406
 31
0.0
  0
LINE
  5
19E
330
1B
100
AcDbEntity
 67
     1
  8
図面枠
  6
HIDDEN
 62
   179
100
AcDbLine
 10
95.3130477108
 20
16.2111959594
 30
0.0
 11
92.3130477108
 21
16.2111989594
 31
0.0
  0
LINE
  5
19F
330
1B
100
AcDbEntity
 67
     1
  8
図面枠
  6
CENTER
 62
   179
100
AcDbLine
 10
-50.4732542892
 20
21.9993929594
 30
0.0
 11
-80.2063472892
 21
11.1774329594
 31
0.0
  0
LINE
  5
1A0
330
1B
100
AcDbEntity
 67
     1
  8
図面枠
  6
CENTER
 62
   179
100
AcDbLine
 10
-73.7019632892
 20
96.5507009594
 30
0.0
 11
-104.7538532892
 21
85.2487379594
 31
0.0
  0
LINE
  5
1A1
330
1B
100
AcDbEntity
 67
     1
  8
図面枠
  6
CENTER
 62
   179
100
AcDbLine
 10
-174.2163932892
 20
18.7034189594
 30
0.0
 11
-136.4371982892
 21
3.4396319594
 31
0.0
  0
LINE
  5
1A2
330
1B
100
AcDbEntity
 67
     1
  8
図面枠
  6
CENTER
 62
   179
100
AcDbLine
 10
-141.7849922892
 20
104.8254779594
 30
0.0
 11
-103.9293122892
 21
89.5307909594
 31
0.0
  0
LINE
  5
1A3
330
1B
100
AcDbEntity
 67
     1
  8
図面枠
  6
CENTER
 62
   179
100
AcDbLine
 10
-96.3318572892
 20
107.9351669594
 30
0.0
 11
-85.7936342892
 21
78.9816419594
 31
0.0
  0
LINE
  5
1A4
330
1B
100
AcDbEntity
 67
     1
  8
図面枠
  6
CENTER
 62
   179
100
AcDbLine
 10
-114.6773552892
 20
113.3869709594
 30
0.0
 11
-126.6714512892
 21
83.7005399594
 31
0.0
  0
LINE
  5
1A5
330
1B
100
AcDbEntity
 67
     1
  8
図面枠
  6
Continuous
 62
     3
100
AcDbLine
 10
-55.6869212892
 20
9.8363819594
 30
0.0
 11
-55.6869212892
 21
-4.4988180406
 31
0.0
  0
LINE
  5
1A6
330
1B
100
AcDbEntity
 67
     1
  8
図面枠
  6
Continuous
 62
     3
100
AcDbLine
 10
-55.6869212892
 20
-15.1234830406
 30
0.0
 11
-55.6869212892
 21
-37.6794090406
 31
0.0
  0
LINE
  5
1A7
330
1B
100
AcDbEntity
 67
     1
  8
図面枠
  6
Continuous
 62
     1
100
AcDbLine
 10
-55.6869212892
 20
-37.6794090406
 30
0.0
 11
-58.6869332892
 21
-37.6794090406
 31
0.0
  0
LINE
  5
1A8
330
1B
100
AcDbEntity
 67
     1
  8
図面枠
  6
Continuous
 62
     3
100
AcDbLine
 10
132.0648147108
 20
-54.5028060406
 30
0.0
 11
132.0648147108
 21
-47.5746030406
 31
0.0
  0
LINE
  5
1A9
330
1B
100
AcDbEntity
 67
     1
  8
図面枠
  6
Continuous
 62
     3
100
AcDbLine
 10
129.0648147108
 20
-52.0388160406
 30
0.0
 11
129.0648147108
 21
-45.1387050406
 31
0.0
  0
LINE
  5
1AA
330
1B
100
AcDbEntity
 67
     1
  8
図面枠
  6
Continuous
 62
     3
100
AcDbLine
 10
131.7075477108
 20
-55.6575060406
 30
0.0
 11
130.2287067108
 21
-55.6575060406
 31
0.0
  0
LINE
  5
1AB
330
1B
100
AcDbEntity
 67
     1
  8
図面枠
  6
Continuous
 62
     3
100
AcDbLine
 10
131.7075477108
 20
-53.3481060406
 30
0.0
 11
130.1467617108
 21
-53.3481060406
 31
0.0
  0
LINE
  5
1AC
330
1B
100
AcDbEntity
 67
     1
  8
図面枠
  6
Continuous
 62
     3
100
AcDbLine
 10
131.7075477108
 20
-48.7293030406
 30
0.0
 11
129.0648147108
 21
-48.7293030406
 31
0.0
  0
LINE
  5
1AD
330
1B
100
AcDbEntity
 67
     1
  8
図面枠
  6
Continuous
 62
     3
100
AcDbLine
 10
131.7075477108
 20
-46.4199030406
 30
0.0
 11
129.0648147108
 21
-46.4199030406
 31
0.0
  0
LINE
  5
1AE
330
1B
100
AcDbEntity
 67
     1
  8
図面枠
  6
Continuous
 62
     3
100
AcDbLine
 10
128.0648157108
 20
-52.0388160406
 30
0.0
 11
128.0648157108
 21
-45.1387050406
 31
0.0
  0
LINE
  5
1AF
330
1B
100
AcDbEntity
 67
     1
  8
図面枠
  6
Continuous
 62
     3
100
AcDbLine
 10
128.0648157108
 20
-45.1387050406
 30
0.0
 11
129.0648147108
 21
-45.1387050406
 31
0.0
  0
LINE
  5
1B0
330
1B
100
AcDbEntity
 67
     1
  8
図面枠
  6
Continuous
 62
     3
100
AcDbLine
 10
-22.5869342892
 20
-51.5388180406
 30
0.0
 11
-21.4369322892
 21
-51.5388180406
 31
0.0
  0
LINE
  5
1B1
330
1B
100
AcDbEntity
 67
     1
  8
図面枠
  6
Continuous
 62
     3
100
AcDbLine
 10
-20.6869322892
 20
-53.4388170406
 30
0.0
 11
-20.6869322892
 21
-52.2888180406
 31
0.0
  0
LINE
  5
1B2
330
1B
100
AcDbEntity
 67
     1
  8
図面枠
  6
Continuous
 62
     3
100
AcDbLine
 10
-19.6869332892
 20
-53.4388170406
 30
0.0
 11
-19.6869332892
 21
-52.2888180406
 31
0.0
  0
LINE
  5
1B3
330
1B
100
AcDbEntity
 67
     1
  8
図面枠
  6
Continuous
 62
     3
100
AcDbLine
 10
-17.7869342892
 20
-51.5388180406
 30
0.0
 11
-18.9369332892
 21
-51.5388180406
 31
0.0
  0
LINE
  5
1B4
330
1B
100
AcDbEntity
 67
     1
  8
図面枠
  6
Continuous
 62
     3
100
AcDbLine
 10
-19.6869332892
 20
-53.4388170406
 30
0.0
 11
-20.6869322892
 21
-53.4388170406
 31
0.0
  0
LINE
  5
1B5
330
1B
100
AcDbEntity
 67
     1
  8
図面枠
  6
Continuous
 62
     3
100
AcDbLine
 10
-17.7869342892
 20
-51.5388180406
 30
0.0
 11
-18.6369332892
 21
-51.5388180406
 31
0.0
  0
LINE
  5
1B6
330
1B
100
AcDbEntity
 67
     1
  8
図面枠
  6
Continuous
 62
     3
100
AcDbLine
 10
-17.7869342892
 20
-50.5388160406
 30
0.0
 11
-18.9369332892
 21
-50.5388160406
 31
0.0
  0
LINE
  5
1B7
330
1B
100
AcDbEntity
 67
     1
  8
図面枠
  6
Continuous
 62
     3
100
AcDbLine
 10
-19.6869332892
 20
-48.6388170406
 30
0.0
 11
-19.6869332892
 21
-49.7888160406
 31
0.0
  0
LINE
  5
1B8
330
1B
100
AcDbEntity
 67
     1
  8
図面枠
  6
Continuous
 62
     3
100
AcDbLine
 10
-17.7869342892
 20
-50.5388160406
 30
0.0
 11
-17.7869342892
 21
-51.5388180406
 31
0.0
  0
LINE
  5
1B9
330
1B
100
AcDbEntity
 67
     1
  8
図面枠
  6
Continuous
 62
     3
100
AcDbLine
 10
-20.6869322892
 20
-48.6388170406
 30
0.0
 11
-20.6869322892
 21
-49.7888160406
 31
0.0
  0
LINE
  5
1BA
330
1B
100
AcDbEntity
 67
     1
  8
図面枠
  6
Continuous
 62
     3
100
AcDbLine
 10
-22.5869342892
 20
-50.5388160406
 30
0.0
 11
-21.4369322892
 21
-50.5388160406
 31
0.0
  0
LINE
  5
1BB
330
1B
100
AcDbEntity
 67
     1
  8
図面枠
  6
Continuous
 62
     3
100
AcDbLine
 10
-22.5869342892
 20
-51.5388180406
 30
0.0
 11
-22.5869342892
 21
-50.5388160406
 31
0.0
  0
LINE
  5
1BC
330
1B
100
AcDbEntity
 67
     1
  8
図面枠
  6
Continuous
 62
     3
100
AcDbLine
 10
-20.6869322892
 20
-48.6388170406
 30
0.0
 11
-19.6869332892
 21
-48.6388170406
 31
0.0
  0
LINE
  5
1BD
330
1B
100
AcDbEntity
 67
     1
  8
図面枠
  6
Continuous
 62
     3
100
AcDbLine
 10
-16.1869322892
 20
-48.7294170406
 30
0.0
 11
-20.1869342892
 21
-46.4200140406
 31
0.0
  0
LINE
  5
1BE
330
1B
100
AcDbEntity
 67
     1
  8
図面枠
  6
Continuous
 62
     3
100
AcDbLine
 10
-24.1869332892
 20
-53.3482200406
 30
0.0
 11
-20.1869342892
 21
-55.6576200406
 31
0.0
  0
LINE
  5
1BF
330
1B
100
AcDbEntity
 67
     1
  8
図面枠
  6
Continuous
 62
     3
100
AcDbLine
 10
-16.1869322892
 20
-53.3482200406
 30
0.0
 11
-20.1869342892
 21
-55.6576200406
 31
0.0
  0
LINE
  5
1C0
330
1B
100
AcDbEntity
 67
     1
  8
図面枠
  6
Continuous
 62
     3
100
AcDbLine
 10
-24.1869332892
 20
-48.7294170406
 30
0.0
 11
-20.1869342892
 21
-46.4200140406
 31
0.0
  0
LINE
  5
1C1
330
1B
100
AcDbEntity
 67
     1
  8
図面枠
  6
Continuous
 62
     3
100
AcDbLine
 10
-16.1869322892
 20
-48.7294170406
 30
0.0
 11
-16.1869322892
 21
-53.3482200406
 31
0.0
  0
LINE
  5
1C2
330
1B
100
AcDbEntity
 67
     1
  8
図面枠
  6
Continuous
 62
     3
100
AcDbLine
 10
-24.1869332892
 20
-48.7294170406
 30
0.0
 11
-24.1869332892
 21
-53.3482200406
 31
0.0
  0
LINE
  5
1C3
330
1B
100
AcDbEntity
 67
     1
  8
図面枠
  6
Continuous
 62
     1
100
AcDbLine
 10
-49.6869332892
 20
15.9611969594
 30
0.0
 11
-49.6869332892
 21
-0.0388020406
 31
0.0
  0
LINE
  5
1C4
330
1B
100
AcDbEntity
 67
     1
  8
図面枠
  6
Continuous
 62
     1
100
AcDbLine
 10
-49.6869332892
 20
15.9611969594
 30
0.0
 11
-40.6669412892
 21
15.9611969594
 31
0.0
  0
LINE
  5
1C5
330
1B
100
AcDbEntity
 67
     1
  8
図面枠
  6
Continuous
 62
     1
100
AcDbLine
 10
-49.6869332892
 20
-0.0388020406
 30
0.0
 11
-40.3469402892
 21
-0.0388020406
 31
0.0
  0
LINE
  5
1C6
330
1B
100
AcDbEntity
 67
     1
  8
図面枠
  6
Continuous
 62
     1
100
AcDbLine
 10
94.3130667108
 20
-87.0388170406
 30
0.0
 11
94.2868857108
 21
-84.0388170406
 31
0.0
  0
LINE
  5
1C7
330
1B
100
AcDbEntity
 67
     1
  8
図面枠
  6
Continuous
 62
     1
100
AcDbLine
 10
94.3130667108
 20
-87.0388170406
 30
0.0
 11
112.3130667108
 21
-87.0388170406
 31
0.0
  0
LINE
  5
1C8
330
1B
100
AcDbEntity
 67
     1
  8
図面枠
  6
Continuous
 62
     1
100
AcDbLine
 10
112.3130667108
 20
-87.0388170406
 30
0.0
 11
112.3392477108
 21
-84.0388170406
 31
0.0
  0
LINE
  5
1C9
330
1B
100
AcDbEntity
 67
     1
  8
図面枠
  6
Continuous
 62
     3
100
AcDbLine
 10
13.3875717108
 20
-89.7388050406
 30
0.0
 11
13.4143017108
 21
-89.7388050406
 31
0.0
  0
LINE
  5
1CA
330
1B
100
AcDbEntity
 67
     1
  8
図面枠
  6
Continuous
 62
     1
100
AcDbLine
 10
112.9502907108
 20
-52.0388010406
 30
0.0
 11
94.4800317108
 21
-52.0388010406
 31
0.0
  0
LINE
  5
1CB
330
1B
100
AcDbEntity
 67
     1
  8
図面枠
  6
Continuous
 62
     1
100
AcDbLine
 10
129.8306007108
 20
-58.0388010406
 30
0.0
 11
123.3130617108
 21
-58.0388010406
 31
0.0
  0
LINE
  5
1CC
330
1B
100
AcDbEntity
 67
     1
  8
図面枠
  6
Continuous
 62
     1
100
AcDbLine
 10
122.8130637108
 20
-52.0388010406
 30
0.0
 11
120.8130627108
 21
-52.0388010406
 31
0.0
  0
LINE
  5
1CD
330
1B
100
AcDbEntity
 67
     1
  8
図面枠
  6
Continuous
 62
     1
100
AcDbLine
 10
-41.1869372892
 20
-0.0388020406
 30
0.0
 11
-40.3469402892
 21
-0.0388020406
 31
0.0
  0
LINE
  5
1CE
330
1B
100
AcDbEntity
 67
     1
  8
図面枠
  6
Continuous
 62
     1
100
AcDbLine
 10
-39.5921582892
 20
-34.8234990406
 30
0.0
 11
-41.6564672892
 21
-0.0666900406
 31
0.0
  0
LINE
  5
1CF
330
1B
100
AcDbEntity
 67
     1
  8
図面枠
  6
Continuous
 62
     1
100
AcDbLine
 10
-41.6869322892
 20
18.4611839594
 30
0.0
 11
-41.6869322892
 21
15.9611969594
 31
0.0
  0
LINE
  5
1D0
330
1B
100
AcDbEntity
 67
     1
  8
図面枠
  6
Continuous
 62
     1
100
AcDbLine
 10
-62.6869322892
 20
114.9611819594
 30
0.0
 11
-65.6783732892
 21
114.9611819594
 31
0.0
  0
LINE
  5
1D1
330
1B
100
AcDbEntity
 67
     1
  8
図面枠
  6
Continuous
 62
     1
100
AcDbLine
 10
-71.7833162892
 20
126.9568529594
 30
0.0
 11
-71.9150192892
 21
119.4116339594
 31
0.0
  0
LINE
  5
1D2
330
1B
100
AcDbEntity
 67
     1
  8
図面枠
  6
Continuous
 62
     3
100
AcDbLine
 10
-138.6869342892
 20
46.4556299594
 30
0.0
 11
-145.1869322892
 21
50.2084049594
 31
0.0
  0
LINE
  5
1D3
330
1B
100
AcDbEntity
 67
     1
  8
図面枠
  6
Continuous
 62
     3
100
AcDbLine
 10
-132.1869332892
 20
50.2084049594
 30
0.0
 11
-138.6869342892
 21
46.4556299594
 31
0.0
  0
LINE
  5
1D4
330
1B
100
AcDbEntity
 67
     1
  8
図面枠
  6
Continuous
 62
     3
100
AcDbLine
 10
-138.6869342892
 20
61.4667359594
 30
0.0
 11
-132.1869332892
 21
57.7139579594
 31
0.0
  0
LINE
  5
1D5
330
1B
100
AcDbEntity
 67
     1
  8
図面枠
  6
Continuous
 62
     3
100
AcDbLine
 10
-145.1869322892
 20
57.7139579594
 30
0.0
 11
-138.6869342892
 21
61.4667359594
 31
0.0
  0
LINE
  5
1D6
330
1B
100
AcDbEntity
 67
     1
  8
図面枠
  6
Continuous
 62
     3
100
AcDbLine
 10
-132.1869332892
 20
57.7139579594
 30
0.0
 11
-132.1869332892
 21
50.2084049594
 31
0.0
  0
LINE
  5
1D7
330
1B
100
AcDbEntity
 67
     1
  8
図面枠
  6
Continuous
 62
     3
100
AcDbLine
 10
-145.1869322892
 20
57.7139579594
 30
0.0
 11
-145.1869322892
 21
50.2084049594
 31
0.0
  0
LINE
  5
1D8
330
1B
100
AcDbEntity
 67
     1
  8
図面枠
  6
PHANTOM
 62
   179
100
AcDbLine
 10
129.2317647108
 20
-52.0388160406
 30
0.0
 11
129.1606767108
 21
-52.0388160406
 31
0.0
  0
LINE
  5
1D9
330
1B
100
AcDbEntity
 67
     1
  8
図面枠
  6
PHANTOM
 62
   179
100
AcDbLine
 10
-71.8970372892
 20
126.9611819594
 30
0.0
 11
-147.4768292892
 21
126.9611819594
 31
0.0
  0
LINE
  5
1DA
330
1B
100
AcDbEntity
 67
     1
  8
図面枠
  6
PHANTOM
 62
   179
100
AcDbLine
 10
-71.8970372892
 20
132.9611819594
 30
0.0
 11
-147.4768292892
 21
132.9611819594
 31
0.0
  0
LINE
  5
1DB
330
1B
100
AcDbEntity
 67
     1
  8
図面枠
  6
Continuous
 62
     3
100
AcDbLine
 10
-141.0869342892
 20
-48.5388180406
 30
0.0
 11
-140.2369322892
 21
-48.5388180406
 31
0.0
  0
LINE
  5
1DC
330
1B
100
AcDbEntity
 67
     1
  8
図面枠
  6
Continuous
 62
     3
100
AcDbLine
 10
-139.1869322892
 20
-50.4388170406
 30
0.0
 11
-139.1869322892
 21
-49.2888180406
 31
0.0
  0
LINE
  5
1DD
330
1B
100
AcDbEntity
 67
     1
  8
図面枠
  6
Continuous
 62
     3
100
AcDbLine
 10
-141.0869342892
 20
-48.5388180406
 30
0.0
 11
-139.9369322892
 21
-48.5388180406
 31
0.0
  0
LINE
  5
1DE
330
1B
100
AcDbEntity
 67
     1
  8
図面枠
  6
Continuous
 62
     3
100
AcDbLine
 10
-136.2869342892
 20
-48.5388180406
 30
0.0
 11
-137.4369332892
 21
-48.5388180406
 31
0.0
  0
LINE
  5
1DF
330
1B
100
AcDbEntity
 67
     1
  8
図面枠
  6
Continuous
 62
     3
100
AcDbLine
 10
-138.1869332892
 20
-50.4388170406
 30
0.0
 11
-138.1869332892
 21
-49.2888180406
 31
0.0
  0
LINE
  5
1E0
330
1B
100
AcDbEntity
 67
     1
  8
図面枠
  6
Continuous
 62
     3
100
AcDbLine
 10
-139.1869322892
 20
-50.4388170406
 30
0.0
 11
-138.1869332892
 21
-50.4388170406
 31
0.0
  0
LINE
  5
1E1
330
1B
100
AcDbEntity
 67
     1
  8
図面枠
  6
Continuous
 62
     3
100
AcDbLine
 10
-138.1869332892
 20
-45.6388170406
 30
0.0
 11
-138.1869332892
 21
-46.7888160406
 31
0.0
  0
LINE
  5
1E2
330
1B
100
AcDbEntity
 67
     1
  8
図面枠
  6
Continuous
 62
     3
100
AcDbLine
 10
-136.2869342892
 20
-47.5388160406
 30
0.0
 11
-137.4369332892
 21
-47.5388160406
 31
0.0
  0
LINE
  5
1E3
330
1B
100
AcDbEntity
 67
     1
  8
図面枠
  6
Continuous
 62
     3
100
AcDbLine
 10
-136.2869342892
 20
-48.5388180406
 30
0.0
 11
-136.2869342892
 21
-47.5388160406
 31
0.0
  0
LINE
  5
1E4
330
1B
100
AcDbEntity
 67
     1
  8
図面枠
  6
Continuous
 62
     3
100
AcDbLine
 10
-141.0869342892
 20
-47.5388160406
 30
0.0
 11
-139.9369322892
 21
-47.5388160406
 31
0.0
  0
LINE
  5
1E5
330
1B
100
AcDbEntity
 67
     1
  8
図面枠
  6
Continuous
 62
     3
100
AcDbLine
 10
-139.1869322892
 20
-45.6388170406
 30
0.0
 11
-139.1869322892
 21
-46.7888160406
 31
0.0
  0
LINE
  5
1E6
330
1B
100
AcDbEntity
 67
     1
  8
図面枠
  6
Continuous
 62
     3
100
AcDbLine
 10
-138.1869332892
 20
-45.6388170406
 30
0.0
 11
-139.1869322892
 21
-45.6388170406
 31
0.0
  0
LINE
  5
1E7
330
1B
100
AcDbEntity
 67
     1
  8
図面枠
  6
Continuous
 62
     3
100
AcDbLine
 10
-141.0869342892
 20
-47.5388160406
 30
0.0
 11
-141.0869342892
 21
-48.5388180406
 31
0.0
  0
LINE
  5
1E8
330
1B
100
AcDbEntity
 67
     1
  8
図面枠
  6
Continuous
 62
     3
100
AcDbLine
 10
-64.4824892892
 20
-9.8175780406
 30
0.0
 11
-64.4824892892
 21
-10.8175770406
 31
0.0
  0
LINE
  5
1E9
330
1B
100
AcDbEntity
 67
     1
  8
図面枠
  6
Continuous
 62
     3
100
AcDbLine
 10
-61.5824882892
 20
-7.9175790406
 30
0.0
 11
-62.5824902892
 21
-7.9175790406
 31
0.0
  0
LINE
  5
1EA
330
1B
100
AcDbEntity
 67
     1
  8
図面枠
  6
Continuous
 62
     3
100
AcDbLine
 10
-62.5824902892
 20
-7.9175790406
 30
0.0
 11
-62.5824902892
 21
-9.0675780406
 31
0.0
  0
LINE
  5
1EB
330
1B
100
AcDbEntity
 67
     1
  8
図面枠
  6
Continuous
 62
     3
100
AcDbLine
 10
-64.4824892892
 20
-9.8175780406
 30
0.0
 11
-63.3324902892
 21
-9.8175780406
 31
0.0
  0
LINE
  5
1EC
330
1B
100
AcDbEntity
 67
     1
  8
図面枠
  6
Continuous
 62
     3
100
AcDbLine
 10
-59.6824892892
 20
-10.8175770406
 30
0.0
 11
-59.6824892892
 21
-9.8175780406
 31
0.0
  0
LINE
  5
1ED
330
1B
100
AcDbEntity
 67
     1
  8
図面枠
  6
Continuous
 62
     3
100
AcDbLine
 10
-59.6824892892
 20
-9.8175780406
 30
0.0
 11
-60.8324882892
 21
-9.8175780406
 31
0.0
  0
LINE
  5
1EE
330
1B
100
AcDbEntity
 67
     1
  8
図面枠
  6
Continuous
 62
     3
100
AcDbLine
 10
-61.5824882892
 20
-7.9175790406
 30
0.0
 11
-61.5824882892
 21
-9.0675780406
 31
0.0
  0
LINE
  5
1EF
330
1B
100
AcDbEntity
 67
     1
  8
図面枠
  6
Continuous
 62
     3
100
AcDbLine
 10
-62.5824902892
 20
-12.7175790406
 30
0.0
 11
-61.5824882892
 21
-12.7175790406
 31
0.0
  0
LINE
  5
1F0
330
1B
100
AcDbEntity
 67
     1
  8
図面枠
  6
Continuous
 62
     3
100
AcDbLine
 10
-61.5824882892
 20
-12.7175790406
 30
0.0
 11
-61.5824882892
 21
-11.5675770406
 31
0.0
  0
LINE
  5
1F1
330
1B
100
AcDbEntity
 67
     1
  8
図面枠
  6
Continuous
 62
     3
100
AcDbLine
 10
-59.6824892892
 20
-10.8175770406
 30
0.0
 11
-60.8324882892
 21
-10.8175770406
 31
0.0
  0
LINE
  5
1F2
330
1B
100
AcDbEntity
 67
     1
  8
図面枠
  6
Continuous
 62
     3
100
AcDbLine
 10
-64.4824892892
 20
-10.8175770406
 30
0.0
 11
-63.3324902892
 21
-10.8175770406
 31
0.0
  0
LINE
  5
1F3
330
1B
100
AcDbEntity
 67
     1
  8
図面枠
  6
Continuous
 62
     3
100
AcDbLine
 10
-62.5824902892
 20
-12.7175790406
 30
0.0
 11
-62.5824902892
 21
-11.5675770406
 31
0.0
  0
LINE
  5
1F4
330
1B
100
AcDbEntity
 67
     1
  8
図面枠
  6
Continuous
 62
     3
100
AcDbLine
 10
-64.4824892892
 20
-10.8175770406
 30
0.0
 11
-63.6324902892
 21
-10.8175770406
 31
0.0
  0
LINE
  5
1F5
330
1B
100
AcDbEntity
 67
     1
  8
図面枠
  6
Continuous
 62
     3
100
AcDbLine
 10
-88.7595482892
 20
-19.9516710406
 30
0.0
 11
-88.7595482892
 21
-27.4572270406
 31
0.0
  0
LINE
  5
1F6
330
1B
100
AcDbEntity
 67
     1
  8
図面枠
  6
Continuous
 62
     3
100
AcDbLine
 10
-75.7595492892
 20
-19.9516710406
 30
0.0
 11
-75.7595492892
 21
-27.4572270406
 31
0.0
  0
LINE
  5
1F7
330
1B
100
AcDbEntity
 67
     1
  8
図面枠
  6
Continuous
 62
     3
100
AcDbLine
 10
-88.7595482892
 20
-19.9516710406
 30
0.0
 11
-82.2595502892
 21
-16.1988960406
 31
0.0
  0
LINE
  5
1F8
330
1B
100
AcDbEntity
 67
     1
  8
図面枠
  6
Continuous
 62
     3
100
AcDbLine
 10
-82.2595502892
 20
-16.1988960406
 30
0.0
 11
-75.7595492892
 21
-19.9516710406
 31
0.0
  0
LINE
  5
1F9
330
1B
100
AcDbEntity
 67
     1
  8
図面枠
  6
Continuous
 62
     3
100
AcDbLine
 10
-75.7595492892
 20
-27.4572270406
 30
0.0
 11
-82.2595502892
 21
-31.2100020406
 31
0.0
  0
LINE
  5
1FA
330
1B
100
AcDbEntity
 67
     1
  8
図面枠
  6
Continuous
 62
     3
100
AcDbLine
 10
-82.2595502892
 20
-31.2100020406
 30
0.0
 11
-88.7595482892
 21
-27.4572270406
 31
0.0
  0
LINE
  5
1FB
330
1B
100
AcDbEntity
 67
     1
  8
図面枠
  6
Continuous
 62
     3
100
AcDbLine
 10
-53.8855082892
 20
87.3795899594
 30
0.0
 11
-53.8855082892
 21
79.8740369594
 31
0.0
  0
LINE
  5
1FC
330
1B
100
AcDbEntity
 67
     1
  8
図面枠
  6
Continuous
 62
     3
100
AcDbLine
 10
-53.8855082892
 20
87.3795899594
 30
0.0
 11
-47.3855072892
 21
91.1323679594
 31
0.0
  0
LINE
  5
1FD
330
1B
100
AcDbEntity
 67
     1
  8
図面枠
  6
Continuous
 62
     3
100
AcDbLine
 10
-47.3855072892
 20
91.1323679594
 30
0.0
 11
-42.1094402892
 21
88.0862279594
 31
0.0
  0
LINE
  5
1FE
330
1B
100
AcDbEntity
 67
     1
  8
図面枠
  6
Continuous
 62
     3
100
AcDbLine
 10
-41.9331002892
 20
79.2692099594
 30
0.0
 11
-47.3855072892
 21
76.1212589594
 31
0.0
  0
LINE
  5
1FF
330
1B
100
AcDbEntity
 67
     1
  8
図面枠
  6
Continuous
 62
     3
100
AcDbLine
 10
-47.3855072892
 20
76.1212589594
 30
0.0
 11
-53.8855082892
 21
79.8740369594
 31
0.0
  0
LINE
  5
200
330
1B
100
AcDbEntity
 67
     1
  8
図面枠
  6
Continuous
 62
     3
100
AcDbLine
 10
-52.7064812892
 20
15.2269139594
 30
0.0
 11
-51.5909372892
 21
16.3424579594
 31
0.0
  0
LINE
  5
201
330
1B
100
AcDbEntity
 67
     1
  8
図面枠
  6
Continuous
 62
     1
100
AcDbLine
 10
-54.9120542892
 20
-13.8650940406
 30
0.0
 11
-55.4247722892
 21
-43.2388170406
 31
0.0
  0
LINE
  5
202
330
1B
100
AcDbEntity
 67
     1
  8
図面枠
  6
Continuous
 62
     1
100
AcDbLine
 10
-55.0442222892
 20
-43.2512460406
 30
0.0
 11
-55.0438532892
 21
-43.2511170406
 31
0.0
  0
LINE
  5
203
330
1B
100
AcDbEntity
 67
     1
  8
図面枠
  6
Continuous
 62
     1
100
AcDbLine
 10
-55.0438532892
 20
-43.2511170406
 30
0.0
 11
-55.0436672892
 21
-43.2510510406
 31
0.0
  0
LINE
  5
204
330
1B
100
AcDbEntity
 67
     1
  8
図面枠
  6
Continuous
 62
     1
100
AcDbLine
 10
-55.0436672892
 20
-43.2510510406
 30
0.0
 11
-55.0434842892
 21
-43.2509880406
 31
0.0
  0
LINE
  5
205
330
1B
100
AcDbEntity
 67
     1
  8
図面枠
  6
Continuous
 62
     1
100
AcDbLine
 10
-55.0434842892
 20
-43.2509880406
 30
0.0
 11
-55.0432982892
 21
-43.2509280406
 31
0.0
  0
LINE
  5
206
330
1B
100
AcDbEntity
 67
     1
  8
図面枠
  6
Continuous
 62
     1
100
AcDbLine
 10
-55.0432982892
 20
-43.2509280406
 30
0.0
 11
-55.0431122892
 21
-43.2508680406
 31
0.0
  0
LINE
  5
207
330
1B
100
AcDbEntity
 67
     1
  8
図面枠
  6
Continuous
 62
     1
100
AcDbLine
 10
-55.0431122892
 20
-43.2508680406
 30
0.0
 11
-55.0429232892
 21
-43.2508020406
 31
0.0
  0
LINE
  5
208
330
1B
100
AcDbEntity
 67
     1
  8
図面枠
  6
Continuous
 62
     1
100
AcDbLine
 10
-55.0429232892
 20
-43.2508020406
 30
0.0
 11
-55.0427342892
 21
-43.2507360406
 31
0.0
  0
LINE
  5
209
330
1B
100
AcDbEntity
 67
     1
  8
図面枠
  6
Continuous
 62
     1
100
AcDbLine
 10
-55.0427342892
 20
-43.2507360406
 30
0.0
 11
-55.0425482892
 21
-43.2506730406
 31
0.0
  0
LINE
  5
20A
330
1B
100
AcDbEntity
 67
     1
  8
図面枠
  6
Continuous
 62
     1
100
AcDbLine
 10
-55.0425482892
 20
-43.2506730406
 30
0.0
 11
-55.0423622892
 21
-43.2506070406
 31
0.0
  0
LINE
  5
20B
330
1B
100
AcDbEntity
 67
     1
  8
図面枠
  6
Continuous
 62
     1
100
AcDbLine
 10
-55.0423622892
 20
-43.2506070406
 30
0.0
 11
-55.0421792892
 21
-43.2505410406
 31
0.0
  0
LINE
  5
20C
330
1B
100
AcDbEntity
 67
     1
  8
図面枠
  6
Continuous
 62
     1
100
AcDbLine
 10
-55.0421792892
 20
-43.2505410406
 30
0.0
 11
-55.0419932892
 21
-43.2504780406
 31
0.0
  0
LINE
  5
20D
330
1B
100
AcDbEntity
 67
     1
  8
図面枠
  6
Continuous
 62
     1
100
AcDbLine
 10
-55.0419932892
 20
-43.2504780406
 30
0.0
 11
-55.0418072892
 21
-43.2504120406
 31
0.0
  0
LINE
  5
20E
330
1B
100
AcDbEntity
 67
     1
  8
図面枠
  6
Continuous
 62
     1
100
AcDbLine
 10
-55.0418072892
 20
-43.2504120406
 30
0.0
 11
-55.0416242892
 21
-43.2503460406
 31
0.0
  0
LINE
  5
20F
330
1B
100
AcDbEntity
 67
     1
  8
図面枠
  6
Continuous
 62
     1
100
AcDbLine
 10
-55.0416242892
 20
-43.2503460406
 30
0.0
 11
-55.0414322892
 21
-43.2502830406
 31
0.0
  0
LINE
  5
210
330
1B
100
AcDbEntity
 67
     1
  8
図面枠
  6
Continuous
 62
     1
100
AcDbLine
 10
-55.0414322892
 20
-43.2502830406
 30
0.0
 11
-55.0412432892
 21
-43.2502170406
 31
0.0
  0
LINE
  5
211
330
1B
100
AcDbEntity
 67
     1
  8
図面枠
  6
Continuous
 62
     1
100
AcDbLine
 10
-55.0412432892
 20
-43.2502170406
 30
0.0
 11
-55.0410572892
 21
-43.2501570406
 31
0.0
  0
LINE
  5
212
330
1B
100
AcDbEntity
 67
     1
  8
図面枠
  6
Continuous
 62
     1
100
AcDbLine
 10
-55.0410572892
 20
-43.2501570406
 30
0.0
 11
-55.0408742892
 21
-43.2500970406
 31
0.0
  0
LINE
  5
213
330
1B
100
AcDbEntity
 67
     1
  8
図面枠
  6
Continuous
 62
     1
100
AcDbLine
 10
-55.0408742892
 20
-43.2500970406
 30
0.0
 11
-55.0406882892
 21
-43.2500310406
 31
0.0
  0
LINE
  5
214
330
1B
100
AcDbEntity
 67
     1
  8
図面枠
  6
Continuous
 62
     1
100
AcDbLine
 10
-55.0406882892
 20
-43.2500310406
 30
0.0
 11
-55.0405022892
 21
-43.2499680406
 31
0.0
  0
LINE
  5
215
330
1B
100
AcDbEntity
 67
     1
  8
図面枠
  6
Continuous
 62
     1
100
AcDbLine
 10
-55.0405022892
 20
-43.2499680406
 30
0.0
 11
-55.0403192892
 21
-43.2499020406
 31
0.0
  0
LINE
  5
216
330
1B
100
AcDbEntity
 67
     1
  8
図面枠
  6
Continuous
 62
     1
100
AcDbLine
 10
-55.0403192892
 20
-43.2499020406
 30
0.0
 11
-55.0401332892
 21
-43.2498360406
 31
0.0
  0
LINE
  5
217
330
1B
100
AcDbEntity
 67
     1
  8
図面枠
  6
Continuous
 62
     1
100
AcDbLine
 10
-55.0401332892
 20
-43.2498360406
 30
0.0
 11
-55.0399442892
 21
-43.2497730406
 31
0.0
  0
LINE
  5
218
330
1B
100
AcDbEntity
 67
     1
  8
図面枠
  6
Continuous
 62
     1
100
AcDbLine
 10
-55.0399442892
 20
-43.2497730406
 30
0.0
 11
-55.0397522892
 21
-43.2497070406
 31
0.0
  0
LINE
  5
219
330
1B
100
AcDbEntity
 67
     1
  8
図面枠
  6
Continuous
 62
     1
100
AcDbLine
 10
-55.0397522892
 20
-43.2497070406
 30
0.0
 11
-55.0395692892
 21
-43.2496470406
 31
0.0
  0
LINE
  5
21A
330
1B
100
AcDbEntity
 67
     1
  8
図面枠
  6
Continuous
 62
     1
100
AcDbLine
 10
-55.0395692892
 20
-43.2496470406
 30
0.0
 11
-55.0393832892
 21
-43.2495870406
 31
0.0
  0
LINE
  5
21B
330
1B
100
AcDbEntity
 67
     1
  8
図面枠
  6
Continuous
 62
     1
100
AcDbLine
 10
-55.0393832892
 20
-43.2495870406
 30
0.0
 11
-55.0391972892
 21
-43.2495210406
 31
0.0
  0
LINE
  5
21C
330
1B
100
AcDbEntity
 67
     1
  8
図面枠
  6
Continuous
 62
     1
100
AcDbLine
 10
-55.0391972892
 20
-43.2495210406
 30
0.0
 11
-55.0390142892
 21
-43.2494580406
 31
0.0
  0
LINE
  5
21D
330
1B
100
AcDbEntity
 67
     1
  8
図面枠
  6
Continuous
 62
     1
100
AcDbLine
 10
-55.0390142892
 20
-43.2494580406
 30
0.0
 11
-55.0388222892
 21
-43.2493920406
 31
0.0
  0
LINE
  5
21E
330
1B
100
AcDbEntity
 67
     1
  8
図面枠
  6
Continuous
 62
     1
100
AcDbLine
 10
-55.0388222892
 20
-43.2493920406
 30
0.0
 11
-55.0386332892
 21
-43.2493260406
 31
0.0
  0
LINE
  5
21F
330
1B
100
AcDbEntity
 67
     1
  8
図面枠
  6
Continuous
 62
     1
100
AcDbLine
 10
-55.0386332892
 20
-43.2493260406
 30
0.0
 11
-55.0384472892
 21
-43.2492660406
 31
0.0
  0
LINE
  5
220
330
1B
100
AcDbEntity
 67
     1
  8
図面枠
  6
Continuous
 62
     1
100
AcDbLine
 10
-55.0384472892
 20
-43.2492660406
 30
0.0
 11
-55.0382642892
 21
-43.2492060406
 31
0.0
  0
LINE
  5
221
330
1B
100
AcDbEntity
 67
     1
  8
図面枠
  6
Continuous
 62
     1
100
AcDbLine
 10
-55.0382642892
 20
-43.2492060406
 30
0.0
 11
-55.0380782892
 21
-43.2491430406
 31
0.0
  0
LINE
  5
222
330
1B
100
AcDbEntity
 67
     1
  8
図面枠
  6
Continuous
 62
     1
100
AcDbLine
 10
-55.0380782892
 20
-43.2491430406
 30
0.0
 11
-55.0378922892
 21
-43.2490770406
 31
0.0
  0
LINE
  5
223
330
1B
100
AcDbEntity
 67
     1
  8
図面枠
  6
Continuous
 62
     1
100
AcDbLine
 10
-55.0378922892
 20
-43.2490770406
 30
0.0
 11
-55.0377032892
 21
-43.2490170406
 31
0.0
  0
LINE
  5
224
330
1B
100
AcDbEntity
 67
     1
  8
図面枠
  6
Continuous
 62
     1
100
AcDbLine
 10
-55.0377032892
 20
-43.2490170406
 30
0.0
 11
-55.0375142892
 21
-43.2489570406
 31
0.0
  0
LINE
  5
225
330
1B
100
AcDbEntity
 67
     1
  8
図面枠
  6
Continuous
 62
     1
100
AcDbLine
 10
-55.0375142892
 20
-43.2489570406
 30
0.0
 11
-55.0373282892
 21
-43.2488910406
 31
0.0
  0
LINE
  5
226
330
1B
100
AcDbEntity
 67
     1
  8
図面枠
  6
Continuous
 62
     1
100
AcDbLine
 10
-55.0373282892
 20
-43.2488910406
 30
0.0
 11
-55.0371422892
 21
-43.2488280406
 31
0.0
  0
LINE
  5
227
330
1B
100
AcDbEntity
 67
     1
  8
図面枠
  6
Continuous
 62
     1
100
AcDbLine
 10
-55.0371422892
 20
-43.2488280406
 30
0.0
 11
-55.0369592892
 21
-43.2487620406
 31
0.0
  0
LINE
  5
228
330
1B
100
AcDbEntity
 67
     1
  8
図面枠
  6
Continuous
 62
     1
100
AcDbLine
 10
-55.0369592892
 20
-43.2487620406
 30
0.0
 11
-55.0367732892
 21
-43.2486960406
 31
0.0
  0
LINE
  5
229
330
1B
100
AcDbEntity
 67
     1
  8
図面枠
  6
Continuous
 62
     1
100
AcDbLine
 10
-55.0367732892
 20
-43.2486960406
 30
0.0
 11
-55.0365842892
 21
-43.2486360406
 31
0.0
  0
LINE
  5
22A
330
1B
100
AcDbEntity
 67
     1
  8
図面枠
  6
Continuous
 62
     1
100
AcDbLine
 10
-55.0365842892
 20
-43.2486360406
 30
0.0
 11
-55.0363922892
 21
-43.2485760406
 31
0.0
  0
LINE
  5
22B
330
1B
100
AcDbEntity
 67
     1
  8
図面枠
  6
Continuous
 62
     1
100
AcDbLine
 10
-55.0363922892
 20
-43.2485760406
 30
0.0
 11
-55.0362092892
 21
-43.2485130406
 31
0.0
  0
LINE
  5
22C
330
1B
100
AcDbEntity
 67
     1
  8
図面枠
  6
Continuous
 62
     1
100
AcDbLine
 10
-55.0362092892
 20
-43.2485130406
 30
0.0
 11
-55.0360232892
 21
-43.2484470406
 31
0.0
  0
LINE
  5
22D
330
1B
100
AcDbEntity
 67
     1
  8
図面枠
  6
Continuous
 62
     1
100
AcDbLine
 10
-55.0360232892
 20
-43.2484470406
 30
0.0
 11
-55.0358342892
 21
-43.2483870406
 31
0.0
  0
LINE
  5
22E
330
1B
100
AcDbEntity
 67
     1
  8
図面枠
  6
Continuous
 62
     1
100
AcDbLine
 10
-55.0358342892
 20
-43.2483870406
 30
0.0
 11
-55.0356422892
 21
-43.2483270406
 31
0.0
  0
LINE
  5
22F
330
1B
100
AcDbEntity
 67
     1
  8
図面枠
  6
Continuous
 62
     1
100
AcDbLine
 10
-55.0356422892
 20
-43.2483270406
 30
0.0
 11
-55.0354592892
 21
-43.2482610406
 31
0.0
  0
LINE
  5
230
330
1B
100
AcDbEntity
 67
     1
  8
図面枠
  6
Continuous
 62
     1
100
AcDbLine
 10
-55.0354592892
 20
-43.2482610406
 30
0.0
 11
-55.0352732892
 21
-43.2481980406
 31
0.0
  0
LINE
  5
231
330
1B
100
AcDbEntity
 67
     1
  8
図面枠
  6
Continuous
 62
     1
100
AcDbLine
 10
-55.0352732892
 20
-43.2481980406
 30
0.0
 11
-55.0350872892
 21
-43.2481380406
 31
0.0
  0
LINE
  5
232
330
1B
100
AcDbEntity
 67
     1
  8
図面枠
  6
Continuous
 62
     1
100
AcDbLine
 10
-55.0350872892
 20
-43.2481380406
 30
0.0
 11
-55.0349042892
 21
-43.2480780406
 31
0.0
  0
LINE
  5
233
330
1B
100
AcDbEntity
 67
     1
  8
図面枠
  6
Continuous
 62
     1
100
AcDbLine
 10
-55.0349042892
 20
-43.2480780406
 30
0.0
 11
-55.0347122892
 21
-43.2480120406
 31
0.0
  0
LINE
  5
234
330
1B
100
AcDbEntity
 67
     1
  8
図面枠
  6
Continuous
 62
     1
100
AcDbLine
 10
-55.0347122892
 20
-43.2480120406
 30
0.0
 11
-55.0345232892
 21
-43.2479460406
 31
0.0
  0
LINE
  5
235
330
1B
100
AcDbEntity
 67
     1
  8
図面枠
  6
Continuous
 62
     1
100
AcDbLine
 10
-55.0345232892
 20
-43.2479460406
 30
0.0
 11
-55.0343372892
 21
-43.2478860406
 31
0.0
  0
LINE
  5
236
330
1B
100
AcDbEntity
 67
     1
  8
図面枠
  6
Continuous
 62
     1
100
AcDbLine
 10
-55.0343372892
 20
-43.2478860406
 30
0.0
 11
-55.0341542892
 21
-43.2478260406
 31
0.0
  0
LINE
  5
237
330
1B
100
AcDbEntity
 67
     1
  8
図面枠
  6
Continuous
 62
     1
100
AcDbLine
 10
-55.0341542892
 20
-43.2478260406
 30
0.0
 11
-55.0339622892
 21
-43.2477630406
 31
0.0
  0
LINE
  5
238
330
1B
100
AcDbEntity
 67
     1
  8
図面枠
  6
Continuous
 62
     1
100
AcDbLine
 10
-55.0339622892
 20
-43.2477630406
 30
0.0
 11
-55.0337732892
 21
-43.2476970406
 31
0.0
  0
LINE
  5
239
330
1B
100
AcDbEntity
 67
     1
  8
図面枠
  6
Continuous
 62
     1
100
AcDbLine
 10
-55.0337732892
 20
-43.2476970406
 30
0.0
 11
-55.0335872892
 21
-43.2476370406
 31
0.0
  0
LINE
  5
23A
330
1B
100
AcDbEntity
 67
     1
  8
図面枠
  6
Continuous
 62
     1
100
AcDbLine
 10
-55.0335872892
 20
-43.2476370406
 30
0.0
 11
-55.0334042892
 21
-43.2475770406
 31
0.0
  0
LINE
  5
23B
330
1B
100
AcDbEntity
 67
     1
  8
図面枠
  6
Continuous
 62
     1
100
AcDbLine
 10
-55.0334042892
 20
-43.2475770406
 30
0.0
 11
-55.0332122892
 21
-43.2475110406
 31
0.0
  0
LINE
  5
23C
330
1B
100
AcDbEntity
 67
     1
  8
図面枠
  6
Continuous
 62
     1
100
AcDbLine
 10
-55.0332122892
 20
-43.2475110406
 30
0.0
 11
-55.0330232892
 21
-43.2474480406
 31
0.0
  0
LINE
  5
23D
330
1B
100
AcDbEntity
 67
     1
  8
図面枠
  6
Continuous
 62
     1
100
AcDbLine
 10
-55.0330232892
 20
-43.2474480406
 30
0.0
 11
-55.0328372892
 21
-43.2473880406
 31
0.0
  0
LINE
  5
23E
330
1B
100
AcDbEntity
 67
     1
  8
図面枠
  6
Continuous
 62
     1
100
AcDbLine
 10
-55.0328372892
 20
-43.2473880406
 30
0.0
 11
-55.0326542892
 21
-43.2473280406
 31
0.0
  0
LINE
  5
23F
330
1B
100
AcDbEntity
 67
     1
  8
図面枠
  6
Continuous
 62
     1
100
AcDbLine
 10
-55.0326542892
 20
-43.2473280406
 30
0.0
 11
-55.0324682892
 21
-43.2472620406
 31
0.0
  0
LINE
  5
240
330
1B
100
AcDbEntity
 67
     1
  8
図面枠
  6
Continuous
 62
     1
100
AcDbLine
 10
-55.0324682892
 20
-43.2472620406
 30
0.0
 11
-55.0322822892
 21
-43.2471960406
 31
0.0
  0
LINE
  5
241
330
1B
100
AcDbEntity
 67
     1
  8
図面枠
  6
Continuous
 62
     1
100
AcDbLine
 10
-55.0322822892
 20
-43.2471960406
 30
0.0
 11
-55.0320872892
 21
-43.2471360406
 31
0.0
  0
LINE
  5
242
330
1B
100
AcDbEntity
 67
     1
  8
図面枠
  6
Continuous
 62
     1
100
AcDbLine
 10
-55.0320872892
 20
-43.2471360406
 30
0.0
 11
-55.0318922892
 21
-43.2470760406
 31
0.0
  0
LINE
  5
243
330
1B
100
AcDbEntity
 67
     1
  8
図面枠
  6
Continuous
 62
     1
100
AcDbLine
 10
-55.0318922892
 20
-43.2470760406
 30
0.0
 11
-55.0317122892
 21
-43.2470160406
 31
0.0
  0
LINE
  5
244
330
1B
100
AcDbEntity
 67
     1
  8
図面枠
  6
Continuous
 62
     1
100
AcDbLine
 10
-55.0317122892
 20
-43.2470160406
 30
0.0
 11
-55.0315322892
 21
-43.2469560406
 31
0.0
  0
LINE
  5
245
330
1B
100
AcDbEntity
 67
     1
  8
図面枠
  6
Continuous
 62
     1
100
AcDbLine
 10
-55.0315322892
 20
-43.2469560406
 30
0.0
 11
-55.0312022892
 21
-43.2468480406
 31
0.0
  0
LINE
  5
246
330
1B
100
AcDbEntity
 67
     1
  8
図面枠
  6
Continuous
 62
     1
100
AcDbLine
 10
-55.0312022892
 20
-43.2468480406
 30
0.0
 11
-55.0309922892
 21
-43.2467760406
 31
0.0
  0
LINE
  5
247
330
1B
100
AcDbEntity
 67
     1
  8
図面枠
  6
Continuous
 62
     1
100
AcDbLine
 10
-55.0309922892
 20
-43.2467760406
 30
0.0
 11
-55.0307822892
 21
-43.2467070406
 31
0.0
  0
LINE
  5
248
330
1B
100
AcDbEntity
 67
     1
  8
図面枠
  6
Continuous
 62
     1
100
AcDbLine
 10
-55.0307822892
 20
-43.2467070406
 30
0.0
 11
-55.0304582892
 21
-43.2466020406
 31
0.0
  0
LINE
  5
249
330
1B
100
AcDbEntity
 67
     1
  8
図面枠
  6
Continuous
 62
     1
100
AcDbLine
 10
-55.0304582892
 20
-43.2466020406
 30
0.0
 11
-55.0301342892
 21
-43.2464970406
 31
0.0
  0
LINE
  5
24A
330
1B
100
AcDbEntity
 67
     1
  8
図面枠
  6
Continuous
 62
     1
100
AcDbLine
 10
-55.0301342892
 20
-43.2464970406
 30
0.0
 11
-55.0297082892
 21
-43.2463560406
 31
0.0
  0
LINE
  5
24B
330
1B
100
AcDbEntity
 67
     1
  8
図面枠
  6
Continuous
 62
     1
100
AcDbLine
 10
-55.0297082892
 20
-43.2463560406
 30
0.0
 11
-55.0292822892
 21
-43.2462180406
 31
0.0
  0
LINE
  5
24C
330
1B
100
AcDbEntity
 67
     1
  8
図面枠
  6
Continuous
 62
     1
100
AcDbLine
 10
-55.4248442892
 20
-43.6242570406
 30
0.0
 11
-55.4241332892
 21
-43.6212960406
 31
0.0
  0
LINE
  5
24D
330
1B
100
AcDbEntity
 67
     1
  8
図面枠
  6
Continuous
 62
     1
100
AcDbLine
 10
-55.4241332892
 20
-43.6212960406
 30
0.0
 11
-55.4237702892
 21
-43.6198110406
 31
0.0
  0
LINE
  5
24E
330
1B
100
AcDbEntity
 67
     1
  8
図面枠
  6
Continuous
 62
     1
100
AcDbLine
 10
-55.4237702892
 20
-43.6198110406
 30
0.0
 11
-55.4234042892
 21
-43.6183260406
 31
0.0
  0
LINE
  5
24F
330
1B
100
AcDbEntity
 67
     1
  8
図面枠
  6
Continuous
 62
     1
100
AcDbLine
 10
-55.4234042892
 20
-43.6183260406
 30
0.0
 11
-55.4230292892
 21
-43.6168410406
 31
0.0
  0
LINE
  5
250
330
1B
100
AcDbEntity
 67
     1
  8
図面枠
  6
Continuous
 62
     1
100
AcDbLine
 10
-55.4230292892
 20
-43.6168410406
 30
0.0
 11
-55.4226542892
 21
-43.6153560406
 31
0.0
  0
LINE
  5
251
330
1B
100
AcDbEntity
 67
     1
  8
図面枠
  6
Continuous
 62
     1
100
AcDbLine
 10
-55.4226542892
 20
-43.6153560406
 30
0.0
 11
-55.4222702892
 21
-43.6138680406
 31
0.0
  0
LINE
  5
252
330
1B
100
AcDbEntity
 67
     1
  8
図面枠
  6
Continuous
 62
     1
100
AcDbLine
 10
-55.4222702892
 20
-43.6138680406
 30
0.0
 11
-55.4218832892
 21
-43.6123770406
 31
0.0
  0
LINE
  5
253
330
1B
100
AcDbEntity
 67
     1
  8
図面枠
  6
Continuous
 62
     1
100
AcDbLine
 10
-55.4218832892
 20
-43.6123770406
 30
0.0
 11
-55.4214872892
 21
-43.6108920406
 31
0.0
  0
LINE
  5
254
330
1B
100
AcDbEntity
 67
     1
  8
図面枠
  6
Continuous
 62
     1
100
AcDbLine
 10
-55.4214872892
 20
-43.6108920406
 30
0.0
 11
-55.4210822892
 21
-43.6094070406
 31
0.0
  0
LINE
  5
255
330
1B
100
AcDbEntity
 67
     1
  8
図面枠
  6
Continuous
 62
     1
100
AcDbLine
 10
-55.4210822892
 20
-43.6094070406
 30
0.0
 11
-55.4206802892
 21
-43.6079130406
 31
0.0
  0
LINE
  5
256
330
1B
100
AcDbEntity
 67
     1
  8
図面枠
  6
Continuous
 62
     1
100
AcDbLine
 10
-55.4206802892
 20
-43.6079130406
 30
0.0
 11
-55.4202722892
 21
-43.6064160406
 31
0.0
  0
LINE
  5
257
330
1B
100
AcDbEntity
 67
     1
  8
図面枠
  6
Continuous
 62
     1
100
AcDbLine
 10
-55.4202722892
 20
-43.6064160406
 30
0.0
 11
-55.4198552892
 21
-43.6049280406
 31
0.0
  0
LINE
  5
258
330
1B
100
AcDbEntity
 67
     1
  8
図面枠
  6
Continuous
 62
     1
100
AcDbLine
 10
-55.4198552892
 20
-43.6049280406
 30
0.0
 11
-55.4194322892
 21
-43.6034370406
 31
0.0
  0
LINE
  5
259
330
1B
100
AcDbEntity
 67
     1
  8
図面枠
  6
Continuous
 62
     1
100
AcDbLine
 10
-55.4194322892
 20
-43.6034370406
 30
0.0
 11
-55.4190062892
 21
-43.6019370406
 31
0.0
  0
LINE
  5
25A
330
1B
100
AcDbEntity
 67
     1
  8
図面枠
  6
Continuous
 62
     1
100
AcDbLine
 10
-55.4190062892
 20
-43.6019370406
 30
0.0
 11
-55.4185742892
 21
-43.6004370406
 31
0.0
  0
LINE
  5
25B
330
1B
100
AcDbEntity
 67
     1
  8
図面枠
  6
Continuous
 62
     1
100
AcDbLine
 10
-55.4185742892
 20
-43.6004370406
 30
0.0
 11
-55.4181302892
 21
-43.5989430406
 31
0.0
  0
LINE
  5
25C
330
1B
100
AcDbEntity
 67
     1
  8
図面枠
  6
Continuous
 62
     1
100
AcDbLine
 10
-55.4181302892
 20
-43.5989430406
 30
0.0
 11
-55.4176832892
 21
-43.5974460406
 31
0.0
  0
LINE
  5
25D
330
1B
100
AcDbEntity
 67
     1
  8
図面枠
  6
Continuous
 62
     1
100
AcDbLine
 10
-55.4176832892
 20
-43.5974460406
 30
0.0
 11
-55.4172302892
 21
-43.5959460406
 31
0.0
  0
LINE
  5
25E
330
1B
100
AcDbEntity
 67
     1
  8
図面枠
  6
Continuous
 62
     1
100
AcDbLine
 10
-55.4172302892
 20
-43.5959460406
 30
0.0
 11
-55.4167742892
 21
-43.5944460406
 31
0.0
  0
LINE
  5
25F
330
1B
100
AcDbEntity
 67
     1
  8
図面枠
  6
Continuous
 62
     1
100
AcDbLine
 10
-55.4167742892
 20
-43.5944460406
 30
0.0
 11
-55.4163122892
 21
-43.5929460406
 31
0.0
  0
LINE
  5
260
330
1B
100
AcDbEntity
 67
     1
  8
図面枠
  6
Continuous
 62
     1
100
AcDbLine
 10
-55.4163122892
 20
-43.5929460406
 30
0.0
 11
-55.4158442892
 21
-43.5914460406
 31
0.0
  0
LINE
  5
261
330
1B
100
AcDbEntity
 67
     1
  8
図面枠
  6
Continuous
 62
     1
100
AcDbLine
 10
-55.4158442892
 20
-43.5914460406
 30
0.0
 11
-55.4153672892
 21
-43.5899460406
 31
0.0
  0
LINE
  5
262
330
1B
100
AcDbEntity
 67
     1
  8
図面枠
  6
Continuous
 62
     1
100
AcDbLine
 10
-55.4153672892
 20
-43.5899460406
 30
0.0
 11
-55.4148842892
 21
-43.5884460406
 31
0.0
  0
LINE
  5
263
330
1B
100
AcDbEntity
 67
     1
  8
図面枠
  6
Continuous
 62
     1
100
AcDbLine
 10
-55.4148842892
 20
-43.5884460406
 30
0.0
 11
-55.4143952892
 21
-43.5869430406
 31
0.0
  0
LINE
  5
264
330
1B
100
AcDbEntity
 67
     1
  8
図面枠
  6
Continuous
 62
     1
100
AcDbLine
 10
-55.4143952892
 20
-43.5869430406
 30
0.0
 11
-55.4139032892
 21
-43.5854370406
 31
0.0
  0
LINE
  5
265
330
1B
100
AcDbEntity
 67
     1
  8
図面枠
  6
Continuous
 62
     1
100
AcDbLine
 10
-55.4139032892
 20
-43.5854370406
 30
0.0
 11
-55.4134022892
 21
-43.5839310406
 31
0.0
  0
LINE
  5
266
330
1B
100
AcDbEntity
 67
     1
  8
図面枠
  6
Continuous
 62
     1
100
AcDbLine
 10
-55.4134022892
 20
-43.5839310406
 30
0.0
 11
-55.4128922892
 21
-43.5824280406
 31
0.0
  0
LINE
  5
267
330
1B
100
AcDbEntity
 67
     1
  8
図面枠
  6
Continuous
 62
     1
100
AcDbLine
 10
-55.4128922892
 20
-43.5824280406
 30
0.0
 11
-55.4123822892
 21
-43.5809160406
 31
0.0
  0
LINE
  5
268
330
1B
100
AcDbEntity
 67
     1
  8
図面枠
  6
Continuous
 62
     1
100
AcDbLine
 10
-55.4123822892
 20
-43.5809160406
 30
0.0
 11
-55.4118632892
 21
-43.5794070406
 31
0.0
  0
LINE
  5
269
330
1B
100
AcDbEntity
 67
     1
  8
図面枠
  6
Continuous
 62
     1
100
AcDbLine
 10
-55.4118632892
 20
-43.5794070406
 30
0.0
 11
-55.4113352892
 21
-43.5779010406
 31
0.0
  0
LINE
  5
26A
330
1B
100
AcDbEntity
 67
     1
  8
図面枠
  6
Continuous
 62
     1
100
AcDbLine
 10
-55.4113352892
 20
-43.5779010406
 30
0.0
 11
-55.4108042892
 21
-43.5763980406
 31
0.0
  0
LINE
  5
26B
330
1B
100
AcDbEntity
 67
     1
  8
図面枠
  6
Continuous
 62
     1
100
AcDbLine
 10
-55.4108042892
 20
-43.5763980406
 30
0.0
 11
-55.4102612892
 21
-43.5748860406
 31
0.0
  0
LINE
  5
26C
330
1B
100
AcDbEntity
 67
     1
  8
図面枠
  6
Continuous
 62
     1
100
AcDbLine
 10
-55.4102612892
 20
-43.5748860406
 30
0.0
 11
-55.4097122892
 21
-43.5733770406
 31
0.0
  0
LINE
  5
26D
330
1B
100
AcDbEntity
 67
     1
  8
図面枠
  6
Continuous
 62
     1
100
AcDbLine
 10
-55.4097122892
 20
-43.5733770406
 30
0.0
 11
-55.4091602892
 21
-43.5718620406
 31
0.0
  0
LINE
  5
26E
330
1B
100
AcDbEntity
 67
     1
  8
図面枠
  6
Continuous
 62
     1
100
AcDbLine
 10
-55.4091602892
 20
-43.5718620406
 30
0.0
 11
-55.4086022892
 21
-43.5703470406
 31
0.0
  0
LINE
  5
26F
330
1B
100
AcDbEntity
 67
     1
  8
図面枠
  6
Continuous
 62
     1
100
AcDbLine
 10
-55.4086022892
 20
-43.5703470406
 30
0.0
 11
-55.4080322892
 21
-43.5688350406
 31
0.0
  0
LINE
  5
270
330
1B
100
AcDbEntity
 67
     1
  8
図面枠
  6
Continuous
 62
     1
100
AcDbLine
 10
-55.4080322892
 20
-43.5688350406
 30
0.0
 11
-55.4074532892
 21
-43.5673260406
 31
0.0
  0
LINE
  5
271
330
1B
100
AcDbEntity
 67
     1
  8
図面枠
  6
Continuous
 62
     1
100
AcDbLine
 10
-55.4074532892
 20
-43.5673260406
 30
0.0
 11
-55.4068712892
 21
-43.5658110406
 31
0.0
  0
LINE
  5
272
330
1B
100
AcDbEntity
 67
     1
  8
図面枠
  6
Continuous
 62
     1
100
AcDbLine
 10
-55.4068712892
 20
-43.5658110406
 30
0.0
 11
-55.4062832892
 21
-43.5642960406
 31
0.0
  0
LINE
  5
273
330
1B
100
AcDbEntity
 67
     1
  8
図面枠
  6
Continuous
 62
     1
100
AcDbLine
 10
-55.4062832892
 20
-43.5642960406
 30
0.0
 11
-55.4056862892
 21
-43.5627810406
 31
0.0
  0
LINE
  5
274
330
1B
100
AcDbEntity
 67
     1
  8
図面枠
  6
Continuous
 62
     1
100
AcDbLine
 10
-55.4056862892
 20
-43.5627810406
 30
0.0
 11
-55.4050832892
 21
-43.5612660406
 31
0.0
  0
LINE
  5
275
330
1B
100
AcDbEntity
 67
     1
  8
図面枠
  6
Continuous
 62
     1
100
AcDbLine
 10
-55.4050832892
 20
-43.5612660406
 30
0.0
 11
-55.4044712892
 21
-43.5597510406
 31
0.0
  0
LINE
  5
276
330
1B
100
AcDbEntity
 67
     1
  8
図面枠
  6
Continuous
 62
     1
100
AcDbLine
 10
-55.4044712892
 20
-43.5597510406
 30
0.0
 11
-55.4038532892
 21
-43.5582360406
 31
0.0
  0
LINE
  5
277
330
1B
100
AcDbEntity
 67
     1
  8
図面枠
  6
Continuous
 62
     1
100
AcDbLine
 10
-55.4038532892
 20
-43.5582360406
 30
0.0
 11
-55.4032262892
 21
-43.5567210406
 31
0.0
  0
LINE
  5
278
330
1B
100
AcDbEntity
 67
     1
  8
図面枠
  6
Continuous
 62
     1
100
AcDbLine
 10
-55.4032262892
 20
-43.5567210406
 30
0.0
 11
-55.4025932892
 21
-43.5552060406
 31
0.0
  0
LINE
  5
279
330
1B
100
AcDbEntity
 67
     1
  8
図面枠
  6
Continuous
 62
     1
100
AcDbLine
 10
-55.4025932892
 20
-43.5552060406
 30
0.0
 11
-55.4019572892
 21
-43.5536850406
 31
0.0
  0
LINE
  5
27A
330
1B
100
AcDbEntity
 67
     1
  8
図面枠
  6
Continuous
 62
     1
100
AcDbLine
 10
-55.4019572892
 20
-43.5536850406
 30
0.0
 11
-55.4013122892
 21
-43.5521670406
 31
0.0
  0
LINE
  5
27B
330
1B
100
AcDbEntity
 67
     1
  8
図面枠
  6
Continuous
 62
     1
100
AcDbLine
 10
-55.4013122892
 20
-43.5521670406
 30
0.0
 11
-55.4006552892
 21
-43.5506520406
 31
0.0
  0
LINE
  5
27C
330
1B
100
AcDbEntity
 67
     1
  8
図面枠
  6
Continuous
 62
     1
100
AcDbLine
 10
-55.4006552892
 20
-43.5506520406
 30
0.0
 11
-55.3999922892
 21
-43.5491370406
 31
0.0
  0
LINE
  5
27D
330
1B
100
AcDbEntity
 67
     1
  8
図面枠
  6
Continuous
 62
     1
100
AcDbLine
 10
-55.3999922892
 20
-43.5491370406
 30
0.0
 11
-55.3993262892
 21
-43.5476160406
 31
0.0
  0
LINE
  5
27E
330
1B
100
AcDbEntity
 67
     1
  8
図面枠
  6
Continuous
 62
     1
100
AcDbLine
 10
-55.3993262892
 20
-43.5476160406
 30
0.0
 11
-55.3986542892
 21
-43.5460980406
 31
0.0
  0
LINE
  5
27F
330
1B
100
AcDbEntity
 67
     1
  8
図面枠
  6
Continuous
 62
     1
100
AcDbLine
 10
-55.3986542892
 20
-43.5460980406
 30
0.0
 11
-55.3979672892
 21
-43.5445770406
 31
0.0
  0
LINE
  5
280
330
1B
100
AcDbEntity
 67
     1
  8
図面枠
  6
Continuous
 62
     1
100
AcDbLine
 10
-55.3979672892
 20
-43.5445770406
 30
0.0
 11
-55.3972742892
 21
-43.5430560406
 31
0.0
  0
LINE
  5
281
330
1B
100
AcDbEntity
 67
     1
  8
図面枠
  6
Continuous
 62
     1
100
AcDbLine
 10
-55.3972742892
 20
-43.5430560406
 30
0.0
 11
-55.3965752892
 21
-43.5415350406
 31
0.0
  0
LINE
  5
282
330
1B
100
AcDbEntity
 67
     1
  8
図面枠
  6
Continuous
 62
     1
100
AcDbLine
 10
-55.3965752892
 20
-43.5415350406
 30
0.0
 11
-55.3958732892
 21
-43.5400170406
 31
0.0
  0
LINE
  5
283
330
1B
100
AcDbEntity
 67
     1
  8
図面枠
  6
Continuous
 62
     1
100
AcDbLine
 10
-55.3958732892
 20
-43.5400170406
 30
0.0
 11
-55.3951562892
 21
-43.5384960406
 31
0.0
  0
LINE
  5
284
330
1B
100
AcDbEntity
 67
     1
  8
図面枠
  6
Continuous
 62
     1
100
AcDbLine
 10
-55.3951562892
 20
-43.5384960406
 30
0.0
 11
-55.3944332892
 21
-43.5369780406
 31
0.0
  0
LINE
  5
285
330
1B
100
AcDbEntity
 67
     1
  8
図面枠
  6
Continuous
 62
     1
100
AcDbLine
 10
-55.3944332892
 20
-43.5369780406
 30
0.0
 11
-55.3937072892
 21
-43.5354570406
 31
0.0
  0
LINE
  5
286
330
1B
100
AcDbEntity
 67
     1
  8
図面枠
  6
Continuous
 62
     1
100
AcDbLine
 10
-55.3937072892
 20
-43.5354570406
 30
0.0
 11
-55.3929722892
 21
-43.5339360406
 31
0.0
  0
LINE
  5
287
330
1B
100
AcDbEntity
 67
     1
  8
図面枠
  6
Continuous
 62
     1
100
AcDbLine
 10
-55.3929722892
 20
-43.5339360406
 30
0.0
 11
-55.3922252892
 21
-43.5324150406
 31
0.0
  0
LINE
  5
288
330
1B
100
AcDbEntity
 67
     1
  8
図面枠
  6
Continuous
 62
     1
100
AcDbLine
 10
-55.3922252892
 20
-43.5324150406
 30
0.0
 11
-55.3914722892
 21
-43.5308970406
 31
0.0
  0
LINE
  5
289
330
1B
100
AcDbEntity
 67
     1
  8
図面枠
  6
Continuous
 62
     1
100
AcDbLine
 10
-55.3914722892
 20
-43.5308970406
 30
0.0
 11
-55.3907102892
 21
-43.5293700406
 31
0.0
  0
LINE
  5
28A
330
1B
100
AcDbEntity
 67
     1
  8
図面枠
  6
Continuous
 62
     1
100
AcDbLine
 10
-55.3907102892
 20
-43.5293700406
 30
0.0
 11
-55.3899422892
 21
-43.5278460406
 31
0.0
  0
LINE
  5
28B
330
1B
100
AcDbEntity
 67
     1
  8
図面枠
  6
Continuous
 62
     1
100
AcDbLine
 10
-55.3899422892
 20
-43.5278460406
 30
0.0
 11
-55.3891712892
 21
-43.5263250406
 31
0.0
  0
LINE
  5
28C
330
1B
100
AcDbEntity
 67
     1
  8
図面枠
  6
Continuous
 62
     1
100
AcDbLine
 10
-55.3891712892
 20
-43.5263250406
 30
0.0
 11
-55.3883942892
 21
-43.5248070406
 31
0.0
  0
LINE
  5
28D
330
1B
100
AcDbEntity
 67
     1
  8
図面枠
  6
Continuous
 62
     1
100
AcDbLine
 10
-55.3883942892
 20
-43.5248070406
 30
0.0
 11
-55.3876022892
 21
-43.5232860406
 31
0.0
  0
LINE
  5
28E
330
1B
100
AcDbEntity
 67
     1
  8
図面枠
  6
Continuous
 62
     1
100
AcDbLine
 10
-55.3876022892
 20
-43.5232860406
 30
0.0
 11
-55.3868042892
 21
-43.5217680406
 31
0.0
  0
LINE
  5
28F
330
1B
100
AcDbEntity
 67
     1
  8
図面枠
  6
Continuous
 62
     1
100
AcDbLine
 10
-55.3868042892
 20
-43.5217680406
 30
0.0
 11
-55.3859972892
 21
-43.5202410406
 31
0.0
  0
LINE
  5
290
330
1B
100
AcDbEntity
 67
     1
  8
図面枠
  6
Continuous
 62
     1
100
AcDbLine
 10
-55.3859972892
 20
-43.5202410406
 30
0.0
 11
-55.3851842892
 21
-43.5187170406
 31
0.0
  0
LINE
  5
291
330
1B
100
AcDbEntity
 67
     1
  8
図面枠
  6
Continuous
 62
     1
100
AcDbLine
 10
-55.3851842892
 20
-43.5187170406
 30
0.0
 11
-55.3843622892
 21
-43.5171960406
 31
0.0
  0
LINE
  5
292
330
1B
100
AcDbEntity
 67
     1
  8
図面枠
  6
Continuous
 62
     1
100
AcDbLine
 10
-55.3843622892
 20
-43.5171960406
 30
0.0
 11
-55.3835342892
 21
-43.5156780406
 31
0.0
  0
LINE
  5
293
330
1B
100
AcDbEntity
 67
     1
  8
図面枠
  6
Continuous
 62
     1
100
AcDbLine
 10
-55.3835342892
 20
-43.5156780406
 30
0.0
 11
-55.3826972892
 21
-43.5141570406
 31
0.0
  0
LINE
  5
294
330
1B
100
AcDbEntity
 67
     1
  8
図面枠
  6
Continuous
 62
     1
100
AcDbLine
 10
-55.3826972892
 20
-43.5141570406
 30
0.0
 11
-55.3818542892
 21
-43.5126360406
 31
0.0
  0
LINE
  5
295
330
1B
100
AcDbEntity
 67
     1
  8
図面枠
  6
Continuous
 62
     1
100
AcDbLine
 10
-55.3818542892
 20
-43.5126360406
 30
0.0
 11
-55.3809962892
 21
-43.5111150406
 31
0.0
  0
LINE
  5
296
330
1B
100
AcDbEntity
 67
     1
  8
図面枠
  6
Continuous
 62
     1
100
AcDbLine
 10
-55.3809962892
 20
-43.5111150406
 30
0.0
 11
-55.3801322892
 21
-43.5095970406
 31
0.0
  0
LINE
  5
297
330
1B
100
AcDbEntity
 67
     1
  8
図面枠
  6
Continuous
 62
     1
100
AcDbLine
 10
-55.3801322892
 20
-43.5095970406
 30
0.0
 11
-55.3792622892
 21
-43.5080700406
 31
0.0
  0
LINE
  5
298
330
1B
100
AcDbEntity
 67
     1
  8
図面枠
  6
Continuous
 62
     1
100
AcDbLine
 10
-55.3792622892
 20
-43.5080700406
 30
0.0
 11
-55.3783832892
 21
-43.5065460406
 31
0.0
  0
LINE
  5
299
330
1B
100
AcDbEntity
 67
     1
  8
図面枠
  6
Continuous
 62
     1
100
AcDbLine
 10
-55.3783832892
 20
-43.5065460406
 30
0.0
 11
-55.3775012892
 21
-43.5050310406
 31
0.0
  0
LINE
  5
29A
330
1B
100
AcDbEntity
 67
     1
  8
図面枠
  6
Continuous
 62
     1
100
AcDbLine
 10
-55.3775012892
 20
-43.5050310406
 30
0.0
 11
-55.3766132892
 21
-43.5035160406
 31
0.0
  0
LINE
  5
29B
330
1B
100
AcDbEntity
 67
     1
  8
図面枠
  6
Continuous
 62
     1
100
AcDbLine
 10
-55.3766132892
 20
-43.5035160406
 30
0.0
 11
-55.3757222892
 21
-43.5020070406
 31
0.0
  0
LINE
  5
29C
330
1B
100
AcDbEntity
 67
     1
  8
図面枠
  6
Continuous
 62
     1
100
AcDbLine
 10
-55.3757222892
 20
-43.5020070406
 30
0.0
 11
-55.3748222892
 21
-43.5004980406
 31
0.0
  0
LINE
  5
29D
330
1B
100
AcDbEntity
 67
     1
  8
図面枠
  6
Continuous
 62
     1
100
AcDbLine
 10
-55.3748222892
 20
-43.5004980406
 30
0.0
 11
-55.3738952892
 21
-43.4989650406
 31
0.0
  0
LINE
  5
29E
330
1B
100
AcDbEntity
 67
     1
  8
図面枠
  6
Continuous
 62
     1
100
AcDbLine
 10
-55.3738952892
 20
-43.4989650406
 30
0.0
 11
-55.3729622892
 21
-43.4974380406
 31
0.0
  0
LINE
  5
29F
330
1B
100
AcDbEntity
 67
     1
  8
図面枠
  6
Continuous
 62
     1
100
AcDbLine
 10
-55.3729622892
 20
-43.4974380406
 30
0.0
 11
-55.3719962892
 21
-43.4958690406
 31
0.0
  0
LINE
  5
2A0
330
1B
100
AcDbEntity
 67
     1
  8
図面枠
  6
Continuous
 62
     1
100
AcDbLine
 10
-55.3719962892
 20
-43.4958690406
 30
0.0
 11
-55.3710242892
 21
-43.4943060406
 31
0.0
  0
LINE
  5
2A1
330
1B
100
AcDbEntity
 67
     1
  8
図面枠
  6
Continuous
 62
     1
100
AcDbLine
 10
-55.3710242892
 20
-43.4943060406
 30
0.0
 11
-55.3701062892
 21
-43.4928360406
 31
0.0
  0
LINE
  5
2A2
330
1B
100
AcDbEntity
 67
     1
  8
図面枠
  6
Continuous
 62
     1
100
AcDbLine
 10
-55.3701062892
 20
-43.4928360406
 30
0.0
 11
-55.3691822892
 21
-43.4913660406
 31
0.0
  0
LINE
  5
2A3
330
1B
100
AcDbEntity
 67
     1
  8
図面枠
  6
Continuous
 62
     1
100
AcDbLine
 10
-55.3691822892
 20
-43.4913660406
 30
0.0
 11
-55.3683452892
 21
-43.4900370406
 31
0.0
  0
LINE
  5
2A4
330
1B
100
AcDbEntity
 67
     1
  8
図面枠
  6
Continuous
 62
     1
100
AcDbLine
 10
-55.3683452892
 20
-43.4900370406
 30
0.0
 11
-55.3675022892
 21
-43.4887080406
 31
0.0
  0
LINE
  5
2A5
330
1B
100
AcDbEntity
 67
     1
  8
図面枠
  6
Continuous
 62
     1
100
AcDbLine
 10
-55.3675022892
 20
-43.4887080406
 30
0.0
 11
-55.3663892892
 21
-43.4870040406
 31
0.0
  0
LINE
  5
2A6
330
1B
100
AcDbEntity
 67
     1
  8
図面枠
  6
Continuous
 62
     1
100
AcDbLine
 10
-55.3663892892
 20
-43.4870040406
 30
0.0
 11
-55.3652642892
 21
-43.4853060406
 31
0.0
  0
LINE
  5
2A7
330
1B
100
AcDbEntity
 67
     1
  8
図面枠
  6
Continuous
 62
     1
100
AcDbLine
 10
-55.3652642892
 20
-43.4853060406
 30
0.0
 11
-55.3635092892
 21
-43.4826780406
 31
0.0
  0
LINE
  5
2A8
330
1B
100
AcDbEntity
 67
     1
  8
図面枠
  6
Continuous
 62
     1
100
AcDbLine
 10
-55.3635092892
 20
-43.4826780406
 30
0.0
 11
-55.3617332892
 21
-43.4800680406
 31
0.0
  0
LINE
  5
2A9
330
1B
100
AcDbEntity
 67
     1
  8
図面枠
  6
Continuous
 62
     1
100
AcDbLine
 10
-55.3617332892
 20
-43.4800680406
 30
0.0
 11
-55.3593962892
 21
-43.4766330406
 31
0.0
  0
LINE
  5
2AA
330
1B
100
AcDbEntity
 67
     1
  8
図面枠
  6
Continuous
 62
     1
100
AcDbLine
 10
-55.3593962892
 20
-43.4766330406
 30
0.0
 11
-55.3570442892
 21
-43.4732070406
 31
0.0
  0
LINE
  5
2AB
330
1B
100
AcDbEntity
 67
     1
  8
図面枠
  6
Continuous
 62
     1
100
AcDbLine
 10
-55.4248442892
 20
-43.6242570406
 30
0.0
 11
-55.4249432892
 21
-43.6254570406
 31
0.0
  0
LINE
  5
2AC
330
1B
100
AcDbEntity
 67
     1
  8
図面枠
  6
Continuous
 62
     1
100
AcDbLine
 10
-55.4249432892
 20
-43.6254570406
 30
0.0
 11
-55.4249882892
 21
-43.6260510406
 31
0.0
  0
LINE
  5
2AD
330
1B
100
AcDbEntity
 67
     1
  8
図面枠
  6
Continuous
 62
     1
100
AcDbLine
 10
-55.4249882892
 20
-43.6260510406
 30
0.0
 11
-55.4250332892
 21
-43.6266480406
 31
0.0
  0
LINE
  5
2AE
330
1B
100
AcDbEntity
 67
     1
  8
図面枠
  6
Continuous
 62
     1
100
AcDbLine
 10
-55.4250332892
 20
-43.6266480406
 30
0.0
 11
-55.4250782892
 21
-43.6272360406
 31
0.0
  0
LINE
  5
2AF
330
1B
100
AcDbEntity
 67
     1
  8
図面枠
  6
Continuous
 62
     1
100
AcDbLine
 10
-55.4250782892
 20
-43.6272360406
 30
0.0
 11
-55.4251232892
 21
-43.6278270406
 31
0.0
  0
LINE
  5
2B0
330
1B
100
AcDbEntity
 67
     1
  8
図面枠
  6
Continuous
 62
     1
100
AcDbLine
 10
-55.4251232892
 20
-43.6278270406
 30
0.0
 11
-55.4251682892
 21
-43.6284060406
 31
0.0
  0
LINE
  5
2B1
330
1B
100
AcDbEntity
 67
     1
  8
図面枠
  6
Continuous
 62
     1
100
AcDbLine
 10
-55.4251682892
 20
-43.6284060406
 30
0.0
 11
-55.4252132892
 21
-43.6289880406
 31
0.0
  0
LINE
  5
2B2
330
1B
100
AcDbEntity
 67
     1
  8
図面枠
  6
Continuous
 62
     1
100
AcDbLine
 10
-55.4252132892
 20
-43.6289880406
 30
0.0
 11
-55.4252582892
 21
-43.6295610406
 31
0.0
  0
LINE
  5
2B3
330
1B
100
AcDbEntity
 67
     1
  8
図面枠
  6
Continuous
 62
     1
100
AcDbLine
 10
-55.4252582892
 20
-43.6295610406
 30
0.0
 11
-55.4253032892
 21
-43.6301370406
 31
0.0
  0
LINE
  5
2B4
330
1B
100
AcDbEntity
 67
     1
  8
図面枠
  6
Continuous
 62
     1
100
AcDbLine
 10
-55.4253032892
 20
-43.6301370406
 30
0.0
 11
-55.4253482892
 21
-43.6307010406
 31
0.0
  0
LINE
  5
2B5
330
1B
100
AcDbEntity
 67
     1
  8
図面枠
  6
Continuous
 62
     1
100
AcDbLine
 10
-55.4253482892
 20
-43.6307010406
 30
0.0
 11
-55.4253932892
 21
-43.6312680406
 31
0.0
  0
LINE
  5
2B6
330
1B
100
AcDbEntity
 67
     1
  8
図面枠
  6
Continuous
 62
     1
100
AcDbLine
 10
-55.4253932892
 20
-43.6312680406
 30
0.0
 11
-55.4254382892
 21
-43.6318260406
 31
0.0
  0
LINE
  5
2B7
330
1B
100
AcDbEntity
 67
     1
  8
図面枠
  6
Continuous
 62
     1
100
AcDbLine
 10
-55.4254382892
 20
-43.6318260406
 30
0.0
 11
-55.4254832892
 21
-43.6323870406
 31
0.0
  0
LINE
  5
2B8
330
1B
100
AcDbEntity
 67
     1
  8
図面枠
  6
Continuous
 62
     1
100
AcDbLine
 10
-55.4254832892
 20
-43.6323870406
 30
0.0
 11
-55.4255222892
 21
-43.6329420406
 31
0.0
  0
LINE
  5
2B9
330
1B
100
AcDbEntity
 67
     1
  8
図面枠
  6
Continuous
 62
     1
100
AcDbLine
 10
-55.4255222892
 20
-43.6329420406
 30
0.0
 11
-55.4255642892
 21
-43.6334970406
 31
0.0
  0
LINE
  5
2BA
330
1B
100
AcDbEntity
 67
     1
  8
図面枠
  6
Continuous
 62
     1
100
AcDbLine
 10
-55.4255642892
 20
-43.6334970406
 30
0.0
 11
-55.4256092892
 21
-43.6340430406
 31
0.0
  0
LINE
  5
2BB
330
1B
100
AcDbEntity
 67
     1
  8
図面枠
  6
Continuous
 62
     1
100
AcDbLine
 10
-55.4256092892
 20
-43.6340430406
 30
0.0
 11
-55.4256542892
 21
-43.6345860406
 31
0.0
  0
LINE
  5
2BC
330
1B
100
AcDbEntity
 67
     1
  8
図面枠
  6
Continuous
 62
     1
100
AcDbLine
 10
-55.4256542892
 20
-43.6345860406
 30
0.0
 11
-55.4256932892
 21
-43.6351260406
 31
0.0
  0
LINE
  5
2BD
330
1B
100
AcDbEntity
 67
     1
  8
図面枠
  6
Continuous
 62
     1
100
AcDbLine
 10
-55.4256932892
 20
-43.6351260406
 30
0.0
 11
-55.4257322892
 21
-43.6356660406
 31
0.0
  0
LINE
  5
2BE
330
1B
100
AcDbEntity
 67
     1
  8
図面枠
  6
Continuous
 62
     1
100
AcDbLine
 10
-55.4257322892
 20
-43.6356660406
 30
0.0
 11
-55.4257772892
 21
-43.6362030406
 31
0.0
  0
LINE
  5
2BF
330
1B
100
AcDbEntity
 67
     1
  8
図面枠
  6
Continuous
 62
     1
100
AcDbLine
 10
-55.4257772892
 20
-43.6362030406
 30
0.0
 11
-55.4258222892
 21
-43.6367370406
 31
0.0
  0
LINE
  5
2C0
330
1B
100
AcDbEntity
 67
     1
  8
図面枠
  6
Continuous
 62
     1
100
AcDbLine
 10
-55.4258222892
 20
-43.6367370406
 30
0.0
 11
-55.4258642892
 21
-43.6372620406
 31
0.0
  0
LINE
  5
2C1
330
1B
100
AcDbEntity
 67
     1
  8
図面枠
  6
Continuous
 62
     1
100
AcDbLine
 10
-55.4258642892
 20
-43.6372620406
 30
0.0
 11
-55.4259032892
 21
-43.6377870406
 31
0.0
  0
LINE
  5
2C2
330
1B
100
AcDbEntity
 67
     1
  8
図面枠
  6
Continuous
 62
     1
100
AcDbLine
 10
-55.4259032892
 20
-43.6377870406
 30
0.0
 11
-55.4259482892
 21
-43.6383030406
 31
0.0
  0
LINE
  5
2C3
330
1B
100
AcDbEntity
 67
     1
  8
図面枠
  6
Continuous
 62
     1
100
AcDbLine
 10
-55.4259482892
 20
-43.6383030406
 30
0.0
 11
-55.4259932892
 21
-43.6388160406
 31
0.0
  0
LINE
  5
2C4
330
1B
100
AcDbEntity
 67
     1
  8
図面枠
  6
Continuous
 62
     1
100
AcDbLine
 10
-55.4259932892
 20
-43.6388160406
 30
0.0
 11
-55.4260322892
 21
-43.6393260406
 31
0.0
  0
LINE
  5
2C5
330
1B
100
AcDbEntity
 67
     1
  8
図面枠
  6
Continuous
 62
     1
100
AcDbLine
 10
-55.4260322892
 20
-43.6393260406
 30
0.0
 11
-55.4260742892
 21
-43.6398360406
 31
0.0
  0
LINE
  5
2C6
330
1B
100
AcDbEntity
 67
     1
  8
図面枠
  6
Continuous
 62
     1
100
AcDbLine
 10
-55.4260742892
 20
-43.6398360406
 30
0.0
 11
-55.4261132892
 21
-43.6403430406
 31
0.0
  0
LINE
  5
2C7
330
1B
100
AcDbEntity
 67
     1
  8
図面枠
  6
Continuous
 62
     1
100
AcDbLine
 10
-55.4261132892
 20
-43.6403430406
 30
0.0
 11
-55.4261522892
 21
-43.6408470406
 31
0.0
  0
LINE
  5
2C8
330
1B
100
AcDbEntity
 67
     1
  8
図面枠
  6
Continuous
 62
     1
100
AcDbLine
 10
-55.4261522892
 20
-43.6408470406
 30
0.0
 11
-55.4261942892
 21
-43.6413420406
 31
0.0
  0
LINE
  5
2C9
330
1B
100
AcDbEntity
 67
     1
  8
図面枠
  6
Continuous
 62
     1
100
AcDbLine
 10
-55.4261942892
 20
-43.6413420406
 30
0.0
 11
-55.4262332892
 21
-43.6418370406
 31
0.0
  0
LINE
  5
2CA
330
1B
100
AcDbEntity
 67
     1
  8
図面枠
  6
Continuous
 62
     1
100
AcDbLine
 10
-55.4262332892
 20
-43.6418370406
 30
0.0
 11
-55.4262722892
 21
-43.6423230406
 31
0.0
  0
LINE
  5
2CB
330
1B
100
AcDbEntity
 67
     1
  8
図面枠
  6
Continuous
 62
     1
100
AcDbLine
 10
-55.4262722892
 20
-43.6423230406
 30
0.0
 11
-55.4263142892
 21
-43.6428060406
 31
0.0
  0
LINE
  5
2CC
330
1B
100
AcDbEntity
 67
     1
  8
図面枠
  6
Continuous
 62
     1
100
AcDbLine
 10
-55.4263142892
 20
-43.6428060406
 30
0.0
 11
-55.4263532892
 21
-43.6432860406
 31
0.0
  0
LINE
  5
2CD
330
1B
100
AcDbEntity
 67
     1
  8
図面枠
  6
Continuous
 62
     1
100
AcDbLine
 10
-55.4263532892
 20
-43.6432860406
 30
0.0
 11
-55.4263922892
 21
-43.6437660406
 31
0.0
  0
LINE
  5
2CE
330
1B
100
AcDbEntity
 67
     1
  8
図面枠
  6
Continuous
 62
     1
100
AcDbLine
 10
-55.4263922892
 20
-43.6437660406
 30
0.0
 11
-55.4264342892
 21
-43.6442430406
 31
0.0
  0
LINE
  5
2CF
330
1B
100
AcDbEntity
 67
     1
  8
図面枠
  6
Continuous
 62
     1
100
AcDbLine
 10
-55.4264342892
 20
-43.6442430406
 30
0.0
 11
-55.4264732892
 21
-43.6447170406
 31
0.0
  0
LINE
  5
2D0
330
1B
100
AcDbEntity
 67
     1
  8
図面枠
  6
Continuous
 62
     1
100
AcDbLine
 10
-55.4264732892
 20
-43.6447170406
 30
0.0
 11
-55.4265092892
 21
-43.6451820406
 31
0.0
  0
LINE
  5
2D1
330
1B
100
AcDbEntity
 67
     1
  8
図面枠
  6
Continuous
 62
     1
100
AcDbLine
 10
-55.4265092892
 20
-43.6451820406
 30
0.0
 11
-55.4265422892
 21
-43.6456470406
 31
0.0
  0
LINE
  5
2D2
330
1B
100
AcDbEntity
 67
     1
  8
図面枠
  6
Continuous
 62
     1
100
AcDbLine
 10
-55.4265422892
 20
-43.6456470406
 30
0.0
 11
-55.4265842892
 21
-43.6461060406
 31
0.0
  0
LINE
  5
2D3
330
1B
100
AcDbEntity
 67
     1
  8
図面枠
  6
Continuous
 62
     1
100
AcDbLine
 10
-55.4265842892
 20
-43.6461060406
 30
0.0
 11
-55.4266232892
 21
-43.6465680406
 31
0.0
  0
LINE
  5
2D4
330
1B
100
AcDbEntity
 67
     1
  8
図面枠
  6
Continuous
 62
     1
100
AcDbLine
 10
-55.4266232892
 20
-43.6465680406
 30
0.0
 11
-55.4266622892
 21
-43.6470180406
 31
0.0
  0
LINE
  5
2D5
330
1B
100
AcDbEntity
 67
     1
  8
図面枠
  6
Continuous
 62
     1
100
AcDbLine
 10
-55.4266622892
 20
-43.6470180406
 30
0.0
 11
-55.4267042892
 21
-43.6474680406
 31
0.0
  0
LINE
  5
2D6
330
1B
100
AcDbEntity
 67
     1
  8
図面枠
  6
Continuous
 62
     1
100
AcDbLine
 10
-55.4267042892
 20
-43.6474680406
 30
0.0
 11
-55.4267372892
 21
-43.6479060406
 31
0.0
  0
LINE
  5
2D7
330
1B
100
AcDbEntity
 67
     1
  8
図面枠
  6
Continuous
 62
     1
100
AcDbLine
 10
-55.4267372892
 20
-43.6479060406
 30
0.0
 11
-55.4267732892
 21
-43.6483470406
 31
0.0
  0
LINE
  5
2D8
330
1B
100
AcDbEntity
 67
     1
  8
図面枠
  6
Continuous
 62
     1
100
AcDbLine
 10
-55.4267732892
 20
-43.6483470406
 30
0.0
 11
-55.4268092892
 21
-43.6487820406
 31
0.0
  0
LINE
  5
2D9
330
1B
100
AcDbEntity
 67
     1
  8
図面枠
  6
Continuous
 62
     1
100
AcDbLine
 10
-55.4268092892
 20
-43.6487820406
 30
0.0
 11
-55.4268422892
 21
-43.6492170406
 31
0.0
  0
LINE
  5
2DA
330
1B
100
AcDbEntity
 67
     1
  8
図面枠
  6
Continuous
 62
     1
100
AcDbLine
 10
-55.4268422892
 20
-43.6492170406
 30
0.0
 11
-55.4268782892
 21
-43.6496430406
 31
0.0
  0
LINE
  5
2DB
330
1B
100
AcDbEntity
 67
     1
  8
図面枠
  6
Continuous
 62
     1
100
AcDbLine
 10
-55.4268782892
 20
-43.6496430406
 30
0.0
 11
-55.4269142892
 21
-43.6500660406
 31
0.0
  0
LINE
  5
2DC
330
1B
100
AcDbEntity
 67
     1
  8
図面枠
  6
Continuous
 62
     1
100
AcDbLine
 10
-55.4269142892
 20
-43.6500660406
 30
0.0
 11
-55.4269472892
 21
-43.6504860406
 31
0.0
  0
LINE
  5
2DD
330
1B
100
AcDbEntity
 67
     1
  8
図面枠
  6
Continuous
 62
     1
100
AcDbLine
 10
-55.4269472892
 20
-43.6504860406
 30
0.0
 11
-55.4269832892
 21
-43.6509060406
 31
0.0
  0
LINE
  5
2DE
330
1B
100
AcDbEntity
 67
     1
  8
図面枠
  6
Continuous
 62
     1
100
AcDbLine
 10
-55.4269832892
 20
-43.6509060406
 30
0.0
 11
-55.4270192892
 21
-43.6513170406
 31
0.0
  0
LINE
  5
2DF
330
1B
100
AcDbEntity
 67
     1
  8
図面枠
  6
Continuous
 62
     1
100
AcDbLine
 10
-55.4270192892
 20
-43.6513170406
 30
0.0
 11
-55.4270522892
 21
-43.6517280406
 31
0.0
  0
LINE
  5
2E0
330
1B
100
AcDbEntity
 67
     1
  8
図面枠
  6
Continuous
 62
     1
100
AcDbLine
 10
-55.4270522892
 20
-43.6517280406
 30
0.0
 11
-55.4270882892
 21
-43.6521330406
 31
0.0
  0
LINE
  5
2E1
330
1B
100
AcDbEntity
 67
     1
  8
図面枠
  6
Continuous
 62
     1
100
AcDbLine
 10
-55.4270882892
 20
-43.6521330406
 30
0.0
 11
-55.4271242892
 21
-43.6525380406
 31
0.0
  0
LINE
  5
2E2
330
1B
100
AcDbEntity
 67
     1
  8
図面枠
  6
Continuous
 62
     1
100
AcDbLine
 10
-55.4271242892
 20
-43.6525380406
 30
0.0
 11
-55.4271572892
 21
-43.6529280406
 31
0.0
  0
LINE
  5
2E3
330
1B
100
AcDbEntity
 67
     1
  8
図面枠
  6
Continuous
 62
     1
100
AcDbLine
 10
-55.4271572892
 20
-43.6529280406
 30
0.0
 11
-55.4271932892
 21
-43.6533180406
 31
0.0
  0
LINE
  5
2E4
330
1B
100
AcDbEntity
 67
     1
  8
図面枠
  6
Continuous
 62
     1
100
AcDbLine
 10
-55.4271932892
 20
-43.6533180406
 30
0.0
 11
-55.4272292892
 21
-43.6537080406
 31
0.0
  0
LINE
  5
2E5
330
1B
100
AcDbEntity
 67
     1
  8
図面枠
  6
Continuous
 62
     1
100
AcDbLine
 10
-55.4272292892
 20
-43.6537080406
 30
0.0
 11
-55.4272622892
 21
-43.6540980406
 31
0.0
  0
LINE
  5
2E6
330
1B
100
AcDbEntity
 67
     1
  8
図面枠
  6
Continuous
 62
     1
100
AcDbLine
 10
-55.4272622892
 20
-43.6540980406
 30
0.0
 11
-55.4272922892
 21
-43.6544730406
 31
0.0
  0
LINE
  5
2E7
330
1B
100
AcDbEntity
 67
     1
  8
図面枠
  6
Continuous
 62
     1
100
AcDbLine
 10
-55.4272922892
 20
-43.6544730406
 30
0.0
 11
-55.4273222892
 21
-43.6548480406
 31
0.0
  0
LINE
  5
2E8
330
1B
100
AcDbEntity
 67
     1
  8
図面枠
  6
Continuous
 62
     1
100
AcDbLine
 10
-55.4273222892
 20
-43.6548480406
 30
0.0
 11
-55.4273582892
 21
-43.6552170406
 31
0.0
  0
LINE
  5
2E9
330
1B
100
AcDbEntity
 67
     1
  8
図面枠
  6
Continuous
 62
     1
100
AcDbLine
 10
-55.4273582892
 20
-43.6552170406
 30
0.0
 11
-55.4273942892
 21
-43.6555860406
 31
0.0
  0
LINE
  5
2EA
330
1B
100
AcDbEntity
 67
     1
  8
図面枠
  6
Continuous
 62
     1
100
AcDbLine
 10
-55.4273942892
 20
-43.6555860406
 30
0.0
 11
-55.4274242892
 21
-43.6559520406
 31
0.0
  0
LINE
  5
2EB
330
1B
100
AcDbEntity
 67
     1
  8
図面枠
  6
Continuous
 62
     1
100
AcDbLine
 10
-55.4274242892
 20
-43.6559520406
 30
0.0
 11
-55.4274542892
 21
-43.6563180406
 31
0.0
  0
LINE
  5
2EC
330
1B
100
AcDbEntity
 67
     1
  8
図面枠
  6
Continuous
 62
     1
100
AcDbLine
 10
-55.4274542892
 20
-43.6563180406
 30
0.0
 11
-55.4274842892
 21
-43.6566720406
 31
0.0
  0
LINE
  5
2ED
330
1B
100
AcDbEntity
 67
     1
  8
図面枠
  6
Continuous
 62
     1
100
AcDbLine
 10
-55.4274842892
 20
-43.6566720406
 30
0.0
 11
-55.4275142892
 21
-43.6570260406
 31
0.0
  0
LINE
  5
2EE
330
1B
100
AcDbEntity
 67
     1
  8
図面枠
  6
Continuous
 62
     1
100
AcDbLine
 10
-55.4275142892
 20
-43.6570260406
 30
0.0
 11
-55.4275442892
 21
-43.6573710406
 31
0.0
  0
LINE
  5
2EF
330
1B
100
AcDbEntity
 67
     1
  8
図面枠
  6
Continuous
 62
     1
100
AcDbLine
 10
-55.4275442892
 20
-43.6573710406
 30
0.0
 11
-55.4275742892
 21
-43.6577160406
 31
0.0
  0
LINE
  5
2F0
330
1B
100
AcDbEntity
 67
     1
  8
図面枠
  6
Continuous
 62
     1
100
AcDbLine
 10
-55.4275742892
 20
-43.6577160406
 30
0.0
 11
-55.4276042892
 21
-43.6580520406
 31
0.0
  0
LINE
  5
2F1
330
1B
100
AcDbEntity
 67
     1
  8
図面枠
  6
Continuous
 62
     1
100
AcDbLine
 10
-55.4276042892
 20
-43.6580520406
 30
0.0
 11
-55.4276342892
 21
-43.6583880406
 31
0.0
  0
LINE
  5
2F2
330
1B
100
AcDbEntity
 67
     1
  8
図面枠
  6
Continuous
 62
     1
100
AcDbLine
 10
-55.4276342892
 20
-43.6583880406
 30
0.0
 11
-55.4276642892
 21
-43.6587180406
 31
0.0
  0
LINE
  5
2F3
330
1B
100
AcDbEntity
 67
     1
  8
図面枠
  6
Continuous
 62
     1
100
AcDbLine
 10
-55.4276642892
 20
-43.6587180406
 30
0.0
 11
-55.4276942892
 21
-43.6590480406
 31
0.0
  0
LINE
  5
2F4
330
1B
100
AcDbEntity
 67
     1
  8
図面枠
  6
Continuous
 62
     1
100
AcDbLine
 10
-55.4276942892
 20
-43.6590480406
 30
0.0
 11
-55.4277242892
 21
-43.6593660406
 31
0.0
  0
LINE
  5
2F5
330
1B
100
AcDbEntity
 67
     1
  8
図面枠
  6
Continuous
 62
     1
100
AcDbLine
 10
-55.4277242892
 20
-43.6593660406
 30
0.0
 11
-55.4277542892
 21
-43.6596870406
 31
0.0
  0
LINE
  5
2F6
330
1B
100
AcDbEntity
 67
     1
  8
図面枠
  6
Continuous
 62
     1
100
AcDbLine
 10
-55.4277542892
 20
-43.6596870406
 30
0.0
 11
-55.4277782892
 21
-43.6599960406
 31
0.0
  0
LINE
  5
2F7
330
1B
100
AcDbEntity
 67
     1
  8
図面枠
  6
Continuous
 62
     1
100
AcDbLine
 10
-55.4277782892
 20
-43.6599960406
 30
0.0
 11
-55.4278022892
 21
-43.6603080406
 31
0.0
  0
LINE
  5
2F8
330
1B
100
AcDbEntity
 67
     1
  8
図面枠
  6
Continuous
 62
     1
100
AcDbLine
 10
-55.4278022892
 20
-43.6603080406
 30
0.0
 11
-55.4278292892
 21
-43.6606110406
 31
0.0
  0
LINE
  5
2F9
330
1B
100
AcDbEntity
 67
     1
  8
図面枠
  6
Continuous
 62
     1
100
AcDbLine
 10
-55.4278292892
 20
-43.6606110406
 30
0.0
 11
-55.4278532892
 21
-43.6609170406
 31
0.0
  0
LINE
  5
2FA
330
1B
100
AcDbEntity
 67
     1
  8
図面枠
  6
Continuous
 62
     1
100
AcDbLine
 10
-55.4278532892
 20
-43.6609170406
 30
0.0
 11
-55.4278832892
 21
-43.6612110406
 31
0.0
  0
LINE
  5
2FB
330
1B
100
AcDbEntity
 67
     1
  8
図面枠
  6
Continuous
 62
     1
100
AcDbLine
 10
-55.4278832892
 20
-43.6612110406
 30
0.0
 11
-55.4279132892
 21
-43.6615080406
 31
0.0
  0
LINE
  5
2FC
330
1B
100
AcDbEntity
 67
     1
  8
図面枠
  6
Continuous
 62
     1
100
AcDbLine
 10
-55.4279132892
 20
-43.6615080406
 30
0.0
 11
-55.4279372892
 21
-43.6617930406
 31
0.0
  0
LINE
  5
2FD
330
1B
100
AcDbEntity
 67
     1
  8
図面枠
  6
Continuous
 62
     1
100
AcDbLine
 10
-55.4279372892
 20
-43.6617930406
 30
0.0
 11
-55.4279642892
 21
-43.6620780406
 31
0.0
  0
LINE
  5
2FE
330
1B
100
AcDbEntity
 67
     1
  8
図面枠
  6
Continuous
 62
     1
100
AcDbLine
 10
-55.4279642892
 20
-43.6620780406
 30
0.0
 11
-55.4279882892
 21
-43.6623510406
 31
0.0
  0
LINE
  5
2FF
330
1B
100
AcDbEntity
 67
     1
  8
図面枠
  6
Continuous
 62
     1
100
AcDbLine
 10
-55.4279882892
 20
-43.6623510406
 30
0.0
 11
-55.4280122892
 21
-43.6626270406
 31
0.0
  0
LINE
  5
300
330
1B
100
AcDbEntity
 67
     1
  8
図面枠
  6
Continuous
 62
     1
100
AcDbLine
 10
-55.4280122892
 20
-43.6626270406
 30
0.0
 11
-55.4280392892
 21
-43.6628970406
 31
0.0
  0
LINE
  5
301
330
1B
100
AcDbEntity
 67
     1
  8
図面枠
  6
Continuous
 62
     1
100
AcDbLine
 10
-55.4280392892
 20
-43.6628970406
 30
0.0
 11
-55.4280632892
 21
-43.6631670406
 31
0.0
  0
LINE
  5
302
330
1B
100
AcDbEntity
 67
     1
  8
図面枠
  6
Continuous
 62
     1
100
AcDbLine
 10
-55.4280632892
 20
-43.6631670406
 30
0.0
 11
-55.4280842892
 21
-43.6634280406
 31
0.0
  0
LINE
  5
303
330
1B
100
AcDbEntity
 67
     1
  8
図面枠
  6
Continuous
 62
     1
100
AcDbLine
 10
-55.4280842892
 20
-43.6634280406
 30
0.0
 11
-55.4281022892
 21
-43.6636860406
 31
0.0
  0
LINE
  5
304
330
1B
100
AcDbEntity
 67
     1
  8
図面枠
  6
Continuous
 62
     1
100
AcDbLine
 10
-55.4281022892
 20
-43.6636860406
 30
0.0
 11
-55.4281292892
 21
-43.6639380406
 31
0.0
  0
LINE
  5
305
330
1B
100
AcDbEntity
 67
     1
  8
図面枠
  6
Continuous
 62
     1
100
AcDbLine
 10
-55.4281292892
 20
-43.6639380406
 30
0.0
 11
-55.4281532892
 21
-43.6641870406
 31
0.0
  0
LINE
  5
306
330
1B
100
AcDbEntity
 67
     1
  8
図面枠
  6
Continuous
 62
     1
100
AcDbLine
 10
-55.4281532892
 20
-43.6641870406
 30
0.0
 11
-55.4281742892
 21
-43.6644330406
 31
0.0
  0
LINE
  5
307
330
1B
100
AcDbEntity
 67
     1
  8
図面枠
  6
Continuous
 62
     1
100
AcDbLine
 10
-55.4281742892
 20
-43.6644330406
 30
0.0
 11
-55.4281922892
 21
-43.6646760406
 31
0.0
  0
LINE
  5
308
330
1B
100
AcDbEntity
 67
     1
  8
図面枠
  6
Continuous
 62
     1
100
AcDbLine
 10
-55.4281922892
 20
-43.6646760406
 30
0.0
 11
-55.4282192892
 21
-43.6649070406
 31
0.0
  0
LINE
  5
309
330
1B
100
AcDbEntity
 67
     1
  8
図面枠
  6
Continuous
 62
     1
100
AcDbLine
 10
-55.4282192892
 20
-43.6649070406
 30
0.0
 11
-55.4282432892
 21
-43.6651380406
 31
0.0
  0
LINE
  5
30A
330
1B
100
AcDbEntity
 67
     1
  8
図面枠
  6
Continuous
 62
     1
100
AcDbLine
 10
-55.4282432892
 20
-43.6651380406
 30
0.0
 11
-55.4282642892
 21
-43.6653630406
 31
0.0
  0
LINE
  5
30B
330
1B
100
AcDbEntity
 67
     1
  8
図面枠
  6
Continuous
 62
     1
100
AcDbLine
 10
-55.4282642892
 20
-43.6653630406
 30
0.0
 11
-55.4282822892
 21
-43.6655880406
 31
0.0
  0
LINE
  5
30C
330
1B
100
AcDbEntity
 67
     1
  8
図面枠
  6
Continuous
 62
     1
100
AcDbLine
 10
-55.4282822892
 20
-43.6655880406
 30
0.0
 11
-55.4283032892
 21
-43.6658010406
 31
0.0
  0
LINE
  5
30D
330
1B
100
AcDbEntity
 67
     1
  8
図面枠
  6
Continuous
 62
     1
100
AcDbLine
 10
-55.4283032892
 20
-43.6658010406
 30
0.0
 11
-55.4283242892
 21
-43.6660170406
 31
0.0
  0
LINE
  5
30E
330
1B
100
AcDbEntity
 67
     1
  8
図面枠
  6
Continuous
 62
     1
100
AcDbLine
 10
-55.4283242892
 20
-43.6660170406
 30
0.0
 11
-55.4283422892
 21
-43.6662210406
 31
0.0
  0
LINE
  5
30F
330
1B
100
AcDbEntity
 67
     1
  8
図面枠
  6
Continuous
 62
     1
100
AcDbLine
 10
-55.4283422892
 20
-43.6662210406
 30
0.0
 11
-55.4283632892
 21
-43.6664280406
 31
0.0
  0
LINE
  5
310
330
1B
100
AcDbEntity
 67
     1
  8
図面枠
  6
Continuous
 62
     1
100
AcDbLine
 10
-55.4283632892
 20
-43.6664280406
 30
0.0
 11
-55.4283782892
 21
-43.6666260406
 31
0.0
  0
LINE
  5
311
330
1B
100
AcDbEntity
 67
     1
  8
図面枠
  6
Continuous
 62
     1
100
AcDbLine
 10
-55.4283782892
 20
-43.6666260406
 30
0.0
 11
-55.4283932892
 21
-43.6668270406
 31
0.0
  0
LINE
  5
312
330
1B
100
AcDbEntity
 67
     1
  8
図面枠
  6
Continuous
 62
     1
100
AcDbLine
 10
-55.4283932892
 20
-43.6668270406
 30
0.0
 11
-55.4284142892
 21
-43.6670130406
 31
0.0
  0
LINE
  5
313
330
1B
100
AcDbEntity
 67
     1
  8
図面枠
  6
Continuous
 62
     1
100
AcDbLine
 10
-55.4284142892
 20
-43.6670130406
 30
0.0
 11
-55.4284322892
 21
-43.6671960406
 31
0.0
  0
LINE
  5
314
330
1B
100
AcDbEntity
 67
     1
  8
図面枠
  6
Continuous
 62
     1
100
AcDbLine
 10
-55.4284322892
 20
-43.6671960406
 30
0.0
 11
-55.4284472892
 21
-43.6673760406
 31
0.0
  0
LINE
  5
315
330
1B
100
AcDbEntity
 67
     1
  8
図面枠
  6
Continuous
 62
     1
100
AcDbLine
 10
-55.4284472892
 20
-43.6673760406
 30
0.0
 11
-55.4284622892
 21
-43.6675560406
 31
0.0
  0
LINE
  5
316
330
1B
100
AcDbEntity
 67
     1
  8
図面枠
  6
Continuous
 62
     1
100
AcDbLine
 10
-55.4284622892
 20
-43.6675560406
 30
0.0
 11
-55.4284772892
 21
-43.6677270406
 31
0.0
  0
LINE
  5
317
330
1B
100
AcDbEntity
 67
     1
  8
図面枠
  6
Continuous
 62
     1
100
AcDbLine
 10
-55.4284772892
 20
-43.6677270406
 30
0.0
 11
-55.4284922892
 21
-43.6678980406
 31
0.0
  0
LINE
  5
318
330
1B
100
AcDbEntity
 67
     1
  8
図面枠
  6
Continuous
 62
     1
100
AcDbLine
 10
-55.4284922892
 20
-43.6678980406
 30
0.0
 11
-55.4285072892
 21
-43.6680570406
 31
0.0
  0
LINE
  5
319
330
1B
100
AcDbEntity
 67
     1
  8
図面枠
  6
Continuous
 62
     1
100
AcDbLine
 10
-55.4285072892
 20
-43.6680570406
 30
0.0
 11
-55.4285222892
 21
-43.6682160406
 31
0.0
  0
LINE
  5
31A
330
1B
100
AcDbEntity
 67
     1
  8
図面枠
  6
Continuous
 62
     1
100
AcDbLine
 10
-55.4285222892
 20
-43.6682160406
 30
0.0
 11
-55.4285372892
 21
-43.6683660406
 31
0.0
  0
LINE
  5
31B
330
1B
100
AcDbEntity
 67
     1
  8
図面枠
  6
Continuous
 62
     1
100
AcDbLine
 10
-55.4285372892
 20
-43.6683660406
 30
0.0
 11
-55.4285522892
 21
-43.6685160406
 31
0.0
  0
LINE
  5
31C
330
1B
100
AcDbEntity
 67
     1
  8
図面枠
  6
Continuous
 62
     1
100
AcDbLine
 10
-55.4285522892
 20
-43.6685160406
 30
0.0
 11
-55.4285672892
 21
-43.6686570406
 31
0.0
  0
LINE
  5
31D
330
1B
100
AcDbEntity
 67
     1
  8
図面枠
  6
Continuous
 62
     1
100
AcDbLine
 10
-55.4285672892
 20
-43.6686570406
 30
0.0
 11
-55.4285822892
 21
-43.6687980406
 31
0.0
  0
LINE
  5
31E
330
1B
100
AcDbEntity
 67
     1
  8
図面枠
  6
Continuous
 62
     1
100
AcDbLine
 10
-55.4285822892
 20
-43.6687980406
 30
0.0
 11
-55.4285942892
 21
-43.6689270406
 31
0.0
  0
LINE
  5
31F
330
1B
100
AcDbEntity
 67
     1
  8
図面枠
  6
Continuous
 62
     1
100
AcDbLine
 10
-55.4285942892
 20
-43.6689270406
 30
0.0
 11
-55.4286032892
 21
-43.6690560406
 31
0.0
  0
LINE
  5
320
330
1B
100
AcDbEntity
 67
     1
  8
図面枠
  6
Continuous
 62
     1
100
AcDbLine
 10
-55.4286032892
 20
-43.6690560406
 30
0.0
 11
-55.4286182892
 21
-43.6691820406
 31
0.0
  0
LINE
  5
321
330
1B
100
AcDbEntity
 67
     1
  8
図面枠
  6
Continuous
 62
     1
100
AcDbLine
 10
-55.4286182892
 20
-43.6691820406
 30
0.0
 11
-55.4286332892
 21
-43.6693080406
 31
0.0
  0
LINE
  5
322
330
1B
100
AcDbEntity
 67
     1
  8
図面枠
  6
Continuous
 62
     1
100
AcDbLine
 10
-55.4286332892
 20
-43.6693080406
 30
0.0
 11
-55.4286422892
 21
-43.6694160406
 31
0.0
  0
LINE
  5
323
330
1B
100
AcDbEntity
 67
     1
  8
図面枠
  6
Continuous
 62
     1
100
AcDbLine
 10
-55.4286422892
 20
-43.6694160406
 30
0.0
 11
-55.4286542892
 21
-43.6695270406
 31
0.0
  0
LINE
  5
324
330
1B
100
AcDbEntity
 67
     1
  8
図面枠
  6
Continuous
 62
     1
100
AcDbLine
 10
-55.4286542892
 20
-43.6695270406
 30
0.0
 11
-55.4286632892
 21
-43.6696320406
 31
0.0
  0
LINE
  5
325
330
1B
100
AcDbEntity
 67
     1
  8
図面枠
  6
Continuous
 62
     1
100
AcDbLine
 10
-55.4286632892
 20
-43.6696320406
 30
0.0
 11
-55.4286722892
 21
-43.6697370406
 31
0.0
  0
LINE
  5
326
330
1B
100
AcDbEntity
 67
     1
  8
図面枠
  6
Continuous
 62
     1
100
AcDbLine
 10
-55.4286722892
 20
-43.6697370406
 30
0.0
 11
-55.4286932892
 21
-43.6699260406
 31
0.0
  0
LINE
  5
327
330
1B
100
AcDbEntity
 67
     1
  8
図面枠
  6
Continuous
 62
     1
100
AcDbLine
 10
-55.4286932892
 20
-43.6699260406
 30
0.0
 11
-55.4287022892
 21
-43.6700880406
 31
0.0
  0
LINE
  5
328
330
1B
100
AcDbEntity
 67
     1
  8
図面枠
  6
Continuous
 62
     1
100
AcDbLine
 10
-55.4287022892
 20
-43.6700880406
 30
0.0
 11
-55.4287232892
 21
-43.6702380406
 31
0.0
  0
LINE
  5
329
330
1B
100
AcDbEntity
 67
     1
  8
図面枠
  6
Continuous
 62
     1
100
AcDbLine
 10
-55.4287232892
 20
-43.6702380406
 30
0.0
 11
-55.4287322892
 21
-43.6703670406
 31
0.0
  0
LINE
  5
32A
330
1B
100
AcDbEntity
 67
     1
  8
図面枠
  6
Continuous
 62
     1
100
AcDbLine
 10
-55.4277122892
 20
-43.6635480406
 30
0.0
 11
-55.4276732892
 21
-43.6632480406
 31
0.0
  0
LINE
  5
32B
330
1B
100
AcDbEntity
 67
     1
  8
図面枠
  6
Continuous
 62
     1
100
AcDbLine
 10
-55.4276732892
 20
-43.6632480406
 30
0.0
 11
-55.4276492892
 21
-43.6630920406
 31
0.0
  0
LINE
  5
32C
330
1B
100
AcDbEntity
 67
     1
  8
図面枠
  6
Continuous
 62
     1
100
AcDbLine
 10
-55.4276492892
 20
-43.6630920406
 30
0.0
 11
-55.4276222892
 21
-43.6629360406
 31
0.0
  0
LINE
  5
32D
330
1B
100
AcDbEntity
 67
     1
  8
図面枠
  6
Continuous
 62
     1
100
AcDbLine
 10
-55.4276222892
 20
-43.6629360406
 30
0.0
 11
-55.4275982892
 21
-43.6627830406
 31
0.0
  0
LINE
  5
32E
330
1B
100
AcDbEntity
 67
     1
  8
図面枠
  6
Continuous
 62
     1
100
AcDbLine
 10
-55.4275982892
 20
-43.6627830406
 30
0.0
 11
-55.4275742892
 21
-43.6626270406
 31
0.0
  0
LINE
  5
32F
330
1B
100
AcDbEntity
 67
     1
  8
図面枠
  6
Continuous
 62
     1
100
AcDbLine
 10
-55.4275742892
 20
-43.6626270406
 30
0.0
 11
-55.4275532892
 21
-43.6624710406
 31
0.0
  0
LINE
  5
330
330
1B
100
AcDbEntity
 67
     1
  8
図面枠
  6
Continuous
 62
     1
100
AcDbLine
 10
-55.4275532892
 20
-43.6624710406
 30
0.0
 11
-55.4275322892
 21
-43.6623180406
 31
0.0
  0
LINE
  5
331
330
1B
100
AcDbEntity
 67
     1
  8
図面枠
  6
Continuous
 62
     1
100
AcDbLine
 10
-55.4275322892
 20
-43.6623180406
 30
0.0
 11
-55.4275082892
 21
-43.6621620406
 31
0.0
  0
LINE
  5
332
330
1B
100
AcDbEntity
 67
     1
  8
図面枠
  6
Continuous
 62
     1
100
AcDbLine
 10
-55.4275082892
 20
-43.6621620406
 30
0.0
 11
-55.4274842892
 21
-43.6620060406
 31
0.0
  0
LINE
  5
333
330
1B
100
AcDbEntity
 67
     1
  8
図面枠
  6
Continuous
 62
     1
100
AcDbLine
 10
-55.4274842892
 20
-43.6620060406
 30
0.0
 11
-55.4274572892
 21
-43.6618530406
 31
0.0
  0
LINE
  5
334
330
1B
100
AcDbEntity
 67
     1
  8
図面枠
  6
Continuous
 62
     1
100
AcDbLine
 10
-55.4274572892
 20
-43.6618530406
 30
0.0
 11
-55.4274332892
 21
-43.6616970406
 31
0.0
  0
LINE
  5
335
330
1B
100
AcDbEntity
 67
     1
  8
図面枠
  6
Continuous
 62
     1
100
AcDbLine
 10
-55.4274332892
 20
-43.6616970406
 30
0.0
 11
-55.4274092892
 21
-43.6615410406
 31
0.0
  0
LINE
  5
336
330
1B
100
AcDbEntity
 67
     1
  8
図面枠
  6
Continuous
 62
     1
100
AcDbLine
 10
-55.4274092892
 20
-43.6615410406
 30
0.0
 11
-55.4273822892
 21
-43.6613880406
 31
0.0
  0
LINE
  5
337
330
1B
100
AcDbEntity
 67
     1
  8
図面枠
  6
Continuous
 62
     1
100
AcDbLine
 10
-55.4273822892
 20
-43.6613880406
 30
0.0
 11
-55.4273582892
 21
-43.6612320406
 31
0.0
  0
LINE
  5
338
330
1B
100
AcDbEntity
 67
     1
  8
図面枠
  6
Continuous
 62
     1
100
AcDbLine
 10
-55.4273582892
 20
-43.6612320406
 30
0.0
 11
-55.4273342892
 21
-43.6610760406
 31
0.0
  0
LINE
  5
339
330
1B
100
AcDbEntity
 67
     1
  8
図面枠
  6
Continuous
 62
     1
100
AcDbLine
 10
-55.4273342892
 20
-43.6610760406
 30
0.0
 11
-55.4273072892
 21
-43.6609230406
 31
0.0
  0
LINE
  5
33A
330
1B
100
AcDbEntity
 67
     1
  8
図面枠
  6
Continuous
 62
     1
100
AcDbLine
 10
-55.4273072892
 20
-43.6609230406
 30
0.0
 11
-55.4272832892
 21
-43.6607670406
 31
0.0
  0
LINE
  5
33B
330
1B
100
AcDbEntity
 67
     1
  8
図面枠
  6
Continuous
 62
     1
100
AcDbLine
 10
-55.4272832892
 20
-43.6607670406
 30
0.0
 11
-55.4272622892
 21
-43.6606110406
 31
0.0
  0
LINE
  5
33C
330
1B
100
AcDbEntity
 67
     1
  8
図面枠
  6
Continuous
 62
     1
100
AcDbLine
 10
-55.4272622892
 20
-43.6606110406
 30
0.0
 11
-55.4272442892
 21
-43.6604580406
 31
0.0
  0
LINE
  5
33D
330
1B
100
AcDbEntity
 67
     1
  8
図面枠
  6
Continuous
 62
     1
100
AcDbLine
 10
-55.4272442892
 20
-43.6604580406
 30
0.0
 11
-55.4272172892
 21
-43.6603020406
 31
0.0
  0
LINE
  5
33E
330
1B
100
AcDbEntity
 67
     1
  8
図面枠
  6
Continuous
 62
     1
100
AcDbLine
 10
-55.4272172892
 20
-43.6603020406
 30
0.0
 11
-55.4271932892
 21
-43.6601460406
 31
0.0
  0
LINE
  5
33F
330
1B
100
AcDbEntity
 67
     1
  8
図面枠
  6
Continuous
 62
     1
100
AcDbLine
 10
-55.4271932892
 20
-43.6601460406
 30
0.0
 11
-55.4271692892
 21
-43.6599930406
 31
0.0
  0
LINE
  5
340
330
1B
100
AcDbEntity
 67
     1
  8
図面枠
  6
Continuous
 62
     1
100
AcDbLine
 10
-55.4271692892
 20
-43.6599930406
 30
0.0
 11
-55.4271422892
 21
-43.6598370406
 31
0.0
  0
LINE
  5
341
330
1B
100
AcDbEntity
 67
     1
  8
図面枠
  6
Continuous
 62
     1
100
AcDbLine
 10
-55.4271422892
 20
-43.6598370406
 30
0.0
 11
-55.4271182892
 21
-43.6596810406
 31
0.0
  0
LINE
  5
342
330
1B
100
AcDbEntity
 67
     1
  8
図面枠
  6
Continuous
 62
     1
100
AcDbLine
 10
-55.4271182892
 20
-43.6596810406
 30
0.0
 11
-55.4270942892
 21
-43.6595280406
 31
0.0
  0
LINE
  5
343
330
1B
100
AcDbEntity
 67
     1
  8
図面枠
  6
Continuous
 62
     1
100
AcDbLine
 10
-55.4270942892
 20
-43.6595280406
 30
0.0
 11
-55.4270672892
 21
-43.6593660406
 31
0.0
  0
LINE
  5
344
330
1B
100
AcDbEntity
 67
     1
  8
図面枠
  6
Continuous
 62
     1
100
AcDbLine
 10
-55.4270672892
 20
-43.6593660406
 30
0.0
 11
-55.4270432892
 21
-43.6592070406
 31
0.0
  0
LINE
  5
345
330
1B
100
AcDbEntity
 67
     1
  8
図面枠
  6
Continuous
 62
     1
100
AcDbLine
 10
-55.4270432892
 20
-43.6592070406
 30
0.0
 11
-55.4270192892
 21
-43.6590510406
 31
0.0
  0
LINE
  5
346
330
1B
100
AcDbEntity
 67
     1
  8
図面枠
  6
Continuous
 62
     1
100
AcDbLine
 10
-55.4270192892
 20
-43.6590510406
 30
0.0
 11
-55.4269922892
 21
-43.6588980406
 31
0.0
  0
LINE
  5
347
330
1B
100
AcDbEntity
 67
     1
  8
図面枠
  6
Continuous
 62
     1
100
AcDbLine
 10
-55.4269922892
 20
-43.6588980406
 30
0.0
 11
-55.4269622892
 21
-43.6587420406
 31
0.0
  0
LINE
  5
348
330
1B
100
AcDbEntity
 67
     1
  8
図面枠
  6
Continuous
 62
     1
100
AcDbLine
 10
-55.4269622892
 20
-43.6587420406
 30
0.0
 11
-55.4269322892
 21
-43.6585860406
 31
0.0
  0
LINE
  5
349
330
1B
100
AcDbEntity
 67
     1
  8
図面枠
  6
Continuous
 62
     1
100
AcDbLine
 10
-55.4269322892
 20
-43.6585860406
 30
0.0
 11
-55.4269082892
 21
-43.6584270406
 31
0.0
  0
LINE
  5
34A
330
1B
100
AcDbEntity
 67
     1
  8
図面枠
  6
Continuous
 62
     1
100
AcDbLine
 10
-55.4269082892
 20
-43.6584270406
 30
0.0
 11
-55.4268842892
 21
-43.6582680406
 31
0.0
  0
LINE
  5
34B
330
1B
100
AcDbEntity
 67
     1
  8
図面枠
  6
Continuous
 62
     1
100
AcDbLine
 10
-55.4268842892
 20
-43.6582680406
 30
0.0
 11
-55.4268572892
 21
-43.6581120406
 31
0.0
  0
LINE
  5
34C
330
1B
100
AcDbEntity
 67
     1
  8
図面枠
  6
Continuous
 62
     1
100
AcDbLine
 10
-55.4268572892
 20
-43.6581120406
 30
0.0
 11
-55.4268332892
 21
-43.6579560406
 31
0.0
  0
LINE
  5
34D
330
1B
100
AcDbEntity
 67
     1
  8
図面枠
  6
Continuous
 62
     1
100
AcDbLine
 10
-55.4268332892
 20
-43.6579560406
 30
0.0
 11
-55.4268092892
 21
-43.6577970406
 31
0.0
  0
LINE
  5
34E
330
1B
100
AcDbEntity
 67
     1
  8
図面枠
  6
Continuous
 62
     1
100
AcDbLine
 10
-55.4268092892
 20
-43.6577970406
 30
0.0
 11
-55.4267822892
 21
-43.6576380406
 31
0.0
  0
LINE
  5
34F
330
1B
100
AcDbEntity
 67
     1
  8
図面枠
  6
Continuous
 62
     1
100
AcDbLine
 10
-55.4267822892
 20
-43.6576380406
 30
0.0
 11
-55.4267582892
 21
-43.6574820406
 31
0.0
  0
LINE
  5
350
330
1B
100
AcDbEntity
 67
     1
  8
図面枠
  6
Continuous
 62
     1
100
AcDbLine
 10
-55.4267582892
 20
-43.6574820406
 30
0.0
 11
-55.4267342892
 21
-43.6573260406
 31
0.0
  0
LINE
  5
351
330
1B
100
AcDbEntity
 67
     1
  8
図面枠
  6
Continuous
 62
     1
100
AcDbLine
 10
-55.4267342892
 20
-43.6573260406
 30
0.0
 11
-55.4267072892
 21
-43.6571670406
 31
0.0
  0
LINE
  5
352
330
1B
100
AcDbEntity
 67
     1
  8
図面枠
  6
Continuous
 62
     1
100
AcDbLine
 10
-55.4267072892
 20
-43.6571670406
 30
0.0
 11
-55.4266832892
 21
-43.6570080406
 31
0.0
  0
LINE
  5
353
330
1B
100
AcDbEntity
 67
     1
  8
図面枠
  6
Continuous
 62
     1
100
AcDbLine
 10
-55.4266832892
 20
-43.6570080406
 30
0.0
 11
-55.4266532892
 21
-43.6568520406
 31
0.0
  0
LINE
  5
354
330
1B
100
AcDbEntity
 67
     1
  8
図面枠
  6
Continuous
 62
     1
100
AcDbLine
 10
-55.4266532892
 20
-43.6568520406
 30
0.0
 11
-55.4266232892
 21
-43.6566960406
 31
0.0
  0
LINE
  5
355
330
1B
100
AcDbEntity
 67
     1
  8
図面枠
  6
Continuous
 62
     1
100
AcDbLine
 10
-55.4266232892
 20
-43.6566960406
 30
0.0
 11
-55.4265992892
 21
-43.6565370406
 31
0.0
  0
LINE
  5
356
330
1B
100
AcDbEntity
 67
     1
  8
図面枠
  6
Continuous
 62
     1
100
AcDbLine
 10
-55.4265992892
 20
-43.6565370406
 30
0.0
 11
-55.4265722892
 21
-43.6563780406
 31
0.0
  0
LINE
  5
357
330
1B
100
AcDbEntity
 67
     1
  8
図面枠
  6
Continuous
 62
     1
100
AcDbLine
 10
-55.4265722892
 20
-43.6563780406
 30
0.0
 11
-55.4265482892
 21
-43.6562220406
 31
0.0
  0
LINE
  5
358
330
1B
100
AcDbEntity
 67
     1
  8
図面枠
  6
Continuous
 62
     1
100
AcDbLine
 10
-55.4265482892
 20
-43.6562220406
 30
0.0
 11
-55.4265242892
 21
-43.6560660406
 31
0.0
  0
LINE
  5
359
330
1B
100
AcDbEntity
 67
     1
  8
図面枠
  6
Continuous
 62
     1
100
AcDbLine
 10
-55.4265242892
 20
-43.6560660406
 30
0.0
 11
-55.4264972892
 21
-43.6559070406
 31
0.0
  0
LINE
  5
35A
330
1B
100
AcDbEntity
 67
     1
  8
図面枠
  6
Continuous
 62
     1
100
AcDbLine
 10
-55.4264972892
 20
-43.6559070406
 30
0.0
 11
-55.4264732892
 21
-43.6557480406
 31
0.0
  0
LINE
  5
35B
330
1B
100
AcDbEntity
 67
     1
  8
図面枠
  6
Continuous
 62
     1
100
AcDbLine
 10
-55.4264732892
 20
-43.6557480406
 30
0.0
 11
-55.4264432892
 21
-43.6555860406
 31
0.0
  0
LINE
  5
35C
330
1B
100
AcDbEntity
 67
     1
  8
図面枠
  6
Continuous
 62
     1
100
AcDbLine
 10
-55.4264432892
 20
-43.6555860406
 30
0.0
 11
-55.4264132892
 21
-43.6554270406
 31
0.0
  0
LINE
  5
35D
330
1B
100
AcDbEntity
 67
     1
  8
図面枠
  6
Continuous
 62
     1
100
AcDbLine
 10
-55.4264132892
 20
-43.6554270406
 30
0.0
 11
-55.4263892892
 21
-43.6552710406
 31
0.0
  0
LINE
  5
35E
330
1B
100
AcDbEntity
 67
     1
  8
図面枠
  6
Continuous
 62
     1
100
AcDbLine
 10
-55.4263892892
 20
-43.6552710406
 30
0.0
 11
-55.4263622892
 21
-43.6551180406
 31
0.0
  0
LINE
  5
35F
330
1B
100
AcDbEntity
 67
     1
  8
図面枠
  6
Continuous
 62
     1
100
AcDbLine
 10
-55.4263622892
 20
-43.6551180406
 30
0.0
 11
-55.4263322892
 21
-43.6549560406
 31
0.0
  0
LINE
  5
360
330
1B
100
AcDbEntity
 67
     1
  8
図面枠
  6
Continuous
 62
     1
100
AcDbLine
 10
-55.4263322892
 20
-43.6549560406
 30
0.0
 11
-55.4263022892
 21
-43.6547970406
 31
0.0
  0
LINE
  5
361
330
1B
100
AcDbEntity
 67
     1
  8
図面枠
  6
Continuous
 62
     1
100
AcDbLine
 10
-55.4263022892
 20
-43.6547970406
 30
0.0
 11
-55.4262782892
 21
-43.6546380406
 31
0.0
  0
LINE
  5
362
330
1B
100
AcDbEntity
 67
     1
  8
図面枠
  6
Continuous
 62
     1
100
AcDbLine
 10
-55.4262782892
 20
-43.6546380406
 30
0.0
 11
-55.4262542892
 21
-43.6544760406
 31
0.0
  0
LINE
  5
363
330
1B
100
AcDbEntity
 67
     1
  8
図面枠
  6
Continuous
 62
     1
100
AcDbLine
 10
-55.4262542892
 20
-43.6544760406
 30
0.0
 11
-55.4262272892
 21
-43.6543170406
 31
0.0
  0
LINE
  5
364
330
1B
100
AcDbEntity
 67
     1
  8
図面枠
  6
Continuous
 62
     1
100
AcDbLine
 10
-55.4262272892
 20
-43.6543170406
 30
0.0
 11
-55.4262032892
 21
-43.6541580406
 31
0.0
  0
LINE
  5
365
330
1B
100
AcDbEntity
 67
     1
  8
図面枠
  6
Continuous
 62
     1
100
AcDbLine
 10
-55.4262032892
 20
-43.6541580406
 30
0.0
 11
-55.4261732892
 21
-43.6539960406
 31
0.0
  0
LINE
  5
366
330
1B
100
AcDbEntity
 67
     1
  8
図面枠
  6
Continuous
 62
     1
100
AcDbLine
 10
-55.4261732892
 20
-43.6539960406
 30
0.0
 11
-55.4261432892
 21
-43.6538370406
 31
0.0
  0
LINE
  5
367
330
1B
100
AcDbEntity
 67
     1
  8
図面枠
  6
Continuous
 62
     1
100
AcDbLine
 10
-55.4261432892
 20
-43.6538370406
 30
0.0
 11
-55.4261192892
 21
-43.6536780406
 31
0.0
  0
LINE
  5
368
330
1B
100
AcDbEntity
 67
     1
  8
図面枠
  6
Continuous
 62
     1
100
AcDbLine
 10
-55.4261192892
 20
-43.6536780406
 30
0.0
 11
-55.4260922892
 21
-43.6535160406
 31
0.0
  0
LINE
  5
369
330
1B
100
AcDbEntity
 67
     1
  8
図面枠
  6
Continuous
 62
     1
100
AcDbLine
 10
-55.4260922892
 20
-43.6535160406
 30
0.0
 11
-55.4260622892
 21
-43.6533570406
 31
0.0
  0
LINE
  5
36A
330
1B
100
AcDbEntity
 67
     1
  8
図面枠
  6
Continuous
 62
     1
100
AcDbLine
 10
-55.4260622892
 20
-43.6533570406
 30
0.0
 11
-55.4260322892
 21
-43.6531980406
 31
0.0
  0
LINE
  5
36B
330
1B
100
AcDbEntity
 67
     1
  8
図面枠
  6
Continuous
 62
     1
100
AcDbLine
 10
-55.4260322892
 20
-43.6531980406
 30
0.0
 11
-55.4260022892
 21
-43.6530360406
 31
0.0
  0
LINE
  5
36C
330
1B
100
AcDbEntity
 67
     1
  8
図面枠
  6
Continuous
 62
     1
100
AcDbLine
 10
-55.4260022892
 20
-43.6530360406
 30
0.0
 11
-55.4259722892
 21
-43.6528770406
 31
0.0
  0
LINE
  5
36D
330
1B
100
AcDbEntity
 67
     1
  8
図面枠
  6
Continuous
 62
     1
100
AcDbLine
 10
-55.4259722892
 20
-43.6528770406
 30
0.0
 11
-55.4259482892
 21
-43.6527180406
 31
0.0
  0
LINE
  5
36E
330
1B
100
AcDbEntity
 67
     1
  8
図面枠
  6
Continuous
 62
     1
100
AcDbLine
 10
-55.4259482892
 20
-43.6527180406
 30
0.0
 11
-55.4259242892
 21
-43.6525560406
 31
0.0
  0
LINE
  5
36F
330
1B
100
AcDbEntity
 67
     1
  8
図面枠
  6
Continuous
 62
     1
100
AcDbLine
 10
-55.4259242892
 20
-43.6525560406
 30
0.0
 11
-55.4258942892
 21
-43.6523970406
 31
0.0
  0
LINE
  5
370
330
1B
100
AcDbEntity
 67
     1
  8
図面枠
  6
Continuous
 62
     1
100
AcDbLine
 10
-55.4258942892
 20
-43.6523970406
 30
0.0
 11
-55.4258642892
 21
-43.6522380406
 31
0.0
  0
LINE
  5
371
330
1B
100
AcDbEntity
 67
     1
  8
図面枠
  6
Continuous
 62
     1
100
AcDbLine
 10
-55.4258642892
 20
-43.6522380406
 30
0.0
 11
-55.4258372892
 21
-43.6520760406
 31
0.0
  0
LINE
  5
372
330
1B
100
AcDbEntity
 67
     1
  8
図面枠
  6
Continuous
 62
     1
100
AcDbLine
 10
-55.4258372892
 20
-43.6520760406
 30
0.0
 11
-55.4258132892
 21
-43.6519170406
 31
0.0
  0
LINE
  5
373
330
1B
100
AcDbEntity
 67
     1
  8
図面枠
  6
Continuous
 62
     1
100
AcDbLine
 10
-55.4258132892
 20
-43.6519170406
 30
0.0
 11
-55.4257832892
 21
-43.6517580406
 31
0.0
  0
LINE
  5
374
330
1B
100
AcDbEntity
 67
     1
  8
図面枠
  6
Continuous
 62
     1
100
AcDbLine
 10
-55.4257832892
 20
-43.6517580406
 30
0.0
 11
-55.4257532892
 21
-43.6515960406
 31
0.0
  0
LINE
  5
375
330
1B
100
AcDbEntity
 67
     1
  8
図面枠
  6
Continuous
 62
     1
100
AcDbLine
 10
-55.4257532892
 20
-43.6515960406
 30
0.0
 11
-55.4257232892
 21
-43.6514370406
 31
0.0
  0
LINE
  5
376
330
1B
100
AcDbEntity
 67
     1
  8
図面枠
  6
Continuous
 62
     1
100
AcDbLine
 10
-55.4257232892
 20
-43.6514370406
 30
0.0
 11
-55.4256932892
 21
-43.6512780406
 31
0.0
  0
LINE
  5
377
330
1B
100
AcDbEntity
 67
     1
  8
図面枠
  6
Continuous
 62
     1
100
AcDbLine
 10
-55.4256932892
 20
-43.6512780406
 30
0.0
 11
-55.4256692892
 21
-43.6511130406
 31
0.0
  0
LINE
  5
378
330
1B
100
AcDbEntity
 67
     1
  8
図面枠
  6
Continuous
 62
     1
100
AcDbLine
 10
-55.4256692892
 20
-43.6511130406
 30
0.0
 11
-55.4256422892
 21
-43.6509480406
 31
0.0
  0
LINE
  5
379
330
1B
100
AcDbEntity
 67
     1
  8
図面枠
  6
Continuous
 62
     1
100
AcDbLine
 10
-55.4256422892
 20
-43.6509480406
 30
0.0
 11
-55.4256122892
 21
-43.6507860406
 31
0.0
  0
LINE
  5
37A
330
1B
100
AcDbEntity
 67
     1
  8
図面枠
  6
Continuous
 62
     1
100
AcDbLine
 10
-55.4256122892
 20
-43.6507860406
 30
0.0
 11
-55.4255822892
 21
-43.6506270406
 31
0.0
  0
LINE
  5
37B
330
1B
100
AcDbEntity
 67
     1
  8
図面枠
  6
Continuous
 62
     1
100
AcDbLine
 10
-55.4255822892
 20
-43.6506270406
 30
0.0
 11
-55.4255522892
 21
-43.6504680406
 31
0.0
  0
LINE
  5
37C
330
1B
100
AcDbEntity
 67
     1
  8
図面枠
  6
Continuous
 62
     1
100
AcDbLine
 10
-55.4255522892
 20
-43.6504680406
 30
0.0
 11
-55.4255222892
 21
-43.6503060406
 31
0.0
  0
LINE
  5
37D
330
1B
100
AcDbEntity
 67
     1
  8
図面枠
  6
Continuous
 62
     1
100
AcDbLine
 10
-55.4255222892
 20
-43.6503060406
 30
0.0
 11
-55.4254922892
 21
-43.6501410406
 31
0.0
  0
LINE
  5
37E
330
1B
100
AcDbEntity
 67
     1
  8
図面枠
  6
Continuous
 62
     1
100
AcDbLine
 10
-55.4254922892
 20
-43.6501410406
 30
0.0
 11
-55.4254622892
 21
-43.6499760406
 31
0.0
  0
LINE
  5
37F
330
1B
100
AcDbEntity
 67
     1
  8
図面枠
  6
Continuous
 62
     1
100
AcDbLine
 10
-55.4254622892
 20
-43.6499760406
 30
0.0
 11
-55.4254322892
 21
-43.6498170406
 31
0.0
  0
LINE
  5
380
330
1B
100
AcDbEntity
 67
     1
  8
図面枠
  6
Continuous
 62
     1
100
AcDbLine
 10
-55.4254322892
 20
-43.6498170406
 30
0.0
 11
-55.4254022892
 21
-43.6496580406
 31
0.0
  0
LINE
  5
381
330
1B
100
AcDbEntity
 67
     1
  8
図面枠
  6
Continuous
 62
     1
100
AcDbLine
 10
-55.4254022892
 20
-43.6496580406
 30
0.0
 11
-55.4253782892
 21
-43.6494960406
 31
0.0
  0
LINE
  5
382
330
1B
100
AcDbEntity
 67
     1
  8
図面枠
  6
Continuous
 62
     1
100
AcDbLine
 10
-55.4253782892
 20
-43.6494960406
 30
0.0
 11
-55.4253542892
 21
-43.6493370406
 31
0.0
  0
LINE
  5
383
330
1B
100
AcDbEntity
 67
     1
  8
図面枠
  6
Continuous
 62
     1
100
AcDbLine
 10
-55.4253542892
 20
-43.6493370406
 30
0.0
 11
-55.4253242892
 21
-43.6491720406
 31
0.0
  0
LINE
  5
384
330
1B
100
AcDbEntity
 67
     1
  8
図面枠
  6
Continuous
 62
     1
100
AcDbLine
 10
-55.4253242892
 20
-43.6491720406
 30
0.0
 11
-55.4252942892
 21
-43.6490070406
 31
0.0
  0
LINE
  5
385
330
1B
100
AcDbEntity
 67
     1
  8
図面枠
  6
Continuous
 62
     1
100
AcDbLine
 10
-55.4252942892
 20
-43.6490070406
 30
0.0
 11
-55.4252642892
 21
-43.6488480406
 31
0.0
  0
LINE
  5
386
330
1B
100
AcDbEntity
 67
     1
  8
図面枠
  6
Continuous
 62
     1
100
AcDbLine
 10
-55.4252642892
 20
-43.6488480406
 30
0.0
 11
-55.4252342892
 21
-43.6486860406
 31
0.0
  0
LINE
  5
387
330
1B
100
AcDbEntity
 67
     1
  8
図面枠
  6
Continuous
 62
     1
100
AcDbLine
 10
-55.4252342892
 20
-43.6486860406
 30
0.0
 11
-55.4252042892
 21
-43.6485210406
 31
0.0
  0
LINE
  5
388
330
1B
100
AcDbEntity
 67
     1
  8
図面枠
  6
Continuous
 62
     1
100
AcDbLine
 10
-55.4252042892
 20
-43.6485210406
 30
0.0
 11
-55.4251742892
 21
-43.6483560406
 31
0.0
  0
LINE
  5
389
330
1B
100
AcDbEntity
 67
     1
  8
図面枠
  6
Continuous
 62
     1
100
AcDbLine
 10
-55.4251742892
 20
-43.6483560406
 30
0.0
 11
-55.4251442892
 21
-43.6481970406
 31
0.0
  0
LINE
  5
38A
330
1B
100
AcDbEntity
 67
     1
  8
図面枠
  6
Continuous
 62
     1
100
AcDbLine
 10
-55.4251442892
 20
-43.6481970406
 30
0.0
 11
-55.4251142892
 21
-43.6480380406
 31
0.0
  0
LINE
  5
38B
330
1B
100
AcDbEntity
 67
     1
  8
図面枠
  6
Continuous
 62
     1
100
AcDbLine
 10
-55.4251142892
 20
-43.6480380406
 30
0.0
 11
-55.4250842892
 21
-43.6478730406
 31
0.0
  0
LINE
  5
38C
330
1B
100
AcDbEntity
 67
     1
  8
図面枠
  6
Continuous
 62
     1
100
AcDbLine
 10
-55.4250842892
 20
-43.6478730406
 30
0.0
 11
-55.4250542892
 21
-43.6477080406
 31
0.0
  0
LINE
  5
38D
330
1B
100
AcDbEntity
 67
     1
  8
図面枠
  6
Continuous
 62
     1
100
AcDbLine
 10
-55.4250542892
 20
-43.6477080406
 30
0.0
 11
-55.4250242892
 21
-43.6475460406
 31
0.0
  0
LINE
  5
38E
330
1B
100
AcDbEntity
 67
     1
  8
図面枠
  6
Continuous
 62
     1
100
AcDbLine
 10
-55.4250242892
 20
-43.6475460406
 30
0.0
 11
-55.4249942892
 21
-43.6473870406
 31
0.0
  0
LINE
  5
38F
330
1B
100
AcDbEntity
 67
     1
  8
図面枠
  6
Continuous
 62
     1
100
AcDbLine
 10
-55.4249942892
 20
-43.6473870406
 30
0.0
 11
-55.4249642892
 21
-43.6472220406
 31
0.0
  0
LINE
  5
390
330
1B
100
AcDbEntity
 67
     1
  8
図面枠
  6
Continuous
 62
     1
100
AcDbLine
 10
-55.4249642892
 20
-43.6472220406
 30
0.0
 11
-55.4249342892
 21
-43.6470570406
 31
0.0
  0
LINE
  5
391
330
1B
100
AcDbEntity
 67
     1
  8
図面枠
  6
Continuous
 62
     1
100
AcDbLine
 10
-55.4249342892
 20
-43.6470570406
 30
0.0
 11
-55.4249042892
 21
-43.6468920406
 31
0.0
  0
LINE
  5
392
330
1B
100
AcDbEntity
 67
     1
  8
図面枠
  6
Continuous
 62
     1
100
AcDbLine
 10
-55.4249042892
 20
-43.6468920406
 30
0.0
 11
-55.4248742892
 21
-43.6467270406
 31
0.0
  0
LINE
  5
393
330
1B
100
AcDbEntity
 67
     1
  8
図面枠
  6
Continuous
 62
     1
100
AcDbLine
 10
-55.4248742892
 20
-43.6467270406
 30
0.0
 11
-55.4248442892
 21
-43.6465680406
 31
0.0
  0
LINE
  5
394
330
1B
100
AcDbEntity
 67
     1
  8
図面枠
  6
Continuous
 62
     1
100
AcDbLine
 10
-55.4248442892
 20
-43.6465680406
 30
0.0
 11
-55.4248142892
 21
-43.6464060406
 31
0.0
  0
LINE
  5
395
330
1B
100
AcDbEntity
 67
     1
  8
図面枠
  6
Continuous
 62
     1
100
AcDbLine
 10
-55.4248142892
 20
-43.6464060406
 30
0.0
 11
-55.4247782892
 21
-43.6462410406
 31
0.0
  0
LINE
  5
396
330
1B
100
AcDbEntity
 67
     1
  8
図面枠
  6
Continuous
 62
     1
100
AcDbLine
 10
-55.4247782892
 20
-43.6462410406
 30
0.0
 11
-55.4247422892
 21
-43.6460760406
 31
0.0
  0
LINE
  5
397
330
1B
100
AcDbEntity
 67
     1
  8
図面枠
  6
Continuous
 62
     1
100
AcDbLine
 10
-55.4247422892
 20
-43.6460760406
 30
0.0
 11
-55.4247122892
 21
-43.6459110406
 31
0.0
  0
LINE
  5
398
330
1B
100
AcDbEntity
 67
     1
  8
図面枠
  6
Continuous
 62
     1
100
AcDbLine
 10
-55.4247122892
 20
-43.6459110406
 30
0.0
 11
-55.4246822892
 21
-43.6457460406
 31
0.0
  0
LINE
  5
399
330
1B
100
AcDbEntity
 67
     1
  8
図面枠
  6
Continuous
 62
     1
100
AcDbLine
 10
-55.4246822892
 20
-43.6457460406
 30
0.0
 11
-55.4246522892
 21
-43.6455870406
 31
0.0
  0
LINE
  5
39A
330
1B
100
AcDbEntity
 67
     1
  8
図面枠
  6
Continuous
 62
     1
100
AcDbLine
 10
-55.4246522892
 20
-43.6455870406
 30
0.0
 11
-55.4246222892
 21
-43.6454280406
 31
0.0
  0
LINE
  5
39B
330
1B
100
AcDbEntity
 67
     1
  8
図面枠
  6
Continuous
 62
     1
100
AcDbLine
 10
-55.4246222892
 20
-43.6454280406
 30
0.0
 11
-55.4245922892
 21
-43.6452630406
 31
0.0
  0
LINE
  5
39C
330
1B
100
AcDbEntity
 67
     1
  8
図面枠
  6
Continuous
 62
     1
100
AcDbLine
 10
-55.4245922892
 20
-43.6452630406
 30
0.0
 11
-55.4245622892
 21
-43.6450980406
 31
0.0
  0
LINE
  5
39D
330
1B
100
AcDbEntity
 67
     1
  8
図面枠
  6
Continuous
 62
     1
100
AcDbLine
 10
-55.4245622892
 20
-43.6450980406
 30
0.0
 11
-55.4245322892
 21
-43.6449330406
 31
0.0
  0
LINE
  5
39E
330
1B
100
AcDbEntity
 67
     1
  8
図面枠
  6
Continuous
 62
     1
100
AcDbLine
 10
-55.4245322892
 20
-43.6449330406
 30
0.0
 11
-55.4245022892
 21
-43.6447680406
 31
0.0
  0
LINE
  5
39F
330
1B
100
AcDbEntity
 67
     1
  8
図面枠
  6
Continuous
 62
     1
100
AcDbLine
 10
-55.4245022892
 20
-43.6447680406
 30
0.0
 11
-55.4244692892
 21
-43.6446030406
 31
0.0
  0
LINE
  5
3A0
330
1B
100
AcDbEntity
 67
     1
  8
図面枠
  6
Continuous
 62
     1
100
AcDbLine
 10
-55.4244692892
 20
-43.6446030406
 30
0.0
 11
-55.4244332892
 21
-43.6444380406
 31
0.0
  0
LINE
  5
3A1
330
1B
100
AcDbEntity
 67
     1
  8
図面枠
  6
Continuous
 62
     1
100
AcDbLine
 10
-55.4244332892
 20
-43.6444380406
 30
0.0
 11
-55.4244032892
 21
-43.6442760406
 31
0.0
  0
LINE
  5
3A2
330
1B
100
AcDbEntity
 67
     1
  8
図面枠
  6
Continuous
 62
     1
100
AcDbLine
 10
-55.4244032892
 20
-43.6442760406
 30
0.0
 11
-55.4243732892
 21
-43.6441170406
 31
0.0
  0
LINE
  5
3A3
330
1B
100
AcDbEntity
 67
     1
  8
図面枠
  6
Continuous
 62
     1
100
AcDbLine
 10
-55.4243732892
 20
-43.6441170406
 30
0.0
 11
-55.4243432892
 21
-43.6439460406
 31
0.0
  0
LINE
  5
3A4
330
1B
100
AcDbEntity
 67
     1
  8
図面枠
  6
Continuous
 62
     1
100
AcDbLine
 10
-55.4243432892
 20
-43.6439460406
 30
0.0
 11
-55.4243132892
 21
-43.6437780406
 31
0.0
  0
LINE
  5
3A5
330
1B
100
AcDbEntity
 67
     1
  8
図面枠
  6
Continuous
 62
     1
100
AcDbLine
 10
-55.4243132892
 20
-43.6437780406
 30
0.0
 11
-55.4242772892
 21
-43.6436070406
 31
0.0
  0
LINE
  5
3A6
330
1B
100
AcDbEntity
 67
     1
  8
図面枠
  6
Continuous
 62
     1
100
AcDbLine
 10
-55.4242772892
 20
-43.6436070406
 30
0.0
 11
-55.4242442892
 21
-43.6434360406
 31
0.0
  0
LINE
  5
3A7
330
1B
100
AcDbEntity
 67
     1
  8
図面枠
  6
Continuous
 62
     1
100
AcDbLine
 10
-55.4242442892
 20
-43.6434360406
 30
0.0
 11
-55.4242142892
 21
-43.6432770406
 31
0.0
  0
LINE
  5
3A8
330
1B
100
AcDbEntity
 67
     1
  8
図面枠
  6
Continuous
 62
     1
100
AcDbLine
 10
-55.4242142892
 20
-43.6432770406
 30
0.0
 11
-55.4241842892
 21
-43.6431180406
 31
0.0
  0
LINE
  5
3A9
330
1B
100
AcDbEntity
 67
     1
  8
図面枠
  6
Continuous
 62
     1
100
AcDbLine
 10
-55.4241842892
 20
-43.6431180406
 30
0.0
 11
-55.4241542892
 21
-43.6429770406
 31
0.0
  0
LINE
  5
3AA
330
1B
100
AcDbEntity
 67
     1
  8
図面枠
  6
Continuous
 62
     1
100
AcDbLine
 10
-55.4241542892
 20
-43.6429770406
 30
0.0
 11
-55.4241242892
 21
-43.6428360406
 31
0.0
  0
LINE
  5
3AB
330
1B
100
AcDbEntity
 67
     1
  8
図面枠
  6
Continuous
 62
     1
100
AcDbLine
 10
-55.4241242892
 20
-43.6428360406
 30
0.0
 11
-55.4240882892
 21
-43.6426470406
 31
0.0
  0
LINE
  5
3AC
330
1B
100
AcDbEntity
 67
     1
  8
図面枠
  6
Continuous
 62
     1
100
AcDbLine
 10
-55.4240882892
 20
-43.6426470406
 30
0.0
 11
-55.4240522892
 21
-43.6424580406
 31
0.0
  0
LINE
  5
3AD
330
1B
100
AcDbEntity
 67
     1
  8
図面枠
  6
Continuous
 62
     1
100
AcDbLine
 10
-55.4240522892
 20
-43.6424580406
 30
0.0
 11
-55.4239922892
 21
-43.6421730406
 31
0.0
  0
LINE
  5
3AE
330
1B
100
AcDbEntity
 67
     1
  8
図面枠
  6
Continuous
 62
     1
100
AcDbLine
 10
-55.4239922892
 20
-43.6421730406
 30
0.0
 11
-55.4239322892
 21
-43.6418880406
 31
0.0
  0
LINE
  5
3AF
330
1B
100
AcDbEntity
 67
     1
  8
図面枠
  6
Continuous
 62
     1
100
AcDbLine
 10
-55.4239322892
 20
-43.6418880406
 30
0.0
 11
-55.4238572892
 21
-43.6415130406
 31
0.0
  0
LINE
  5
3B0
330
1B
100
AcDbEntity
 67
     1
  8
図面枠
  6
Continuous
 62
     1
100
AcDbLine
 10
-55.4238572892
 20
-43.6415130406
 30
0.0
 11
-55.4237822892
 21
-43.6411380406
 31
0.0
  0
LINE
  5
3B1
330
1B
100
AcDbEntity
 67
     1
  8
図面枠
  6
Continuous
 62
     1
100
AcDbLine
 10
-55.4287622892
 20
-43.6706670406
 30
0.0
 11
-55.4287322892
 21
-43.6704960406
 31
0.0
  0
LINE
  5
3B2
330
1B
100
AcDbEntity
 67
     1
  8
図面枠
  6
Continuous
 62
     1
100
AcDbLine
 10
-55.4278832892
 20
-43.6646160406
 30
0.0
 11
-55.4278622892
 21
-43.6644660406
 31
0.0
  0
LINE
  5
3B3
330
1B
100
AcDbEntity
 67
     1
  8
図面枠
  6
Continuous
 62
     1
100
AcDbLine
 10
-55.4278442892
 20
-43.6643670406
 30
0.0
 11
-55.4278232892
 21
-43.6642680406
 31
0.0
  0
LINE
  5
3B4
330
1B
100
AcDbEntity
 67
     1
  8
図面枠
  6
Continuous
 62
     1
100
AcDbLine
 10
-55.4278232892
 20
-43.6642680406
 30
0.0
 11
-55.4278022892
 21
-43.6641120406
 31
0.0
  0
LINE
  5
3B5
330
1B
100
AcDbEntity
 67
     1
  8
図面枠
  6
Continuous
 62
     1
100
AcDbLine
 10
-55.4278022892
 20
-43.6641120406
 30
0.0
 11
-55.4277842892
 21
-43.6639560406
 31
0.0
  0
LINE
  5
3B6
330
1B
100
AcDbEntity
 67
     1
  8
図面枠
  6
Continuous
 62
     1
100
AcDbLine
 10
-55.4277842892
 20
-43.6639560406
 30
0.0
 11
-55.4277482892
 21
-43.6637520406
 31
0.0
  0
LINE
  5
3B7
330
1B
100
AcDbEntity
 67
     1
  8
図面枠
  6
Continuous
 62
     1
100
AcDbLine
 10
-55.4277482892
 20
-43.6637520406
 30
0.0
 11
-55.4277122892
 21
-43.6635480406
 31
0.0
  0
LINE
  5
3B8
330
1B
100
AcDbEntity
 67
     1
  8
図面枠
  6
Continuous
 62
     1
100
AcDbLine
 10
-50.4341132892
 20
-43.2388170406
 30
0.0
 11
-54.9334232892
 21
-43.2388170406
 31
0.0
  0
LINE
  5
3B9
330
1B
100
AcDbEntity
 67
     1
  8
図面枠
  6
Continuous
 62
     1
100
AcDbLine
 10
-39.4829402892
 20
-43.2388170406
 30
0.0
 11
-50.4341132892
 21
-43.2388170406
 31
0.0
  0
LINE
  5
3BA
330
1B
100
AcDbEntity
 67
     1
  8
図面枠
  6
Continuous
 62
     1
100
AcDbLine
 10
-49.6869302892
 20
4.7611829594
 30
0.0
 11
-52.6215332892
 21
4.7611829594
 31
0.0
  0
LINE
  5
3BB
330
1B
100
AcDbEntity
 67
     1
  8
図面枠
  6
Continuous
 62
     1
100
AcDbLine
 10
-41.7929012892
 20
-0.0388170406
 30
0.0
 11
-42.5383832892
 21
-42.7475430406
 31
0.0
  0
LINE
  5
3BC
330
1B
100
AcDbEntity
 67
     1
  8
図面枠
  6
Continuous
 62
     1
100
AcDbLine
 10
-54.6212296794
 20
2.7960867897
 30
0.0
 11
-54.7915082892
 21
-6.9589500406
 31
0.0
  0
LINE
  5
3BD
330
1B
100
AcDbEntity
 67
     1
  8
図面枠
  6
Continuous
 62
     1
100
AcDbLine
 10
-55.4333522892
 20
-43.7300880406
 30
0.0
 11
-55.5120542892
 21
-48.2388180406
 31
0.0
  0
LINE
  5
3BE
330
1B
100
AcDbEntity
 67
     1
  8
図面枠
  6
Continuous
 62
     1
100
AcDbLine
 10
-55.4247722892
 20
-43.2388170406
 30
0.0
 11
-55.4333522892
 21
-43.7300880406
 31
0.0
  0
LINE
  5
3BF
330
1B
100
AcDbEntity
 67
     1
  8
図面枠
  6
Continuous
 62
     1
100
AcDbLine
 10
-123.5977292892
 20
-53.2388160406
 30
0.0
 11
-115.6248302892
 21
-53.2388160406
 31
0.0
  0
LINE
  5
3C0
330
1B
100
AcDbEntity
 67
     1
  8
図面枠
  6
Continuous
 62
     1
100
AcDbLine
 10
-153.3106082892
 20
-44.7388170406
 30
0.0
 11
-179.9209172892
 21
-44.7388170406
 31
0.0
  0
LINE
  5
3C1
330
1B
100
AcDbEntity
 67
     1
  8
図面枠
  6
Continuous
 62
     1
100
AcDbLine
 10
-153.3543512892
 20
-44.2388160406
 30
0.0
 11
-179.9109182892
 21
-44.2388160406
 31
0.0
  0
LINE
  5
3C2
330
1B
100
AcDbEntity
 67
     1
  8
図面枠
  6
Continuous
 62
     1
100
AcDbLine
 10
-159.3535742892
 20
-37.7388180406
 30
0.0
 11
-179.7809192892
 21
-37.7388180406
 31
0.0
  0
LINE
  5
3C3
330
1B
100
AcDbEntity
 67
     1
  8
図面枠
  6
Continuous
 62
     3
100
AcDbLine
 10
-54.8481932892
 20
22.2207689594
 30
0.0
 11
-54.8481932892
 21
12.4057979594
 31
0.0
  0
LINE
  5
3C4
330
1B
100
AcDbEntity
 67
     1
  8
図面枠
  6
Continuous
 62
     3
100
AcDbLine
 10
-71.8480172892
 20
12.4058879594
 30
0.0
 11
-63.3480392892
 21
7.4984309594
 31
0.0
  0
LINE
  5
3C5
330
1B
100
AcDbEntity
 67
     1
  8
図面枠
  6
Continuous
 62
     3
100
AcDbLine
 10
-71.8481942892
 20
22.2207689594
 30
0.0
 11
-71.8481942892
 21
12.4057979594
 31
0.0
  0
LINE
  5
3C6
330
1B
100
AcDbEntity
 67
     1
  8
図面枠
  6
Continuous
 62
     3
100
AcDbLine
 10
-71.8479722892
 20
22.2209249594
 30
0.0
 11
-63.3479822892
 21
27.1283969594
 31
0.0
  0
LINE
  5
3C7
330
1B
100
AcDbEntity
 67
     1
  8
図面枠
  6
Continuous
 62
     3
100
AcDbLine
 10
-63.3479672892
 20
7.4984939594
 30
0.0
 11
-54.8479802892
 21
12.4059689594
 31
0.0
  0
LINE
  5
3C8
330
1B
100
AcDbEntity
 67
     1
  8
図面枠
  6
Continuous
 62
     3
100
AcDbLine
 10
-63.3480092892
 20
27.1283249594
 30
0.0
 11
-54.8480312892
 21
22.2208649594
 31
0.0
  0
LINE
  5
3C9
330
1B
100
AcDbEntity
 67
     1
  8
図面枠
  6
Continuous
 62
     3
100
AcDbLine
 10
-81.5257652892
 20
95.5167929594
 30
0.0
 11
-81.5257652892
 21
85.7018219594
 31
0.0
  0
LINE
  5
3CA
330
1B
100
AcDbEntity
 67
     1
  8
図面枠
  6
Continuous
 62
     3
100
AcDbLine
 10
-98.5255892892
 20
85.7019119594
 30
0.0
 11
-90.0256112892
 21
80.7944549594
 31
0.0
  0
LINE
  5
3CB
330
1B
100
AcDbEntity
 67
     1
  8
図面枠
  6
Continuous
 62
     3
100
AcDbLine
 10
-98.5257662892
 20
95.5167929594
 30
0.0
 11
-98.5257662892
 21
85.7018219594
 31
0.0
  0
LINE
  5
3CC
330
1B
100
AcDbEntity
 67
     1
  8
図面枠
  6
Continuous
 62
     3
100
AcDbLine
 10
-98.5255412892
 20
95.5169489594
 30
0.0
 11
-90.0255542892
 21
100.4244239594
 31
0.0
  0
LINE
  5
3CD
330
1B
100
AcDbEntity
 67
     1
  8
図面枠
  6
Continuous
 62
     3
100
AcDbLine
 10
-90.0255392892
 20
80.7945179594
 30
0.0
 11
-81.5255522892
 21
85.7019929594
 31
0.0
  0
LINE
  5
3CE
330
1B
100
AcDbEntity
 67
     1
  8
図面枠
  6
Continuous
 62
     3
100
AcDbLine
 10
-90.0255812892
 20
100.4243489594
 30
0.0
 11
-81.5256032892
 21
95.5168919594
 31
0.0
  0
LINE
  5
3CF
330
1B
100
AcDbEntity
 67
     1
  8
図面枠
  6
Continuous
 62
     3
100
AcDbLine
 10
-112.9550312892
 20
101.5191089594
 30
0.0
 11
-112.9550312892
 21
91.7041379594
 31
0.0
  0
LINE
  5
3D0
330
1B
100
AcDbEntity
 67
     1
  8
図面枠
  6
Continuous
 62
     3
100
AcDbLine
 10
-129.9548552892
 20
91.7042309594
 30
0.0
 11
-121.4548742892
 21
86.7967709594
 31
0.0
  0
LINE
  5
3D1
330
1B
100
AcDbEntity
 67
     1
  8
図面枠
  6
Continuous
 62
     3
100
AcDbLine
 10
-129.9550292892
 20
101.5191089594
 30
0.0
 11
-129.9550292892
 21
91.7041379594
 31
0.0
  0
LINE
  5
3D2
330
1B
100
AcDbEntity
 67
     1
  8
図面枠
  6
Continuous
 62
     3
100
AcDbLine
 10
-129.9548072892
 20
101.5192679594
 30
0.0
 11
-121.4548202892
 21
106.4267399594
 31
0.0
  0
LINE
  5
3D3
330
1B
100
AcDbEntity
 67
     1
  8
図面枠
  6
Continuous
 62
     3
100
AcDbLine
 10
-121.4548052892
 20
86.7968369594
 30
0.0
 11
-112.9548152892
 21
91.7043089594
 31
0.0
  0
LINE
  5
3D4
330
1B
100
AcDbEntity
 67
     1
  8
図面枠
  6
Continuous
 62
     3
100
AcDbLine
 10
-121.4548442892
 20
106.4266679594
 30
0.0
 11
-112.9548662892
 21
101.5192079594
 31
0.0
  0
LINE
  5
3D5
330
1B
100
AcDbEntity
 67
     1
  8
図面枠
  6
Continuous
 62
     3
100
AcDbLine
 10
-147.4188362892
 20
16.2181949594
 30
0.0
 11
-147.4188362892
 21
6.4032239594
 31
0.0
  0
LINE
  5
3D6
330
1B
100
AcDbEntity
 67
     1
  8
図面枠
  6
Continuous
 62
     3
100
AcDbLine
 10
-164.4186602892
 20
6.4033169594
 30
0.0
 11
-155.9186822892
 21
1.4958569594
 31
0.0
  0
LINE
  5
3D7
330
1B
100
AcDbEntity
 67
     1
  8
図面枠
  6
Continuous
 62
     3
100
AcDbLine
 10
-164.4188372892
 20
16.2181949594
 30
0.0
 11
-164.4188372892
 21
6.4032239594
 31
0.0
  0
LINE
  5
3D8
330
1B
100
AcDbEntity
 67
     1
  8
図面枠
  6
Continuous
 62
     3
100
AcDbLine
 10
-164.4186122892
 20
16.2183539594
 30
0.0
 11
-155.9186252892
 21
21.1258259594
 31
0.0
  0
LINE
  5
3D9
330
1B
100
AcDbEntity
 67
     1
  8
図面枠
  6
Continuous
 62
     3
100
AcDbLine
 10
-155.9186102892
 20
1.4959229594
 30
0.0
 11
-147.4186232892
 21
6.4033949594
 31
0.0
  0
LINE
  5
3DA
330
1B
100
AcDbEntity
 67
     1
  8
図面枠
  6
Continuous
 62
     3
100
AcDbLine
 10
-155.9186522892
 20
21.1257509594
 30
0.0
 11
-147.4186742892
 21
16.2182939594
 31
0.0
  0
LINE
  5
3DB
330
1B
100
AcDbEntity
 67
     1
  8
図面枠
  6
Continuous
 62
     1
100
AcDbLine
 10
-133.1790782892
 20
104.9823899594
 30
0.0
 11
-161.1853442892
 21
74.9226719594
 31
0.0
  0
LINE
  5
3DC
330
1B
100
AcDbEntity
 67
     1
  8
図面枠
  6
Continuous
 62
     1
100
AcDbLine
 10
-107.9418572892
 20
53.4109079594
 30
0.0
 11
-107.2066462437
 21
94.4888443116
 31
0.0
  0
LINE
  5
3DD
330
1B
100
AcDbEntity
 67
     1
  8
図面枠
  6
Continuous
 62
     1
100
AcDbLine
 10
-169.4320082892
 20
54.5114579594
 30
0.0
 11
-170.1672223347
 21
13.4335186072
 31
0.0
  0
LINE
  5
3DE
330
1B
100
AcDbEntity
 67
     1
  8
図面枠
  6
Continuous
 62
     1
100
AcDbLine
 10
-144.1947902878
 20
2.9399749115
 30
0.0
 11
-116.1885245864
 21
32.9996930113
 31
0.0
  0
LINE
  5
3DF
330
1B
100
AcDbEntity
 67
     1
  8
図面枠
  6
Continuous
 62
     1
100
AcDbLine
 10
-81.8470592892
 20
98.1016829594
 30
0.0
 11
-57.1696142892
 21
78.3669209594
 31
0.0
  0
LINE
  5
3E0
330
1B
100
AcDbEntity
 67
     1
  8
図面枠
  6
Continuous
 62
     1
100
AcDbLine
 10
-52.2669452892
 20
16.8309899594
 30
0.0
 11
-46.0481882892
 21
47.8110479594
 31
0.0
  0
LINE
  5
3E1
330
1B
100
AcDbEntity
 67
     1
  8
図面枠
  6
Continuous
 62
     1
100
AcDbLine
 10
-96.2043661115
 20
29.5556872852
 30
0.0
 11
-71.5269152892
 21
9.8209229594
 31
0.0
  0
LINE
  5
3E2
330
1B
100
AcDbEntity
 67
     1
  8
図面枠
  6
Continuous
 62
     1
100
AcDbLine
 10
-101.1070352892
 20
91.0916339594
 30
0.0
 11
-107.3257973973
 21
60.1115686148
 31
0.0
  0
LINE
  5
3E3
330
1B
100
AcDbEntity
 67
     1
  8
図面枠
  6
Continuous
 62
     3
100
AcDbLine
 10
-58.5287132892
 20
8.5291349594
 30
0.0
 11
-58.6579562892
 21
7.8612269594
 31
0.0
  0
LINE
  5
3E4
330
1B
100
AcDbEntity
 67
     1
  8
図面枠
  6
Continuous
 62
     1
100
AcDbLine
 10
-61.0032482892
 20
5.5159349594
 30
0.0
 11
-50.8838296762
 21
15.6353503463
 31
0.0
  0
LINE
  5
3E5
330
1B
100
AcDbEntity
 67
     1
  8
図面枠
  6
Continuous
 62
     3
100
AcDbLine
 10
-68.3119982892
 20
6.6974489594
 30
0.0
 11
-67.1428982892
 21
5.3899829594
 31
0.0
  0
LINE
  5
3E6
330
1B
100
AcDbEntity
 67
     1
  8
図面枠
  6
Continuous
 62
     3
100
AcDbLine
 10
-99.7210712892
 20
98.2806509594
 30
0.0
 11
-100.0341212892
 21
96.6927899594
 31
0.0
  0
LINE
  5
3E7
330
1B
100
AcDbEntity
 67
     1
  8
図面枠
  6
Continuous
 62
     3
100
AcDbLine
 10
-86.2309712892
 20
102.5323799594
 30
0.0
 11
-85.0618682892
 21
101.2249139594
 31
0.0
  0
LINE
  5
3E8
330
1B
100
AcDbEntity
 67
     1
  8
図面枠
  6
Continuous
 62
     3
100
AcDbLine
 10
-79.3428264335
 20
97.9264667424
 30
0.0
 11
-67.3975772892
 21
86.5463069594
 31
0.0
  0
LINE
  5
3E9
330
1B
100
AcDbEntity
 67
     1
  8
図面枠
  6
Continuous
 62
     3
100
AcDbLine
 10
-48.6253772892
 20
34.9722389594
 30
0.0
 11
-50.4611252892
 21
18.5746469594
 31
0.0
  0
LINE
  5
3EA
330
1B
100
AcDbEntity
 67
     1
  8
図面枠
  6
Continuous
 62
     3
100
AcDbLine
 10
-85.9772972892
 20
21.3770159594
 30
0.0
 11
-74.0310401449
 21
9.9958961763
 31
0.0
  0
LINE
  5
3EB
330
1B
100
AcDbEntity
 67
     1
  8
図面枠
  6
Continuous
 62
     1
100
AcDbLine
 10
-46.3502672892
 20
46.3061669594
 30
0.0
 11
-49.4504051368
 21
18.6145982156
 31
0.0
  0
LINE
  5
3EC
330
1B
100
AcDbEntity
 67
     1
  8
図面枠
  6
Continuous
 62
     1
100
AcDbLine
 10
-78.6530522892
 20
98.6504909594
 30
0.0
 11
-58.3694342892
 21
79.3264259594
 31
0.0
  0
LINE
  5
3ED
330
1B
100
AcDbEntity
 67
     1
  8
図面枠
  6
Continuous
 62
     1
100
AcDbLine
 10
-133.1165822892
 20
105.0490589594
 30
0.0
 11
-161.2390982892
 21
75.2308769594
 31
0.0
  0
LINE
  5
3EE
330
1B
100
AcDbEntity
 67
     1
  8
図面枠
  6
Continuous
 62
     1
100
AcDbLine
 10
-169.6847732892
 20
54.3270959594
 30
0.0
 11
-170.1685772892
 21
13.3421459594
 31
0.0
  0
LINE
  5
3EF
330
1B
100
AcDbEntity
 67
     1
  8
図面枠
  6
Continuous
 62
     1
100
AcDbLine
 10
-116.1347702892
 20
32.6914889594
 30
0.0
 11
-144.2572862892
 21
2.8733069594
 31
0.0
  0
LINE
  5
3F0
330
1B
100
AcDbEntity
 67
     1
  8
図面枠
  6
Continuous
 62
     1
100
AcDbLine
 10
-95.0054342892
 20
28.5968939594
 30
0.0
 11
-74.7208142892
 21
9.2718719594
 31
0.0
  0
LINE
  5
3F1
330
1B
100
AcDbEntity
 67
     1
  8
図面枠
  6
Continuous
 62
     1
100
AcDbLine
 10
-179.6334362892
 20
-30.3647040406
 30
0.0
 11
-168.6477457708
 21
-28.62474135
 31
0.0
  0
LINE
  5
3F2
330
1B
100
AcDbEntity
 67
     1
  8
図面枠
  6
Continuous
 62
     1
100
AcDbLine
 10
-83.6674592892
 20
-32.5936440406
 30
0.0
 11
-108.7261228076
 21
-28.62474135
 31
0.0
  0
LINE
  5
3F3
330
1B
100
AcDbEntity
 67
     1
  8
図面枠
  6
Continuous
 62
     1
100
AcDbLine
 10
-73.3703552238
 20
-25.112359226
 30
0.0
 11
-69.4014529799
 21
-0.053696559
 31
0.0
  0
LINE
  5
3F4
330
1B
100
AcDbEntity
 67
     1
  8
図面枠
  6
Continuous
 62
     1
100
AcDbLine
 10
-41.8413872892
 20
74.6835599594
 30
0.0
 11
-46.7695352892
 21
65.0115269594
 31
0.0
  0
LINE
  5
3F5
330
1B
100
AcDbEntity
 67
     1
  8
図面枠
  6
Continuous
 62
     1
100
AcDbLine
 10
-43.2995927915
 20
91.6458736771
 30
0.0
 11
-65.9053412419
 21
103.1640744474
 31
0.0
  0
LINE
  5
3F6
330
1B
100
AcDbEntity
 67
     1
  8
図面枠
  6
Continuous
 62
     1
100
AcDbLine
 10
-151.9869332892
 20
-48.3947760406
 30
0.0
 11
-152.6986262892
 21
-40.2601020406
 31
0.0
  0
LINE
  5
3F7
330
1B
100
AcDbEntity
 67
     1
  8
図面枠
  6
Continuous
 62
     1
100
AcDbLine
 10
-125.3869322892
 20
-48.3947760406
 30
0.0
 11
-124.6752422892
 21
-40.2601020406
 31
0.0
  0
LINE
  5
3F8
330
1B
100
AcDbEntity
 67
     1
  8
図面枠
  6
Continuous
 62
     1
100
AcDbLine
 10
-152.8021832892
 20
-50.5501410406
 30
0.0
 11
-153.6948182892
 21
-40.3472580406
 31
0.0
  0
LINE
  5
3F9
330
1B
100
AcDbEntity
 67
     1
  8
図面枠
  6
Continuous
 62
     1
100
AcDbLine
 10
-124.5716822892
 20
-50.5501410406
 30
0.0
 11
-123.6790472892
 21
-40.3472580406
 31
0.0
  0
LINE
  5
3FA
330
1B
100
AcDbEntity
 67
     1
  8
図面枠
  6
Continuous
 62
     1
100
AcDbLine
 10
-44.1869342892
 20
30.9611819594
 30
0.0
 11
-44.1869342892
 21
61.9611839594
 31
0.0
  0
LINE
  5
3FB
330
1B
100
AcDbEntity
 67
     1
  8
図面枠
  6
Continuous
 62
     1
100
AcDbLine
 10
-43.2995927915
 20
91.6458736771
 30
0.0
 11
-55.136048538
 21
97.6768476005
 31
0.0
  0
LINE
  5
3FC
330
1B
100
AcDbEntity
 67
     1
  8
図面枠
  6
Continuous
 62
     1
100
AcDbLine
 10
-41.8413872892
 20
74.6835599594
 30
0.0
 11
-45.3974252892
 21
67.7044439594
 31
0.0
  0
LINE
  5
3FD
330
1B
100
AcDbEntity
 67
     1
  8
図面枠
  6
Continuous
 62
     1
100
AcDbLine
 10
-42.1869332892
 20
28.9611809594
 30
0.0
 11
-41.1727082892
 21
28.9611809594
 31
0.0
  0
LINE
  5
3FE
330
1B
100
AcDbEntity
 67
     1
  8
図面枠
  6
Continuous
 62
     1
100
AcDbLine
 10
-42.1869332892
 20
63.9611849594
 30
0.0
 11
-41.6269412892
 21
63.9611819594
 31
0.0
  0
LINE
  5
3FF
330
1B
100
AcDbEntity
 67
     1
  8
図面枠
  6
Continuous
 62
     1
100
AcDbLine
 10
-49.3556282892
 20
19.4611829594
 30
0.0
 11
-44.6869322892
 21
19.4611829594
 31
0.0
  0
LINE
  5
400
330
1B
100
AcDbEntity
 67
     1
  8
図面枠
  6
Continuous
 62
     1
100
AcDbLine
 10
-72.316318311
 20
-19.7359366455
 30
0.0
 11
-71.0946842892
 21
-12.0228330406
 31
0.0
  0
LINE
  5
401
330
1B
100
AcDbEntity
 67
     1
  8
図面枠
  6
Continuous
 62
     1
100
AcDbLine
 10
-63.4716752892
 20
-18.1960410406
 30
0.0
 11
-68.8323087562
 21
-17.2508167816
 31
0.0
  0
LINE
  5
402
330
1B
100
AcDbEntity
 67
     1
  8
図面枠
  6
Continuous
 62
     1
100
AcDbLine
 10
-54.5649482892
 20
-7.5814170406
 30
0.0
 11
-58.5221031516
 21
3.2907775294
 31
0.0
  0
LINE
  5
403
330
1B
100
AcDbEntity
 67
     1
  8
図面枠
  6
Continuous
 62
     1
100
AcDbLine
 10
-57.6869342892
 20
122.9611829594
 30
0.0
 11
-57.6869312892
 21
119.9611829594
 31
0.0
  0
LINE
  5
404
330
1B
100
AcDbEntity
 67
     1
  8
図面枠
  6
Continuous
 62
     1
100
AcDbLine
 10
-62.6869322892
 20
114.9611819594
 30
0.0
 11
-65.6783732892
 21
114.9611819594
 31
0.0
  0
LINE
  5
405
330
1B
100
AcDbEntity
 67
     1
  8
図面枠
  6
Continuous
 62
     1
100
AcDbLine
 10
-83.7456752892
 20
-33.0874890406
 30
0.0
 11
-96.8664895855
 21
-31.0093576659
 31
0.0
  0
LINE
  5
406
330
1B
100
AcDbEntity
 67
     1
  8
図面枠
  6
Continuous
 62
     1
100
AcDbLine
 10
-72.8765100659
 20
-25.190576615
 30
0.0
 11
-72.020833311
 21
-19.7880376455
 31
0.0
  0
LINE
  5
407
330
1B
100
AcDbEntity
 67
     1
  8
図面枠
  6
Continuous
 62
     1
100
AcDbLine
 10
-83.6869322892
 20
-44.2388160406
 30
0.0
 11
-124.0195142892
 21
-44.2388160406
 31
0.0
  0
LINE
  5
408
330
1B
100
AcDbEntity
 67
     1
  8
図面枠
  6
Continuous
 62
     1
100
AcDbLine
 10
-58.6869332892
 20
-44.7388170406
 30
0.0
 11
-63.6869342892
 21
-44.7388170406
 31
0.0
  0
LINE
  5
409
330
1B
100
AcDbEntity
 67
     1
  8
図面枠
  6
Continuous
 62
     1
100
AcDbLine
 10
-58.6869332892
 20
-19.5784980406
 30
0.0
 11
-58.6869332892
 21
-44.7388170406
 31
0.0
  0
LINE
  5
40A
330
1B
100
AcDbEntity
 67
     1
  8
図面枠
  6
Continuous
 62
     1
100
AcDbLine
 10
-83.6869322892
 20
-37.7388180406
 30
0.0
 11
-118.0202942892
 21
-37.7388180406
 31
0.0
  0
LINE
  5
40B
330
1B
100
AcDbEntity
 67
     1
  8
図面枠
  6
Continuous
 62
     1
100
AcDbLine
 10
-161.7490352892
 20
-53.2388160406
 30
0.0
 11
-153.7761392892
 21
-53.2388160406
 31
0.0
  0
LINE
  5
40C
330
1B
100
AcDbEntity
 67
     1
  8
図面枠
  6
Continuous
 62
     1
100
AcDbLine
 10
-260.7020723267
 20
-58.5231996298
 30
0.0
 11
-261.1869332892
 21
-74.0388180406
 31
0.0
  0
LINE
  5
40D
330
1B
100
AcDbEntity
 67
     1
  8
図面枠
  6
Continuous
 62
     1
100
AcDbLine
 10
-224.6869322892
 20
-87.0388170406
 30
0.0
 11
-242.6869322892
 21
-87.0388170406
 31
0.0
  0
LINE
  5
40E
330
1B
100
AcDbEntity
 67
     1
  8
図面枠
  6
Continuous
 62
     1
100
AcDbLine
 10
-224.6869322892
 20
-87.0388170406
 30
0.0
 11
-224.6607542892
 21
-84.0388170406
 31
0.0
  0
LINE
  5
40F
330
1B
100
AcDbEntity
 67
     1
  8
図面枠
  6
Continuous
 62
     1
100
AcDbLine
 10
-242.6869322892
 20
-87.0388170406
 30
0.0
 11
-242.7131132892
 21
-84.0388170406
 31
0.0
  0
LINE
  5
410
330
1B
100
AcDbEntity
 67
     1
  8
図面枠
  6
Continuous
 62
     1
100
AcDbLine
 10
-262.1869322892
 20
-84.0388170406
 30
0.0
 11
-262.1869322892
 21
-74.5388160406
 31
0.0
  0
LINE
  5
411
330
1B
100
AcDbEntity
 67
     1
  8
図面枠
  6
Continuous
 62
     1
100
AcDbLine
 10
-260.2023152892
 20
-58.0388160406
 30
0.0
 11
-44.1192452892
 21
-58.0388160406
 31
0.0
  0
LINE
  5
412
330
1B
100
AcDbEntity
 67
     1
  8
図面枠
  6
Continuous
 62
     1
100
AcDbLine
 10
131.3130657108
 20
-74.0388180406
 30
0.0
 11
-261.6869342892
 21
-74.0388150406
 31
0.0
  0
LINE
  5
413
330
1B
100
AcDbEntity
 67
     1
  8
図面枠
  6
Continuous
 62
     1
100
AcDbLine
 10
131.8130667108
 20
-84.0388170406
 30
0.0
 11
-262.1869322892
 21
-84.0388170406
 31
0.0
  0
LINE
  5
414
330
1B
100
AcDbEntity
 67
     1
  8
図面枠
  6
Continuous
 62
     1
100
AcDbLine
 10
-88.6197362892
 20
-44.7388170406
 30
0.0
 11
-88.5560282892
 21
-52.0388160406
 31
0.0
  0
LINE
  5
415
330
1B
100
AcDbEntity
 67
     1
  8
図面枠
  6
Continuous
 62
     1
100
AcDbLine
 10
-88.5560282892
 20
-52.0388160406
 30
0.0
 11
-79.9107032892
 21
-52.0388160406
 31
0.0
  0
LINE
  5
416
330
1B
100
AcDbEntity
 67
     1
  8
図面枠
  6
Continuous
 62
     1
100
AcDbLine
 10
-57.6869342892
 20
-44.7388170406
 30
0.0
 11
-57.6300561353
 21
-51.2562711204
 31
0.0
  0
LINE
  5
417
330
1B
100
AcDbEntity
 67
     1
  8
図面枠
  6
Continuous
 62
     1
100
AcDbLine
 10
-63.6869342892
 20
-44.7388170406
 30
0.0
 11
-57.6869342892
 21
-44.7388170406
 31
0.0
  0
LINE
  5
418
330
1B
100
AcDbEntity
 67
     1
  8
図面枠
  6
Continuous
 62
     1
100
AcDbLine
 10
-43.6912612507
 20
-48.7344527642
 30
0.0
 11
-43.7200952892
 21
-52.0388160406
 31
0.0
  0
LINE
  5
419
330
1B
100
AcDbEntity
 67
     1
  8
図面枠
  6
Continuous
 62
     1
100
AcDbLine
 10
-56.6912602507
 20
-48.7344527642
 30
0.0
 11
-56.7200942892
 21
-52.0388160406
 31
0.0
  0
LINE
  5
41A
330
1B
100
AcDbEntity
 67
     1
  8
図面枠
  6
Continuous
 62
     1
100
AcDbLine
 10
-56.1912782892
 20
-48.2388150406
 30
0.0
 11
-39.3829412892
 21
-48.2388180406
 31
0.0
  0
LINE
  5
41B
330
1B
100
AcDbEntity
 67
     1
  8
図面枠
  6
Continuous
 62
     1
100
AcDbLine
 10
-39.3069392892
 20
-52.0388160406
 30
0.0
 11
-115.8435512892
 21
-52.0388160406
 31
0.0
  0
LINE
  5
41C
330
1B
100
AcDbEntity
 67
     1
  8
図面枠
  6
Continuous
 62
     1
100
AcDbLine
 10
-115.6248302892
 20
-52.0388160406
 30
0.0
 11
-115.6248302892
 21
-58.0388160406
 31
0.0
  0
LINE
  5
41D
330
1B
100
AcDbEntity
 67
     1
  8
図面枠
  6
Continuous
 62
     1
100
AcDbLine
 10
-161.7490352892
 20
-52.0388160406
 30
0.0
 11
-161.7490352892
 21
-58.0388160406
 31
0.0
  0
LINE
  5
41E
330
1B
100
AcDbEntity
 67
     1
  8
図面枠
  6
Continuous
 62
     1
100
AcDbLine
 10
-115.8435512892
 20
-52.0388160406
 30
0.0
 11
-115.8435512892
 21
-53.2388160406
 31
0.0
  0
LINE
  5
41F
330
1B
100
AcDbEntity
 67
     1
  8
図面枠
  6
Continuous
 62
     1
100
AcDbLine
 10
-161.5303142892
 20
-52.0388160406
 30
0.0
 11
-161.5303142892
 21
-53.2388160406
 31
0.0
  0
LINE
  5
420
330
1B
100
AcDbEntity
 67
     1
  8
図面枠
  6
Continuous
 62
     1
100
AcDbLine
 10
-123.5977292892
 20
-53.2388160406
 30
0.0
 11
-115.8435512892
 21
-53.2388160406
 31
0.0
  0
LINE
  5
421
330
1B
100
AcDbEntity
 67
     1
  8
図面枠
  6
Continuous
 62
     1
100
AcDbLine
 10
-118.6869332892
 20
-53.2388160406
 30
0.0
 11
-118.6869332892
 21
-58.0388160406
 31
0.0
  0
LINE
  5
422
330
1B
100
AcDbEntity
 67
     1
  8
図面枠
  6
Continuous
 62
     1
100
AcDbLine
 10
-158.6869322892
 20
-53.2388160406
 30
0.0
 11
-158.6869322892
 21
-58.0388160406
 31
0.0
  0
LINE
  5
423
330
1B
100
AcDbEntity
 67
     1
  8
図面枠
  6
Continuous
 62
     1
100
AcDbLine
 10
-128.6436796739
 20
-42.9951833544
 30
0.0
 11
-128.5975399045
 21
-48.2824507269
 31
0.0
  0
LINE
  5
424
330
1B
100
AcDbEntity
 67
     1
  8
図面枠
  6
Continuous
 62
     1
100
AcDbLine
 10
-148.7301889045
 20
-42.9951833544
 30
0.0
 11
-148.7763286739
 21
-48.2824507269
 31
0.0
  0
LINE
  5
425
330
1B
100
AcDbEntity
 67
     1
  8
図面枠
  6
Continuous
 62
     1
100
AcDbLine
 10
-161.5303142892
 20
-53.2388160406
 30
0.0
 11
-153.7761392892
 21
-53.2388160406
 31
0.0
  0
LINE
  5
426
330
1B
100
AcDbEntity
 67
     1
  8
図面枠
  6
CENTER
 62
   179
100
AcDbLine
 10
-65.1869342892
 20
274.0711379594
 30
0.0
 11
-65.1869342892
 21
-101.6242380406
 31
0.0
  0
LINE
  5
427
330
1B
100
AcDbEntity
 67
     1
  8
図面枠
  6
Continuous
 62
     3
100
AcDbLine
 10
-36.3001352892
 20
97.6809899594
 30
0.0
 11
-33.3253412892
 21
-51.0588240406
 31
0.0
  0
LINE
  5
428
330
1B
100
AcDbEntity
 67
     1
  8
図面枠
  6
Continuous
 62
     3
100
AcDbLine
 10
-42.2989352892
 20
97.5610139594
 30
0.0
 11
-39.1869392892
 21
-58.0388310406
 31
0.0
  0
LINE
  5
429
330
1B
100
AcDbEntity
 67
     1
  8
図面枠
  6
Continuous
 62
     3
100
AcDbLine
 10
-186.0485192892
 20
-51.0588120406
 30
0.0
 11
-183.0737222892
 21
97.6810079594
 31
0.0
  0
LINE
  5
42A
330
1B
100
AcDbEntity
 67
     1
  8
図面枠
  6
Continuous
 62
     3
100
AcDbLine
 10
-180.1869182892
 20
-58.0388190406
 30
0.0
 11
-177.0749222892
 21
97.5610319594
 31
0.0
  0
LINE
  5
42B
330
1B
100
AcDbEntity
 67
     1
  8
図面枠
  6
Continuous
 62
     3
100
AcDbLine
 10
128.1003057108
 20
-52.0388160406
 30
0.0
 11
129.6177297108
 21
-52.0388160406
 31
0.0
  0
LINE
  5
42C
330
1B
100
AcDbEntity
 67
     1
  8
図面枠
  6
Continuous
 62
     3
100
AcDbLine
 10
125.0651817108
 20
33.4963919594
 30
0.0
 11
128.1337587108
 21
-52.9816710406
 31
0.0
  0
LINE
  5
42D
330
1B
100
AcDbEntity
 67
     1
  8
図面枠
  6
Continuous
 62
     3
100
AcDbLine
 10
130.1174162294
 20
-52.5210861886
 30
0.0
 11
130.3132047108
 21
-58.0388370406
 31
0.0
  0
LINE
  5
42E
330
1B
100
AcDbEntity
 67
     1
  8
図面枠
  6
Continuous
 62
     3
100
AcDbLine
 10
115.9060707108
 20
235.3140659594
 30
0.0
 11
126.0700497108
 21
-51.1253340406
 31
0.0
  0
LINE
  5
42F
330
1B
100
AcDbEntity
 67
     1
  8
図面枠
  6
Continuous
 62
     3
100
AcDbLine
 10
-273.6866282892
 20
-58.0388160406
 30
0.0
 11
130.3132077108
 21
-58.0388160406
 31
0.0
  0
LINE
  5
430
330
1B
100
AcDbEntity
 67
     1
  8
図面枠
  6
Continuous
 62
     3
100
AcDbLine
 10
-260.5112432892
 20
-15.0388170406
 30
0.0
 11
-256.1278832892
 21
-15.0388170406
 31
0.0
  0
LINE
  5
431
330
1B
100
AcDbEntity
 67
     1
  8
図面枠
  6
Continuous
 62
     3
100
AcDbLine
 10
-256.4413862892
 20
-51.0742800406
 30
0.0
 11
-246.2792192892
 21
235.3140869594
 31
0.0
  0
LINE
  5
432
330
1B
100
AcDbEntity
 67
     1
  8
図面枠
  6
Continuous
 62
     3
100
AcDbLine
 10
-271.4414012892
 20
-51.0754410406
 30
0.0
 11
-270.5049392892
 21
-24.6842070406
 31
0.0
  0
LINE
  5
433
330
1B
100
AcDbEntity
 67
     1
  8
図面枠
  6
Continuous
 62
     3
100
AcDbLine
 10
-9.6866582892
 20
-52.0388160406
 30
0.0
 11
127.1353917108
 21
-52.0388160406
 31
0.0
  0
LINE
  5
434
330
1B
100
AcDbEntity
 67
     1
  8
図面枠
  6
Continuous
 62
     3
100
AcDbLine
 10
-30.6866582892
 20
-52.0388160406
 30
0.0
 11
-27.5351072892
 21
-52.0388160406
 31
0.0
  0
LINE
  5
435
330
1B
100
AcDbEntity
 67
     1
  8
図面枠
  6
Continuous
 62
     3
100
AcDbLine
 10
-8.6866592892
 20
-52.5388170406
 30
0.0
 11
-8.6866592892
 21
-58.0388160406
 31
0.0
  0
LINE
  5
436
330
1B
100
AcDbEntity
 67
     1
  8
図面枠
  6
Continuous
 62
     3
100
AcDbLine
 10
-31.6866602892
 20
-52.5388167265
 30
0.0
 11
-31.6866602892
 21
-58.0388160406
 31
0.0
  0
LINE
  5
437
330
1B
100
AcDbEntity
 67
     1
  8
図面枠
  6
Continuous
 62
     3
100
AcDbLine
 10
-273.6866012892
 20
-58.0388280406
 30
0.0
 11
-273.5079242892
 21
-53.0033670406
 31
0.0
  0
LINE
  5
438
330
1B
100
AcDbEntity
 67
     1
  8
図面枠
  6
Continuous
 62
     3
100
AcDbLine
 10
-12.8381792892
 20
-52.0388160406
 30
0.0
 11
-9.6866582892
 21
-52.0388160406
 31
0.0
  0
LINE
  5
439
330
1B
100
AcDbEntity
 67
     1
  8
図面枠
  6
Continuous
 62
     3
100
AcDbLine
 10
-16.6866602892
 20
-53.6367360406
 30
0.0
 11
-16.6866602892
 21
-58.0388160406
 31
0.0
  0
LINE
  5
43A
330
1B
100
AcDbEntity
 67
     1
  8
図面枠
  6
Continuous
 62
     3
100
AcDbLine
 10
-23.6866592892
 20
-53.6370510406
 30
0.0
 11
-23.6866592892
 21
-58.0388160406
 31
0.0
  0
LINE
  5
43B
330
1B
100
AcDbEntity
 67
     1
  8
図面枠
  6
Continuous
 62
     3
100
AcDbLine
 10
-32.3255762892
 20
-52.0388160406
 30
0.0
 11
-30.6866582892
 21
-52.0388160406
 31
0.0
  0
LINE
  5
43C
330
1B
100
AcDbEntity
 67
     1
  8
図面枠
  6
Continuous
 62
     3
100
AcDbLine
 10
-272.4747602892
 20
-52.0388160406
 30
0.0
 11
-187.0482932892
 21
-52.0388160406
 31
0.0
  0
LINE
  5
43D
330
1B
100
AcDbEntity
 67
     1
  8
図面枠
  6
Continuous
 62
     3
100
AcDbLine
 10
-147.1866602892
 20
132.9611819594
 30
0.0
 11
-72.1866602892
 21
132.9611819594
 31
0.0
  0
LINE
  5
43E
330
1B
100
AcDbEntity
 67
     1
  8
図面枠
  6
Continuous
 62
     3
100
AcDbLine
 10
-147.0809068644
 20
126.9611819594
 30
0.0
 11
-72.1866602892
 21
126.9611819594
 31
0.0
  0
LINE
  5
43F
330
1B
100
AcDbEntity
 67
     1
  8
図面枠
  6
Continuous
 62
     3
100
AcDbLine
 10
128.1337587108
 20
-52.9816710406
 30
0.0
 11
128.3132067108
 21
-58.0388340406
 31
0.0
  0
LINE
  5
440
330
1B
100
AcDbEntity
 67
     1
  8
図面枠
  6
Continuous
 62
     1
100
AcDbLine
 10
131.8130667108
 20
-84.0388170406
 30
0.0
 11
131.8130667108
 21
-74.5388160406
 31
0.0
  0
LINE
  5
441
330
1B
100
AcDbEntity
 67
     1
  8
図面枠
  6
Continuous
 62
     1
100
AcDbLine
 10
130.3282017108
 20
-58.5231990406
 30
0.0
 11
130.8130647108
 21
-74.0388180406
 31
0.0
  0
ARC
  5
442
330
1B
100
AcDbEntity
 67
     1
  8
図面枠
  6
HIDDEN
 62
   179
100
AcDbCircle
 10
99.9358017108
 20
-9.4096380406
 30
0.0
 40
2.877246000000011
100
AcDbArc
 50
319.296371
 51
40.703592
  0
ARC
  5
443
330
1B
100
AcDbEntity
 67
     1
  8
図面枠
  6
HIDDEN
 62
   179
100
AcDbCircle
 10
99.9358017108
 20
-20.6679660406
 30
0.0
 40
2.877246000000011
100
AcDbArc
 50
319.296371
 51
40.703701
  0
ARC
  5
444
330
1B
100
AcDbEntity
 67
     1
  8
図面枠
  6
HIDDEN
 62
   179
100
AcDbCircle
 10
92.3480997108
 20
-15.0388020406
 30
0.0
 40
10.46495030868167
100
AcDbArc
 50
338.9854908134
 51
21.0145185661
  0
ARC
  5
445
330
1B
100
AcDbEntity
 67
     1
  8
図面枠
  6
HIDDEN
 62
   179
100
AcDbCircle
 10
60.8130627108
 20
-15.0388020406
 30
0.0
 40
12.00000000000001
100
AcDbArc
 50
309.74294
 51
359.0
  0
ARC
  5
446
330
1B
100
AcDbEntity
 67
     1
  8
図面枠
  6
HIDDEN
 62
   179
100
AcDbCircle
 10
30.3130617108
 20
-15.0388020406
 30
0.0
 40
31.50000169001624
100
AcDbArc
 50
230.25706
 51
309.7429393417
  0
ARC
  5
447
330
1B
100
AcDbEntity
 67
     1
  8
図面枠
  6
HIDDEN
 62
   179
100
AcDbCircle
 10
-0.1869362892
 20
-15.0388020406
 30
0.0
 40
12.00000113873169
100
AcDbArc
 50
181.0
 51
230.2570652844
  0
CIRCLE
  5
448
330
1B
100
AcDbEntity
 67
     1
  8
図面枠
  6
HIDDEN
 62
   179
100
AcDbCircle
 10
62.8130637108
 20
-15.0388020406
 30
0.0
 40
6.500000999999997
  0
CIRCLE
  5
449
330
1B
100
AcDbEntity
 67
     1
  8
図面枠
  6
HIDDEN
 62
   179
100
AcDbCircle
 10
-2.1869372892
 20
-15.0388020406
 30
0.0
 40
6.500001000000001
  0
ARC
  5
44A
330
1B
100
AcDbEntity
 67
     1
  8
図面枠
  6
HIDDEN
 62
   179
100
AcDbCircle
 10
30.3130617108
 20
-15.0388020406
 30
0.0
 40
31.49999938325443
100
AcDbArc
 50
50.2570571696
 51
129.7429386346
  0
ARC
  5
44B
330
1B
100
AcDbEntity
 67
     1
  8
図面枠
  6
HIDDEN
 62
   179
100
AcDbCircle
 10
-0.1869362892
 20
-15.0388020406
 30
0.0
 40
11.99999999999999
100
AcDbArc
 50
129.7429438735
 51
179.0
  0
ARC
  5
44C
330
1B
100
AcDbEntity
 67
     1
  8
図面枠
  6
HIDDEN
 62
   179
100
AcDbCircle
 10
60.8130627108
 20
-15.0388020406
 30
0.0
 40
11.99999999999999
100
AcDbArc
 50
1.0
 51
50.2570561265
  0
CIRCLE
  5
44D
330
1B
100
AcDbEntity
 67
     1
  8
図面枠
  6
HIDDEN
 62
   179
100
AcDbCircle
 10
30.3130617108
 20
-15.0388020406
 30
0.0
 40
15.81570899999999
  0
CIRCLE
  5
44E
330
1B
100
AcDbEntity
 67
     1
  8
図面枠
  6
HIDDEN
 62
   179
100
AcDbCircle
 10
30.3130617108
 20
-15.0388020406
 30
0.0
 40
12.500001
  0
CIRCLE
  5
44F
330
1B
100
AcDbEntity
 67
     1
  8
図面枠
  6
HIDDEN
 62
   179
100
AcDbCircle
 10
30.3130617108
 20
-15.0388020406
 30
0.0
 40
20.499999
  0
ARC
  5
450
330
1B
100
AcDbEntity
 67
     1
  8
図面枠
  6
HIDDEN
 62
   179
100
AcDbCircle
 10
80.6455887108
 20
15.4611989594
 30
0.0
 40
0.9999990000000166
100
AcDbArc
 50
90.0
 51
179.000001
  0
ARC
  5
451
330
1B
100
AcDbEntity
 67
     1
  8
図面枠
  6
Continuous
 62
     3
100
AcDbCircle
 10
-61.6869332892
 20
-51.2388180406
 30
0.0
 40
2.000000999999998
100
AcDbArc
 50
180.0
 51
203.578178
  0
ARC
  5
452
330
1B
100
AcDbEntity
 67
     1
  8
図面枠
  6
Continuous
 62
     3
100
AcDbCircle
 10
-64.1869322892
 20
-35.7388170406
 30
0.0
 40
0.5000009999999975
100
AcDbArc
 50
0.0
 51
90.0
  0
ARC
  5
453
330
1B
100
AcDbEntity
 67
     1
  8
図面枠
  6
Continuous
 62
     3
100
AcDbCircle
 10
-85.6869332892
 20
-51.2388180406
 30
0.0
 40
2.000001000000001
100
AcDbArc
 50
336.421822
 51
0.0
  0
ARC
  5
454
330
1B
100
AcDbEntity
 67
     1
  8
図面枠
  6
Continuous
 62
     3
100
AcDbCircle
 10
-83.1869342892
 20
-35.7388170406
 30
0.0
 40
0.5000009999999975
100
AcDbArc
 50
90.0
 51
180.0
  0
ARC
  5
455
330
1B
100
AcDbEntity
 67
     1
  8
図面枠
  6
Continuous
 62
     3
100
AcDbCircle
 10
-89.1869342892
 20
-45.7388160406
 30
0.0
 40
0.5000009999999975
100
AcDbArc
 50
0.0
 51
90.0
  0
ARC
  5
456
330
1B
100
AcDbEntity
 67
     1
  8
図面枠
  6
Continuous
 62
     3
100
AcDbCircle
 10
-169.1869322892
 20
-45.7388160406
 30
0.0
 40
0.5000009999999975
100
AcDbArc
 50
0.0
 51
90.0
  0
ARC
  5
457
330
1B
100
AcDbEntity
 67
     1
  8
図面枠
  6
Continuous
 62
     3
100
AcDbCircle
 10
-166.6869332892
 20
-51.2388180406
 30
0.0
 40
2.000001000000024
100
AcDbArc
 50
180.0
 51
203.578178
  0
ARC
  5
458
330
1B
100
AcDbEntity
 67
     1
  8
図面枠
  6
Continuous
 62
     3
100
AcDbCircle
 10
-108.1869332892
 20
-45.7388160406
 30
0.0
 40
0.5000009999999975
100
AcDbArc
 50
90.0
 51
180.0
  0
ARC
  5
459
330
1B
100
AcDbEntity
 67
     1
  8
図面枠
  6
Continuous
 62
     3
100
AcDbCircle
 10
-110.6869322892
 20
-51.2388180406
 30
0.0
 40
2.000001000000001
100
AcDbArc
 50
336.421822
 51
0.0
  0
ARC
  5
45A
330
1B
100
AcDbEntity
 67
     1
  8
図面枠
  6
Continuous
 62
     1
100
AcDbCircle
 10
-124.0562192892
 20
-47.2388160406
 30
0.0
 40
0.5000010000000046
100
AcDbArc
 50
17.102729
 51
90.0
  0
ARC
  5
45B
330
1B
100
AcDbEntity
 67
     1
  8
図面枠
  6
Continuous
 62
     1
100
AcDbCircle
 10
-153.3176462892
 20
-47.2388160406
 30
0.0
 40
0.5000010000000046
100
AcDbArc
 50
90.0
 51
162.897271
  0
ARC
  5
45C
330
1B
100
AcDbEntity
 67
     1
  8
図面枠
  6
Continuous
 62
     3
100
AcDbCircle
 10
-117.6869342892
 20
-55.5388170406
 30
0.0
 40
7.700000283836163
100
AcDbArc
 50
39.9831123926
 51
140.0168732635
  0
ARC
  5
45D
330
1B
100
AcDbEntity
 67
     1
  8
図面枠
  6
Continuous
 62
     3
100
AcDbCircle
 10
-123.3869342892
 20
-48.9388170406
 30
0.0
 40
4.299999
100
AcDbArc
 50
180.0
 51
270.0
  0
ARC
  5
45E
330
1B
100
AcDbEntity
 67
     1
  8
図面枠
  6
Continuous
 62
     3
100
AcDbCircle
 10
-123.3869342892
 20
-48.9388170406
 30
0.0
 40
2.000001000000005
100
AcDbArc
 50
180.0
 51
270.0
  0
ARC
  5
45F
330
1B
100
AcDbEntity
 67
     1
  8
図面枠
  6
Continuous
 62
     3
100
AcDbCircle
 10
-128.6869322892
 20
-43.0388160406
 30
0.0
 40
3.300000000000011
100
AcDbArc
 50
0.0
 51
90.0
  0
ARC
  5
460
330
1B
100
AcDbEntity
 67
     1
  8
図面枠
  6
Continuous
 62
     3
100
AcDbCircle
 10
-128.6869322892
 20
-43.0388160406
 30
0.0
 40
0.9999990000000096
100
AcDbArc
 50
0.0
 51
90.0
  0
ARC
  5
461
330
1B
100
AcDbEntity
 67
     1
  8
図面枠
  6
Continuous
 62
     3
100
AcDbCircle
 10
-159.6869342892
 20
-55.5388170406
 30
0.0
 40
7.700000283836163
100
AcDbArc
 50
39.9831123926
 51
140.0168732635
  0
ARC
  5
462
330
1B
100
AcDbEntity
 67
     1
  8
図面枠
  6
Continuous
 62
     3
100
AcDbCircle
 10
-153.9869342892
 20
-48.9388170406
 30
0.0
 40
4.299999
100
AcDbArc
 50
270.0
 51
0.0
  0
ARC
  5
463
330
1B
100
AcDbEntity
 67
     1
  8
図面枠
  6
Continuous
 62
     3
100
AcDbCircle
 10
-153.9869342892
 20
-48.9388170406
 30
0.0
 40
2.000001000000005
100
AcDbArc
 50
270.0
 51
0.0
  0
ARC
  5
464
330
1B
100
AcDbEntity
 67
     1
  8
図面枠
  6
Continuous
 62
     3
100
AcDbCircle
 10
-148.6869332892
 20
-43.0388160406
 30
0.0
 40
0.9999990000000025
100
AcDbArc
 50
90.0
 51
180.0
  0
ARC
  5
465
330
1B
100
AcDbEntity
 67
     1
  8
図面枠
  6
Continuous
 62
     3
100
AcDbCircle
 10
-148.6869332892
 20
-43.0388160406
 30
0.0
 40
3.300000000000011
100
AcDbArc
 50
90.0
 51
180.0
  0
ARC
  5
466
330
1B
100
AcDbEntity
 67
     1
  8
図面枠
  6
HIDDEN
 62
   179
100
AcDbCircle
 10
95.3130477108
 20
-45.2888010406
 30
0.0
 40
0.9999990000000025
100
AcDbArc
 50
270.0
 51
0.0
  0
ARC
  5
467
330
1B
100
AcDbEntity
 67
     1
  8
図面枠
  6
HIDDEN
 62
   179
100
AcDbCircle
 10
112.3130457108
 20
-32.0388030406
 30
0.0
 40
0.9999990000000096
100
AcDbArc
 50
270.0
 51
0.0
  0
ARC
  5
468
330
1B
100
AcDbEntity
 67
     1
  8
図面枠
  6
HIDDEN
 62
   179
100
AcDbCircle
 10
98.3130477108
 20
-35.0388030406
 30
0.0
 40
2.00000099999999
100
AcDbArc
 50
90.0
 51
180.0
  0
ARC
  5
469
330
1B
100
AcDbEntity
 67
     1
  8
図面枠
  6
HIDDEN
 62
   179
100
AcDbCircle
 10
95.3130477108
 20
15.2111969594
 30
0.0
 40
0.9999990000000025
100
AcDbArc
 50
0.0
 51
90.0
  0
ARC
  5
46A
330
1B
100
AcDbEntity
 67
     1
  8
図面枠
  6
HIDDEN
 62
   179
100
AcDbCircle
 10
98.3130477108
 20
4.9611989594
 30
0.0
 40
2.000000999999997
100
AcDbArc
 50
180.0
 51
270.0
  0
ARC
  5
46B
330
1B
100
AcDbEntity
 67
     1
  8
図面枠
  6
HIDDEN
 62
   179
100
AcDbCircle
 10
112.3130457108
 20
1.9611989594
 30
0.0
 40
0.9999990000000025
100
AcDbArc
 50
0.0
 51
90.0
  0
ARC
  5
46C
330
1B
100
AcDbEntity
 67
     1
  8
図面枠
  6
Continuous
 62
     3
100
AcDbCircle
 10
-21.4369322892
 20
-52.2888180406
 30
0.0
 40
0.75
100
AcDbArc
 50
0.0
 51
90.0
  0
ARC
  5
46D
330
1B
100
AcDbEntity
 67
     1
  8
図面枠
  6
Continuous
 62
     3
100
AcDbCircle
 10
-18.9369332892
 20
-52.2888180406
 30
0.0
 40
0.7500000000000036
100
AcDbArc
 50
90.0
 51
180.0
  0
ARC
  5
46E
330
1B
100
AcDbEntity
 67
     1
  8
図面枠
  6
Continuous
 62
     3
100
AcDbCircle
 10
-18.9369332892
 20
-49.7888160406
 30
0.0
 40
0.7500000000000036
100
AcDbArc
 50
180.0
 51
270.0
  0
ARC
  5
46F
330
1B
100
AcDbEntity
 67
     1
  8
図面枠
  6
Continuous
 62
     3
100
AcDbCircle
 10
-21.4369322892
 20
-49.7888160406
 30
0.0
 40
0.75
100
AcDbArc
 50
270.0
 51
0.0
  0
CIRCLE
  5
470
330
1B
100
AcDbEntity
 67
     1
  8
図面枠
  6
Continuous
 62
     3
100
AcDbCircle
 10
-20.1869342892
 20
-51.0388170406
 30
0.0
 40
3.999998999999995
  0
ARC
  5
471
330
1B
100
AcDbEntity
 67
     1
  8
図面枠
  6
Continuous
 62
     1
100
AcDbCircle
 10
129.8306007108
 20
-58.5388020406
 30
0.0
 40
0.500001000000005
100
AcDbArc
 50
2.045408
 51
90.0
  0
ARC
  5
472
330
1B
100
AcDbEntity
 67
     1
  8
図面枠
  6
Continuous
 62
     1
100
AcDbCircle
 10
-65.6783732892
 20
113.9611829594
 30
0.0
 40
0.999999000000003
100
AcDbArc
 50
90.0
 51
219.414098
  0
CIRCLE
  5
473
330
1B
100
AcDbEntity
 67
     1
  8
図面枠
  6
Continuous
 62
     3
100
AcDbCircle
 10
-138.6869342892
 20
53.9611829594
 30
0.0
 40
3.500000999999969
  0
CIRCLE
  5
474
330
1B
100
AcDbEntity
 67
     1
  8
図面枠
  6
Continuous
 62
   179
100
AcDbCircle
 10
-138.6869342892
 20
53.9611829594
 30
0.0
 40
3.999999000000003
  0
CIRCLE
  5
475
330
1B
100
AcDbEntity
 67
     1
  8
図面枠
  6
Continuous
 62
     3
100
AcDbCircle
 10
-138.6869342892
 20
53.9611829594
 30
0.0
 40
6.500000999999969
  0
ARC
  5
476
330
1B
100
AcDbEntity
 67
     1
  8
図面枠
  6
PHANTOM
 62
   179
100
AcDbCircle
 10
-187.0658132892
 20
-51.0388170406
 30
0.0
 40
0.9999989999999954
100
AcDbArc
 50
270.0
 51
359.0
  0
ARC
  5
477
330
1B
100
AcDbEntity
 67
     1
  8
図面枠
  6
PHANTOM
 62
   179
100
AcDbCircle
 10
-16.1869322892
 20
-57.3831060406
 30
0.0
 40
0.5000010000000052
100
AcDbArc
 50
122.230934
 51
179.999964
  0
ARC
  5
478
330
1B
100
AcDbEntity
 67
     1
  8
図面枠
  6
PHANTOM
 62
   179
100
AcDbCircle
 10
-24.1869332892
 20
-57.3831060406
 30
0.0
 40
0.5000009999999976
100
AcDbArc
 50
0.000007
 51
57.76903
  0
CIRCLE
  5
479
330
1B
100
AcDbEntity
 67
     1
  8
図面枠
  6
Continuous
 62
   179
100
AcDbCircle
 10
-138.6869342892
 20
-48.0388170406
 30
0.0
 40
4.970000999999968
  0
ARC
  5
47A
330
1B
100
AcDbEntity
 67
     1
  8
図面枠
  6
Continuous
 62
     3
100
AcDbCircle
 10
-139.9369322892
 20
-49.2888180406
 30
0.0
 40
0.75
100
AcDbArc
 50
0.0
 51
90.0
  0
ARC
  5
47B
330
1B
100
AcDbEntity
 67
     1
  8
図面枠
  6
Continuous
 62
     3
100
AcDbCircle
 10
-137.4369332892
 20
-49.2888180406
 30
0.0
 40
0.75
100
AcDbArc
 50
90.0
 51
180.0
  0
ARC
  5
47C
330
1B
100
AcDbEntity
 67
     1
  8
図面枠
  6
Continuous
 62
     3
100
AcDbCircle
 10
-137.4369332892
 20
-46.7888160406
 30
0.0
 40
0.75
100
AcDbArc
 50
180.0
 51
270.0
  0
ARC
  5
47D
330
1B
100
AcDbEntity
 67
     1
  8
図面枠
  6
Continuous
 62
     3
100
AcDbCircle
 10
-139.9369322892
 20
-46.7888160406
 30
0.0
 40
0.75
100
AcDbArc
 50
270.0
 51
0.0
  0
CIRCLE
  5
47E
330
1B
100
AcDbEntity
 67
     1
  8
図面枠
  6
Continuous
 62
     3
100
AcDbCircle
 10
-138.6869342892
 20
-48.0388170406
 30
0.0
 40
5.150000999999975
  0
CIRCLE
  5
47F
330
1B
100
AcDbEntity
 67
     1
  8
図面枠
  6
Continuous
 62
     3
100
AcDbCircle
 10
-62.0824892892
 20
-10.3175790406
 30
0.0
 40
5.150000999999996
  0
ARC
  5
480
330
1B
100
AcDbEntity
 67
     1
  8
図面枠
  6
Continuous
 62
     3
100
AcDbCircle
 10
-63.3324902892
 20
-9.0675780406
 30
0.0
 40
0.75
100
AcDbArc
 50
270.0
 51
0.0
  0
ARC
  5
481
330
1B
100
AcDbEntity
 67
     1
  8
図面枠
  6
Continuous
 62
     3
100
AcDbCircle
 10
-60.8324882892
 20
-9.0675780406
 30
0.0
 40
0.75
100
AcDbArc
 50
180.0
 51
270.0
  0
ARC
  5
482
330
1B
100
AcDbEntity
 67
     1
  8
図面枠
  6
Continuous
 62
     3
100
AcDbCircle
 10
-60.8324882892
 20
-11.5675770406
 30
0.0
 40
0.75
100
AcDbArc
 50
90.0
 51
180.0
  0
ARC
  5
483
330
1B
100
AcDbEntity
 67
     1
  8
図面枠
  6
Continuous
 62
     3
100
AcDbCircle
 10
-63.3324902892
 20
-11.5675770406
 30
0.0
 40
0.75
100
AcDbArc
 50
0.0
 51
90.0
  0
CIRCLE
  5
484
330
1B
100
AcDbEntity
 67
     1
  8
図面枠
  6
Continuous
 62
   179
100
AcDbCircle
 10
-62.0824892892
 20
-10.3175790406
 30
0.0
 40
4.970000999999996
  0
ARC
  5
485
330
1B
100
AcDbEntity
 67
     1
  8
図面枠
  6
Continuous
 62
     1
100
AcDbCircle
 10
-138.6869342892
 20
53.9611829594
 30
0.0
 40
92.99999999999999
100
AcDbArc
 50
2.976809
 51
6.6177
  0
CIRCLE
  5
486
330
1B
100
AcDbEntity
 67
     1
  8
図面枠
  6
Continuous
 62
     3
100
AcDbCircle
 10
-82.2595502892
 20
-23.7044490406
 30
0.0
 40
6.500001000000012
  0
ARC
  5
487
330
1B
100
AcDbEntity
 67
     1
  8
図面枠
  6
Continuous
 62
     3
100
AcDbCircle
 10
-47.3855072892
 20
83.6268149594
 30
0.0
 40
6.500001000000001
100
AcDbArc
 50
35.531019
 51
326.760506
  0
CIRCLE
  5
488
330
1B
100
AcDbEntity
 67
     1
  8
図面枠
  6
Continuous
 62
     3
100
AcDbCircle
 10
-76.6869332892
 20
53.9611829594
 30
0.0
 40
18.999999
  0
CIRCLE
  5
489
330
1B
100
AcDbEntity
 67
     1
  8
図面枠
  6
Continuous
 62
     3
100
AcDbCircle
 10
-76.6869332892
 20
53.9611829594
 30
0.0
 40
14.736999
  0
ARC
  5
48A
330
1B
100
AcDbEntity
 67
     1
  8
図面枠
  6
Continuous
 62
     1
100
AcDbCircle
 10
-76.6869332892
 20
53.9611829594
 30
0.0
 40
47.99999999999999
100
AcDbArc
 50
116.524199
 51
116.892103
  0
ARC
  5
48B
330
1B
100
AcDbEntity
 67
     1
  8
図面枠
  6
Continuous
 62
     1
100
AcDbCircle
 10
-138.6869342892
 20
53.9611829594
 30
0.0
 40
93.50000099999997
100
AcDbArc
 50
345.723114
 51
6.856949
  0
ARC
  5
48C
330
1B
100
AcDbEntity
 67
     1
  8
図面枠
  6
Continuous
 62
     1
100
AcDbCircle
 10
-52.6215332892
 20
2.7611819594
 30
0.0
 40
2.000000999999992
100
AcDbArc
 50
90.0
 51
179.0
  0
ARC
  5
48D
330
1B
100
AcDbEntity
 67
     1
  8
図面枠
  6
Continuous
 62
     3
100
AcDbCircle
 10
-43.0383122892
 20
-42.7388160406
 30
0.0
 40
0.5000051655433189
100
AcDbArc
 50
270.0
 51
358.9999190146
  0
ARC
  5
48E
330
1B
100
AcDbEntity
 67
     1
  8
図面枠
  6
Continuous
 62
     1
100
AcDbCircle
 10
-54.9334232892
 20
-43.7388180406
 30
0.0
 40
0.5000052179137752
100
AcDbArc
 50
90.0
 51
178.9995752959
  0
CIRCLE
  5
48F
330
1B
100
AcDbEntity
 67
     1
  8
図面枠
  6
Continuous
 62
     3
100
AcDbCircle
 10
-63.3481952892
 20
17.3132969594
 30
0.0
 40
8.499999000000003
  0
CIRCLE
  5
490
330
1B
100
AcDbEntity
 67
     1
  8
図面枠
  6
Continuous
 62
     3
100
AcDbCircle
 10
-90.0257642892
 20
90.6093239594
 30
0.0
 40
8.499998999999988
  0
CIRCLE
  5
491
330
1B
100
AcDbEntity
 67
     1
  8
図面枠
  6
Continuous
 62
     3
100
AcDbCircle
 10
-121.4550302892
 20
96.6116399594
 30
0.0
 40
8.499999000000003
  0
CIRCLE
  5
492
330
1B
100
AcDbEntity
 67
     1
  8
図面枠
  6
Continuous
 62
     3
100
AcDbCircle
 10
-155.9188352892
 20
11.3107259594
 30
0.0
 40
8.499999000000003
  0
CIRCLE
  5
493
330
1B
100
AcDbEntity
 67
     1
  8
図面枠
  6
Continuous
 62
   179
100
AcDbCircle
 10
-138.6869342892
 20
53.9611829594
 30
0.0
 40
20.95496999999999
  0
CIRCLE
  5
494
330
1B
100
AcDbEntity
 67
     1
  8
図面枠
  6
Continuous
 62
     1
100
AcDbCircle
 10
-138.6869342892
 20
53.9611829594
 30
0.0
 40
19.42828499999999
  0
CIRCLE
  5
495
330
1B
100
AcDbEntity
 67
     1
  8
図面枠
  6
Continuous
 62
     1
100
AcDbCircle
 10
-138.6869342892
 20
53.9611829594
 30
0.0
 40
22.49999999999999
  0
ARC
  5
496
330
1B
100
AcDbEntity
 67
     1
  8
図面枠
  6
Continuous
 62
     1
100
AcDbCircle
 10
-122.2042442892
 20
94.7572709594
 30
0.0
 40
15.00000132972384
100
AcDbArc
 50
358.974631
 51
137.0253635407
  0
ARC
  5
497
330
1B
100
AcDbEntity
 67
     1
  8
図面枠
  6
Continuous
 62
     1
100
AcDbCircle
 10
-138.6869342892
 20
53.9611829594
 30
0.0
 40
30.75000101319598
100
AcDbArc
 50
317.025369
 51
358.9746303405
  0
ARC
  5
498
330
1B
100
AcDbEntity
 67
     1
  8
図面枠
  6
Continuous
 62
     1
100
AcDbCircle
 10
-155.1696242892
 20
13.1650919594
 30
0.0
 40
15.00000000000001
100
AcDbArc
 50
178.974631
 51
317.025369
  0
ARC
  5
499
330
1B
100
AcDbEntity
 67
     1
  8
図面枠
  6
Continuous
 62
     1
100
AcDbCircle
 10
-138.6869342892
 20
53.9611829594
 30
0.0
 40
30.74999957114179
100
AcDbArc
 50
137.02537067
 51
178.9746302405
  0
ARC
  5
49A
330
1B
100
AcDbEntity
 67
     1
  8
図面枠
  6
Continuous
 62
     1
100
AcDbCircle
 10
-76.6869842892
 20
53.9613089594
 30
0.0
 40
31.250001
100
AcDbArc
 50
168.649621
 51
231.350379
  0
CIRCLE
  5
49B
330
1B
100
AcDbEntity
 67
     1
  8
図面枠
  6
Continuous
 62
   179
100
AcDbCircle
 10
-76.2856802892
 20
54.1072259594
 30
0.0
 40
20.95497
  0
CIRCLE
  5
49C
330
1B
100
AcDbEntity
 67
     1
  8
図面枠
  6
Continuous
 62
     1
100
AcDbCircle
 10
-76.2856802892
 20
54.1072259594
 30
0.0
 40
19.42828500000001
  0
CIRCLE
  5
49D
330
1B
100
AcDbEntity
 67
     1
  8
図面枠
  6
Continuous
 62
     1
100
AcDbCircle
 10
-76.2856802892
 20
54.1072259594
 30
0.0
 40
22.5
  0
ARC
  5
49E
330
1B
100
AcDbEntity
 67
     1
  8
図面枠
  6
Continuous
 62
     1
100
AcDbCircle
 10
-76.6869842892
 20
53.9613089594
 30
0.0
 40
31.25000394067423
100
AcDbArc
 50
348.5865490885
 51
51.3503277043
  0
ARC
  5
49F
330
1B
100
AcDbEntity
 67
     1
  8
図面枠
  6
Continuous
 62
     1
100
AcDbCircle
 10
-64.0322342892
 20
19.1926829594
 30
0.0
 40
11.99999999999999
100
AcDbArc
 50
231.35046
 51
348.649615
  0
ARC
  5
4A0
330
1B
100
AcDbEntity
 67
     1
  8
図面枠
  6
Continuous
 62
     1
100
AcDbCircle
 10
-89.3417252892
 20
88.7299379594
 30
0.0
 40
12.00000530802036
100
AcDbArc
 50
51.350332
 51
168.6496437755
  0
CIRCLE
  5
4A1
330
1B
100
AcDbEntity
 67
     1
  8
図面枠
  6
Continuous
 62
     1
100
AcDbCircle
 10
-138.6869342892
 20
-21.0388170406
 30
0.0
 40
9.0
  0
ARC
  5
4A2
330
1B
100
AcDbEntity
 67
     1
  8
図面枠
  6
Continuous
 62
     3
100
AcDbCircle
 10
-54.4193642892
 20
19.1708849594
 30
0.0
 40
3.999999823582266
100
AcDbArc
 50
315.0
 51
353.6122
  0
ARC
  5
4A3
330
1B
100
AcDbEntity
 67
     1
  8
図面枠
  6
Continuous
 62
     1
100
AcDbCircle
 10
-54.4193642892
 20
19.1708849594
 30
0.0
 40
5.000001000000005
100
AcDbArc
 50
315.0
 51
353.6122
  0
ARC
  5
4A4
330
1B
100
AcDbEntity
 67
     1
  8
図面枠
  6
Continuous
 62
     1
100
AcDbCircle
 10
-60.5188322892
 20
3.5751929594
 30
0.0
 40
2.000001000000007
100
AcDbArc
 50
103.107973
 51
147.194777
  0
CIRCLE
  5
4A5
330
1B
100
AcDbEntity
 67
     1
  8
図面枠
  6
Continuous
 62
     1
100
AcDbCircle
 10
-138.6869342892
 20
53.9611829594
 30
0.0
 40
18.50000099999998
  0
ARC
  5
4A6
330
1B
100
AcDbEntity
 67
     1
  8
図面枠
  6
Continuous
 62
     3
100
AcDbCircle
 10
-103.4264792892
 20
101.6417159594
 30
0.0
 40
5.999999999999999
100
AcDbArc
 50
231.486782
 51
304.4296074623
  0
ARC
  5
4A7
330
1B
100
AcDbEntity
 67
     1
  8
図面枠
  6
Continuous
 62
     3
100
AcDbCircle
 10
-88.9996592892
 20
87.7901159594
 30
0.0
 40
14.00000100000001
100
AcDbArc
 50
46.3878
 51
73.6639359839
  0
ARC
  5
4A8
330
1B
100
AcDbEntity
 67
     1
  8
図面枠
  6
Continuous
 62
     3
100
AcDbCircle
 10
-64.3742072892
 20
20.1322469594
 30
0.0
 40
14.000001
100
AcDbArc
 50
226.3878
 51
253.6639359839
  0
ARC
  5
4A9
330
1B
100
AcDbEntity
 67
     1
  8
図面枠
  6
Continuous
 62
     3
100
AcDbCircle
 10
-107.6869322892
 20
39.9969419594
 30
0.0
 40
3.999998999999989
100
AcDbArc
 50
68.317295
 51
122.105832
  0
ARC
  5
4AA
330
1B
100
AcDbEntity
 67
     1
  8
図面枠
  6
Continuous
 62
     1
100
AcDbCircle
 10
-109.2510752892
 20
-6.5155740406
 30
0.0
 40
20.000001
100
AcDbArc
 50
295.953581
 51
327.510001
  0
ARC
  5
4AB
330
1B
100
AcDbEntity
 67
     1
  8
図面枠
  6
Continuous
 62
     1
100
AcDbCircle
 10
-90.2663012892
 20
7.2776729594
 30
0.0
 40
20.00000099999999
100
AcDbArc
 50
284.489999
 51
316.046419
  0
ARC
  5
4AC
330
1B
100
AcDbEntity
 67
     1
  8
図面枠
  6
Continuous
 62
     1
100
AcDbCircle
 10
-79.3254812892
 20
85.5859409594
 30
0.0
 40
20.00000100000001
100
AcDbArc
 50
356.489999
 51
28.046419
  0
ARC
  5
4AD
330
1B
100
AcDbEntity
 67
     1
  8
図面枠
  6
Continuous
 62
     1
100
AcDbCircle
 10
-168.1227902892
 20
-6.5155740406
 30
0.0
 40
20.00000100000002
100
AcDbArc
 50
235.379253
 51
244.046419
  0
ARC
  5
4AE
330
1B
100
AcDbEntity
 67
     1
  8
図面枠
  6
Continuous
 62
     1
100
AcDbCircle
 10
-109.5082952892
 20
-33.5631840406
 30
0.0
 40
5.000001000000007
100
AcDbArc
 50
81.0
 51
108.437217
  0
ARC
  5
4AF
330
1B
100
AcDbEntity
 67
     1
  8
図面枠
  6
Continuous
 62
     1
100
AcDbCircle
 10
-138.6869342892
 20
53.9611829594
 30
0.0
 40
87.26000347030127
100
AcDbArc
 50
288.4372170784
 51
295.9535817547
  0
ARC
  5
4B0
330
1B
100
AcDbEntity
 67
     1
  8
図面枠
  6
Continuous
 62
     1
100
AcDbCircle
 10
-64.4630102892
 20
-0.8358690406
 30
0.0
 40
5.000000999999992
100
AcDbArc
 50
143.562783
 51
171.0
  0
ARC
  5
4B1
330
1B
100
AcDbEntity
 67
     1
  8
図面枠
  6
Continuous
 62
     1
100
AcDbCircle
 10
-138.6869342892
 20
53.9611829594
 30
0.0
 40
87.26000253167402
100
AcDbArc
 50
316.0464187387
 51
323.562782605
  0
ARC
  5
4B2
330
1B
100
AcDbEntity
 67
     1
  8
図面枠
  6
Continuous
 62
     1
100
AcDbCircle
 10
-138.6869342892
 20
53.9611829594
 30
0.0
 40
87.26000215737281
100
AcDbArc
 50
244.0464200165
 51
251.562783
  0
ARC
  5
4B3
330
1B
100
AcDbEntity
 67
     1
  8
図面枠
  6
Continuous
 62
     1
100
AcDbCircle
 10
-167.8655732892
 20
-33.5631840406
 30
0.0
 40
5.000001000000007
100
AcDbArc
 50
71.5627816311
 51
99.0
  0
ARC
  5
4B4
330
1B
100
AcDbEntity
 67
     1
  8
図面枠
  6
Continuous
 62
     1
100
AcDbCircle
 10
-63.6353882892
 20
107.6191079594
 30
0.0
 40
5.000000999999999
100
AcDbArc
 50
215.562783
 51
243.0
  0
ARC
  5
4B5
330
1B
100
AcDbEntity
 67
     1
  8
図面枠
  6
Continuous
 62
     1
100
AcDbCircle
 10
-138.6869342892
 20
53.9611829594
 30
0.0
 40
87.2599996680774
100
AcDbArc
 50
28.046417813
 51
35.5627824138
  0
ARC
  5
4B6
330
1B
100
AcDbEntity
 67
     1
  8
図面枠
  6
Continuous
 62
     1
100
AcDbCircle
 10
-99.3025232892
 20
98.5541759594
 30
0.0
 40
1.999999357461663
100
AcDbArc
 50
248.5432188333
 51
296.8921287747
  0
ARC
  5
4B7
330
1B
100
AcDbEntity
 67
     1
  8
図面枠
  6
Continuous
 62
     1
100
AcDbCircle
 10
-76.6869332892
 20
53.9611829594
 30
0.0
 40
47.99999999999999
100
AcDbArc
 50
100.0482718943
 51
103.475801
  0
ARC
  5
4B8
330
1B
100
AcDbEntity
 67
     1
  8
図面枠
  6
Continuous
 62
     1
100
AcDbCircle
 10
-76.6869332892
 20
53.9611829594
 30
0.0
 40
48.00000091538523
100
AcDbArc
 50
280.0482712695
 51
283.476628
  0
ARC
  5
4B9
330
1B
100
AcDbEntity
 67
     1
  8
図面枠
  6
Continuous
 62
     1
100
AcDbCircle
 10
-103.4264792892
 20
101.6417159594
 30
0.0
 40
5.000001000000018
100
AcDbArc
 50
200.134327
 51
316.165311
  0
ARC
  5
4BA
330
1B
100
AcDbEntity
 67
     1
  8
図面枠
  6
Continuous
 62
     1
100
AcDbCircle
 10
-64.3742072892
 20
20.1322469594
 30
0.0
 40
15.0000007184358
100
AcDbArc
 50
226.3877967693
 51
282.9870387158
  0
ARC
  5
4BB
330
1B
100
AcDbEntity
 67
     1
  8
図面枠
  6
Continuous
 62
     1
100
AcDbCircle
 10
-155.1696242892
 20
13.1650919594
 30
0.0
 40
14.99999863708223
100
AcDbArc
 50
179.3236877404
 51
316.6763212676
  0
ARC
  5
4BC
330
1B
100
AcDbEntity
 67
     1
  8
図面枠
  6
Continuous
 62
     1
100
AcDbCircle
 10
-122.2042442892
 20
94.7572709594
 30
0.0
 40
15.0000006954396
100
AcDbArc
 50
20.1343245558
 51
136.6763129311
  0
ARC
  5
4BD
330
1B
100
AcDbEntity
 67
     1
  8
図面枠
  6
Continuous
 62
     1
100
AcDbCircle
 10
-88.9996592892
 20
87.7901159594
 30
0.0
 40
15.00000071843578
100
AcDbArc
 50
46.3877967693
 51
136.1653100529
  0
ARC
  5
4BE
330
1B
100
AcDbEntity
 67
     1
  8
図面枠
  6
Continuous
 62
     1
100
AcDbCircle
 10
-138.6869342892
 20
53.9611829594
 30
0.0
 40
30.99999974091182
100
AcDbArc
 50
316.6763130229
 51
335.750371
  0
ARC
  5
4BF
330
1B
100
AcDbEntity
 67
     1
  8
図面枠
  6
Continuous
 62
     1
100
AcDbCircle
 10
-138.6869342892
 20
53.9611829594
 30
0.0
 40
30.999999
100
AcDbArc
 50
134.964316
 51
179.3236852141
  0
ARC
  5
4C0
330
1B
100
AcDbEntity
 67
     1
  8
図面枠
  6
Continuous
 62
     1
100
AcDbCircle
 10
-107.6869322892
 20
39.9969419594
 30
0.0
 40
3.000003216265903
100
AcDbArc
 50
46.774449
 51
155.7503745418
  0
ARC
  5
4C1
330
1B
100
AcDbEntity
 67
     1
  8
図面枠
  6
Continuous
 62
     1
100
AcDbCircle
 10
-138.6869342892
 20
53.9611829594
 30
0.0
 40
93.00000000000001
100
AcDbArc
 50
245.3823
 51
294.328603
  0
ARC
  5
4C2
330
1B
100
AcDbEntity
 67
     1
  8
図面枠
  6
Continuous
 62
     1
100
AcDbCircle
 10
-138.6869342892
 20
53.9611829594
 30
0.0
 40
90.99999900000002
100
AcDbArc
 50
246.656929
 51
293.343071
  0
ARC
  5
4C3
330
1B
100
AcDbEntity
 67
     1
  8
図面枠
  6
Continuous
 62
     1
100
AcDbCircle
 10
-138.6869342892
 20
53.9611829594
 30
0.0
 40
90.99999985248661
100
AcDbArc
 50
318.656929
 51
327.1947769386
  0
ARC
  5
4C4
330
1B
100
AcDbEntity
 67
     1
  8
図面枠
  6
Continuous
 62
     1
100
AcDbCircle
 10
-138.6869342892
 20
53.9611829594
 30
0.0
 40
92.99999999999999
100
AcDbArc
 50
317.3823
 51
331.464411
  0
ARC
  5
4C5
330
1B
100
AcDbEntity
 67
     1
  8
図面枠
  6
Continuous
 62
     1
100
AcDbCircle
 10
-138.6869342892
 20
53.9611829594
 30
0.0
 40
90.99999899999997
100
AcDbArc
 50
30.656929
 51
53.340492
  0
ARC
  5
4C6
330
1B
100
AcDbEntity
 67
     1
  8
図面枠
  6
Continuous
 62
     1
100
AcDbCircle
 10
-138.6869342892
 20
53.9611829594
 30
0.0
 40
93.0
100
AcDbArc
 50
29.3823
 51
51.715706
  0
ARC
  5
4C7
330
1B
100
AcDbEntity
 67
     1
  8
図面枠
  6
Continuous
 62
     1
100
AcDbCircle
 10
-179.0599232892
 20
-35.3361960406
 30
0.0
 40
5.000001000000007
100
AcDbArc
 50
65.671397
 51
96.587493
  0
ARC
  5
4C8
330
1B
100
AcDbEntity
 67
     1
  8
図面枠
  6
Continuous
 62
     1
100
AcDbCircle
 10
-82.2595502892
 20
-23.7044490406
 30
0.0
 40
8.999999999999977
100
AcDbArc
 50
261.0000073883
 51
351.0
  0
ARC
  5
4C9
330
1B
100
AcDbEntity
 67
     1
  8
図面枠
  6
Continuous
 62
     1
100
AcDbCircle
 10
-66.2360222892
 20
-12.0302220406
 30
0.0
 40
5.000001000000005
100
AcDbArc
 50
137.671397
 51
171.0
  0
ARC
  5
4CA
330
1B
100
AcDbEntity
 67
     1
  8
図面枠
  6
Continuous
 62
     1
100
AcDbCircle
 10
-82.2595502892
 20
-23.7044490406
 30
0.0
 40
11.99999814373261
100
AcDbArc
 50
104.4899935937
 51
147.510001293
  0
ARC
  5
4CB
330
1B
100
AcDbEntity
 67
     1
  8
図面枠
  6
Continuous
 62
     1
100
AcDbCircle
 10
-98.3139422892
 20
-35.3361960406
 30
0.0
 40
5.000001935212793
100
AcDbArc
 50
81.0
 51
114.3286068227
  0
ARC
  5
4CC
330
1B
100
AcDbEntity
 67
     1
  8
図面枠
  6
Continuous
 62
     1
100
AcDbCircle
 10
-47.3855072892
 20
83.6268149594
 30
0.0
 40
9.000000000000004
100
AcDbArc
 50
54.560363
 51
63.0
  0
ARC
  5
4CD
330
1B
100
AcDbEntity
 67
     1
  8
図面枠
  6
Continuous
 62
     1
100
AcDbCircle
 10
-53.5368152892
 20
102.4736279594
 30
0.0
 40
5.000001000000013
100
AcDbArc
 50
209.671397
 51
243.0
  0
ARC
  5
4CE
330
1B
100
AcDbEntity
 67
     1
  8
図面枠
  6
Continuous
 62
     1
100
AcDbCircle
 10
-47.3855072892
 20
83.6268149594
 30
0.0
 40
12.00000077819625
100
AcDbArc
 50
176.4900111409
 51
199.366081
  0
ARC
  5
4CF
330
1B
100
AcDbEntity
 67
     1
  8
図面枠
  6
Continuous
 62
     1
100
AcDbCircle
 10
-41.2841402892
 20
64.7637719594
 30
0.0
 40
5.000000999999995
100
AcDbArc
 50
153.0
 51
186.328603
  0
ARC
  5
4D0
330
1B
100
AcDbEntity
 67
     1
  8
図面枠
  6
Continuous
 62
     1
100
AcDbCircle
 10
-138.6869342892
 20
53.9611829594
 30
0.0
 40
92.99999999999999
100
AcDbArc
 50
348.397484
 51
357.023428
  0
ARC
  5
4D1
330
1B
100
AcDbEntity
 67
     1
  8
図面枠
  6
Continuous
 62
     1
100
AcDbCircle
 10
-44.0965142892
 20
63.6495569594
 30
0.0
 40
3.000000591223447
100
AcDbArc
 50
153.0000378888
 51
196.555989
  0
ARC
  5
4D2
330
1B
100
AcDbEntity
 67
     1
  8
図面枠
  6
Continuous
 62
     1
100
AcDbCircle
 10
-44.6869322892
 20
16.4611829594
 30
0.0
 40
3.0
100
AcDbArc
 50
0.0
 51
90.0
  0
ARC
  5
4D3
330
1B
100
AcDbEntity
 67
     1
  8
図面枠
  6
Continuous
 62
     1
100
AcDbCircle
 10
-41.1727082892
 20
30.9611819594
 30
0.0
 40
2.00000099999999
100
AcDbArc
 50
270.0
 51
277.049841
  0
ARC
  5
4D4
330
1B
100
AcDbEntity
 67
     1
  8
図面枠
  6
Continuous
 62
     1
100
AcDbCircle
 10
-42.1869332892
 20
30.9611819594
 30
0.0
 40
2.000000999999997
100
AcDbArc
 50
180.0
 51
270.0
  0
ARC
  5
4D5
330
1B
100
AcDbEntity
 67
     1
  8
図面枠
  6
Continuous
 62
     1
100
AcDbCircle
 10
-42.1869332892
 20
61.9611839594
 30
0.0
 40
2.000001000000019
100
AcDbArc
 50
90.0
 51
180.0
  0
CIRCLE
  5
4D6
330
1B
100
AcDbEntity
 67
     1
  8
図面枠
  6
Continuous
 62
     1
100
AcDbCircle
 10
-47.6869322892
 20
103.9611809594
 30
0.0
 40
3.99999900000001
  0
ARC
  5
4D7
330
1B
100
AcDbEntity
 67
     1
  8
図面枠
  6
Continuous
 62
     1
100
AcDbCircle
 10
-47.6869322892
 20
115.9611809594
 30
0.0
 40
3.999999
100
AcDbArc
 50
147.036752
 51
288.31165
  0
ARC
  5
4D8
330
1B
100
AcDbEntity
 67
     1
  8
図面枠
  6
Continuous
 62
     1
100
AcDbCircle
 10
-47.3855072892
 20
83.6268149594
 30
0.0
 40
9.000000000000004
100
AcDbArc
 50
54.560363
 51
63.0
  0
ARC
  5
4D9
330
1B
100
AcDbEntity
 67
     1
  8
図面枠
  6
Continuous
 62
     1
100
AcDbCircle
 10
-53.0930912892
 20
101.6863769594
 30
0.0
 40
4.500000000000019
100
AcDbArc
 50
209.143051
 51
243.0
  0
ARC
  5
4DA
330
1B
100
AcDbEntity
 67
     1
  8
図面枠
  6
Continuous
 62
     1
100
AcDbCircle
 10
-138.6869342892
 20
53.9611829594
 30
0.0
 40
93.50000099999998
100
AcDbArc
 50
29.143050546
 51
34.175658
  0
ARC
  5
4DB
330
1B
100
AcDbEntity
 67
     1
  8
図面枠
  6
Continuous
 62
     1
100
AcDbCircle
 10
-41.3878952892
 20
65.6614859594
 30
0.0
 40
4.500000912295918
100
AcDbArc
 50
152.9999951843
 51
186.8569252993
  0
ARC
  5
4DC
330
1B
100
AcDbEntity
 67
     1
  8
図面枠
  6
Continuous
 62
     1
100
AcDbCircle
 10
-55.6869332892
 20
122.9611829594
 30
0.0
 40
2.000001000000005
100
AcDbArc
 50
174.296594
 51
180.0
  0
ARC
  5
4DD
330
1B
100
AcDbEntity
 67
     1
  8
図面枠
  6
Continuous
 62
     1
100
AcDbCircle
 10
-40.6869332892
 20
18.4611839594
 30
0.0
 40
0.9999990000000049
100
AcDbArc
 50
92.864937
 51
180.0
  0
ARC
  5
4DE
330
1B
100
AcDbEntity
 67
     1
  8
図面枠
  6
Continuous
 62
     1
100
AcDbCircle
 10
-155.6872082892
 20
-40.5215700406
 30
0.0
 40
2.000000999999993
100
AcDbArc
 50
5.0000131758
 51
79.799915
  0
ARC
  5
4DF
330
1B
100
AcDbEntity
 67
     1
  8
図面枠
  6
Continuous
 62
     1
100
AcDbCircle
 10
-121.6866572892
 20
-40.5215700406
 30
0.0
 40
2.000001000000002
100
AcDbArc
 50
100.200085
 51
174.9999868242
  0
ARC
  5
4E0
330
1B
100
AcDbEntity
 67
     1
  8
図面枠
  6
Continuous
 62
     1
100
AcDbCircle
 10
-121.6866572892
 20
-40.5215700406
 30
0.0
 40
3.000000969541344
100
AcDbArc
 50
100.200085
 51
174.9999868242
  0
ARC
  5
4E1
330
1B
100
AcDbEntity
 67
     1
  8
図面枠
  6
Continuous
 62
     1
100
AcDbCircle
 10
-155.6872082892
 20
-40.5215700406
 30
0.0
 40
3.000000000000006
100
AcDbArc
 50
5.0000181694
 51
79.799915
  0
ARC
  5
4E2
330
1B
100
AcDbEntity
 67
     1
  8
図面枠
  6
Continuous
 62
     1
100
AcDbCircle
 10
-138.6869342892
 20
53.9611829594
 30
0.0
 40
93.999999169457
100
AcDbArc
 50
280.2000860722
 51
294.856949
  0
ARC
  5
4E3
330
1B
100
AcDbEntity
 67
     1
  8
図面枠
  6
Continuous
 62
     1
100
AcDbCircle
 10
-65.6783732892
 20
113.9611829594
 30
0.0
 40
0.999999000000003
100
AcDbArc
 50
90.0
 51
219.414098
  0
ARC
  5
4E4
330
1B
100
AcDbEntity
 67
     1
  8
図面枠
  6
Continuous
 62
     1
100
AcDbCircle
 10
-138.6869342892
 20
53.9611829594
 30
0.0
 40
93.50000099999998
100
AcDbArc
 50
34.1237491699
 51
51.329173
  0
ARC
  5
4E5
330
1B
100
AcDbEntity
 67
     1
  8
図面枠
  6
Continuous
 62
     1
100
AcDbCircle
 10
-55.7030252892
 20
4.3168379594
 30
0.0
 40
3.000000000000003
100
AcDbArc
 50
149.110422
 51
200.0
  0
ARC
  5
4E6
330
1B
100
AcDbEntity
 67
     1
  8
図面枠
  6
Continuous
 62
     1
100
AcDbCircle
 10
-69.3532532892
 20
-20.2052400406
 30
0.0
 40
2.999999999999997
100
AcDbArc
 50
80.0
 51
171.0
  0
ARC
  5
4E7
330
1B
100
AcDbEntity
 67
     1
  8
図面枠
  6
Continuous
 62
     1
100
AcDbCircle
 10
-66.8476232892
 20
-12.6955020406
 30
0.0
 40
4.30000124666052
100
AcDbArc
 50
137.143051
 51
170.999991834
  0
ARC
  5
4E8
330
1B
100
AcDbEntity
 67
     1
  8
図面枠
  6
Continuous
 62
     1
100
AcDbCircle
 10
-138.6869342892
 20
53.9611829594
 30
0.0
 40
93.70000232726504
100
AcDbArc
 50
317.1430519512
 51
329.1104224641
  0
ARC
  5
4E9
330
1B
100
AcDbEntity
 67
     1
  8
図面枠
  6
Continuous
 62
     1
100
AcDbCircle
 10
-69.0577682892
 20
-20.2573410406
 30
0.0
 40
3.000000000000011
100
AcDbArc
 50
80.0
 51
171.0
  0
ARC
  5
4EA
330
1B
100
AcDbEntity
 67
     1
  8
図面枠
  6
Continuous
 62
     1
100
AcDbCircle
 10
-55.5709232892
 20
3.9538919594
 30
0.0
 40
3.000000000000008
100
AcDbArc
 50
148.966506
 51
200.0
  0
ARC
  5
4EB
330
1B
100
AcDbEntity
 67
     1
  8
図面枠
  6
Continuous
 62
     1
100
AcDbCircle
 10
-62.0824892892
 20
-10.3175790406
 30
0.0
 40
8.00000032355782
100
AcDbArc
 50
259.9999958886
 51
20.0000056608
  0
ARC
  5
4EC
330
1B
100
AcDbEntity
 67
     1
  8
図面枠
  6
Continuous
 62
     1
100
AcDbCircle
 10
-62.6869322892
 20
119.9611829594
 30
0.0
 40
5.000001000000005
100
AcDbArc
 50
270.0
 51
0.0
  0
ARC
  5
4ED
330
1B
100
AcDbEntity
 67
     1
  8
図面枠
  6
Continuous
 62
     1
100
AcDbCircle
 10
-97.4922272892
 20
-34.9601100406
 30
0.0
 40
4.000002191876174
100
AcDbArc
 50
81.0
 51
114.8569329729
  0
ARC
  5
4EE
330
1B
100
AcDbEntity
 67
     1
  8
図面枠
  6
Continuous
 62
     1
100
AcDbCircle
 10
-82.2595502892
 20
-23.7044490406
 30
0.0
 40
9.500001000000001
100
AcDbArc
 50
261.0000151242
 51
351.0
  0
ARC
  5
4EF
330
1B
100
AcDbEntity
 67
     1
  8
図面枠
  6
Continuous
 62
     1
100
AcDbCircle
 10
-179.8816412892
 20
-34.9601100406
 30
0.0
 40
3.999999000000003
100
AcDbArc
 50
65.143051
 51
86.615337
  0
ARC
  5
4F0
330
1B
100
AcDbEntity
 67
     1
  8
図面枠
  6
Continuous
 62
     1
100
AcDbCircle
 10
-138.6869342892
 20
53.9611829594
 30
0.0
 40
94.00000225624126
100
AcDbArc
 50
328.966505983
 51
333.14345
  0
ARC
  5
4F1
330
1B
100
AcDbEntity
 67
     1
  8
図面枠
  6
Continuous
 62
     1
100
AcDbCircle
 10
-138.6869342892
 20
53.9611829594
 30
0.0
 40
94.00000219187604
100
AcDbArc
 50
245.143051682
 51
259.7999157275
  0
ARC
  5
4F2
330
1B
100
AcDbEntity
 67
     1
  8
図面枠
  6
Continuous
 62
     1
100
AcDbCircle
 10
-53.6869322892
 20
-19.5784980406
 30
0.0
 40
5.000001000000005
100
AcDbArc
 50
152.475762
 51
180.0
  0
ARC
  5
4F3
330
1B
100
AcDbEntity
 67
     1
  8
図面枠
  6
Continuous
 62
     1
100
AcDbCircle
 10
-260.2023152892
 20
-58.5388170406
 30
0.0
 40
0.5000010000000046
100
AcDbArc
 50
90.0
 51
178.210089
  0
ARC
  5
4F4
330
1B
100
AcDbEntity
 67
     1
  8
図面枠
  6
Continuous
 62
     1
100
AcDbCircle
 10
-261.6869342892
 20
-74.5388160406
 30
0.0
 40
0.5000010000000117
100
AcDbArc
 50
90.0
 51
180.0
  0
ARC
  5
4F5
330
1B
100
AcDbEntity
 67
     1
  8
図面枠
  6
Continuous
 62
     1
100
AcDbCircle
 10
-55.6301312892
 20
-51.2388180406
 30
0.0
 40
2.000001000000001
100
AcDbArc
 50
180.5
 51
203.578181
  0
ARC
  5
4F6
330
1B
100
AcDbEntity
 67
     1
  8
図面枠
  6
Continuous
 62
     1
100
AcDbCircle
 10
-43.1912792892
 20
-48.7388160406
 30
0.0
 40
0.5000010000000136
100
AcDbArc
 50
90.0
 51
179.5
  0
ARC
  5
4F7
330
1B
100
AcDbEntity
 67
     1
  8
図面枠
  6
Continuous
 62
     1
100
AcDbCircle
 10
-56.1912782892
 20
-48.7388160406
 30
0.0
 40
0.5000010000000117
100
AcDbArc
 50
90.0
 51
179.5
  0
ARC
  5
4F8
330
1B
100
AcDbEntity
 67
     1
  8
図面枠
  6
Continuous
 62
     1
100
AcDbCircle
 10
-123.5977292892
 20
-48.2388180406
 30
0.0
 40
5.000001000000018
100
AcDbArc
 50
180.5
 51
270.0
  0
ARC
  5
4F9
330
1B
100
AcDbEntity
 67
     1
  8
図面枠
  6
Continuous
 62
     1
100
AcDbCircle
 10
-153.7761392892
 20
-48.2388180406
 30
0.0
 40
5.000001000000018
100
AcDbArc
 50
270.0
 51
359.5
  0
ARC
  5
4FA
330
1B
100
AcDbEntity
 67
     1
  8
図面枠
  6
Continuous
 62
     1
100
AcDbCircle
 10
-133.6434902892
 20
-43.0388160406
 30
0.0
 40
5.000000999999992
100
AcDbArc
 50
0.5
 51
11.536959
  0
ARC
  5
4FB
330
1B
100
AcDbEntity
 67
     1
  8
図面枠
  6
Continuous
 62
     1
100
AcDbCircle
 10
-143.7303782892
 20
-43.0388160406
 30
0.0
 40
5.00000100000002
100
AcDbArc
 50
168.463041
 51
179.5
  0
ARC
  5
4FC
330
1B
100
AcDbEntity
 67
     1
  8
図面枠
  6
Continuous
 62
     3
100
AcDbCircle
 10
-32.3255762892
 20
-51.0388170406
 30
0.0
 40
0.999999000000002
100
AcDbArc
 50
181.145742
 51
269.998416
  0
ARC
  5
4FD
330
1B
100
AcDbEntity
 67
     1
  8
図面枠
  6
Continuous
 62
     3
100
AcDbCircle
 10
-72.2929502892
 20
96.9611819594
 30
0.0
 40
36.00000000000001
100
AcDbArc
 50
1.145814
 51
89.999982
  0
ARC
  5
4FE
330
1B
100
AcDbEntity
 67
     1
  8
図面枠
  6
Continuous
 62
     3
100
AcDbCircle
 10
-72.2929502892
 20
96.9611819594
 30
0.0
 40
30.00000000000003
100
AcDbArc
 50
1.145814
 51
89.999982
  0
ARC
  5
4FF
330
1B
100
AcDbEntity
 67
     1
  8
図面枠
  6
Continuous
 62
     3
100
AcDbCircle
 10
-187.0482932892
 20
-51.0388170406
 30
0.0
 40
0.9999990000000011
100
AcDbArc
 50
270.001695
 51
358.854259
  0
ARC
  5
500
330
1B
100
AcDbEntity
 67
     1
  8
図面枠
  6
Continuous
 62
     3
100
AcDbCircle
 10
-147.0809162892
 20
96.9611819594
 30
0.0
 40
36.0
100
AcDbArc
 50
89.999982
 51
178.854186
  0
ARC
  5
501
330
1B
100
AcDbEntity
 67
     1
  8
図面枠
  6
Continuous
 62
     3
100
AcDbCircle
 10
-147.0809162892
 20
96.9611819594
 30
0.0
 40
30.0
100
AcDbArc
 50
89.999982
 51
178.854186
  0
ARC
  5
502
330
1B
100
AcDbEntity
 67
     1
  8
図面枠
  6
Continuous
 62
     3
100
AcDbCircle
 10
129.6177297108
 20
-52.5388170406
 30
0.0
 40
0.5000010000000117
100
AcDbArc
 50
2.032228
 51
90.0
  0
ARC
  5
503
330
1B
100
AcDbEntity
 67
     1
  8
図面枠
  6
Continuous
 62
     3
100
AcDbCircle
 10
127.0675227108
 20
-51.0399690406
 30
0.0
 40
0.9999989999999935
100
AcDbArc
 50
182.0323
 51
271.942889
  0
ARC
  5
504
330
1B
100
AcDbEntity
 67
     1
  8
図面枠
  6
Continuous
 62
     3
100
AcDbCircle
 10
127.1353917108
 20
-53.0388180406
 30
0.0
 40
0.9999990000000184
100
AcDbArc
 50
2.032208
 51
91.942105
  0
ARC
  5
505
330
1B
100
AcDbEntity
 67
     1
  8
図面枠
  6
Continuous
 62
     3
100
AcDbCircle
 10
123.9983067108
 20
35.4597779594
 30
0.0
 40
0.9999990000000009
100
AcDbArc
 50
182.033393
 51
271.93431
  0
ARC
  5
506
330
1B
100
AcDbEntity
 67
     1
  8
図面枠
  6
Continuous
 62
     3
100
AcDbCircle
 10
124.0658127108
 20
33.4609379594
 30
0.0
 40
0.9999989999999886
100
AcDbArc
 50
2.031795065
 51
91.934292
  0
ARC
  5
507
330
1B
100
AcDbEntity
 67
     1
  8
図面枠
  6
Continuous
 62
     3
100
AcDbCircle
 10
-256.1278832892
 20
-14.0388180406
 30
0.0
 40
0.999998999999996
100
AcDbArc
 50
270.000984
 51
357.96781
  0
ARC
  5
508
330
1B
100
AcDbEntity
 67
     1
  8
図面枠
  6
Continuous
 62
     3
100
AcDbCircle
 10
-260.5112432892
 20
-25.0388160406
 30
0.0
 40
9.99999900000004
100
AcDbArc
 50
89.999818
 51
177.967737
  0
ARC
  5
509
330
1B
100
AcDbEntity
 67
     1
  8
図面枠
  6
Continuous
 62
     3
100
AcDbCircle
 10
-9.1866602892
 20
-52.5388170406
 30
0.0
 40
0.5000010000000028
100
AcDbArc
 50
0.0
 51
89.999982
  0
ARC
  5
50A
330
1B
100
AcDbEntity
 67
     1
  8
図面枠
  6
Continuous
 62
     3
100
AcDbCircle
 10
-31.1866592892
 20
-52.5388170406
 30
0.0
 40
0.5000010000000074
100
AcDbArc
 50
89.999982
 51
179.999964
  0
ARC
  5
50B
330
1B
100
AcDbEntity
 67
     1
  8
図面枠
  6
Continuous
 62
     3
100
AcDbCircle
 10
-24.1866602892
 20
-57.3831060406
 30
0.0
 40
0.5000009999999976
100
AcDbArc
 50
0.000007
 51
57.76903
  0
ARC
  5
50C
330
1B
100
AcDbEntity
 67
     1
  8
図面枠
  6
Continuous
 62
     3
100
AcDbCircle
 10
-16.1866592892
 20
-57.3831060406
 30
0.0
 40
0.5000010000000034
100
AcDbArc
 50
122.230934
 51
179.999964
  0
ARC
  5
50D
330
1B
100
AcDbEntity
 67
     1
  8
図面枠
  6
Continuous
 62
     3
100
AcDbCircle
 10
-20.1866582892
 20
-51.0388170406
 30
0.0
 40
6.999999000000003
100
AcDbArc
 50
302.2309460397
 51
348.463083
  0
ARC
  5
50E
330
1B
100
AcDbEntity
 67
     1
  8
図面枠
  6
Continuous
 62
     3
100
AcDbCircle
 10
-12.8381792892
 20
-52.5388170406
 30
0.0
 40
0.500010574235033
100
AcDbArc
 50
89.998725
 51
168.4626764653
  0
ARC
  5
50F
330
1B
100
AcDbEntity
 67
     1
  8
図面枠
  6
Continuous
 62
     3
100
AcDbCircle
 10
-27.5351072892
 20
-52.5388170406
 30
0.0
 40
0.500001
100
AcDbArc
 50
11.536541
 51
89.997742
  0
ARC
  5
510
330
1B
100
AcDbEntity
 67
     1
  8
図面枠
  6
Continuous
 62
     3
100
AcDbCircle
 10
-20.1866582892
 20
-51.0388170406
 30
0.0
 40
7.000000261034893
100
AcDbArc
 50
191.536973
 51
237.7690357602
  0
ARC
  5
511
330
1B
100
AcDbEntity
 67
     1
  8
図面枠
  6
Continuous
 62
     3
100
AcDbCircle
 10
95.9186157108
 20
234.6048899594
 30
0.0
 40
20.00000100000003
100
AcDbArc
 50
2.032167
 51
88.45696
  0
ARC
  5
512
330
1B
100
AcDbEntity
 67
     1
  8
図面枠
  6
Continuous
 62
     3
100
AcDbCircle
 10
-226.2918212892
 20
234.6049199594
 30
0.0
 40
20.00000099999997
100
AcDbArc
 50
91.542949
 51
177.967792
  0
ARC
  5
513
330
1B
100
AcDbEntity
 67
     1
  8
図面枠
  6
Continuous
 62
     3
100
AcDbCircle
 10
-65.1869342892
 20
-5746.2253350406
 30
0.0
 40
6002.999994
100
AcDbArc
 50
88.45696
 51
91.542949
  0
ARC
  5
514
330
1B
100
AcDbEntity
 67
     1
  8
図面枠
  6
Continuous
 62
     3
100
AcDbCircle
 10
-272.4408692892
 20
-51.0399690406
 30
0.0
 40
0.9999990000000172
100
AcDbArc
 50
268.057222
 51
357.967701
  0
ARC
  5
515
330
1B
100
AcDbEntity
 67
     1
  8
図面枠
  6
Continuous
 62
     3
100
AcDbCircle
 10
-272.5086482892
 20
-53.0388180406
 30
0.0
 40
0.9999990000000042
100
AcDbArc
 50
88.057859
 51
177.967792
  0
ARC
  5
516
330
1B
100
AcDbEntity
 67
     1
  8
図面枠
  6
Continuous
 62
     3
100
AcDbCircle
 10
-9.6866582892
 20
-51.0388170406
 30
0.0
 40
0.9999989999999974
100
AcDbArc
 50
179.999964
 51
270.0
  0
ARC
  5
517
330
1B
100
AcDbEntity
 67
     1
  8
図面枠
  6
Continuous
 62
     3
100
AcDbCircle
 10
-30.6866582892
 20
-51.0388170406
 30
0.0
 40
0.9999989999999943
100
AcDbArc
 50
270.0
 51
0.000037
  0
ARC
  5
518
330
1B
100
AcDbEntity
 67
     1
  8
図面枠
  6
Continuous
 62
     3
100
AcDbCircle
 10
-20.1866582892
 20
-51.0388170406
 30
0.0
 40
9.500001000000239
100
AcDbArc
 50
0.0000037895
 51
179.9999961053
  0
ARC
  5
519
330
1B
100
AcDbEntity
 67
     1
  8
図面枠
  6
Continuous
 62
     3
100
AcDbCircle
 10
-257.4407582892
 20
-51.0388170406
 30
0.0
 40
1.000001009376041
100
AcDbArc
 50
270.0
 51
357.9676956918
  0
ARC
  5
51A
330
1B
100
AcDbEntity
 67
     1
  8
図面枠
  6
Continuous
 62
     1
100
AcDbCircle
 10
131.3130657108
 20
-74.5388160406
 30
0.0
 40
0.5000010000000259
100
AcDbArc
 50
0.0
 51
90.0
  0
SPLINE
  5
51B
330
1B
100
AcDbEntity
 67
     1
  8
図面枠
  6
HIDDEN
 62
   179
100
AcDbSpline
210
0.0
220
0.0
230
1.0
 70
     8
 71
     3
 72
    11
 73
     7
 74
     0
 42
0.00000001
 43
0.00000001
 12
1.0
 22
0.0
 32
0.0
 13
1.0
 23
0.0
 33
0.0
 40
0.0
 40
0.0
 40
0.0
 40
0.0
 40
2.052650700066697
 40
3.737721720228145
 40
5.422792740389511
 40
7.475443440456258
 40
7.475443440456258
 40
7.475443440456258
 40
7.475443440456258
 10
-120.136933396026
 20
-48.23898865259812
 30
0.0
 10
-119.854222302461
 20
-48.8620674629033
 30
0.0
 10
-119.3195813061845
 20
-49.9031529382255
 30
0.0
 10
-117.686933398476
 20
-51.40572290030073
 30
0.0
 10
-116.0542854907676
 20
-49.90315293822545
 30
0.0
 10
-115.519644494491
 20
-48.86206746290332
 30
0.0
 10
-115.236933400926
 20
-48.23898865259812
 30
0.0
  0
SPLINE
  5
51C
330
1B
100
AcDbEntity
 67
     1
  8
図面枠
  6
HIDDEN
 62
   179
100
AcDbSpline
210
0.0
220
0.0
230
1.0
 70
     8
 71
     3
 72
    11
 73
     7
 74
     0
 42
0.00000001
 43
0.00000001
 12
1.0
 22
0.0
 32
0.0
 13
1.0
 23
0.0
 33
0.0
 40
0.0
 40
0.0
 40
0.0
 40
0.0
 40
2.052650700066704
 40
3.737721720228152
 40
5.422792740389601
 40
7.475443440456348
 40
7.475443440456348
 40
7.475443440456348
 40
7.475443440456348
 10
-162.136933354026
 20
-48.23898865259812
 30
0.0
 10
-161.854222260461
 20
-48.8620674629033
 30
0.0
 10
-161.3195812641845
 20
-49.90315293822552
 30
0.0
 10
-159.686933356476
 20
-51.4057229003007
 30
0.0
 10
-158.0542854487676
 20
-49.9031529382255
 30
0.0
 10
-157.5196444524909
 20
-48.86206746290332
 30
0.0
 10
-157.2369333589259
 20
-48.23898865259812
 30
0.0
  0
SPLINE
  5
51D
330
1B
100
AcDbEntity
 67
     1
  8
図面枠
  6
Continuous
 62
     3
100
AcDbSpline
210
0.0
220
0.0
230
1.0
 70
     8
 71
     3
 72
    11
 73
     7
 74
     0
 42
0.00000001
 43
0.00000001
 12
1.0
 22
0.0
 32
0.0
 13
1.0
 23
0.0
 33
0.0
 40
0.0
 40
0.0
 40
0.0
 40
0.0
 40
0.6107910112943821
 40
1.220047154424592
 40
1.829303297555132
 40
2.440094308849675
 40
2.440094308849675
 40
2.440094308849675
 40
2.440094308849675
 10
131.7075491055265
 20
-55.65750709780631
 30
0.0
 10
131.8146826026477
 20
-55.48437664486229
 30
0.0
 10
131.9913055729632
 20
-55.11356755428685
 30
0.0
 10
132.1015215180541
 20
-54.5028065605818
 30
0.0
 10
131.9913055729632
 20
-53.89204556687662
 30
0.0
 10
131.8146826026477
 20
-53.52123647630102
 30
0.0
 10
131.7075491055265
 20
-53.34810602335696
 30
0.0
  0
SPLINE
  5
51E
330
1B
100
AcDbEntity
 67
     1
  8
図面枠
  6
Continuous
 62
     3
100
AcDbSpline
210
0.0
220
0.0
230
1.0
 70
     8
 71
     3
 72
    11
 73
     7
 74
     0
 42
0.00000001
 43
0.00000001
 12
1.0
 22
0.0
 32
0.0
 13
1.0
 23
0.0
 33
0.0
 40
0.0
 40
0.0
 40
0.0
 40
0.0
 40
0.6107910112945366
 40
1.220047154425076
 40
1.829303297555448
 40
2.440094308849991
 40
2.440094308849991
 40
2.440094308849991
 40
2.440094308849991
 10
131.7075491055265
 20
-48.72930387445913
 30
0.0
 10
131.8146826026477
 20
-48.55617342151507
 30
0.0
 10
131.9913055729632
 20
-48.18536433093947
 30
0.0
 10
132.1015215180541
 20
-47.57460333723425
 30
0.0
 10
131.9913055729632
 20
-46.96384234352908
 30
0.0
 10
131.8146826026477
 20
-46.59303325295351
 30
0.0
 10
131.7075491055265
 20
-46.41990280000945
 30
0.0
  0
SPLINE
  5
51F
330
1B
100
AcDbEntity
 67
     1
  8
図面枠
  6
Continuous
 62
     3
100
AcDbSpline
210
0.0
220
0.0
230
1.0
 70
     8
 71
     3
 72
    11
 73
     7
 74
     0
 42
0.00000001
 43
0.00000001
 12
1.0
 22
0.0
 32
0.0
 13
1.0
 23
0.0
 33
0.0
 40
0.0
 40
0.0
 40
0.0
 40
0.0
 40
1.170655708542271
 40
2.343420119625354
 40
3.516184530708097
 40
4.686840239250208
 40
4.686840239250208
 40
4.686840239250208
 40
4.686840239250208
 10
131.7075491055265
 20
-53.34810602335696
 30
0.0
 10
131.8228886335925
 20
-52.97532280852676
 30
0.0
 10
132.0014096424795
 20
-52.21165156642165
 30
0.0
 10
132.0965442481192
 20
-51.03870494890791
 30
0.0
 10
132.0014096424795
 20
-49.8657583313942
 30
0.0
 10
131.8228886335925
 20
-49.10208708928928
 30
0.0
 10
131.7075491055265
 20
-48.72930387445913
 30
0.0
  0
SPLINE
  5
520
330
1B
100
AcDbEntity
 67
     1
  8
図面枠
  6
Continuous
 62
   179
100
AcDbSpline
210
0.0
220
0.0
230
1.0
 70
     8
 71
     3
 72
    11
 73
     7
 74
     0
 42
0.00000001
 43
0.00000001
 12
1.0
 22
0.0
 32
0.0
 13
1.0
 23
0.0
 33
0.0
 40
0.0
 40
0.0
 40
0.0
 40
0.0
 40
1.034587344715722
 40
1.979071784221896
 40
2.271628749572128
 40
2.56515696828329
 40
2.56515696828329
 40
2.56515696828329
 40
2.56515696828329
 10
-61.28502737580592
 20
106.4130168600594
 30
0.0
 10
-61.60446940778228
 20
106.2830672682481
 30
0.0
 10
-62.19897268934959
 20
105.9886510730842
 30
0.0
 10
-62.77901390300915
 20
105.4745077616968
 30
0.0
 10
-63.05053874430655
 20
105.0407294803706
 30
0.0
 10
-63.13262290450513
 20
104.8628654340862
 30
0.0
 10
-63.1685866011322
 20
104.7718719496406
 30
0.0
  0
LINE
  5
521
330
1B
100
AcDbEntity
 67
     1
  8
図面枠
  6
HIDDEN
 62
   179
100
AcDbLine
 10
92.3672908554
 20
436.0427721558
 30
0.0
 11
82.826328038
 21
436.0427721558
 31
0.0
  0
LINE
  5
522
330
1B
100
AcDbEntity
 67
     1
  8
図面枠
  6
HIDDEN
 62
   179
100
AcDbLine
 10
92.3672908554
 20
435.3741593338
 30
0.0
 11
82.8433498554
 21
435.3741593338
 31
0.0
  0
LINE
  5
523
330
1B
100
AcDbEntity
 67
     1
  8
図面枠
  6
HIDDEN
 62
   179
100
AcDbLine
 10
92.3672908554
 20
349.7055503338
 30
0.0
 11
82.8263278554
 21
349.7055503338
 31
0.0
  0
LINE
  5
524
330
1B
100
AcDbEntity
 67
     1
  8
図面枠
  6
HIDDEN
 62
   179
100
AcDbLine
 10
92.3672908554
 20
350.3741603338
 30
0.0
 11
82.8433498554
 21
350.3741603338
 31
0.0
  0
LINE
  5
525
330
1B
100
AcDbEntity
 67
     1
  8
図面枠
  6
CENTER
 62
   179
100
AcDbLine
 10
62.8672918554
 20
587.7464663338
 30
0.0
 11
62.8672918554
 21
557.4860933338
 31
0.0
  0
LINE
  5
526
330
1B
100
AcDbEntity
 67
     1
  8
図面枠
  6
CENTER
 62
   179
100
AcDbLine
 10
-2.1327091446
 20
586.2651893338
 30
0.0
 11
-2.1327091446
 21
557.4860933338
 31
0.0
  0
LINE
  5
527
330
1B
100
AcDbEntity
 67
     1
  8
図面枠
  6
HIDDEN
 62
   179
100
AcDbLine
 10
57.2381278554
 20
582.8741603338
 30
0.0
 11
68.4964558554
 21
582.8741603338
 31
0.0
  0
LINE
  5
528
330
1B
100
AcDbEntity
 67
     1
  8
図面枠
  6
HIDDEN
 62
   179
100
AcDbLine
 10
66.6200643046
 20
582.1781402628
 30
0.0
 11
66.6200698554
 21
576.3741653372
 31
0.0
  0
LINE
  5
529
330
1B
100
AcDbEntity
 67
     1
  8
図面枠
  6
HIDDEN
 62
   179
100
AcDbLine
 10
59.1145071302
 20
582.1781355469
 30
0.0
 11
59.1145138554
 21
576.3741653372
 31
0.0
  0
LINE
  5
52A
330
1B
100
AcDbEntity
 67
     1
  8
図面枠
  6
HIDDEN
 62
   179
100
AcDbLine
 10
55.361743582
 20
582.1781356896
 30
0.0
 11
55.3617388554
 21
576.3741593338
 31
0.0
  0
LINE
  5
52B
330
1B
100
AcDbEntity
 67
     1
  8
図面枠
  6
HIDDEN
 62
   179
100
AcDbLine
 10
70.3728415373
 20
582.1781432572
 30
0.0
 11
70.3728448554
 21
576.3741681131
 31
0.0
  0
LINE
  5
52C
330
1B
100
AcDbEntity
 67
     1
  8
図面枠
  6
HIDDEN
 62
   179
100
AcDbLine
 10
5.3728438554
 20
576.3741593338
 30
0.0
 11
-9.6382621446
 21
576.3741593338
 31
0.0
  0
LINE
  5
52D
330
1B
100
AcDbEntity
 67
     1
  8
図面枠
  6
HIDDEN
 62
   179
100
AcDbLine
 10
3.4964578554
 20
582.8741603338
 30
0.0
 11
-7.7618731446
 21
582.8741603338
 31
0.0
  0
LINE
  5
52E
330
1B
100
AcDbEntity
 67
     1
  8
図面枠
  6
HIDDEN
 62
   179
100
AcDbLine
 10
-5.8854847217
 20
582.17813212
 30
0.0
 11
-5.8854841446
 21
576.3741593338
 31
0.0
  0
LINE
  5
52F
330
1B
100
AcDbEntity
 67
     1
  8
図面枠
  6
HIDDEN
 62
   179
100
AcDbLine
 10
1.6200721735
 20
582.1781305014
 30
0.0
 11
1.6200688554
 21
576.3741553572
 31
0.0
  0
LINE
  5
530
330
1B
100
AcDbEntity
 67
     1
  8
図面枠
  6
HIDDEN
 62
   179
100
AcDbLine
 10
5.3728421287
 20
582.1781317131
 30
0.0
 11
5.3728438554
 21
576.3741593338
 31
0.0
  0
LINE
  5
531
330
1B
100
AcDbEntity
 67
     1
  8
図面枠
  6
HIDDEN
 62
   179
100
AcDbLine
 10
-9.6382588265
 20
582.1781344779
 30
0.0
 11
-9.6382621446
 21
576.3741593338
 31
0.0
  0
LINE
  5
532
330
1B
100
AcDbEntity
 67
     1
  8
図面枠
  6
HIDDEN
 62
   179
100
AcDbLine
 10
-12.1327081446
 20
576.3741743338
 30
0.0
 11
-12.1327081446
 21
574.8741743338
 31
0.0
  0
LINE
  5
533
330
1B
100
AcDbEntity
 67
     1
  8
図面枠
  6
HIDDEN
 62
   179
100
AcDbLine
 10
72.8672908554
 20
574.8741743338
 30
0.0
 11
72.8672908554
 21
576.3741743338
 31
0.0
  0
LINE
  5
534
330
1B
100
AcDbEntity
 67
     1
  8
図面枠
  6
HIDDEN
 62
   179
100
AcDbLine
 10
-12.1327081446
 20
576.3741743338
 30
0.0
 11
72.8672908554
 21
576.3741743338
 31
0.0
  0
LINE
  5
535
330
1B
100
AcDbEntity
 67
     1
  8
図面枠
  6
HIDDEN
 62
   179
100
AcDbLine
 10
-11.7756651255
 20
564.3335283794
 30
0.0
 11
72.5102498745
 21
564.3335283794
 31
0.0
  0
LINE
  5
536
330
1B
100
AcDbEntity
 67
     1
  8
図面枠
  6
HIDDEN
 62
   179
100
AcDbLine
 10
-12.8013181446
 20
574.8741593338
 30
0.0
 11
-12.8013181446
 21
565.3331993338
 31
0.0
  0
LINE
  5
537
330
1B
100
AcDbEntity
 67
     1
  8
図面枠
  6
HIDDEN
 62
   179
100
AcDbLine
 10
-12.8027071446
 20
574.8741593338
 30
0.0
 11
73.5372928554
 21
574.8741593338
 31
0.0
  0
LINE
  5
538
330
1B
100
AcDbEntity
 67
     1
  8
図面枠
  6
HIDDEN
 62
   179
100
AcDbLine
 10
73.5359058937
 20
574.8741593338
 30
0.0
 11
73.5359028937
 21
565.3331990193
 31
0.0
  0
LINE
  5
539
330
1B
100
AcDbEntity
 67
     1
  8
図面枠
  6
CENTER
 62
   179
100
AcDbLine
 10
30.3672928554
 20
336.9199403338
 30
0.0
 11
30.3672928554
 21
652.4567123338
 31
0.0
  0
LINE
  5
53A
330
1B
100
AcDbEntity
 67
     1
  8
図面枠
  6
CENTER
 62
   179
100
AcDbLine
 10
85.8811228554
 20
360.3741503338
 30
0.0
 11
109.3713058554
 21
360.3741503338
 31
0.0
  0
LINE
  5
53B
330
1B
100
AcDbEntity
 67
     1
  8
図面枠
  6
CENTER
 62
   179
100
AcDbLine
 10
87.1363228554
 20
425.3741693338
 30
0.0
 11
106.6815928554
 21
425.3741693338
 31
0.0
  0
LINE
  5
53C
330
1B
100
AcDbEntity
 67
     1
  8
図面枠
  6
CENTER
 62
   179
100
AcDbLine
 10
91.4976508554
 20
324.3741593338
 30
0.0
 11
117.3550948554
 21
324.3741593338
 31
0.0
  0
LINE
  5
53D
330
1B
100
AcDbEntity
 67
     1
  8
図面枠
  6
CENTER
 62
   179
100
AcDbLine
 10
103.3672918554
 20
289.2308663338
 30
0.0
 11
103.3672918554
 21
336.9199403338
 31
0.0
  0
LINE
  5
53E
330
1B
100
AcDbEntity
 67
     1
  8
図面枠
  6
CENTER
 62
   179
100
AcDbLine
 10
-245.8460851446
 20
324.3741593338
 30
0.0
 11
91.4976508554
 21
324.3741593338
 31
0.0
  0
LINE
  5
53F
330
1B
100
AcDbEntity
 67
     1
  8
図面枠
  6
CENTER
 62
   179
100
AcDbLine
 10
-233.6327071446
 20
312.9183383338
 30
0.0
 11
-233.6327071446
 21
334.9184933338
 31
0.0
  0
LINE
  5
540
330
1B
100
AcDbEntity
 67
     1
  8
図面枠
  6
CENTER
 62
   179
100
AcDbLine
 10
88.4290198554
 20
601.3741613338
 30
0.0
 11
117.8806258554
 21
601.3741613338
 31
0.0
  0
LINE
  5
541
330
1B
100
AcDbEntity
 67
     1
  8
図面枠
  6
CENTER
 62
   179
100
AcDbLine
 10
103.3672918554
 20
336.9199403338
 30
0.0
 11
103.3672918554
 21
613.9261733338
 31
0.0
  0
LINE
  5
542
330
1B
100
AcDbEntity
 67
     1
  8
図面枠
  6
CENTER
 62
   179
100
AcDbLine
 10
-233.6327071446
 20
334.9184933338
 30
0.0
 11
-233.6327071446
 21
616.6241153338
 31
0.0
  0
LINE
  5
543
330
1B
100
AcDbEntity
 67
     1
  8
図面枠
  6
CENTER
 62
   179
100
AcDbLine
 10
-248.8435171446
 20
601.3741613338
 30
0.0
 11
88.4290198554
 21
601.3741613338
 31
0.0
  0
LINE
  5
544
330
1B
100
AcDbEntity
 67
     1
  8
図面枠
  6
CENTER
 62
   179
100
AcDbLine
 10
-76.6325911446
 20
303.7668053338
 30
0.0
 11
-76.6325911446
 21
283.6910093338
 31
0.0
  0
LINE
  5
545
330
1B
100
AcDbEntity
 67
     1
  8
図面枠
  6
CENTER
 62
   179
100
AcDbLine
 10
-138.6325891446
 20
304.9823303338
 30
0.0
 11
-138.6325891446
 21
286.3023023338
 31
0.0
  0
LINE
  5
546
330
1B
100
AcDbEntity
 67
     1
  8
図面枠
  6
HIDDEN
 62
   179
100
AcDbLine
 10
102.8672908554
 20
354.7449863338
 30
0.0
 11
102.8672908554
 21
366.0033173338
 31
0.0
  0
LINE
  5
547
330
1B
100
AcDbEntity
 67
     1
  8
図面枠
  6
HIDDEN
 62
   179
100
AcDbLine
 10
102.1712669675
 20
367.8797030157
 30
0.0
 11
96.3672948234
 21
367.8797063338
 31
0.0
  0
LINE
  5
548
330
1B
100
AcDbEntity
 67
     1
  8
図面枠
  6
HIDDEN
 62
   179
100
AcDbLine
 10
102.1712662112
 20
352.8686020604
 30
0.0
 11
96.3672928554
 21
352.8685973338
 31
0.0
  0
LINE
  5
549
330
1B
100
AcDbEntity
 67
     1
  8
図面枠
  6
HIDDEN
 62
   179
100
AcDbLine
 10
102.1712649995
 20
356.6213720157
 30
0.0
 11
96.3672928554
 21
356.6213753338
 31
0.0
  0
LINE
  5
54A
330
1B
100
AcDbEntity
 67
     1
  8
図面枠
  6
HIDDEN
 62
   179
100
AcDbLine
 10
102.1712646096
 20
364.1269289108
 30
0.0
 11
96.3672948234
 21
364.1269283338
 31
0.0
  0
LINE
  5
54B
330
1B
100
AcDbEntity
 67
     1
  8
図面枠
  6
CENTER
 62
   179
100
AcDbLine
 10
77.8761538554
 20
392.8741613338
 30
0.0
 11
121.1547058554
 21
392.8741613338
 31
0.0
  0
LINE
  5
54C
330
1B
100
AcDbEntity
 67
     1
  8
図面枠
  6
HIDDEN
 62
   179
100
AcDbLine
 10
102.1712638554
 20
417.8686163338
 30
0.0
 11
96.3672928554
 21
417.8686163338
 31
0.0
  0
LINE
  5
54D
330
1B
100
AcDbEntity
 67
     1
  8
図面枠
  6
HIDDEN
 62
   179
100
AcDbLine
 10
102.1712625795
 20
432.8797223338
 30
0.0
 11
96.3672928554
 21
432.8797223338
 31
0.0
  0
LINE
  5
54E
330
1B
100
AcDbEntity
 67
     1
  8
図面枠
  6
HIDDEN
 62
   179
100
AcDbLine
 10
102.1712653385
 20
429.1269473338
 30
0.0
 11
96.3672943385
 21
429.1269473338
 31
0.0
  0
LINE
  5
54F
330
1B
100
AcDbEntity
 67
     1
  8
図面枠
  6
HIDDEN
 62
   179
100
AcDbLine
 10
102.1712653385
 20
421.6213913338
 30
0.0
 11
96.3672943385
 21
421.6213913338
 31
0.0
  0
LINE
  5
550
330
1B
100
AcDbEntity
 67
     1
  8
図面枠
  6
HIDDEN
 62
   179
100
AcDbLine
 10
102.8672908554
 20
431.0033333338
 30
0.0
 11
102.8672908554
 21
419.7450053338
 31
0.0
  0
LINE
  5
551
330
1B
100
AcDbEntity
 67
     1
  8
図面枠
  6
HIDDEN
 62
   179
100
AcDbLine
 10
96.3672928554
 20
432.8797223338
 30
0.0
 11
96.3672928554
 21
417.8686163338
 31
0.0
  0
LINE
  5
552
330
1B
100
AcDbEntity
 67
     1
  8
図面枠
  6
HIDDEN
 62
   179
100
AcDbLine
 10
96.3672928554
 20
432.8797223338
 30
0.0
 11
96.3672928554
 21
417.8686163338
 31
0.0
  0
LINE
  5
553
330
1B
100
AcDbEntity
 67
     1
  8
図面枠
  6
Continuous
 62
     1
100
AcDbLine
 10
42.3368908554
 20
297.3741623338
 30
0.0
 11
103.3979098554
 21
297.3741623338
 31
0.0
  0
LINE
  5
554
330
1B
100
AcDbEntity
 67
     1
  8
図面枠
  6
Continuous
 62
     1
100
AcDbLine
 10
9.3349108554
 20
296.8741613338
 30
0.0
 11
103.3981918554
 21
296.8741613338
 31
0.0
  0
LINE
  5
555
330
1B
100
AcDbEntity
 67
     1
  8
図面枠
  6
Continuous
 62
     1
100
AcDbLine
 10
-8.6327056446
 20
295.8741608338
 30
0.0
 11
103.3672933554
 21
295.8741608338
 31
0.0
  0
LINE
  5
556
330
1B
100
AcDbEntity
 67
     1
  8
図面枠
  6
Continuous
 62
     1
100
AcDbLine
 10
130.8672913554
 20
573.3741593338
 30
0.0
 11
130.8672913554
 21
601.3741613338
 31
0.0
  0
LINE
  5
557
330
1B
100
AcDbEntity
 67
     1
  8
図面枠
  6
Continuous
 62
     1
100
AcDbLine
 10
130.3672918554
 20
573.3741593338
 30
0.0
 11
130.3672918554
 21
601.3741613338
 31
0.0
  0
LINE
  5
558
330
1B
100
AcDbEntity
 67
     1
  8
図面枠
  6
Continuous
 62
     1
100
AcDbLine
 10
131.8672918554
 20
566.4929633338
 30
0.0
 11
131.8672918554
 21
601.3741613338
 31
0.0
  0
LINE
  5
559
330
1B
100
AcDbEntity
 67
     1
  8
図面枠
  6
Continuous
 62
     1
100
AcDbLine
 10
-261.1327066446
 20
573.3741593338
 30
0.0
 11
-261.1327066446
 21
601.3741613338
 31
0.0
  0
LINE
  5
55A
330
1B
100
AcDbEntity
 67
     1
  8
図面枠
  6
Continuous
 62
     1
100
AcDbLine
 10
-260.6327071446
 20
573.3741593338
 30
0.0
 11
-260.6327071446
 21
601.3670063338
 31
0.0
  0
LINE
  5
55B
330
1B
100
AcDbEntity
 67
     1
  8
図面枠
  6
Continuous
 62
     1
100
AcDbLine
 10
-262.1327071446
 20
566.4929633338
 30
0.0
 11
-262.1327071446
 21
601.3741613338
 31
0.0
  0
LINE
  5
55C
330
1B
100
AcDbEntity
 67
     1
  8
図面枠
  6
Continuous
 62
     1
100
AcDbLine
 10
-260.6327071446
 20
547.8741593338
 30
0.0
 11
-260.6327071446
 21
550.3728383338
 31
0.0
  0
LINE
  5
55D
330
1B
100
AcDbEntity
 67
     1
  8
図面枠
  6
Continuous
 62
     1
100
AcDbLine
 10
9.3349108554
 20
628.8741608338
 30
0.0
 11
103.3672918554
 21
628.8741608338
 31
0.0
  0
LINE
  5
55E
330
1B
100
AcDbEntity
 67
     1
  8
図面枠
  6
Continuous
 62
     1
100
AcDbLine
 10
42.3368908554
 20
628.3741613338
 30
0.0
 11
103.3672918554
 21
628.3741613338
 31
0.0
  0
LINE
  5
55F
330
1B
100
AcDbEntity
 67
     1
  8
図面枠
  6
Continuous
 62
     1
100
AcDbLine
 10
-94.1327071446
 20
629.8741613338
 30
0.0
 11
103.3672918554
 21
629.8741613338
 31
0.0
  0
LINE
  5
560
330
1B
100
AcDbEntity
 67
     1
  8
図面枠
  6
CENTER
 62
   179
100
AcDbLine
 10
-65.1327091446
 20
639.6166133338
 30
0.0
 11
-65.1327091446
 21
275.7916133338
 31
0.0
  0
LINE
  5
561
330
1B
100
AcDbEntity
 67
     1
  8
図面枠
  6
Continuous
 62
     1
100
AcDbLine
 10
-233.6327044653
 20
295.8741608338
 30
0.0
 11
-161.1325876446
 21
295.8741638338
 31
0.0
  0
LINE
  5
562
330
1B
100
AcDbEntity
 67
     1
  8
図面枠
  6
Continuous
 62
     1
100
AcDbLine
 10
130.3672918554
 20
324.3062933338
 30
0.0
 11
130.3672918554
 21
550.3741613338
 31
0.0
  0
LINE
  5
563
330
1B
100
AcDbEntity
 67
     1
  8
図面枠
  6
Continuous
 62
     1
100
AcDbLine
 10
131.8672918554
 20
324.3741593338
 30
0.0
 11
131.8672918554
 21
423.8741603338
 31
0.0
  0
LINE
  5
564
330
1B
100
AcDbEntity
 67
     1
  8
図面枠
  6
Continuous
 62
     1
100
AcDbLine
 10
-233.6327071446
 20
628.8741608338
 30
0.0
 11
-184.1327071446
 21
628.8741608338
 31
0.0
  0
LINE
  5
565
330
1B
100
AcDbEntity
 67
     1
  8
図面枠
  6
Continuous
 62
     1
100
AcDbLine
 10
-233.6327071446
 20
628.3741613338
 30
0.0
 11
-184.1327071446
 21
628.3741613338
 31
0.0
  0
LINE
  5
566
330
1B
100
AcDbEntity
 67
     1
  8
図面枠
  6
Continuous
 62
     1
100
AcDbLine
 10
130.8672928554
 20
324.3056693338
 30
0.0
 11
130.8672928554
 21
424.1983253338
 31
0.0
  0
LINE
  5
567
330
1B
100
AcDbEntity
 67
     1
  8
図面枠
  6
Continuous
 62
     1
100
AcDbLine
 10
-233.6327071446
 20
629.8741613338
 30
0.0
 11
-184.1327071446
 21
629.8741613338
 31
0.0
  0
LINE
  5
568
330
1B
100
AcDbEntity
 67
     1
  8
図面枠
  6
Continuous
 62
     1
100
AcDbLine
 10
-233.6327056446
 20
296.8741598338
 30
0.0
 11
-161.1325876446
 21
296.8741598338
 31
0.0
  0
LINE
  5
569
330
1B
100
AcDbEntity
 67
     1
  8
図面枠
  6
Continuous
 62
     1
100
AcDbLine
 10
-233.6327056446
 20
297.3741608338
 30
0.0
 11
-172.6023046446
 21
297.3741608338
 31
0.0
  0
LINE
  5
56A
330
1B
100
AcDbEntity
 67
     1
  8
図面枠
  6
Continuous
 62
     1
100
AcDbLine
 10
-260.6327041446
 20
324.3741593338
 30
0.0
 11
-260.6327041446
 21
437.8741613338
 31
0.0
  0
LINE
  5
56B
330
1B
100
AcDbEntity
 67
     1
  8
図面枠
  6
Continuous
 62
     1
100
AcDbLine
 10
-262.1327041446
 20
324.3741584744
 30
0.0
 11
-262.1327071446
 21
423.8670053338
 31
0.0
  0
LINE
  5
56C
330
1B
100
AcDbEntity
 67
     1
  8
図面枠
  6
Continuous
 62
     1
100
AcDbLine
 10
-261.1327051446
 20
324.3741593338
 30
0.0
 11
-261.1327051446
 21
424.1911703338
 31
0.0
  0
LINE
  5
56D
330
1B
100
AcDbEntity
 67
     1
  8
図面枠
  6
Continuous
 62
     1
100
AcDbLine
 10
130.4672939951
 20
429.2414783338
 30
0.0
 11
130.4672939951
 21
498.5068433338
 31
0.0
  0
LINE
  5
56E
330
1B
100
AcDbEntity
 67
     1
  8
図面枠
  6
Continuous
 62
     1
100
AcDbLine
 10
131.8672915448
 20
503.8741622484
 30
0.0
 11
130.727287351
 21
503.5046125301
 31
0.0
  0
LINE
  5
56F
330
1B
100
AcDbEntity
 67
     1
  8
図面枠
  6
Continuous
 62
     1
100
AcDbLine
 10
131.8672918554
 20
423.8741603338
 30
0.0
 11
130.7272873635
 21
424.2437091333
 31
0.0
  0
LINE
  5
570
330
1B
100
AcDbEntity
 67
     1
  8
図面枠
  6
Continuous
 62
     1
100
AcDbLine
 10
-260.7327122844
 20
429.2343233338
 30
0.0
 11
-260.7327122844
 21
437.8741613338
 31
0.0
  0
LINE
  5
571
330
1B
100
AcDbEntity
 67
     1
  8
図面枠
  6
Continuous
 62
     1
100
AcDbLine
 10
-262.1327071446
 20
423.8670053338
 30
0.0
 11
-260.9927056409
 21
424.2365541372
 31
0.0
  0
LINE
  5
572
330
1B
100
AcDbEntity
 67
     1
  8
図面枠
  6
CENTER
 62
   179
100
AcDbLine
 10
-281.2795321446
 20
462.8741603338
 30
0.0
 11
132.3703138554
 21
462.8741603338
 31
0.0
  0
LINE
  5
573
330
1B
100
AcDbEntity
 67
     1
  8
図面枠
  6
HIDDEN
 62
   179
100
AcDbLine
 10
92.3672908554
 20
436.0427721558
 30
0.0
 11
92.3672908554
 21
349.7055503338
 31
0.0
  0
LINE
  5
574
330
1B
100
AcDbEntity
 67
     1
  8
図面枠
  6
HIDDEN
 62
   179
100
AcDbLine
 10
92.3672908554
 20
350.3741603338
 30
0.0
 11
95.3672908554
 21
350.3741603338
 31
0.0
  0
LINE
  5
575
330
1B
100
AcDbEntity
 67
     1
  8
図面枠
  6
HIDDEN
 62
   179
100
AcDbLine
 10
112.3672918554
 20
374.8741613338
 30
0.0
 11
98.3672908554
 21
374.8741613338
 31
0.0
  0
LINE
  5
576
330
1B
100
AcDbEntity
 67
     1
  8
図面枠
  6
HIDDEN
 62
   179
100
AcDbLine
 10
113.3672908554
 20
409.8741593338
 30
0.0
 11
113.3672908554
 21
375.8741603338
 31
0.0
  0
LINE
  5
577
330
1B
100
AcDbEntity
 67
     1
  8
図面枠
  6
HIDDEN
 62
   179
100
AcDbLine
 10
112.3672920697
 20
410.8741583338
 30
0.0
 11
98.3672904268
 21
410.8741613338
 31
0.0
  0
LINE
  5
578
330
1B
100
AcDbEntity
 67
     1
  8
図面枠
  6
HIDDEN
 62
   179
100
AcDbLine
 10
95.3672908554
 20
435.3741593338
 30
0.0
 11
92.3672908554
 21
435.3741593338
 31
0.0
  0
LINE
  5
579
330
1B
100
AcDbEntity
 67
     1
  8
図面枠
  6
HIDDEN
 62
   179
100
AcDbLine
 10
96.3672898554
 20
434.3741603338
 30
0.0
 11
96.3672898554
 21
351.3741593338
 31
0.0
  0
LINE
  5
57A
330
1B
100
AcDbEntity
 67
     1
  8
図面枠
  6
HIDDEN
 62
   179
100
AcDbLine
 10
92.3672908554
 20
435.3741593338
 30
0.0
 11
92.3672908554
 21
350.3741603338
 31
0.0
  0
LINE
  5
57B
330
1B
100
AcDbEntity
 67
     1
  8
図面枠
  6
Continuous
 62
     1
100
AcDbLine
 10
-55.1325901446
 20
292.3741253338
 30
0.0
 11
-98.1325891446
 21
292.3741253338
 31
0.0
  0
LINE
  5
57C
330
1B
100
AcDbEntity
 67
     1
  8
図面枠
  6
Continuous
 62
     1
100
AcDbLine
 10
-54.1325911446
 20
293.3741243338
 30
0.0
 11
-54.1325911446
 21
296.4224843338
 31
0.0
  0
LINE
  5
57D
330
1B
100
AcDbEntity
 67
     1
  8
図面枠
  6
Continuous
 62
     1
100
AcDbLine
 10
-99.1325881446
 20
293.3741233767
 30
0.0
 11
-99.1325911446
 21
296.5086623338
 31
0.0
  0
LINE
  5
57E
330
1B
100
AcDbEntity
 67
     1
  8
図面枠
  6
Continuous
 62
     1
100
AcDbLine
 10
-116.1325906446
 20
293.3741258338
 30
0.0
 11
-116.1325906446
 21
296.6289818338
 31
0.0
  0
LINE
  5
57F
330
1B
100
AcDbEntity
 67
     1
  8
図面枠
  6
Continuous
 62
     1
100
AcDbLine
 10
-117.1325911446
 20
292.3741253338
 30
0.0
 11
-160.1325901446
 21
292.3741253338
 31
0.0
  0
LINE
  5
580
330
1B
100
AcDbEntity
 67
     1
  8
図面枠
  6
Continuous
 62
     1
100
AcDbLine
 10
-161.1325891446
 20
293.3741243338
 30
0.0
 11
-161.1325891446
 21
297.1798163338
 31
0.0
  0
LINE
  5
581
330
1B
100
AcDbEntity
 67
     1
  8
図面枠
  6
Continuous
 62
     1
100
AcDbLine
 10
-54.1325911446
 20
295.8741623338
 30
0.0
 11
-31.6327081446
 21
295.8741623338
 31
0.0
  0
LINE
  5
582
330
1B
100
AcDbEntity
 67
     1
  8
図面枠
  6
Continuous
 62
     1
100
AcDbLine
 10
-116.1325891446
 20
295.8741623338
 30
0.0
 11
-99.1325911446
 21
295.8741623338
 31
0.0
  0
LINE
  5
583
330
1B
100
AcDbEntity
 67
     1
  8
図面枠
  6
Continuous
 62
     1
100
AcDbLine
 10
130.8672928554
 20
503.5045403338
 30
0.0
 11
130.8672928554
 21
550.3741613338
 31
0.0
  0
LINE
  5
584
330
1B
100
AcDbEntity
 67
     1
  8
図面枠
  6
Continuous
 62
     1
100
AcDbLine
 10
131.8672915448
 20
503.8741622484
 30
0.0
 11
131.8672915448
 21
557.2553582484
 31
0.0
  0
LINE
  5
585
330
1B
100
AcDbEntity
 67
     1
  8
図面枠
  6
Continuous
 62
     3
100
AcDbLine
 10
128.5164615021
 20
357.3741593265
 30
0.0
 11
128.5517802087
 21
357.374162341
 31
0.0
  0
LINE
  5
586
330
1B
100
AcDbEntity
 67
     1
  8
図面枠
  6
Continuous
 62
     3
100
AcDbLine
 10
129.3734836723
 20
429.374162406
 30
0.0
 11
129.3617860385
 21
429.3741592615
 31
0.0
  0
LINE
  5
587
330
1B
100
AcDbEntity
 67
     1
  8
図面枠
  6
Continuous
 62
     3
100
AcDbLine
 10
-182.1327091446
 20
626.1956243338
 30
0.0
 11
-182.1327061446
 21
631.383029117
 31
0.0
  0
LINE
  5
588
330
1B
100
AcDbEntity
 67
     1
  8
図面枠
  6
Continuous
 62
     3
100
AcDbLine
 10
-96.1327081446
 20
627.2558693338
 30
0.0
 11
-96.1327081446
 21
632.1960143338
 31
0.0
  0
LINE
  5
589
330
1B
100
AcDbEntity
 67
     1
  8
図面枠
  6
Continuous
 62
     3
100
AcDbLine
 10
-94.1327071446
 20
629.2658873338
 30
0.0
 11
-94.1327071446
 21
632.1960143338
 31
0.0
  0
LINE
  5
58A
330
1B
100
AcDbEntity
 67
     1
  8
図面枠
  6
Continuous
 62
     3
100
AcDbLine
 10
-184.1327071446
 20
628.1566943338
 30
0.0
 11
-184.1327071446
 21
631.3830233338
 31
0.0
  0
LINE
  5
58B
330
1B
100
AcDbEntity
 67
     1
  8
図面枠
  6
Continuous
 62
     3
100
AcDbLine
 10
-261.5819236226
 20
550.3741583338
 30
0.0
 11
-260.5963906666
 21
550.3741613337
 31
0.0
  0
LINE
  5
58C
330
1B
100
AcDbEntity
 67
     1
  8
図面枠
  6
Continuous
 62
     3
100
AcDbLine
 10
-261.5285551446
 20
554.9441603338
 30
0.0
 11
-260.5131061446
 21
554.9441603338
 31
0.0
  0
LINE
  5
58D
330
1B
100
AcDbEntity
 67
     1
  8
図面枠
  6
Continuous
 62
     3
100
AcDbLine
 10
-259.552060462
 20
552.3741609918
 30
0.0
 11
-258.566857462
 21
552.3741609918
 31
0.0
  0
LINE
  5
58E
330
1B
100
AcDbEntity
 67
     1
  8
図面枠
  6
Continuous
 62
     3
100
AcDbLine
 10
-261.2192671446
 20
573.3741593338
 30
0.0
 11
-260.2006981446
 21
573.3741593338
 31
0.0
  0
LINE
  5
58F
330
1B
100
AcDbEntity
 67
     1
  8
図面枠
  6
Continuous
 62
     3
100
AcDbLine
 10
-261.2835961446
 20
568.8041603338
 30
0.0
 11
-260.3010811446
 21
568.8041603338
 31
0.0
  0
LINE
  5
590
330
1B
100
AcDbEntity
 67
     1
  8
図面枠
  6
Continuous
 62
     3
100
AcDbLine
 10
-259.2552451446
 20
571.3741613338
 30
0.0
 11
-258.2370061446
 21
571.3741613338
 31
0.0
  0
LINE
  5
591
330
1B
100
AcDbEntity
 67
     1
  8
図面枠
  6
Continuous
 62
     3
100
AcDbLine
 10
128.9898253822
 20
571.3741613337
 30
0.0
 11
127.9715923285
 21
571.3741583338
 31
0.0
  0
LINE
  5
592
330
1B
100
AcDbEntity
 67
     1
  8
図面枠
  6
Continuous
 62
     3
100
AcDbLine
 10
129.2866453328
 20
552.3741593338
 30
0.0
 11
128.3014453779
 21
552.3741623337
 31
0.0
  0
LINE
  5
593
330
1B
100
AcDbEntity
 67
     1
  8
図面枠
  6
Continuous
 62
     3
100
AcDbLine
 10
-29.6327101446
 20
297.0203318427
 30
0.0
 11
-29.6327071446
 21
298.0144328249
 31
0.0
  0
LINE
  5
594
330
1B
100
AcDbEntity
 67
     1
  8
図面枠
  6
Continuous
 62
     3
100
AcDbLine
 10
-10.6327081446
 20
297.1552313338
 30
0.0
 11
-10.6327081446
 21
298.1643503338
 31
0.0
  0
LINE
  5
595
330
1B
100
AcDbEntity
 67
     1
  8
図面枠
  6
Continuous
 62
     3
100
AcDbLine
 10
130.9538503827
 20
573.3741623337
 30
0.0
 11
129.935281328
 21
573.3741593338
 31
0.0
  0
LINE
  5
596
330
1B
100
AcDbEntity
 67
     1
  8
図面枠
  6
Continuous
 62
     3
100
AcDbLine
 10
131.0181808554
 20
568.8041603338
 30
0.0
 11
130.0356628554
 21
568.8041603338
 31
0.0
  0
LINE
  5
597
330
1B
100
AcDbEntity
 67
     1
  8
図面枠
  6
Continuous
 62
     3
100
AcDbLine
 10
131.2631368554
 20
554.9441603338
 30
0.0
 11
130.2476878554
 21
554.9441603338
 31
0.0
  0
LINE
  5
598
330
1B
100
AcDbEntity
 67
     1
  8
図面枠
  6
Continuous
 62
     3
100
AcDbLine
 10
131.3165053334
 20
550.3741583338
 30
0.0
 11
130.3309723774
 21
550.3741613337
 31
0.0
  0
LINE
  5
599
330
1B
100
AcDbEntity
 67
     1
  8
図面枠
  6
Continuous
 62
     3
100
AcDbLine
 10
-13.2027091446
 20
295.1412428468
 30
0.0
 11
-13.2027061446
 21
296.1326288207
 31
0.0
  0
LINE
  5
59A
330
1B
100
AcDbEntity
 67
     1
  8
図面枠
  6
Continuous
 62
     3
100
AcDbLine
 10
-27.0627061446
 20
295.0299098243
 30
0.0
 11
-27.0627091446
 21
296.0362658432
 31
0.0
  0
LINE
  5
59B
330
1B
100
AcDbEntity
 67
     1
  8
図面枠
  6
Continuous
 62
     3
100
AcDbLine
 10
-31.6327081446
 20
295.0086383338
 30
0.0
 11
-31.6327081446
 21
296.0030753338
 31
0.0
  0
LINE
  5
59C
330
1B
100
AcDbEntity
 67
     1
  8
図面枠
  6
Continuous
 62
     3
100
AcDbLine
 10
-8.6327071446
 20
295.1734658197
 30
0.0
 11
-8.6327101446
 21
296.1829148478
 31
0.0
  0
LINE
  5
59D
330
1B
100
AcDbEntity
 67
     1
  8
図面枠
  6
Continuous
 62
     3
100
AcDbLine
 10
-33.1327081446
 20
297.4924403338
 30
0.0
 11
-33.1327081446
 21
297.5030993338
 31
0.0
  0
LINE
  5
59E
330
1B
100
AcDbEntity
 67
     1
  8
図面枠
  6
Continuous
 62
     3
100
AcDbLine
 10
-186.1327081446
 20
298.6117283338
 30
0.0
 11
-186.1327081446
 21
298.6520453338
 31
0.0
  0
LINE
  5
59F
330
1B
100
AcDbEntity
 67
     1
  8
図面枠
  6
Continuous
 62
     3
100
AcDbLine
 10
-39.1327081446
 20
296.4686963338
 30
0.0
 11
-39.1327081446
 21
298.4687153338
 31
0.0
  0
LINE
  5
5A0
330
1B
100
AcDbEntity
 67
     1
  8
図面枠
  6
Continuous
 62
     3
100
AcDbLine
 10
-263.7125311446
 20
439.8741608338
 30
0.0
 11
-258.6825331446
 21
439.8741608338
 31
0.0
  0
LINE
  5
5A1
330
1B
100
AcDbEntity
 67
     1
  8
図面枠
  6
Continuous
 62
     3
100
AcDbLine
 10
-263.2830871446
 20
545.8741613338
 30
0.0
 11
-258.1527691446
 21
545.8741613338
 31
0.0
  0
LINE
  5
5A2
330
1B
100
AcDbEntity
 67
     1
  8
図面枠
  6
Continuous
 62
     3
100
AcDbLine
 10
-263.7125311446
 20
437.8741613338
 30
0.0
 11
-260.6745541446
 21
437.8741613338
 31
0.0
  0
LINE
  5
5A3
330
1B
100
AcDbEntity
 67
     1
  8
図面枠
  6
Continuous
 62
     3
100
AcDbLine
 10
-263.2830871446
 20
547.8741608338
 30
0.0
 11
-260.1249811446
 21
547.8741608338
 31
0.0
  0
LINE
  5
5A4
330
1B
100
AcDbEntity
 67
     1
  8
図面枠
  6
Continuous
 62
     3
100
AcDbLine
 10
-263.9104681446
 20
565.3382633338
 30
0.0
 11
-263.9104681446
 21
558.4100603338
 31
0.0
  0
LINE
  5
5A5
330
1B
100
AcDbEntity
 67
     1
  8
図面枠
  6
Continuous
 62
     3
100
AcDbLine
 10
-260.9104681446
 20
566.4929616316
 30
0.0
 11
-260.9104681446
 21
557.2553573338
 31
0.0
  0
LINE
  5
5A6
330
1B
100
AcDbEntity
 67
     1
  8
図面枠
  6
Continuous
 62
     3
100
AcDbLine
 10
-263.5532041446
 20
566.4929616316
 30
0.0
 11
-260.9104681446
 21
566.4929616316
 31
0.0
  0
LINE
  5
5A7
330
1B
100
AcDbEntity
 67
     1
  8
図面枠
  6
Continuous
 62
     3
100
AcDbLine
 10
-263.5532041446
 20
564.1835605571
 30
0.0
 11
-260.9104681446
 21
564.1835605571
 31
0.0
  0
LINE
  5
5A8
330
1B
100
AcDbEntity
 67
     1
  8
図面枠
  6
Continuous
 62
     3
100
AcDbLine
 10
-263.5532041446
 20
559.5647584082
 30
0.0
 11
-260.9104681446
 21
559.5647584082
 31
0.0
  0
LINE
  5
5A9
330
1B
100
AcDbEntity
 67
     1
  8
図面枠
  6
Continuous
 62
     3
100
AcDbLine
 10
-263.5532041446
 20
557.2553573338
 30
0.0
 11
-260.9104681446
 21
557.2553573338
 31
0.0
  0
LINE
  5
5AA
330
1B
100
AcDbEntity
 67
     1
  8
図面枠
  6
Continuous
 62
     3
100
AcDbLine
 10
-260.9104681446
 20
567.7741613338
 30
0.0
 11
-260.9104681446
 21
555.9741593338
 31
0.0
  0
LINE
  5
5AB
330
1B
100
AcDbEntity
 67
     1
  8
図面枠
  6
Continuous
 62
     3
100
AcDbLine
 10
-259.9104691446
 20
567.7741613338
 30
0.0
 11
-259.9104691446
 21
555.9741593338
 31
0.0
  0
LINE
  5
5AC
330
1B
100
AcDbEntity
 67
     1
  8
図面枠
  6
Continuous
 62
     3
100
AcDbLine
 10
-259.9104691446
 20
555.9741593338
 30
0.0
 11
-260.9104681446
 21
555.9741593338
 31
0.0
  0
LINE
  5
5AD
330
1B
100
AcDbEntity
 67
     1
  8
図面枠
  6
Continuous
 62
     3
100
AcDbLine
 10
-259.9104691446
 20
567.7741613338
 30
0.0
 11
-260.9104681446
 21
567.7741613338
 31
0.0
  0
LINE
  5
5AE
330
1B
100
AcDbEntity
 67
     1
  8
図面枠
  6
CENTER
 62
   179
100
AcDbLine
 10
126.4130398554
 20
561.8741603338
 30
0.0
 11
135.6040738554
 21
561.8741603338
 31
0.0
  0
LINE
  5
5AF
330
1B
100
AcDbEntity
 67
     1
  8
図面枠
  6
Continuous
 62
     3
100
AcDbLine
 10
133.6450528554
 20
558.4100603338
 30
0.0
 11
133.6450528554
 21
565.3382633338
 31
0.0
  0
LINE
  5
5B0
330
1B
100
AcDbEntity
 67
     1
  8
図面枠
  6
Continuous
 62
     3
100
AcDbLine
 10
130.6450528554
 20
557.2553573338
 30
0.0
 11
130.6450528554
 21
566.4929616316
 31
0.0
  0
LINE
  5
5B1
330
1B
100
AcDbEntity
 67
     1
  8
図面枠
  6
Continuous
 62
     3
100
AcDbLine
 10
133.2877858554
 20
557.2553573338
 30
0.0
 11
130.6450528554
 21
557.2553573338
 31
0.0
  0
LINE
  5
5B2
330
1B
100
AcDbEntity
 67
     1
  8
図面枠
  6
Continuous
 62
     3
100
AcDbLine
 10
133.2877858554
 20
559.5647584082
 30
0.0
 11
130.6450528554
 21
559.5647584082
 31
0.0
  0
LINE
  5
5B3
330
1B
100
AcDbEntity
 67
     1
  8
図面枠
  6
Continuous
 62
     3
100
AcDbLine
 10
133.2877858554
 20
564.1835605571
 30
0.0
 11
130.6450528554
 21
564.1835605571
 31
0.0
  0
LINE
  5
5B4
330
1B
100
AcDbEntity
 67
     1
  8
図面枠
  6
Continuous
 62
     3
100
AcDbLine
 10
133.2877858554
 20
566.4929616316
 30
0.0
 11
130.6450528554
 21
566.4929616316
 31
0.0
  0
LINE
  5
5B5
330
1B
100
AcDbEntity
 67
     1
  8
図面枠
  6
Continuous
 62
     3
100
AcDbLine
 10
130.6450528554
 20
555.9741593338
 30
0.0
 11
130.6450528554
 21
567.7741613338
 31
0.0
  0
LINE
  5
5B6
330
1B
100
AcDbEntity
 67
     1
  8
図面枠
  6
Continuous
 62
     3
100
AcDbLine
 10
129.6450508554
 20
555.9741593338
 30
0.0
 11
129.6450508554
 21
567.7741613338
 31
0.0
  0
LINE
  5
5B7
330
1B
100
AcDbEntity
 67
     1
  8
図面枠
  6
Continuous
 62
     3
100
AcDbLine
 10
129.6450508554
 20
567.7741613338
 30
0.0
 11
130.6450528554
 21
567.7741613338
 31
0.0
  0
LINE
  5
5B8
330
1B
100
AcDbEntity
 67
     1
  8
図面枠
  6
Continuous
 62
     3
100
AcDbLine
 10
129.6450508554
 20
555.9741593338
 30
0.0
 11
130.6450528554
 21
555.9741593338
 31
0.0
  0
LINE
  5
5B9
330
1B
100
AcDbEntity
 67
     1
  8
図面枠
  6
Continuous
 62
     3
100
AcDbLine
 10
-23.5968091446
 20
292.5810203338
 30
0.0
 11
-16.6686061446
 21
292.5810203338
 31
0.0
  0
LINE
  5
5BA
330
1B
100
AcDbEntity
 67
     1
  8
図面枠
  6
Continuous
 62
     3
100
AcDbLine
 10
-24.7515091446
 20
295.5810203338
 30
0.0
 11
-15.5139048468
 21
295.5810203338
 31
0.0
  0
LINE
  5
5BB
330
1B
100
AcDbEntity
 67
     1
  8
図面枠
  6
Continuous
 62
     3
100
AcDbLine
 10
-24.7515091446
 20
292.9382873338
 30
0.0
 11
-24.7515091446
 21
295.5810203338
 31
0.0
  0
LINE
  5
5BC
330
1B
100
AcDbEntity
 67
     1
  8
図面枠
  6
Continuous
 62
     3
100
AcDbLine
 10
-22.4421080702
 20
292.9382873338
 30
0.0
 11
-22.4421080702
 21
295.5810203338
 31
0.0
  0
LINE
  5
5BD
330
1B
100
AcDbEntity
 67
     1
  8
図面枠
  6
Continuous
 62
     3
100
AcDbLine
 10
-17.8233059213
 20
292.9382873338
 30
0.0
 11
-17.8233059213
 21
295.5810203338
 31
0.0
  0
LINE
  5
5BE
330
1B
100
AcDbEntity
 67
     1
  8
図面枠
  6
Continuous
 62
     3
100
AcDbLine
 10
-15.5139048468
 20
292.9382873338
 30
0.0
 11
-15.5139048468
 21
295.5810203338
 31
0.0
  0
LINE
  5
5BF
330
1B
100
AcDbEntity
 67
     1
  8
図面枠
  6
Continuous
 62
     3
100
AcDbLine
 10
-26.0327071446
 20
295.5810203338
 30
0.0
 11
-14.2327081446
 21
295.5810203338
 31
0.0
  0
LINE
  5
5C0
330
1B
100
AcDbEntity
 67
     1
  8
図面枠
  6
Continuous
 62
     3
100
AcDbLine
 10
-26.0327071446
 20
296.5810223338
 30
0.0
 11
-14.2327081446
 21
296.5810223338
 31
0.0
  0
LINE
  5
5C1
330
1B
100
AcDbEntity
 67
     1
  8
図面枠
  6
Continuous
 62
     3
100
AcDbLine
 10
-14.2327081446
 20
296.5810223338
 30
0.0
 11
-14.2327081446
 21
295.5810203338
 31
0.0
  0
LINE
  5
5C2
330
1B
100
AcDbEntity
 67
     1
  8
図面枠
  6
Continuous
 62
     3
100
AcDbLine
 10
-26.0327071446
 20
296.5810223338
 30
0.0
 11
-26.0327071446
 21
295.5810203338
 31
0.0
  0
LINE
  5
5C3
330
1B
100
AcDbEntity
 67
     1
  8
図面枠
  6
Continuous
 62
     1
100
AcDbLine
 10
-262.1327071446
 20
547.8741593338
 30
0.0
 11
-262.1327071446
 21
557.2553573338
 31
0.0
  0
LINE
  5
5C4
330
1B
100
AcDbEntity
 67
     1
  8
図面枠
  6
Continuous
 62
     1
100
AcDbLine
 10
-261.1327081446
 20
547.8741593338
 30
0.0
 11
-261.1327081446
 21
550.3741613338
 31
0.0
  0
ARC
  5
5C5
330
1B
100
AcDbEntity
 67
     1
  8
図面枠
  6
HIDDEN
 62
   179
100
AcDbCircle
 10
82.8433498554
 20
434.3741603338
 30
0.0
 40
0.9999990000000072
100
AcDbArc
 50
90.0
 51
181.446652
  0
ARC
  5
5C6
330
1B
100
AcDbEntity
 67
     1
  8
図面枠
  6
HIDDEN
 62
   179
100
AcDbCircle
 10
82.826328038
 20
435.0427731558
 30
0.0
 40
0.9999989999999457
100
AcDbArc
 50
90.0
 51
181.4699642335
  0
ARC
  5
5C7
330
1B
100
AcDbEntity
 67
     1
  8
図面枠
  6
HIDDEN
 62
   179
100
AcDbCircle
 10
-1560.4472401446
 20
392.8741611511
 30
0.0
 40
1642.814531817301
100
AcDbArc
 50
358.5300357665
 51
1.4699642335
  0
ARC
  5
5C8
330
1B
100
AcDbEntity
 67
     1
  8
図面枠
  6
HIDDEN
 62
   179
100
AcDbCircle
 10
82.8263278554
 20
350.7055491511
 30
0.0
 40
0.9999988173121324
100
AcDbArc
 50
178.5300357665
 51
270.0
  0
ARC
  5
5C9
330
1B
100
AcDbEntity
 67
     1
  8
図面枠
  6
HIDDEN
 62
   179
100
AcDbCircle
 10
82.8433498554
 20
351.3741593338
 30
0.0
 40
0.9999990000000342
100
AcDbArc
 50
178.553348
 51
270.0
  0
ARC
  5
5CA
330
1B
100
AcDbEntity
 67
     1
  8
図面枠
  6
HIDDEN
 62
   179
100
AcDbCircle
 10
62.8672918554
 20
572.4092183372
 30
0.0
 40
10.46494799999996
100
AcDbArc
 50
68.985511
 51
111.014561
  0
ARC
  5
5CB
330
1B
100
AcDbEntity
 67
     1
  8
図面枠
  6
HIDDEN
 62
   179
100
AcDbCircle
 10
68.4964546614
 20
579.9969217252
 30
0.0
 40
2.877247830835206
100
AcDbArc
 50
49.296371
 51
130.7037204371
  0
ARC
  5
5CC
330
1B
100
AcDbEntity
 67
     1
  8
図面枠
  6
HIDDEN
 62
   179
100
AcDbCircle
 10
57.2381252732
 20
579.9969173355
 30
0.0
 40
2.877242040425149
100
AcDbArc
 50
49.2964036412
 51
130.703592
  0
ARC
  5
5CD
330
1B
100
AcDbEntity
 67
     1
  8
図面枠
  6
HIDDEN
 62
   179
100
AcDbCircle
 10
3.4964578554
 20
579.9969103572
 30
0.0
 40
2.877246000000018
100
AcDbArc
 50
49.296408
 51
130.703629
  0
ARC
  5
5CE
330
1B
100
AcDbEntity
 67
     1
  8
図面枠
  6
HIDDEN
 62
   179
100
AcDbCircle
 10
-7.7618731446
 20
579.9969143338
 30
0.0
 40
2.877246000000011
100
AcDbArc
 50
49.296299
 51
130.703629
  0
ARC
  5
5CF
330
1B
100
AcDbEntity
 67
     1
  8
図面枠
  6
HIDDEN
 62
   179
100
AcDbCircle
 10
-2.1327083808
 20
572.4092103455
 30
0.0
 40
10.4649492545662
100
AcDbArc
 50
68.9854661013
 51
111.0145091866
  0
ARC
  5
5D0
330
1B
100
AcDbEntity
 67
     1
  8
図面枠
  6
HIDDEN
 62
   179
100
AcDbCircle
 10
-11.8013180986
 20
565.3331993338
 30
0.0
 40
1.000000045997929
100
AcDbArc
 50
180.0
 51
271.4699682818
  0
ARC
  5
5D1
330
1B
100
AcDbEntity
 67
     1
  8
図面枠
  6
HIDDEN
 62
   179
100
AcDbCircle
 10
72.5359028477
 20
565.3331993338
 30
0.0
 40
1.000000045998032
100
AcDbArc
 50
268.5300317182
 51
359.9999819843
  0
CIRCLE
  5
5D2
330
1B
100
AcDbEntity
 67
     1
  8
図面枠
  6
HIDDEN
 62
   179
100
AcDbCircle
 10
103.3672933554
 20
324.3741593338
 30
0.0
 40
6.00000000000001
  0
CIRCLE
  5
5D3
330
1B
100
AcDbEntity
 67
     1
  8
図面枠
  6
HIDDEN
 62
   179
100
AcDbCircle
 10
-233.6327056446
 20
324.3741593338
 30
0.0
 40
5.999999999999969
  0
CIRCLE
  5
5D4
330
1B
100
AcDbEntity
 67
     1
  8
図面枠
  6
HIDDEN
 62
   179
100
AcDbCircle
 10
103.3672918554
 20
601.3741613338
 30
0.0
 40
6.0
  0
CIRCLE
  5
5D5
330
1B
100
AcDbEntity
 67
     1
  8
図面枠
  6
HIDDEN
 62
   179
100
AcDbCircle
 10
-233.6327071446
 20
601.3741613338
 30
0.0
 40
6.0
  0
ARC
  5
5D6
330
1B
100
AcDbEntity
 67
     1
  8
図面枠
  6
HIDDEN
 62
   179
100
AcDbCircle
 10
99.9900448554
 20
354.7449863338
 30
0.0
 40
2.87724600000008
100
AcDbArc
 50
319.296408
 51
40.703629
  0
ARC
  5
5D7
330
1B
100
AcDbEntity
 67
     1
  8
図面枠
  6
HIDDEN
 62
   179
100
AcDbCircle
 10
99.9900468234
 20
366.0033173338
 30
0.0
 40
2.877246000000058
100
AcDbArc
 50
319.296299
 51
40.703629
  0
ARC
  5
5D8
330
1B
100
AcDbEntity
 67
     1
  8
図面枠
  6
HIDDEN
 62
   179
100
AcDbCircle
 10
92.4023438394
 20
360.3741499557
 30
0.0
 40
10.46494925456582
100
AcDbArc
 50
338.9854814339
 51
21.0145245193
  0
ARC
  5
5D9
330
1B
100
AcDbEntity
 67
     1
  8
図面枠
  6
HIDDEN
 62
   179
100
AcDbCircle
 10
92.4023443385
 20
425.3741693338
 30
0.0
 40
10.46494912656174
100
AcDbArc
 50
338.9854808133
 51
21.0145191867
  0
ARC
  5
5DA
330
1B
100
AcDbEntity
 67
     1
  8
図面枠
  6
HIDDEN
 62
   179
100
AcDbCircle
 10
99.990045597
 20
419.7450046958
 30
0.0
 40
2.877246318290934
100
AcDbArc
 50
319.296306051
 51
40.7036486604
  0
ARC
  5
5DB
330
1B
100
AcDbEntity
 67
     1
  8
図面枠
  6
HIDDEN
 62
   179
100
AcDbCircle
 10
99.990046459
 20
431.0033332301
 30
0.0
 40
2.877245181152806
100
AcDbArc
 50
319.2963513396
 51
40.7037329085
  0
ARC
  5
5DC
330
1B
100
AcDbEntity
 67
     1
  8
図面枠
  6
Continuous
 62
     3
100
AcDbCircle
 10
-65.1327091446
 20
6301.4124023338
 30
0.0
 40
6006.999993000001
100
AcDbArc
 50
270.473278
 51
270.53419
  0
ARC
  5
5DD
330
1B
100
AcDbEntity
 67
     1
  8
図面枠
  6
Continuous
 62
     1
100
AcDbCircle
 10
103.3672933554
 20
324.3741593338
 30
0.0
 40
28.49999850000006
100
AcDbArc
 50
270.0
 51
0.0
  0
ARC
  5
5DE
330
1B
100
AcDbEntity
 67
     1
  8
図面枠
  6
Continuous
 62
     1
100
AcDbCircle
 10
-233.6327056446
 20
324.3741593338
 30
0.0
 40
28.49999850000016
100
AcDbArc
 50
180.0000017276
 51
270.0000023709
  0
ARC
  5
5DF
330
1B
100
AcDbEntity
 67
     1
  8
図面枠
  6
Continuous
 62
     1
100
AcDbCircle
 10
103.3672918554
 20
601.3741613338
 30
0.0
 40
27.0
100
AcDbArc
 50
0.0
 51
90.0
  0
ARC
  5
5E0
330
1B
100
AcDbEntity
 67
     1
  8
図面枠
  6
Continuous
 62
     1
100
AcDbCircle
 10
103.3672918554
 20
601.3741613338
 30
0.0
 40
27.49999949999992
100
AcDbArc
 50
0.0
 51
90.0
  0
ARC
  5
5E1
330
1B
100
AcDbEntity
 67
     1
  8
図面枠
  6
Continuous
 62
     1
100
AcDbCircle
 10
103.3672918554
 20
601.3741613338
 30
0.0
 40
28.5
100
AcDbArc
 50
0.0
 51
90.0
  0
ARC
  5
5E2
330
1B
100
AcDbEntity
 67
     1
  8
図面枠
  6
Continuous
 62
     1
100
AcDbCircle
 10
103.3673758554
 20
324.3741443338
 30
0.0
 40
27.00000000000001
100
AcDbArc
 50
270.0
 51
0.0
  0
ARC
  5
5E3
330
1B
100
AcDbEntity
 67
     1
  8
図面枠
  6
Continuous
 62
     1
100
AcDbCircle
 10
103.3673758554
 20
324.3741443338
 30
0.0
 40
27.50000100000004
100
AcDbArc
 50
270.0
 51
0.0
  0
ARC
  5
5E4
330
1B
100
AcDbEntity
 67
     1
  8
図面枠
  6
Continuous
 62
     1
100
AcDbCircle
 10
-233.6327071446
 20
601.3741613338
 30
0.0
 40
27.0
100
AcDbArc
 50
90.0
 51
180.0
  0
ARC
  5
5E5
330
1B
100
AcDbEntity
 67
     1
  8
図面枠
  6
Continuous
 62
     1
100
AcDbCircle
 10
-233.6327071446
 20
601.3741613338
 30
0.0
 40
27.49999949999994
100
AcDbArc
 50
90.0
 51
180.0
  0
ARC
  5
5E6
330
1B
100
AcDbEntity
 67
     1
  8
図面枠
  6
Continuous
 62
     1
100
AcDbCircle
 10
-233.6327071446
 20
601.3741613338
 30
0.0
 40
28.49999999999994
100
AcDbArc
 50
90.0
 51
180.0
  0
ARC
  5
5E7
330
1B
100
AcDbEntity
 67
     1
  8
図面枠
  6
Continuous
 62
     1
100
AcDbCircle
 10
-233.6327056446
 20
324.3741593338
 30
0.0
 40
26.99999850000009
100
AcDbArc
 50
180.0
 51
270.0
  0
ARC
  5
5E8
330
1B
100
AcDbEntity
 67
     1
  8
図面枠
  6
Continuous
 62
     1
100
AcDbCircle
 10
-233.6327056446
 20
324.3741593338
 30
0.0
 40
27.49999950000009
100
AcDbArc
 50
180.0
 51
270.0
  0
ARC
  5
5E9
330
1B
100
AcDbEntity
 67
     1
  8
図面枠
  6
HIDDEN
 62
   179
100
AcDbCircle
 10
95.3672908554
 20
351.3741593338
 30
0.0
 40
0.9999990000000025
100
AcDbArc
 50
270.0
 51
0.0
  0
ARC
  5
5EA
330
1B
100
AcDbEntity
 67
     1
  8
図面枠
  6
HIDDEN
 62
   179
100
AcDbCircle
 10
98.3672908554
 20
372.8741603338
 30
0.0
 40
2.000001000000026
100
AcDbArc
 50
90.0
 51
180.0
  0
ARC
  5
5EB
330
1B
100
AcDbEntity
 67
     1
  8
図面枠
  6
HIDDEN
 62
   179
100
AcDbCircle
 10
112.3672918554
 20
375.8741603338
 30
0.0
 40
0.9999990000000594
100
AcDbArc
 50
270.0
 51
0.0
  0
ARC
  5
5EC
330
1B
100
AcDbEntity
 67
     1
  8
図面枠
  6
HIDDEN
 62
   179
100
AcDbCircle
 10
112.3672918554
 20
409.8741593338
 30
0.0
 40
0.9999990000000025
100
AcDbArc
 50
0.0
 51
89.9999877223
  0
ARC
  5
5ED
330
1B
100
AcDbEntity
 67
     1
  8
図面枠
  6
HIDDEN
 62
   179
100
AcDbCircle
 10
95.3672908554
 20
434.3741603338
 30
0.0
 40
0.9999989999999457
100
AcDbArc
 50
0.0
 51
90.0
  0
ARC
  5
5EE
330
1B
100
AcDbEntity
 67
     1
  8
図面枠
  6
HIDDEN
 62
   179
100
AcDbCircle
 10
98.3672908554
 20
412.8741608338
 30
0.0
 40
1.999999500000015
100
AcDbArc
 50
180.0
 51
269.9999877223
  0
ARC
  5
5EF
330
1B
100
AcDbEntity
 67
     1
  8
図面枠
  6
Continuous
 62
     1
100
AcDbCircle
 10
-98.1325891446
 20
293.3741243338
 30
0.0
 40
0.9999990000000025
100
AcDbArc
 50
180.0000548366
 51
270.0
  0
ARC
  5
5F0
330
1B
100
AcDbEntity
 67
     1
  8
図面枠
  6
Continuous
 62
     1
100
AcDbCircle
 10
-55.1325901446
 20
293.3741243338
 30
0.0
 40
0.999999000000031
100
AcDbArc
 50
270.0
 51
0.0
  0
ARC
  5
5F1
330
1B
100
AcDbEntity
 67
     1
  8
図面枠
  6
Continuous
 62
     1
100
AcDbCircle
 10
-117.1325911446
 20
293.3741258338
 30
0.0
 40
1.000000499999999
100
AcDbArc
 50
270.0
 51
0.0
  0
ARC
  5
5F2
330
1B
100
AcDbEntity
 67
     1
  8
図面枠
  6
Continuous
 62
     1
100
AcDbCircle
 10
-160.1325901446
 20
293.3741243338
 30
0.0
 40
0.999999000000031
100
AcDbArc
 50
180.0
 51
270.0
  0
ARC
  5
5F3
330
1B
100
AcDbEntity
 67
     1
  8
図面枠
  6
Continuous
 62
     3
100
AcDbCircle
 10
-5874.5388151446
 20
462.8741603338
 30
0.0
 40
6004.999992737849
100
AcDbArc
 50
359.623114
 51
0.8300570021
  0
ARC
  5
5F4
330
1B
100
AcDbEntity
 67
     1
  8
図面枠
  6
Continuous
 62
     3
100
AcDbCircle
 10
-5874.5388151446
 20
462.8741603338
 30
0.0
 40
6002.999994000001
100
AcDbArc
 50
358.983624
 51
1.040324
  0
ARC
  5
5F5
330
1B
100
AcDbEntity
 67
     1
  8
図面枠
  6
Continuous
 62
     3
100
AcDbCircle
 10
129.3732148554
 20
430.3741613338
 30
0.0
 40
0.9999989999999742
100
AcDbArc
 50
179.689853
 51
270.015402091
  0
ARC
  5
5F6
330
1B
100
AcDbEntity
 67
     1
  8
図面枠
  6
Continuous
 62
     3
100
AcDbCircle
 10
128.5165468554
 20
356.3741603338
 30
0.0
 40
0.9999990000000237
100
AcDbArc
 50
90.0048903874
 51
178.983624
  0
ARC
  5
5F7
330
1B
100
AcDbEntity
 67
     1
  8
図面枠
  6
Continuous
 62
     3
100
AcDbCircle
 10
128.5516948554
 20
358.3741613338
 30
0.0
 40
0.999998999999978
100
AcDbArc
 50
270.0048903874
 51
359.002713
  0
ARC
  5
5F8
330
1B
100
AcDbEntity
 67
     1
  8
図面枠
  6
Continuous
 62
     3
100
AcDbCircle
 10
129.3620548554
 20
428.3741603338
 30
0.0
 40
0.9999989999999269
100
AcDbArc
 50
359.670767
 51
90.015402091
  0
ARC
  5
5F9
330
1B
100
AcDbEntity
 67
     1
  8
図面枠
  6
Continuous
 62
     3
100
AcDbCircle
 10
-65.1327091431
 20
-5375.6640819773
 30
0.0
 40
6004.999995
100
AcDbArc
 50
91.135494
 51
91.619219
  0
ARC
  5
5FA
330
1B
100
AcDbEntity
 67
     1
  8
図面枠
  6
Continuous
 62
     3
100
AcDbCircle
 10
-65.1327091431
 20
-5375.6640819773
 30
0.0
 40
6002.999994000002
100
AcDbArc
 50
90.295882
 51
91.619219
  0
ARC
  5
5FB
330
1B
100
AcDbEntity
 67
     1
  8
図面枠
  6
Continuous
 62
     3
100
AcDbCircle
 10
-172.1327071446
 20
631.3830233338
 30
0.0
 40
12.0
100
AcDbArc
 50
91.020468
 51
180.0
  0
ARC
  5
5FC
330
1B
100
AcDbEntity
 67
     1
  8
図面枠
  6
Continuous
 62
     3
100
AcDbCircle
 10
-106.1327071446
 20
632.1960143338
 30
0.0
 40
12.00000000000004
100
AcDbArc
 50
0.0
 51
90.391003
  0
ARC
  5
5FD
330
1B
100
AcDbEntity
 67
     1
  8
図面枠
  6
Continuous
 62
     3
100
AcDbCircle
 10
-172.1327071446
 20
631.3830233338
 30
0.0
 40
9.999999000000015
100
AcDbArc
 50
91.020468
 51
179.9999668644
  0
ARC
  5
5FE
330
1B
100
AcDbEntity
 67
     1
  8
図面枠
  6
Continuous
 62
     3
100
AcDbCircle
 10
-106.1327071446
 20
632.1960143338
 30
0.0
 40
9.999999000000054
100
AcDbArc
 50
0.0
 51
90.391003
  0
ARC
  5
5FF
330
1B
100
AcDbEntity
 67
     1
  8
図面枠
  6
Continuous
 62
     3
100
AcDbCircle
 10
-65.1327091431
 20
-5375.6640819773
 30
0.0
 40
6017.999994000002
100
AcDbArc
 50
90.391003
 51
91.020468
  0
ARC
  5
600
330
1B
100
AcDbEntity
 67
     1
  8
図面枠
  6
Continuous
 62
     3
100
AcDbCircle
 10
-65.1327091431
 20
-5375.6640819773
 30
0.0
 40
6019.999995000001
100
AcDbArc
 50
90.391003
 51
91.020468
  0
LINE
  5
601
330
1B
100
AcDbEntity
 67
     1
  8
図面枠
  6
Continuous
 62
     3
100
AcDbLine
 10
-260.0964414092
 20
549.8669177661
 30
0.0
 11
-260.1249828651
 21
547.8741139483
 31
0.0
  0
ARC
  5
602
330
1B
100
AcDbEntity
 67
     1
  8
図面枠
  6
Continuous
 62
     3
100
AcDbCircle
 10
5744.2734006509
 20
462.8741611178
 30
0.0
 40
6004.999995
100
AcDbArc
 50
178.940939
 51
179.055364
  0
ARC
  5
603
330
1B
100
AcDbEntity
 67
     1
  8
図面枠
  6
Continuous
 62
     3
100
AcDbCircle
 10
5744.2734006509
 20
462.8741611178
 30
0.0
 40
6006.999993000001
100
AcDbArc
 50
178.950655
 51
179.011617
  0
ARC
  5
604
330
1B
100
AcDbEntity
 67
     1
  8
図面枠
  6
Continuous
 62
     3
100
AcDbCircle
 10
5744.2734006509
 20
462.8741611178
 30
0.0
 40
6002.999994
100
AcDbArc
 50
179.150576957
 51
180.0
  0
ARC
  5
605
330
1B
100
AcDbEntity
 67
     1
  8
図面枠
  6
Continuous
 62
     3
100
AcDbCircle
 10
5744.2734006509
 20
462.8741611178
 30
0.0
 40
6004.999995
100
AcDbArc
 50
179.111665
 51
179.1699430202
  0
ARC
  5
606
330
1B
100
AcDbEntity
 67
     1
  8
図面枠
  6
Continuous
 62
     3
100
AcDbCircle
 10
5744.2734006509
 20
462.8741611178
 30
0.0
 40
6006.999993000001
100
AcDbArc
 50
179.099739
 51
179.160541
  0
ARC
  5
607
330
1B
100
AcDbEntity
 67
     1
  8
図面枠
  6
Continuous
 62
     3
100
AcDbCircle
 10
-261.5819251446
 20
550.8741593338
 30
0.0
 40
0.5000010000001679
100
AcDbArc
 50
179.160541
 51
270.00017441
  0
ARC
  5
608
330
1B
100
AcDbEntity
 67
     1
  8
図面枠
  6
Continuous
 62
     3
100
AcDbCircle
 10
-260.5963891446
 20
549.8741611293
 30
0.0
 40
0.5000002044335334
100
AcDbArc
 50
359.1699430202
 51
90.00017441
  0
ARC
  5
609
330
1B
100
AcDbEntity
 67
     1
  8
図面枠
  6
Continuous
 62
     3
100
AcDbCircle
 10
-261.5285551446
 20
554.4441593338
 30
0.0
 40
0.5000010000001202
100
AcDbArc
 50
90.0
 51
179.126483
  0
ARC
  5
60A
330
1B
100
AcDbEntity
 67
     1
  8
図面枠
  6
Continuous
 62
     3
100
AcDbCircle
 10
-260.5131061446
 20
555.4441613338
 30
0.0
 40
0.5000009999999975
100
AcDbArc
 50
270.0
 51
359.116796
  0
ARC
  5
60B
330
1B
100
AcDbEntity
 67
     1
  8
図面枠
  6
Continuous
 62
     3
100
AcDbCircle
 10
-259.552060462
 20
552.8741619918
 30
0.0
 40
0.5000010000001112
100
AcDbArc
 50
179.141175
 51
270.0
  0
ARC
  5
60C
330
1B
100
AcDbEntity
 67
     1
  8
図面枠
  6
Continuous
 62
     3
100
AcDbCircle
 10
-258.566857462
 20
551.8741621046
 30
0.0
 40
0.4999988872092445
100
AcDbArc
 50
359.150576957
 51
90.0
  0
ARC
  5
60D
330
1B
100
AcDbEntity
 67
     1
  8
図面枠
  6
Continuous
 62
     3
100
AcDbCircle
 10
-261.2835961446
 20
569.3041613338
 30
0.0
 40
0.5000010000001112
100
AcDbArc
 50
178.984715
 51
270.0
  0
ARC
  5
60E
330
1B
100
AcDbEntity
 67
     1
  8
図面枠
  6
Continuous
 62
     3
100
AcDbCircle
 10
-260.2006981446
 20
573.8741603338
 30
0.0
 40
0.5000009999999719
100
AcDbArc
 50
270.0
 51
358.940939
  0
ARC
  5
60F
330
1B
100
AcDbEntity
 67
     1
  8
図面枠
  6
Continuous
 62
     3
100
AcDbCircle
 10
-261.2192671446
 20
572.8741598338
 30
0.0
 40
0.4999994999999904
100
AcDbArc
 50
90.0
 51
178.950655
  0
ARC
  5
610
330
1B
100
AcDbEntity
 67
     1
  8
図面枠
  6
Continuous
 62
     3
100
AcDbCircle
 10
-260.3010811446
 20
568.3041593338
 30
0.0
 40
0.5000010000000802
100
AcDbArc
 50
358.994088
 51
90.0
  0
ARC
  5
611
330
1B
100
AcDbEntity
 67
     1
  8
図面枠
  6
Continuous
 62
     3
100
AcDbCircle
 10
-259.2552451446
 20
570.8741603338
 30
0.0
 40
0.5000009999999975
100
AcDbArc
 50
90.0
 51
178.969393
  0
ARC
  5
612
330
1B
100
AcDbEntity
 67
     1
  8
図面枠
  6
Continuous
 62
     3
100
AcDbCircle
 10
-258.2370061446
 20
571.8741608338
 30
0.0
 40
0.4999994999999345
100
AcDbArc
 50
270.0
 51
358.959676
  0
ARC
  5
613
330
1B
100
AcDbEntity
 67
     1
  8
図面枠
  6
Continuous
 62
     3
100
AcDbCircle
 10
-5874.5388151446
 20
462.8741603338
 30
0.0
 40
6006.999993000001
100
AcDbArc
 50
0.988383
 51
1.049345
  0
ARC
  5
614
330
1B
100
AcDbEntity
 67
     1
  8
図面枠
  6
Continuous
 62
     3
100
AcDbCircle
 10
128.3014438554
 20
551.8741613338
 30
0.0
 40
0.5000009999999703
100
AcDbArc
 50
89.999825531
 51
180.849423
  0
ARC
  5
615
330
1B
100
AcDbEntity
 67
     1
  8
図面枠
  6
Continuous
 62
     3
100
AcDbCircle
 10
127.9715908554
 20
571.8741593338
 30
0.0
 40
0.5000010000000266
100
AcDbArc
 50
181.040324
 51
270.0001688089
  0
ARC
  5
616
330
1B
100
AcDbEntity
 67
     1
  8
図面枠
  6
Continuous
 62
     3
100
AcDbCircle
 10
130.2476878554
 20
555.4441613338
 30
0.0
 40
0.5000010000000114
100
AcDbArc
 50
180.883204
 51
270.0
  0
ARC
  5
617
330
1B
100
AcDbEntity
 67
     1
  8
図面枠
  6
Continuous
 62
     3
100
AcDbCircle
 10
130.0356628554
 20
568.3041593338
 30
0.0
 40
0.5000009999999665
100
AcDbArc
 50
90.0
 51
181.005912
  0
ARC
  5
618
330
1B
100
AcDbEntity
 67
     1
  8
図面枠
  6
Continuous
 62
     3
100
AcDbCircle
 10
129.2866468554
 20
552.8741603338
 30
0.0
 40
0.5000009999999706
100
AcDbArc
 50
269.999825531
 51
0.858825
  0
ARC
  5
619
330
1B
100
AcDbEntity
 67
     1
  8
図面枠
  6
Continuous
 62
     3
100
AcDbCircle
 10
128.9898268554
 20
570.8741603338
 30
0.0
 40
0.5000009999999947
100
AcDbArc
 50
1.030607
 51
90.0001688089
  0
ARC
  5
61A
330
1B
100
AcDbEntity
 67
     1
  8
図面枠
  6
Continuous
 62
     3
100
AcDbCircle
 10
-5874.5388151446
 20
462.8741603338
 30
0.0
 40
6004.999995
100
AcDbArc
 50
0.944636
 51
1.059061
  0
ARC
  5
61B
330
1B
100
AcDbEntity
 67
     1
  8
図面枠
  6
Continuous
 62
     3
100
AcDbCircle
 10
-5874.5388151446
 20
462.8741603338
 30
0.0
 40
6004.999995
100
AcDbArc
 50
1.059061
 51
1.33262
  0
LINE
  5
61C
330
1B
100
AcDbEntity
 67
     1
  8
図面枠
  6
Continuous
 62
     3
100
AcDbLine
 10
-16.6327391802
 20
296.6082679041
 30
0.0
 11
-11.1281606846
 21
296.6552508167
 31
0.0
  0
ARC
  5
61D
330
1B
100
AcDbEntity
 67
     1
  8
図面枠
  6
Continuous
 62
     3
100
AcDbCircle
 10
-65.1327091446
 20
6301.4124023338
 30
0.0
 40
6002.999994
100
AcDbArc
 50
270.248158
 51
271.619219
  0
ARC
  5
61E
330
1B
100
AcDbEntity
 67
     1
  8
図面枠
  6
Continuous
 62
     3
100
AcDbCircle
 10
-13.7027071446
 20
296.1326303338
 30
0.0
 40
0.5000010000000479
100
AcDbArc
 50
359.9998266197
 51
90.490677
  0
ARC
  5
61F
330
1B
100
AcDbEntity
 67
     1
  8
図面枠
  6
Continuous
 62
     3
100
AcDbCircle
 10
-26.5627081446
 20
296.0362673338
 30
0.0
 40
0.5000009999999593
100
AcDbArc
 50
90.367982
 51
180.0001708012
  0
ARC
  5
620
330
1B
100
AcDbEntity
 67
     1
  8
図面枠
  6
Continuous
 62
     3
100
AcDbCircle
 10
-10.1327071446
 20
298.1643503338
 30
0.0
 40
0.5000010000000586
100
AcDbArc
 50
90.524912
 51
180.0
  0
ARC
  5
621
330
1B
100
AcDbEntity
 67
     1
  8
図面枠
  6
Continuous
 62
     3
100
AcDbCircle
 10
-30.1327081446
 20
298.0144343338
 30
0.0
 40
0.5000009999999664
100
AcDbArc
 50
359.9998270932
 51
90.334032
  0
ARC
  5
622
330
1B
100
AcDbEntity
 67
     1
  8
図面枠
  6
Continuous
 62
     3
100
AcDbCircle
 10
-11.1327091446
 20
297.1552313338
 30
0.0
 40
0.5000010000000277
100
AcDbArc
 50
270.515283
 51
0.0
  0
ARC
  5
623
330
1B
100
AcDbEntity
 67
     1
  8
図面枠
  6
Continuous
 62
     3
100
AcDbCircle
 10
-29.1327091446
 20
297.0203303338
 30
0.0
 40
0.5000010000000041
100
AcDbArc
 50
179.9998270932
 51
270.343519
  0
LINE
  5
624
330
1B
100
AcDbEntity
 67
     1
  8
図面枠
  6
Continuous
 62
     3
100
AcDbLine
 10
-29.1297216253
 20
296.5203362896
 30
0.0
 11
-23.6327080019
 21
296.5558103863
 31
0.0
  0
ARC
  5
625
330
1B
100
AcDbEntity
 67
     1
  8
図面枠
  6
Continuous
 62
     3
100
AcDbCircle
 10
-5874.5388151446
 20
462.8741603338
 30
0.0
 40
6002.999994000001
100
AcDbArc
 50
1.040324
 51
1.33262
  0
ARC
  5
626
330
1B
100
AcDbEntity
 67
     1
  8
図面枠
  6
Continuous
 62
     3
100
AcDbCircle
 10
130.3309708554
 20
549.8741626292
 30
0.0
 40
0.4999987045910503
100
AcDbArc
 50
89.99982559
 51
180.8300570021
  0
ARC
  5
627
330
1B
100
AcDbEntity
 67
     1
  8
図面枠
  6
Continuous
 62
     3
100
AcDbCircle
 10
129.9352798554
 20
573.8741603338
 30
0.0
 40
0.5000010000000004
100
AcDbArc
 50
181.059061
 51
270.0001687533
  0
ARC
  5
628
330
1B
100
AcDbEntity
 67
     1
  8
図面枠
  6
Continuous
 62
     3
100
AcDbCircle
 10
-5874.5388151446
 20
462.8741603338
 30
0.0
 40
6004.999992737847
100
AcDbArc
 50
0.8300570021
 51
0.888335
  0
ARC
  5
629
330
1B
100
AcDbEntity
 67
     1
  8
図面枠
  6
Continuous
 62
     3
100
AcDbCircle
 10
131.0181808554
 20
569.3041613338
 30
0.0
 40
0.5000009999999975
100
AcDbArc
 50
270.0
 51
1.015285
  0
ARC
  5
62A
330
1B
100
AcDbEntity
 67
     1
  8
図面枠
  6
Continuous
 62
     3
100
AcDbCircle
 10
131.2631368554
 20
554.4441593338
 30
0.0
 40
0.5000009999999975
100
AcDbArc
 50
0.873517
 51
90.0
  0
ARC
  5
62B
330
1B
100
AcDbEntity
 67
     1
  8
図面枠
  6
Continuous
 62
     3
100
AcDbCircle
 10
131.3165068554
 20
550.8741593338
 30
0.0
 40
0.5000010000000258
100
AcDbArc
 50
269.99982559
 51
0.839459
  0
ARC
  5
62C
330
1B
100
AcDbEntity
 67
     1
  8
図面枠
  6
Continuous
 62
     3
100
AcDbCircle
 10
130.9538518554
 20
572.8741613338
 30
0.0
 40
0.500001000000012
100
AcDbArc
 50
1.049345
 51
90.0001687533
  0
ARC
  5
62D
330
1B
100
AcDbEntity
 67
     1
  8
図面枠
  6
Continuous
 62
     3
100
AcDbCircle
 10
-5874.5388151446
 20
462.8741603338
 30
0.0
 40
6006.999993000001
100
AcDbArc
 50
0.839459
 51
0.900261
  0
ARC
  5
62E
330
1B
100
AcDbEntity
 67
     1
  8
図面枠
  6
Continuous
 62
     3
100
AcDbCircle
 10
-12.7027081446
 20
295.1412413338
 30
0.0
 40
0.500001000000011
100
AcDbArc
 50
179.9998266197
 51
270.500134
  0
ARC
  5
62F
330
1B
100
AcDbEntity
 67
     1
  8
図面枠
  6
Continuous
 62
     3
100
AcDbCircle
 10
-27.5627071446
 20
295.0299083338
 30
0.0
 40
0.5000010000001062
100
AcDbArc
 50
270.358381
 51
0.0001708012
  0
LINE
  5
630
330
1B
100
AcDbEntity
 67
     1
  8
図面枠
  6
Continuous
 62
     3
100
AcDbLine
 10
-32.1382503942
 20
298.5030832073
 30
0.0
 11
-30.1356683126
 21
298.5144242654
 31
0.0
  0
ARC
  5
631
330
1B
100
AcDbEntity
 67
     1
  8
図面枠
  6
Continuous
 62
     3
100
AcDbCircle
 10
-65.1327091446
 20
6301.4124023338
 30
0.0
 40
6004.999995
100
AcDbArc
 50
270.515283
 51
271.619219
  0
ARC
  5
632
330
1B
100
AcDbEntity
 67
     1
  8
図面枠
  6
Continuous
 62
     3
100
AcDbCircle
 10
-8.1327091446
 20
296.1829163338
 30
0.0
 40
0.5000009999999909
100
AcDbArc
 50
90.54382
 51
180.0001702779
  0
ARC
  5
633
330
1B
100
AcDbEntity
 67
     1
  8
図面枠
  6
Continuous
 62
     3
100
AcDbCircle
 10
-32.1327091446
 20
296.0030753338
 30
0.0
 40
0.5000010000000294
100
AcDbArc
 50
0.0
 51
90.31484
  0
ARC
  5
634
330
1B
100
AcDbEntity
 67
     1
  8
図面枠
  6
Continuous
 62
     3
100
AcDbCircle
 10
-9.1327081446
 20
295.1734643338
 30
0.0
 40
0.5000009999999928
100
AcDbArc
 50
270.53419
 51
0.0001702779
  0
ARC
  5
635
330
1B
100
AcDbEntity
 67
     1
  8
図面枠
  6
Continuous
 62
     3
100
AcDbCircle
 10
-31.1327071446
 20
295.0086383338
 30
0.0
 40
0.500001000000001
100
AcDbArc
 50
180.0
 51
270.324326
  0
ARC
  5
636
330
1B
100
AcDbEntity
 67
     1
  8
図面枠
  6
Continuous
 62
     3
100
AcDbCircle
 10
-65.1327091446
 20
6301.4124023338
 30
0.0
 40
6006.999993
100
AcDbArc
 50
270.324326
 51
270.385166
  0
ARC
  5
637
330
1B
100
AcDbEntity
 67
     1
  8
図面枠
  6
Continuous
 62
     3
100
AcDbCircle
 10
-65.1327091446
 20
6301.4124023338
 30
0.0
 40
6004.999995
100
AcDbArc
 50
269.675594
 51
270.343519
  0
ARC
  5
638
330
1B
100
AcDbEntity
 67
     1
  8
図面枠
  6
Continuous
 62
     3
100
AcDbCircle
 10
-32.1327091446
 20
297.5030993338
 30
0.0
 40
0.9999989999999964
100
AcDbArc
 50
90.314918
 51
180.0
  0
ARC
  5
639
330
1B
100
AcDbEntity
 67
     1
  8
図面枠
  6
Continuous
 62
     3
100
AcDbCircle
 10
-34.1327071446
 20
297.4924403338
 30
0.0
 40
0.999999000000031
100
AcDbArc
 50
270.295832
 51
0.0
  0
ARC
  5
63A
330
1B
100
AcDbEntity
 67
     1
  8
図面枠
  6
Continuous
 62
     3
100
AcDbCircle
 10
-187.1327071446
 20
298.6520453338
 30
0.0
 40
0.9999990000000071
100
AcDbArc
 50
0.0
 51
88.835682
  0
ARC
  5
63B
330
1B
100
AcDbEntity
 67
     1
  8
図面枠
  6
Continuous
 62
     3
100
AcDbCircle
 10
-185.1327091446
 20
298.6117283338
 30
0.0
 40
0.999999000000031
100
AcDbArc
 50
180.0
 51
268.854772
  0
ARC
  5
63C
330
1B
100
AcDbEntity
 67
     1
  8
図面枠
  6
Continuous
 62
     3
100
AcDbCircle
 10
-263.7125311446
 20
449.8741613338
 30
0.0
 40
10.00000050000001
100
AcDbArc
 50
180.123976
 51
270.0
  0
ARC
  5
63D
330
1B
100
AcDbEntity
 67
     1
  8
図面枠
  6
Continuous
 62
     3
100
AcDbCircle
 10
5744.2734006509
 20
462.8741611178
 30
0.0
 40
6017.999994
100
AcDbArc
 50
179.303812
 51
180.123976
  0
ARC
  5
63E
330
1B
100
AcDbEntity
 67
     1
  8
図面枠
  6
Continuous
 62
     3
100
AcDbCircle
 10
-263.2830871446
 20
535.8741608338
 30
0.0
 40
10.00000050000006
100
AcDbArc
 50
90.0
 51
179.303812
  0
ARC
  5
63F
330
1B
100
AcDbEntity
 67
     1
  8
図面枠
  6
Continuous
 62
     3
100
AcDbCircle
 10
-263.7125311446
 20
449.8741613338
 30
0.0
 40
12.0
100
AcDbArc
 50
180.123976
 51
270.0
  0
ARC
  5
640
330
1B
100
AcDbEntity
 67
     1
  8
図面枠
  6
Continuous
 62
     3
100
AcDbCircle
 10
-263.2830871446
 20
535.8741608338
 30
0.0
 40
12.0
100
AcDbArc
 50
90.0
 51
179.303812
  0
ARC
  5
641
330
1B
100
AcDbEntity
 67
     1
  8
図面枠
  6
Continuous
 62
     3
100
AcDbCircle
 10
5744.2734006509
 20
462.8741611178
 30
0.0
 40
6002.999994
100
AcDbArc
 50
180.0
 51
181.33262
  0
ARC
  5
642
330
1B
100
AcDbEntity
 67
     1
  8
図面枠
  6
Continuous
 62
     3
100
AcDbCircle
 10
5744.2734006509
 20
462.8741611178
 30
0.0
 40
6004.999995
100
AcDbArc
 50
180.238534
 51
181.33262
  0
ARC
  5
643
330
1B
100
AcDbEntity
 67
     1
  8
図面枠
  6
Continuous
 62
     3
100
AcDbCircle
 10
5744.2734006509
 20
462.8741611178
 30
0.0
 40
6019.999994999999
100
AcDbArc
 50
179.303812
 51
180.123976
  0
ARC
  5
644
330
1B
100
AcDbEntity
 67
     1
  8
図面枠
  6
Continuous
 62
     3
100
AcDbCircle
 10
-234.1091881446
 20
323.8002653338
 30
0.0
 40
23.00000099999996
100
AcDbArc
 50
181.33262
 51
268.380781
  0
ARC
  5
645
330
1B
100
AcDbEntity
 67
     1
  8
図面枠
  6
Continuous
 62
     3
100
AcDbCircle
 10
-65.1327091446
 20
6301.4124023338
 30
0.0
 40
6002.999994000001
100
AcDbArc
 50
268.380781
 51
270.248158
  0
ARC
  5
646
330
1B
100
AcDbEntity
 67
     1
  8
図面枠
  6
Continuous
 62
     3
100
AcDbCircle
 10
103.8437728554
 20
323.8002653338
 30
0.0
 40
23.000001
100
AcDbArc
 50
271.619219
 51
358.66738
  0
ARC
  5
647
330
1B
100
AcDbEntity
 67
     1
  8
図面枠
  6
Continuous
 62
     3
100
AcDbCircle
 10
-5874.5388151446
 20
462.8741603338
 30
0.0
 40
6002.999994000001
100
AcDbArc
 50
358.66738
 51
358.983624
  0
ARC
  5
648
330
1B
100
AcDbEntity
 67
     1
  8
図面枠
  6
Continuous
 62
     3
100
AcDbCircle
 10
103.8437728554
 20
601.9480553338
 30
0.0
 40
23.00000100000008
100
AcDbArc
 50
1.33262
 51
88.380781
  0
ARC
  5
649
330
1B
100
AcDbEntity
 67
     1
  8
図面枠
  6
Continuous
 62
     3
100
AcDbCircle
 10
-65.1327091431
 20
-5375.6640819773
 30
0.0
 40
6002.999994000002
100
AcDbArc
 50
88.380781
 51
90.295882
  0
ARC
  5
64A
330
1B
100
AcDbEntity
 67
     1
  8
図面枠
  6
Continuous
 62
     3
100
AcDbCircle
 10
-234.1091881446
 20
601.9480553338
 30
0.0
 40
23.00000100000019
100
AcDbArc
 50
91.619219
 51
178.66738
  0
ARC
  5
64B
330
1B
100
AcDbEntity
 67
     1
  8
図面枠
  6
Continuous
 62
     3
100
AcDbCircle
 10
5744.2734006509
 20
462.8741611178
 30
0.0
 40
6002.999994
100
AcDbArc
 50
178.66738
 51
179.150576957
  0
ARC
  5
64C
330
1B
100
AcDbEntity
 67
     1
  8
図面枠
  6
Continuous
 62
     3
100
AcDbCircle
 10
103.8437728554
 20
601.9480553338
 30
0.0
 40
24.99999900000013
100
AcDbArc
 50
1.33262
 51
88.380781
  0
ARC
  5
64D
330
1B
100
AcDbEntity
 67
     1
  8
図面枠
  6
Continuous
 62
     3
100
AcDbCircle
 10
-5874.5388151446
 20
462.8741603338
 30
0.0
 40
6004.999995
100
AcDbArc
 50
358.66738
 51
359.795525
  0
ARC
  5
64E
330
1B
100
AcDbEntity
 67
     1
  8
図面枠
  6
Continuous
 62
     3
100
AcDbCircle
 10
103.8437728554
 20
323.8002653338
 30
0.0
 40
24.99999899999998
100
AcDbArc
 50
271.619219
 51
358.66738
  0
ARC
  5
64F
330
1B
100
AcDbEntity
 67
     1
  8
図面枠
  6
Continuous
 62
     3
100
AcDbCircle
 10
-65.1327091446
 20
6301.4124023338
 30
0.0
 40
6004.999995
100
AcDbArc
 50
268.380781
 51
269.675594
  0
ARC
  5
650
330
1B
100
AcDbEntity
 67
     1
  8
図面枠
  6
Continuous
 62
     3
100
AcDbCircle
 10
-234.1091881446
 20
323.8002653338
 30
0.0
 40
24.99999899999997
100
AcDbArc
 50
181.33262
 51
268.380781
  0
ARC
  5
651
330
1B
100
AcDbEntity
 67
     1
  8
図面枠
  6
Continuous
 62
     3
100
AcDbCircle
 10
5744.2734006509
 20
462.8741611178
 30
0.0
 40
6004.999995
100
AcDbArc
 50
178.66738
 51
178.940939
  0
ARC
  5
652
330
1B
100
AcDbEntity
 67
     1
  8
図面枠
  6
Continuous
 62
     3
100
AcDbCircle
 10
-234.1091881446
 20
601.9480553338
 30
0.0
 40
24.99999900000013
100
AcDbArc
 50
91.619219
 51
178.66738
  0
ARC
  5
653
330
1B
100
AcDbEntity
 67
     1
  8
図面枠
  6
Continuous
 62
     3
100
AcDbCircle
 10
-65.1327091431
 20
-5375.6640819773
 30
0.0
 40
6004.999994688941
100
AcDbArc
 50
88.380781
 51
90.2767000752
  0
SPLINE
  5
654
330
1B
100
AcDbEntity
 67
     1
  8
図面枠
  6
Continuous
 62
     3
100
AcDbSpline
210
0.0
220
0.0
230
1.0
 70
     8
 71
     3
 72
    11
 73
     7
 74
     0
 42
0.00000001
 43
0.00000001
 12
1.0
 22
0.0
 32
0.0
 13
1.0
 23
0.0
 33
0.0
 40
0.0
 40
0.0
 40
0.0
 40
0.0
 40
0.6107910112945847
 40
1.220047154425006
 40
1.82930329755523
 40
2.440094308849892
 40
2.440094308849892
 40
2.440094308849892
 40
2.440094308849892
 10
-263.5532041446223
 20
566.4929616315502
 30
0.0
 10
-263.6603376417434
 20
566.319831178606
 30
0.0
 10
-263.8369606120593
 20
565.9490220880306
 30
0.0
 10
-263.94717655715
 20
565.3382610943254
 30
0.0
 10
-263.8369606120592
 20
564.7275001006202
 30
0.0
 10
-263.6603376417434
 20
564.3566910100448
 30
0.0
 10
-263.5532041446223
 20
564.1835605571006
 30
0.0
  0
SPLINE
  5
655
330
1B
100
AcDbEntity
 67
     1
  8
図面枠
  6
Continuous
 62
     3
100
AcDbSpline
210
0.0
220
0.0
230
1.0
 70
     8
 71
     3
 72
    11
 73
     7
 74
     0
 42
0.00000001
 43
0.00000001
 12
1.0
 22
0.0
 32
0.0
 13
1.0
 23
0.0
 33
0.0
 40
0.0
 40
0.0
 40
0.0
 40
0.0
 40
0.6107910112944043
 40
1.220047154424629
 40
1.82930329755505
 40
2.440094308849248
 40
2.440094308849248
 40
2.440094308849248
 40
2.440094308849248
 10
-263.5532041446223
 20
559.5647584082026
 30
0.0
 10
-263.6603376417434
 20
559.3916279552585
 30
0.0
 10
-263.8369606120593
 20
559.0208188646833
 30
0.0
 10
-263.9471765571499
 20
558.410057870978
 30
0.0
 10
-263.8369606120594
 20
557.799296877273
 30
0.0
 10
-263.6603376417434
 20
557.4284877866977
 30
0.0
 10
-263.5532041446223
 20
557.2553573337538
 30
0.0
  0
SPLINE
  5
656
330
1B
100
AcDbEntity
 67
     1
  8
図面枠
  6
Continuous
 62
     3
100
AcDbSpline
210
0.0
220
0.0
230
1.0
 70
     8
 71
     3
 72
    11
 73
     7
 74
     0
 42
0.00000001
 43
0.00000001
 12
1.0
 22
0.0
 32
0.0
 13
1.0
 23
0.0
 33
0.0
 40
0.0
 40
0.0
 40
0.0
 40
0.0
 40
1.170655708542092
 40
2.343420119624983
 40
3.516184530708072
 40
4.686840239250441
 40
4.686840239250441
 40
4.686840239250441
 40
4.686840239250441
 10
-263.5532041446223
 20
564.1835605571006
 30
0.0
 10
-263.6685436726883
 20
563.8107773422705
 30
0.0
 10
-263.8470646815752
 20
563.0471061001655
 30
0.0
 10
-263.9421992872153
 20
561.8741594826519
 30
0.0
 10
-263.8470646815751
 20
560.7012128651379
 30
0.0
 10
-263.6685436726883
 20
559.9375416230328
 30
0.0
 10
-263.5532041446223
 20
559.5647584082026
 30
0.0
  0
SPLINE
  5
657
330
1B
100
AcDbEntity
 67
     1
  8
図面枠
  6
Continuous
 62
     3
100
AcDbSpline
210
0.0
220
0.0
230
1.0
 70
     8
 71
     3
 72
    11
 73
     7
 74
     0
 42
0.00000001
 43
0.00000001
 12
1.0
 22
0.0
 32
0.0
 13
1.0
 23
0.0
 33
0.0
 40
0.0
 40
0.0
 40
0.0
 40
0.0
 40
0.6107910112942703
 40
1.220047154424724
 40
1.829303297554981
 40
2.440094308849457
 40
2.440094308849457
 40
2.440094308849457
 40
2.440094308849457
 10
133.2877858553778
 20
557.2553573337538
 30
0.0
 10
133.3949193524989
 20
557.4284877866977
 30
0.0
 10
133.5715423228149
 20
557.799296877273
 30
0.0
 10
133.6817582679058
 20
558.4100578709781
 30
0.0
 10
133.5715423228148
 20
559.0208188646832
 30
0.0
 10
133.3949193524989
 20
559.3916279552585
 30
0.0
 10
133.2877858553778
 20
559.5647584082026
 30
0.0
  0
SPLINE
  5
658
330
1B
100
AcDbEntity
 67
     1
  8
図面枠
  6
Continuous
 62
     3
100
AcDbSpline
210
0.0
220
0.0
230
1.0
 70
     8
 71
     3
 72
    11
 73
     7
 74
     0
 42
0.00000001
 43
0.00000001
 12
1.0
 22
0.0
 32
0.0
 13
1.0
 23
0.0
 33
0.0
 40
0.0
 40
0.0
 40
0.0
 40
0.0
 40
0.610791011294734
 40
1.220047154424991
 40
1.829303297555444
 40
2.440094308850101
 40
2.440094308850101
 40
2.440094308850101
 40
2.440094308850101
 10
133.2877858553778
 20
564.1835605571006
 30
0.0
 10
133.394919352499
 20
564.3566910100448
 30
0.0
 10
133.5715423228148
 20
564.7275001006202
 30
0.0
 10
133.6817582679058
 20
565.3382610943254
 30
0.0
 10
133.5715423228148
 20
565.9490220880307
 30
0.0
 10
133.394919352499
 20
566.319831178606
 30
0.0
 10
133.2877858553778
 20
566.4929616315502
 30
0.0
  0
SPLINE
  5
659
330
1B
100
AcDbEntity
 67
     1
  8
図面枠
  6
Continuous
 62
     3
100
AcDbSpline
210
0.0
220
0.0
230
1.0
 70
     8
 71
     3
 72
    11
 73
     7
 74
     0
 42
0.00000001
 43
0.00000001
 12
1.0
 22
0.0
 32
0.0
 13
1.0
 23
0.0
 33
0.0
 40
0.0
 40
0.0
 40
0.0
 40
0.0
 40
1.170655708542407
 40
2.343420119625512
 40
3.516184530708419
 40
4.686840239250549
 40
4.686840239250549
 40
4.686840239250549
 40
4.686840239250549
 10
133.2877858553778
 20
559.5647584082026
 30
0.0
 10
133.4031253834438
 20
559.9375416230328
 30
0.0
 10
133.5816463923308
 20
560.701212865138
 30
0.0
 10
133.676780997971
 20
561.8741594826517
 30
0.0
 10
133.5816463923308
 20
563.0471061001656
 30
0.0
 10
133.4031253834437
 20
563.8107773422705
 30
0.0
 10
133.2877858553778
 20
564.1835605571006
 30
0.0
  0
SPLINE
  5
65A
330
1B
100
AcDbEntity
 67
     1
  8
図面枠
  6
Continuous
 62
     3
100
AcDbSpline
210
0.0
220
0.0
230
1.0
 70
     8
 71
     3
 72
    11
 73
     7
 74
     0
 42
0.00000001
 43
0.00000001
 12
1.0
 22
0.0
 32
0.0
 13
1.0
 23
0.0
 33
0.0
 40
0.0
 40
0.0
 40
0.0
 40
0.0
 40
0.6107910112943594
 40
1.220047154424531
 40
1.82930329755484
 40
2.44009430884918
 40
2.44009430884918
 40
2.44009430884918
 40
2.44009430884918
 10
-24.75150914462226
 20
292.9382873337536
 30
0.0
 10
-24.57837869167822
 20
292.8311538366325
 30
0.0
 10
-24.20756960110293
 20
292.6545308663168
 30
0.0
 10
-23.59680860739788
 20
292.544314921226
 30
0.0
 10
-22.98604761369288
 20
292.6545308663167
 30
0.0
 10
-22.61523852311753
 20
292.8311538366325
 30
0.0
 10
-22.44210807017355
 20
292.9382873337536
 30
0.0
  0
SPLINE
  5
65B
330
1B
100
AcDbEntity
 67
     1
  8
図面枠
  6
Continuous
 62
     3
100
AcDbSpline
210
0.0
220
0.0
230
1.0
 70
     8
 71
     3
 72
    11
 73
     7
 74
     0
 42
0.00000001
 43
0.00000001
 12
1.0
 22
0.0
 32
0.0
 13
1.0
 23
0.0
 33
0.0
 40
0.0
 40
0.0
 40
0.0
 40
0.0
 40
0.6107910112943594
 40
1.22004715442464
 40
1.829303297555099
 40
2.440094308849665
 40
2.440094308849665
 40
2.440094308849665
 40
2.440094308849665
 10
-17.82330592127518
 20
292.9382873337536
 30
0.0
 10
-17.6501754683312
 20
292.8311538366325
 30
0.0
 10
-17.27936637775579
 20
292.6545308663167
 30
0.0
 10
-16.66860538405074
 20
292.544314921226
 30
0.0
 10
-16.05784439034552
 20
292.6545308663167
 30
0.0
 10
-15.68703529977006
 20
292.8311538366325
 30
0.0
 10
-15.51390484682597
 20
292.9382873337536
 30
0.0
  0
SPLINE
  5
65C
330
1B
100
AcDbEntity
 67
     1
  8
図面枠
  6
Continuous
 62
     3
100
AcDbSpline
210
0.0
220
0.0
230
1.0
 70
     8
 71
     3
 72
    11
 73
     7
 74
     0
 42
0.00000001
 43
0.00000001
 12
1.0
 22
0.0
 32
0.0
 13
1.0
 23
0.0
 33
0.0
 40
0.0
 40
0.0
 40
0.0
 40
0.0
 40
1.170655708542362
 40
2.343420119625367
 40
3.516184530708373
 40
4.686840239250735
 40
4.686840239250735
 40
4.686840239250735
 40
4.686840239250735
 10
-22.44210807017355
 20
292.9382873337536
 30
0.0
 10
-22.0693248553433
 20
292.8229478056876
 30
0.0
 10
-21.30565361323822
 20
292.6444267968006
 30
0.0
 10
-20.13270699572439
 20
292.5492921911608
 30
0.0
 10
-18.95976037821051
 20
292.6444267968006
 30
0.0
 10
-18.19608913610543
 20
292.8229478056876
 30
0.0
 10
-17.82330592127518
 20
292.9382873337536
 30
0.0
  0
ELLIPSE
  5
65D
330
1B
100
AcDbEntity
 67
     1
  8
図面枠
  6
Continuous
 62
     1
100
AcDbEllipse
 10
130.7318248554
 20
498.5068433338
 30
0.0
 11
0.0
 21
4.998504596110365
 31
0.0
210
0.0
220
0.0
230
1.0
 40
0.052922
 41
0.0171538659456774
 42
1.570796326794897
  0
ELLIPSE
  5
65E
330
1B
100
AcDbEntity
 67
     1
  8
図面枠
  6
Continuous
 62
     1
100
AcDbEllipse
 10
130.7318248554
 20
429.2414783338
 30
0.0
 11
0.0
 21
4.998504596110422
 31
0.0
210
0.0
220
0.0
230
1.0
 40
0.052922
 41
1.570796326794897
 42
3.124438835060815
  0
ELLIPSE
  5
65F
330
1B
100
AcDbEntity
 67
     1
  8
図面枠
  6
Continuous
 62
     1
100
AcDbEllipse
 10
-260.9972431446
 20
429.2343233338
 30
0.0
 11
0.0
 21
-4.998504596110422
 31
0.0
210
0.0
220
0.0
230
1.0
 40
0.052922
 41
0.0171538636533869
 42
1.570796326794897
  0
INSERT
  5
660
330
1B
100
AcDbEntity
 67
     1
  8
0
  6
Continuous
 62
     7
100
AcDbBlockReference
  2
_OPEN30_0
 10
-232.5674911446
 20
318.4694753338
 30
0.0
 41
8.31
 42
8.31
 43
8.31
 50
101.589893
  0
POINT
  5
661
330
1B
100
AcDbEntity
 67
     1
  8
図面枠
100
AcDbPoint
 10
-2.1327091446
 20
574.8741593338
 30
0.0
  0
POINT
  5
662
330
1B
100
AcDbEntity
 67
     1
  8
図面枠
100
AcDbPoint
 10
62.8672918554
 20
574.8741593338
 30
0.0
  0
ENDSEC
  0
SECTION
  2
OBJECTS
  0
DICTIONARY
  5
C
330
0
100
AcDbDictionary
281
     1
  3
ACAD_GROUP
350
D
  3
ACAD_LAYOUT
350
1A
  3
ACAD_MLINESTYLE
350
17
  3
ACAD_PLOTSETTINGS
350
19
  3
ACAD_PLOTSTYLENAME
350
E
  0
DICTIONARY
  5
D
102
{ACAD_REACTORS
330
C
102
}
330
C
100
AcDbDictionary
281
     1
  0
DICTIONARY
  5
1A
102
{ACAD_REACTORS
330
C
102
}
330
C
100
AcDbDictionary
281
     1
  3
Model
350
22
  3
SW_Model_1
350
1E
  0
DICTIONARY
  5
17
102
{ACAD_REACTORS
330
C
102
}
330
C
100
AcDbDictionary
281
     1
  3
Standard
350
18
  0
DICTIONARY
  5
19
102
{ACAD_REACTORS
330
C
102
}
330
C
100
AcDbDictionary
281
     1
  0
ACDBDICTIONARYWDFLT
  5
E
102
{ACAD_REACTORS
330
C
102
}
330
C
100
AcDbDictionary
281
     1
  3
Normal
350
F
100
AcDbDictionaryWithDefault
340
F
  0
LAYOUT
  5
22
102
{ACAD_REACTORS
330
1A
102
}
330
1A
100
AcDbPlotSettings
  1

  2
none_device
  4

  6

 40
0.0
 41
0.0
 42
0.0
 43
0.0
 44
0.0
 45
0.0
 46
0.0
 47
0.0
 48
0.0
 49
0.0
140
0.0
141
0.0
142
1.0
143
1.0
 70
  1712
 72
     0
 73
     0
 74
     0
  7

 75
     0
147
1.0
148
0.0
149
0.0
100
AcDbLayout
  1
Model
 70
     1
 71
     0
 10
0.0
 20
0.0
 11
210.0
 21
297.0
 12
0.0
 22
0.0
 32
0.0
 14
0.0
 24
0.0
 34
0.0
 15
210.0
 25
297.0
 35
0.0
146
0.0
 13
0.0
 23
0.0
 33
0.0
 16
1.0
 26
0.0
 36
0.0
 17
0.0
 27
1.0
 37
0.0
 76
     0
330
1F
331
29
  0
LAYOUT
  5
1E
102
{ACAD_REACTORS
330
1A
102
}
330
1A
100
AcDbPlotSettings
  1

  2
none_device
  4
ISO_A4_(210.00_x_297.00_MM)
  6

 40
7.5
 41
20.0
 42
7.5
 43
20.0
 44
210.0
 45
297.0
 46
0.0
 47
0.0
 48
0.0
 49
0.0
140
0.0
141
0.0
142
1.0
143
1.0
 70
  4832
 72
     0
 73
     0
 74
     1
  7

 75
     0
147
1.0
148
0.0
149
0.0
100
AcDbLayout
  1
SW_Model_1
 70
     1
 71
     1
 10
0.0
 20
0.0
 11
210.0
 21
297.0
 12
0.0
 22
0.0
 32
0.0
 14
0.0
 24
0.0
 34
0.0
 15
210.0
 25
297.0
 35
0.0
146
0.0
 13
0.0
 23
0.0
 33
0.0
 16
1.0
 26
0.0
 36
0.0
 17
0.0
 27
1.0
 37
0.0
 76
     0
330
1B
331
14D
  0
MLINESTYLE
  5
18
102
{ACAD_REACTORS
330
17
102
}
330
17
100
AcDbMlineStyle
  2
Standard
 70
     0
  3

 62
   256
 51
90.0
 52
90.0
 71
     2
 49
0.5
 62
   256
  6
BYLAYER
 49
-0.5
 62
   256
  6
BYLAYER
  0
ACDBPLACEHOLDER
  5
F
102
{ACAD_REACTORS
330
E
102
}
330
E
  0
ENDSEC
  0
EOF
