  0
SECTION
  2
HEADER
  9
$ACADVER
  1
AC1014
  9
$ACADMAINTVER
 70
     9
  9
$DWGCODEPAGE
  3
DOS932
  9
$INSBASE
 10
0.0
 20
0.0
 30
0.0
  9
$EXTMIN
 10
0.0
 20
0.0
 30
0.0
  9
$EXTMAX
 10
2100.0
 20
2970.0
 30
0.0
  9
$LIMMIN
 10
0.0
 20
0.0
  9
$LIMMAX
 10
2100.0
 20
2970.0
  9
$ORTHOMODE
 70
     0
  9
$REGENMODE
 70
     1
  9
$FILLMODE
 70
     1
  9
$QTEXTMODE
 70
     0
  9
$MIRRTEXT
 70
     1
  9
$DRAGMODE
 70
     2
  9
$LTSCALE
 40
10.0
  9
$OSMODE
 70
    37
  9
$ATTMODE
 70
     1
  9
$TEXTSIZE
 40
35.0
  9
$TRACEWID
 40
1.0
  9
$TEXTSTYLE
  7
STANDARD
  9
$CLAYER
  8
0
  9
$CELTYPE
  6
BYLAYER
  9
$CECOLOR
 62
   256
  9
$CELTSCALE
 40
1.0
  9
$DELOBJ
 70
     1
  9
$DISPSILH
 70
     0
  9
$DIMSCALE
 40
1.0
  9
$DIMASZ
 40
60.0
  9
$DIMEXO
 40
10.0
  9
$DIMDLI
 40
3.75
  9
$DIMRND
 40
0.0
  9
$DIMDLE
 40
0.0
  9
$DIMEXE
 40
10.0
  9
$DIMTP
 40
0.0
  9
$DIMTM
 40
0.0
  9
$DIMTXT
 40
35.0
  9
$DIMCEN
 40
2.5
  9
$DIMTSZ
 40
0.0
  9
$DIMTOL
 70
     0
  9
$DIMLIM
 70
     0
  9
$DIMTIH
 70
     1
  9
$DIMTOH
 70
     1
  9
$DIMSE1
 70
     0
  9
$DIMSE2
 70
     0
  9
$DIMTAD
 70
     1
  9
$DIMZIN
 70
     0
  9
$DIMBLK
  1

  9
$DIMASO
 70
     1
  9
$DIMSHO
 70
     1
  9
$DIMPOST
  1

  9
$DIMAPOST
  1

  9
$DIMALT
 70
     0
  9
$DIMALTD
 70
     3
  9
$DIMALTF
 40
0.0393700787
  9
$DIMLFAC
 40
1.0
  9
$DIMTOFL
 70
     1
  9
$DIMTVP
 40
0.0
  9
$DIMTIX
 70
     0
  9
$DIMSOXD
 70
     0
  9
$DIMSAH
 70
     0
  9
$DIMBLK1
  1

  9
$DIMBLK2
  1

  9
$DIMSTYLE
  2
ISO-25
  9
$DIMCLRD
 70
     0
  9
$DIMCLRE
 70
     0
  9
$DIMCLRT
 70
     0
  9
$DIMTFAC
 40
1.0
  9
$DIMGAP
 40
15.24
  9
$DIMJUST
 70
     0
  9
$DIMSD1
 70
     0
  9
$DIMSD2
 70
     0
  9
$DIMTOLJ
 70
     0
  9
$DIMTZIN
 70
     0
  9
$DIMALTZ
 70
     0
  9
$DIMALTTZ
 70
     0
  9
$DIMFIT
 70
     3
  9
$DIMUPT
 70
     0
  9
$DIMUNIT
 70
     2
  9
$DIMDEC
 70
     2
  9
$DIMTDEC
 70
     2
  9
$DIMALTU
 70
     2
  9
$DIMALTTD
 70
     3
  9
$DIMTXSTY
  7
STANDARD
  9
$DIMAUNIT
 70
     0
  9
$LUNITS
 70
     2
  9
$LUPREC
 70
     2
  9
$SKETCHINC
 40
1.0
  9
$FILLETRAD
 40
10.0
  9
$AUNITS
 70
     0
  9
$AUPREC
 70
     2
  9
$MENU
  1
.
  9
$ELEVATION
 40
0.0
  9
$PELEVATION
 40
0.0
  9
$THICKNESS
 40
0.0
  9
$LIMCHECK
 70
     0
  9
$CHAMFERA
 40
10.0
  9
$CHAMFERB
 40
10.0
  9
$CHAMFERC
 40
20.0
  9
$CHAMFERD
 40
0.0
  9
$SKPOLY
 70
     0
  9
$TDCREATE
 40
2456450.424200845
  9
$TDUPDATE
 40
2456450.424200857
  9
$TDINDWG
 40
0.0000000116
  9
$TDUSRTIMER
 40
0.0000000116
  9
$USRTIMER
 70
     1
  9
$ANGBASE
 50
0.0
  9
$ANGDIR
 70
     0
  9
$PDMODE
 70
     0
  9
$PDSIZE
 40
-1.0
  9
$PLINEWID
 40
0.0
  9
$COORDS
 70
     1
  9
$SPLFRAME
 70
     0
  9
$SPLINETYPE
 70
     6
  9
$SPLINESEGS
 70
     8
  9
$ATTDIA
 70
     0
  9
$ATTREQ
 70
     1
  9
$HANDLING
 70
     1
  9
$HANDSEED
  5
310
  9
$SURFTAB1
 70
     6
  9
$SURFTAB2
 70
     6
  9
$SURFTYPE
 70
     6
  9
$SURFU
 70
     6
  9
$SURFV
 70
     6
  9
$UCSNAME
  2

  9
$UCSORG
 10
0.0
 20
0.0
 30
0.0
  9
$UCSXDIR
 10
1.0
 20
0.0
 30
0.0
  9
$UCSYDIR
 10
0.0
 20
1.0
 30
0.0
  9
$PUCSNAME
  2

  9
$PUCSORG
 10
0.0
 20
0.0
 30
0.0
  9
$PUCSXDIR
 10
1.0
 20
0.0
 30
0.0
  9
$PUCSYDIR
 10
0.0
 20
1.0
 30
0.0
  9
$USERI1
 70
     0
  9
$USERI2
 70
     0
  9
$USERI3
 70
     0
  9
$USERI4
 70
     0
  9
$USERI5
 70
     0
  9
$USERR1
 40
0.0
  9
$USERR2
 40
0.0
  9
$USERR3
 40
0.0
  9
$USERR4
 40
0.0
  9
$USERR5
 40
0.0
  9
$WORLDVIEW
 70
     1
  9
$SHADEDGE
 70
     3
  9
$SHADEDIF
 70
    70
  9
$TILEMODE
 70
     1
  9
$MAXACTVP
 70
    64
  9
$PINSBASE
 10
0.0
 20
0.0
 30
0.0
  9
$PLIMCHECK
 70
     0
  9
$PEXTMIN
 10
1.0000000000E+20
 20
1.0000000000E+20
 30
1.0000000000E+20
  9
$PEXTMAX
 10
-1.0000000000E+20
 20
-1.0000000000E+20
 30
-1.0000000000E+20
  9
$PLIMMIN
 10
0.0
 20
0.0
  9
$PLIMMAX
 10
420.0
 20
297.0
  9
$UNITMODE
 70
     0
  9
$VISRETAIN
 70
     1
  9
$PLINEGEN
 70
     0
  9
$PSLTSCALE
 70
     1
  9
$TREEDEPTH
 70
  3020
  9
$PICKSTYLE
 70
     1
  9
$CMLSTYLE
  2
STANDARD
  9
$CMLJUST
 70
     0
  9
$CMLSCALE
 40
20.0
  9
$PROXYGRAPHICS
 70
     1
  9
$MEASUREMENT
 70
     1
  0
ENDSEC
  0
SECTION
  2
CLASSES
  0
CLASS
  1
ACDBDICTIONARYWDFLT
  2
AcDbDictionaryWithDefault
  3
ObjectDBX Classes
 90
        0
280
     0
281
     0
  0
CLASS
  1
VISUALSTYLE
  2
AcDbVisualStyle
  3
ObjectDBX Classes
 90
     4095
280
     0
281
     0
  0
CLASS
  1
MATERIAL
  2
AcDbMaterial
  3
ObjectDBX Classes
 90
     1153
280
     0
281
     0
  0
CLASS
  1
XRECORD
  2
AcDbXrecord
  3
AutoCAD 2000
 90
        0
280
     0
281
     0
  0
CLASS
  1
LWPOLYLINE
  2
AcDbPolyline
  3
AutoCAD 2000
 90
        0
280
     0
281
     1
  0
CLASS
  1
HATCH
  2
AcDbHatch
  3
AutoCAD 2000
 90
        0
280
     0
281
     1
  0
ENDSEC
  0
SECTION
  2
TABLES
  0
TABLE
  2
VPORT
  5
8
330
0
100
AcDbSymbolTable
 70
     1
  0
VPORT
  5
29
330
8
100
AcDbSymbolTableRecord
100
AcDbViewportTableRecord
  2
*ACTIVE
 70
     0
 10
0.0
 20
0.0
 11
1.0
 21
1.0
 12
1050.0
 22
1485.0
 13
0.0
 23
0.0
 14
10.0
 24
10.0
 15
10.0
 25
10.0
 16
0.0
 26
0.0
 36
1.0
 17
0.0
 27
0.0
 37
0.0
 40
2970.0
 41
0.7070707071
 42
50.0
 43
0.0
 44
0.0
 50
0.0
 51
0.0
 71
     0
 72
  2000
 73
     1
 74
     3
 75
     0
 76
     0
 77
     0
 78
     0
  0
ENDTAB
  0
TABLE
  2
LTYPE
  5
5
330
0
100
AcDbSymbolTable
 70
     6
  0
LTYPE
  5
14
330
5
100
AcDbSymbolTableRecord
100
AcDbLinetypeTableRecord
  2
BYBLOCK
 70
     0
  3

 72
    65
 73
     0
 40
0.0
  0
LTYPE
  5
15
330
5
100
AcDbSymbolTableRecord
100
AcDbLinetypeTableRecord
  2
BYLAYER
 70
     0
  3

 72
    65
 73
     0
 40
0.0
  0
LTYPE
  5
16
330
5
100
AcDbSymbolTableRecord
100
AcDbLinetypeTableRecord
  2
CONTINUOUS
 70
     0
  3
Solid line
 72
    65
 73
     0
 40
0.0
  0
LTYPE
  5
3F
330
5
100
AcDbSymbolTableRecord
100
AcDbLinetypeTableRecord
  2
HIDDEN
 70
     0
  3
Hidden __ __ __ __ __ __ __ __ __ __ __ __ __ __
 72
    65
 73
     2
 40
1.905
 49
1.27
 74
     0
 49
-0.635
 74
     0
  0
LTYPE
  5
40
330
5
100
AcDbSymbolTableRecord
100
AcDbLinetypeTableRecord
  2
PHANTOM
 70
     0
  3
Phantom ______  __  __  ______  __  __  ______
 72
    65
 73
     6
 40
12.7
 49
6.35
 74
     0
 49
-1.27
 74
     0
 49
1.27
 74
     0
 49
-1.27
 74
     0
 49
1.27
 74
     0
 49
-1.27
 74
     0
  0
LTYPE
  5
41
330
5
100
AcDbSymbolTableRecord
100
AcDbLinetypeTableRecord
  2
CENTER
 70
     0
  3
Center ____ _ ____ _ ____ _ ____ _ ____ _ ____
 72
    65
 73
     4
 40
10.16
 49
6.35
 74
     0
 49
-1.27
 74
     0
 49
1.27
 74
     0
 49
-1.27
 74
     0
  0
LTYPE
  5
42
330
5
100
AcDbSymbolTableRecord
100
AcDbLinetypeTableRecord
  2
CENTERX2
 70
     0
  3
Center (2x) ________  __  ________  __  _____
 72
    65
 73
     4
 40
20.32
 49
12.7
 74
     0
 49
-2.54
 74
     0
 49
2.54
 74
     0
 49
-2.54
 74
     0
  0
LTYPE
  5
43
330
5
100
AcDbSymbolTableRecord
100
AcDbLinetypeTableRecord
  2
DOT2
 70
     0
  3
Dot (.5x) ........................................
 72
    65
 73
     2
 40
0.635
 49
0.0
 74
     0
 49
-0.635
 74
     0
  0
ENDTAB
  0
TABLE
  2
LAYER
  5
2
330
0
100
AcDbSymbolTable
 70
     1
  0
LAYER
  5
10
330
2
100
AcDbSymbolTableRecord
100
AcDbLayerTableRecord
  2
0
 70
     0
 62
     7
  6
CONTINUOUS
  0
ENDTAB
  0
TABLE
  2
STYLE
  5
3
330
0
100
AcDbSymbolTable
 70
     1
  0
STYLE
  5
11
330
3
100
AcDbSymbolTableRecord
100
AcDbTextStyleTableRecord
  2
STANDARD
 70
     0
 40
0.0
 41
1.0
 50
0.0
 71
     0
 42
2.5
  3
txt
  4
bigfont
  0
ENDTAB
  0
TABLE
  2
VIEW
  5
6
330
0
100
AcDbSymbolTable
 70
     0
  0
ENDTAB
  0
TABLE
  2
UCS
  5
7
330
0
100
AcDbSymbolTable
 70
     0
  0
ENDTAB
  0
TABLE
  2
APPID
  5
9
330
0
100
AcDbSymbolTable
 70
     1
  0
APPID
  5
12
330
9
100
AcDbSymbolTableRecord
100
AcDbRegAppTableRecord
  2
ACAD
 70
     0
  0
ENDTAB
  0
TABLE
  2
DIMSTYLE
  5
A
330
0
100
AcDbSymbolTable
 70
     1
  0
DIMSTYLE
105
27
330
A
100
AcDbSymbolTableRecord
100
AcDbDimStyleTableRecord
  2
ISO-25
 70
     0
  3

  4

  5

  6

  7

 40
1.0
 41
2.5
 42
0.625
 43
3.75
 44
1.25
 45
0.0
 46
0.0
 47
0.0
 48
0.0
140
2.5
141
2.5
142
0.0
143
0.0393700787
144
1.0
145
0.0
146
1.0
147
0.625
 71
     0
 72
     0
 73
     0
 74
     0
 75
     0
 76
     0
 77
     1
 78
     8
170
     0
171
     3
172
     1
173
     0
174
     0
175
     0
176
     0
177
     0
178
     0
270
     2
271
     2
272
     2
273
     2
274
     3
340
11
275
     0
280
     0
281
     0
282
     0
283
     0
284
     8
285
     0
286
     0
287
     3
288
     0
  0
ENDTAB
  0
TABLE
  2
BLOCK_RECORD
  5
1
330
0
100
AcDbSymbolTable
 70
     5
  0
BLOCK_RECORD
  5
1F
330
1
100
AcDbSymbolTableRecord
100
AcDbBlockTableRecord
  2
*MODEL_SPACE
  0
BLOCK_RECORD
  5
1B
330
1
100
AcDbSymbolTableRecord
100
AcDbBlockTableRecord
  2
*PAPER_SPACE
  0
BLOCK_RECORD
  5
23
330
1
100
AcDbSymbolTableRecord
100
AcDbBlockTableRecord
  2
*PAPER_SPACE0
  0
BLOCK_RECORD
  5
2DE
330
1
100
AcDbSymbolTableRecord
100
AcDbBlockTableRecord
  2
SW_CENTERMARKSYMBOL_0
  0
BLOCK_RECORD
  5
2EA
330
1
100
AcDbSymbolTableRecord
100
AcDbBlockTableRecord
  2
SW_CENTERMARKSYMBOL_1
  0
BLOCK_RECORD
  5
2F6
330
1
100
AcDbSymbolTableRecord
100
AcDbBlockTableRecord
  2
SW_CENTERMARKSYMBOL_2
  0
BLOCK_RECORD
  5
302
330
1
100
AcDbSymbolTableRecord
100
AcDbBlockTableRecord
  2
SW_CENTERMARKSYMBOL_3
  0
ENDTAB
  0
ENDSEC
  0
SECTION
  2
BLOCKS
  0
BLOCK
  5
20
330
1F
100
AcDbEntity
  8
0
100
AcDbBlockBegin
  2
*MODEL_SPACE
 70
     0
 10
0.0
 20
0.0
 30
0.0
  3
*MODEL_SPACE
  1

  0
ENDBLK
  5
21
330
1F
100
AcDbEntity
  8
0
100
AcDbBlockEnd
  0
BLOCK
  5
1C
330
1B
100
AcDbEntity
 67
     1
  8
0
100
AcDbBlockBegin
  2
*PAPER_SPACE
 70
     0
 10
0.0
 20
0.0
 30
0.0
  3
*PAPER_SPACE
  1

  0
ENDBLK
  5
1D
330
1B
100
AcDbEntity
 67
     1
  8
0
100
AcDbBlockEnd
  0
BLOCK
  5
24
330
23
100
AcDbEntity
  8
0
100
AcDbBlockBegin
  2
*PAPER_SPACE0
 70
     0
 10
0.0
 20
0.0
 30
0.0
  3
*PAPER_SPACE0
  1

  0
ENDBLK
  5
25
330
23
100
AcDbEntity
  8
0
100
AcDbBlockEnd
  0
BLOCK
  5
2DF
330
2DE
100
AcDbEntity
  8
0
100
AcDbBlockBegin
  2
SW_CENTERMARKSYMBOL_0
 70
     0
 10
0.0
 20
0.0
 30
0.0
  3
SW_CENTERMARKSYMBOL_0
  1

  0
LINE
  5
2E1
330
2DE
100
AcDbEntity
  8
0
  6
CONTINUOUS
 62
     0
100
AcDbLine
 10
0.0
 20
0.0
 30
0.0
 11
0.0
 21
25.0
 31
0.0
  0
LINE
  5
2E2
330
2DE
100
AcDbEntity
  8
0
  6
CONTINUOUS
 62
     0
100
AcDbLine
 10
0.0
 20
0.0
 30
0.0
 11
-25.0
 21
0.0
 31
0.0
  0
LINE
  5
2E3
330
2DE
100
AcDbEntity
  8
0
  6
CONTINUOUS
 62
     0
100
AcDbLine
 10
0.0
 20
0.0
 30
0.0
 11
0.0
 21
-25.0
 31
0.0
  0
LINE
  5
2E4
330
2DE
100
AcDbEntity
  8
0
  6
CONTINUOUS
 62
     0
100
AcDbLine
 10
0.0
 20
0.0
 30
0.0
 11
25.0
 21
0.0
 31
0.0
  0
LINE
  5
2E5
330
2DE
100
AcDbEntity
  8
0
  6
CONTINUOUS
 62
     0
100
AcDbLine
 10
0.0
 20
50.0
 30
0.0
 11
0.0
 21
85.0
 31
0.0
  0
LINE
  5
2E6
330
2DE
100
AcDbEntity
  8
0
  6
CONTINUOUS
 62
     0
100
AcDbLine
 10
-50.0
 20
0.0
 30
0.0
 11
-85.0
 21
0.0
 31
0.0
  0
LINE
  5
2E7
330
2DE
100
AcDbEntity
  8
0
  6
CONTINUOUS
 62
     0
100
AcDbLine
 10
0.0
 20
-50.0
 30
0.0
 11
0.0
 21
-85.0
 31
0.0
  0
LINE
  5
2E8
330
2DE
100
AcDbEntity
  8
0
  6
CONTINUOUS
 62
     0
100
AcDbLine
 10
50.0
 20
0.0
 30
0.0
 11
85.0
 21
0.0
 31
0.0
  0
ENDBLK
  5
2E0
330
2DE
100
AcDbEntity
  8
0
100
AcDbBlockEnd
  0
BLOCK
  5
2EB
330
2EA
100
AcDbEntity
  8
0
100
AcDbBlockBegin
  2
SW_CENTERMARKSYMBOL_1
 70
     0
 10
0.0
 20
0.0
 30
0.0
  3
SW_CENTERMARKSYMBOL_1
  1

  0
LINE
  5
2ED
330
2EA
100
AcDbEntity
  8
0
  6
CONTINUOUS
 62
     0
100
AcDbLine
 10
0.0
 20
0.0
 30
0.0
 11
0.0
 21
25.0
 31
0.0
  0
LINE
  5
2EE
330
2EA
100
AcDbEntity
  8
0
  6
CONTINUOUS
 62
     0
100
AcDbLine
 10
0.0
 20
0.0
 30
0.0
 11
-25.0
 21
0.0
 31
0.0
  0
LINE
  5
2EF
330
2EA
100
AcDbEntity
  8
0
  6
CONTINUOUS
 62
     0
100
AcDbLine
 10
0.0
 20
0.0
 30
0.0
 11
0.0
 21
-25.0
 31
0.0
  0
LINE
  5
2F0
330
2EA
100
AcDbEntity
  8
0
  6
CONTINUOUS
 62
     0
100
AcDbLine
 10
0.0
 20
0.0
 30
0.0
 11
25.0
 21
0.0
 31
0.0
  0
LINE
  5
2F1
330
2EA
100
AcDbEntity
  8
0
  6
CONTINUOUS
 62
     0
100
AcDbLine
 10
0.0
 20
50.0
 30
0.0
 11
0.0
 21
85.0
 31
0.0
  0
LINE
  5
2F2
330
2EA
100
AcDbEntity
  8
0
  6
CONTINUOUS
 62
     0
100
AcDbLine
 10
-50.0
 20
0.0
 30
0.0
 11
-85.0
 21
0.0
 31
0.0
  0
LINE
  5
2F3
330
2EA
100
AcDbEntity
  8
0
  6
CONTINUOUS
 62
     0
100
AcDbLine
 10
0.0
 20
-50.0
 30
0.0
 11
0.0
 21
-85.0
 31
0.0
  0
LINE
  5
2F4
330
2EA
100
AcDbEntity
  8
0
  6
CONTINUOUS
 62
     0
100
AcDbLine
 10
50.0
 20
0.0
 30
0.0
 11
85.0
 21
0.0
 31
0.0
  0
ENDBLK
  5
2EC
330
2EA
100
AcDbEntity
  8
0
100
AcDbBlockEnd
  0
BLOCK
  5
2F7
330
2F6
100
AcDbEntity
  8
0
100
AcDbBlockBegin
  2
SW_CENTERMARKSYMBOL_2
 70
     0
 10
0.0
 20
0.0
 30
0.0
  3
SW_CENTERMARKSYMBOL_2
  1

  0
LINE
  5
2F9
330
2F6
100
AcDbEntity
  8
0
  6
CONTINUOUS
 62
     0
100
AcDbLine
 10
0.0
 20
0.0
 30
0.0
 11
0.0
 21
25.0
 31
0.0
  0
LINE
  5
2FA
330
2F6
100
AcDbEntity
  8
0
  6
CONTINUOUS
 62
     0
100
AcDbLine
 10
0.0
 20
0.0
 30
0.0
 11
-25.0
 21
0.0
 31
0.0
  0
LINE
  5
2FB
330
2F6
100
AcDbEntity
  8
0
  6
CONTINUOUS
 62
     0
100
AcDbLine
 10
0.0
 20
0.0
 30
0.0
 11
0.0
 21
-25.0
 31
0.0
  0
LINE
  5
2FC
330
2F6
100
AcDbEntity
  8
0
  6
CONTINUOUS
 62
     0
100
AcDbLine
 10
0.0
 20
0.0
 30
0.0
 11
25.0
 21
0.0
 31
0.0
  0
LINE
  5
2FD
330
2F6
100
AcDbEntity
  8
0
  6
CONTINUOUS
 62
     0
100
AcDbLine
 10
0.0
 20
50.0
 30
0.0
 11
0.0
 21
85.0
 31
0.0
  0
LINE
  5
2FE
330
2F6
100
AcDbEntity
  8
0
  6
CONTINUOUS
 62
     0
100
AcDbLine
 10
-50.0
 20
0.0
 30
0.0
 11
-85.0
 21
0.0
 31
0.0
  0
LINE
  5
2FF
330
2F6
100
AcDbEntity
  8
0
  6
CONTINUOUS
 62
     0
100
AcDbLine
 10
0.0
 20
-50.0
 30
0.0
 11
0.0
 21
-85.0
 31
0.0
  0
LINE
  5
300
330
2F6
100
AcDbEntity
  8
0
  6
CONTINUOUS
 62
     0
100
AcDbLine
 10
50.0
 20
0.0
 30
0.0
 11
85.0
 21
0.0
 31
0.0
  0
ENDBLK
  5
2F8
330
2F6
100
AcDbEntity
  8
0
100
AcDbBlockEnd
  0
BLOCK
  5
303
330
302
100
AcDbEntity
  8
0
100
AcDbBlockBegin
  2
SW_CENTERMARKSYMBOL_3
 70
     0
 10
0.0
 20
0.0
 30
0.0
  3
SW_CENTERMARKSYMBOL_3
  1

  0
LINE
  5
305
330
302
100
AcDbEntity
  8
0
  6
CONTINUOUS
 62
     0
100
AcDbLine
 10
0.0
 20
0.0
 30
0.0
 11
0.0
 21
25.0
 31
0.0
  0
LINE
  5
306
330
302
100
AcDbEntity
  8
0
  6
CONTINUOUS
 62
     0
100
AcDbLine
 10
0.0
 20
0.0
 30
0.0
 11
-25.0
 21
0.0
 31
0.0
  0
LINE
  5
307
330
302
100
AcDbEntity
  8
0
  6
CONTINUOUS
 62
     0
100
AcDbLine
 10
0.0
 20
0.0
 30
0.0
 11
0.0
 21
-25.0
 31
0.0
  0
LINE
  5
308
330
302
100
AcDbEntity
  8
0
  6
CONTINUOUS
 62
     0
100
AcDbLine
 10
0.0
 20
0.0
 30
0.0
 11
25.0
 21
0.0
 31
0.0
  0
LINE
  5
309
330
302
100
AcDbEntity
  8
0
  6
CONTINUOUS
 62
     0
100
AcDbLine
 10
0.0
 20
50.0
 30
0.0
 11
0.0
 21
85.0
 31
0.0
  0
LINE
  5
30A
330
302
100
AcDbEntity
  8
0
  6
CONTINUOUS
 62
     0
100
AcDbLine
 10
-50.0
 20
0.0
 30
0.0
 11
-85.0
 21
0.0
 31
0.0
  0
LINE
  5
30B
330
302
100
AcDbEntity
  8
0
  6
CONTINUOUS
 62
     0
100
AcDbLine
 10
0.0
 20
-50.0
 30
0.0
 11
0.0
 21
-85.0
 31
0.0
  0
LINE
  5
30C
330
302
100
AcDbEntity
  8
0
  6
CONTINUOUS
 62
     0
100
AcDbLine
 10
50.0
 20
0.0
 30
0.0
 11
85.0
 21
0.0
 31
0.0
  0
ENDBLK
  5
304
330
302
100
AcDbEntity
  8
0
100
AcDbBlockEnd
  0
ENDSEC
  0
SECTION
  2
ENTITIES
  0
LINE
  5
44
330
1F
100
AcDbEntity
  8
0
  6
CONTINUOUS
 62
     7
100
AcDbLine
 10
1897.0868343692
 20
-879.6916454514
 30
0.0
 11
2897.0868492703
 21
-879.6916454514
 31
0.0
  0
LINE
  5
45
330
1F
100
AcDbEntity
  8
0
  6
CONTINUOUS
 62
     7
100
AcDbLine
 10
2897.0868492703
 20
-801.6916661938
 30
0.0
 11
1897.0868343692
 21
-801.6916661938
 31
0.0
  0
LINE
  5
46
330
1F
100
AcDbEntity
  8
0
  6
CONTINUOUS
 62
     7
100
AcDbLine
 10
-92.863107266
 20
-2250.6916820486
 30
0.0
 11
-212.9131948371
 21
-2250.6916820486
 31
0.0
  0
LINE
  5
47
330
1F
100
AcDbEntity
  8
0
  6
CONTINUOUS
 62
     7
100
AcDbLine
 10
-212.9131948371
 20
-2530.6916534384
 30
0.0
 11
-42.9131483455
 21
-2530.6916534384
 31
0.0
  0
LINE
  5
48
330
1F
100
AcDbEntity
  8
0
  6
CONTINUOUS
 62
     7
100
AcDbLine
 10
-92.9131751676
 20
-2225.6916686376
 30
0.0
 11
-92.9131751676
 21
-2250.7380991657
 31
0.0
  0
LINE
  5
49
330
1F
100
AcDbEntity
  8
0
  6
CONTINUOUS
 62
     7
100
AcDbLine
 10
167.0868301969
 20
-2290.6916886051
 30
0.0
 11
167.0868301969
 21
-2225.6916686376
 31
0.0
  0
LINE
  5
4A
330
1F
100
AcDbEntity
  8
0
  6
CONTINUOUS
 62
     7
100
AcDbLine
 10
197.0868909936
 20
-2515.69162304
 30
0.0
 11
357.0868427138
 21
-2515.69162304
 31
0.0
  0
LINE
  5
4B
330
1F
100
AcDbEntity
  8
0
  6
CONTINUOUS
 62
     7
100
AcDbLine
 10
357.0868427138
 20
-2265.6916379412
 30
0.0
 11
197.0868909936
 21
-2265.6916379412
 31
0.0
  0
LINE
  5
4C
330
1F
100
AcDbEntity
  8
0
  6
CONTINUOUS
 62
     7
100
AcDbLine
 10
357.0868427138
 20
-2515.69162304
 30
0.0
 11
397.0868492703
 21
-2475.6916164835
 31
0.0
  0
LINE
  5
4D
330
1F
100
AcDbEntity
  8
0
  6
CONTINUOUS
 62
     7
100
AcDbLine
 10
397.0868492703
 20
-2305.6916444977
 30
0.0
 11
357.0868427138
 21
-2265.6916379412
 31
0.0
  0
LINE
  5
4E
330
1F
100
AcDbEntity
  8
0
  6
CONTINUOUS
 62
     7
100
AcDbLine
 10
-212.9131948371
 20
-2270.691648074
 30
0.0
 11
-312.9130994697
 21
-2270.691648074
 31
0.0
  0
LINE
  5
4F
330
1F
100
AcDbEntity
  8
0
  6
CONTINUOUS
 62
     7
100
AcDbLine
 10
-312.9130994697
 20
-2510.691687413
 30
0.0
 11
-212.9131948371
 21
-2510.691687413
 31
0.0
  0
LINE
  5
50
330
1F
100
AcDbEntity
  8
0
  6
CONTINUOUS
 62
     7
100
AcDbLine
 10
-42.9131483455
 20
-2490.6916468819
 30
0.0
 11
167.0868301969
 21
-2490.6916468819
 31
0.0
  0
LINE
  5
51
330
1F
100
AcDbEntity
  8
0
  6
CONTINUOUS
 62
     7
100
AcDbLine
 10
132.586842237
 20
-1971.0358529766
 30
0.0
 11
89.0868509393
 21
-1895.6916517993
 31
0.0
  0
LINE
  5
52
330
1F
100
AcDbEntity
  8
0
  6
CONTINUOUS
 62
     7
100
AcDbLine
 10
-14.9131214042
 20
-1895.6916517993
 30
0.0
 11
-58.4131127019
 21
-1971.0358529766
 31
0.0
  0
LINE
  5
53
330
1F
100
AcDbEntity
  8
0
  6
CONTINUOUS
 62
     7
100
AcDbLine
 10
132.586842237
 20
-2195.6916450937
 30
0.0
 11
132.586842237
 21
-2115.6916692336
 31
0.0
  0
LINE
  5
54
330
1F
100
AcDbEntity
  8
0
  6
CONTINUOUS
 62
     7
100
AcDbLine
 10
-58.4131127019
 20
-2115.6916692336
 30
0.0
 11
-58.4131127019
 21
-2195.6916450937
 31
0.0
  0
LINE
  5
55
330
1F
100
AcDbEntity
  8
0
  6
CONTINUOUS
 62
     7
100
AcDbLine
 10
-58.4131127019
 20
-1971.0358529766
 30
0.0
 11
-58.4131127019
 21
-2085.6916456898
 31
0.0
  0
LINE
  5
56
330
1F
100
AcDbEntity
  8
0
  6
CONTINUOUS
 62
     7
100
AcDbLine
 10
132.586842237
 20
-2085.6916456898
 30
0.0
 11
132.586842237
 21
-1971.0358529766
 31
0.0
  0
LINE
  5
57
330
1F
100
AcDbEntity
  8
0
  6
CONTINUOUS
 62
     7
100
AcDbLine
 10
107.086857615
 20
-2115.6916692336
 30
0.0
 11
107.086857615
 21
-2085.6916456898
 31
0.0
  0
LINE
  5
58
330
1F
100
AcDbEntity
  8
0
  6
CONTINUOUS
 62
     7
100
AcDbLine
 10
-32.9131280799
 20
-2085.6916456898
 30
0.0
 11
-32.9131280799
 21
-2115.6916692336
 31
0.0
  0
LINE
  5
59
330
1F
100
AcDbEntity
  8
0
  6
CONTINUOUS
 62
     7
100
AcDbLine
 10
107.086857615
 20
-2225.6916686376
 30
0.0
 11
107.086857615
 21
-2195.6916450937
 31
0.0
  0
LINE
  5
5A
330
1F
100
AcDbEntity
  8
0
  6
CONTINUOUS
 62
     7
100
AcDbLine
 10
-32.9131280799
 20
-2195.6916450937
 30
0.0
 11
-32.9131280799
 21
-2225.6916686376
 31
0.0
  0
LINE
  5
5B
330
1F
100
AcDbEntity
  8
0
  6
CONTINUOUS
 62
     7
100
AcDbLine
 10
167.0868301969
 20
-2460.691660591
 30
0.0
 11
197.0868909936
 21
-2460.691660591
 31
0.0
  0
LINE
  5
5C
330
1F
100
AcDbEntity
  8
0
  6
CONTINUOUS
 62
     7
100
AcDbLine
 10
197.0868909936
 20
-2320.6916748961
 30
0.0
 11
167.0868301969
 21
-2320.6916748961
 31
0.0
  0
LINE
  5
5D
330
1F
100
AcDbEntity
  8
0
  6
CONTINUOUS
 62
     7
100
AcDbLine
 10
-2.913141789
 20
-1675.3565770988
 30
0.0
 11
-2.913141789
 21
-1895.6916517993
 31
0.0
  0
LINE
  5
5E
330
1F
100
AcDbEntity
  8
0
  6
CONTINUOUS
 62
     7
100
AcDbLine
 10
-2.913141789
 20
2059.3084842483
 30
0.0
 11
-2.913141789
 21
1750.3135353844
 31
0.0
  0
LINE
  5
5F
330
1F
100
AcDbEntity
  8
0
  6
CONTINUOUS
 62
     7
100
AcDbLine
 10
77.0868713241
 20
1750.3135353844
 30
0.0
 11
77.0868713241
 21
2059.3084842483
 31
0.0
  0
LINE
  5
60
330
1F
100
AcDbEntity
  8
0
  6
CONTINUOUS
 62
     7
100
AcDbLine
 10
77.0868713241
 20
-1895.6916517993
 30
0.0
 11
77.0868713241
 21
-1675.9121249844
 31
0.0
  0
LINE
  5
61
330
1F
100
AcDbEntity
  8
0
  6
CONTINUOUS
 62
     7
100
AcDbLine
 10
397.0868492703
 20
-2429.6916573723
 30
0.0
 11
597.0868448
 21
-2429.6916573723
 31
0.0
  0
LINE
  5
62
330
1F
100
AcDbEntity
  8
0
  6
CONTINUOUS
 62
     7
100
AcDbLine
 10
597.0868448
 20
-2351.6916781147
 30
0.0
 11
397.0868492703
 21
-2351.6916781147
 31
0.0
  0
LINE
  5
63
330
1F
100
AcDbEntity
  8
0
  6
CONTINUOUS
 62
     7
100
AcDbLine
 10
832.0868553798
 20
2359.3084961693
 30
0.0
 11
832.0868553798
 21
2379.3082386772
 31
0.0
  0
LINE
  5
64
330
1F
100
AcDbEntity
  8
0
  6
CONTINUOUS
 62
     7
100
AcDbLine
 10
-527.9131626506
 20
2379.3082386772
 30
0.0
 11
-527.9131626506
 21
2356.8229824821
 31
0.0
  0
LINE
  5
65
330
1F
100
AcDbEntity
  8
0
  6
CONTINUOUS
 62
     7
100
AcDbLine
 10
-522.913078012
 20
2434.3084246437
 30
0.0
 11
-522.913078012
 21
2404.3082148353
 31
0.0
  0
LINE
  5
66
330
1F
100
AcDbEntity
  8
0
  6
CONTINUOUS
 62
     7
100
AcDbLine
 10
827.0868638735
 20
2404.3082148353
 30
0.0
 11
827.0868638735
 21
2434.3084246437
 31
0.0
  0
ARC
  5
67
330
1F
100
AcDbEntity
  8
0
  6
CONTINUOUS
 62
     7
100
AcDbCircle
 10
752.0868588071
 20
2574.3083483497
 30
0.0
 40
50.00000000000004
100
AcDbArc
 50
36.8735316711
 51
90.0
  0
ARC
  5
68
330
1F
100
AcDbEntity
  8
0
  6
CONTINUOUS
 62
     7
100
AcDbCircle
 10
-447.9131411929
 20
2574.3083483497
 30
0.0
 40
50.0
100
AcDbArc
 50
90.0
 51
143.1043663945
  0
LINE
  5
69
330
1F
100
AcDbEntity
  8
0
  6
CONTINUOUS
 62
     7
100
AcDbLine
 10
-118.570814075
 20
2584.3082815925
 30
0.0
 11
-118.570814075
 21
2434.3084246437
 31
0.0
  0
ARC
  5
6A
330
1F
100
AcDbEntity
  8
0
  6
CONTINUOUS
 62
     7
100
AcDbCircle
 10
-98.570789392
 20
2584.3083483497
 30
0.0
 40
20.00000000000003
100
AcDbArc
 50
90.0
 51
180.0
  0
LINE
  5
6B
330
1F
100
AcDbEntity
  8
0
  6
CONTINUOUS
 62
     7
100
AcDbLine
 10
422.7444881778
 20
2434.3084246437
 30
0.0
 11
422.7444881778
 21
2584.3082815925
 31
0.0
  0
ARC
  5
6C
330
1F
100
AcDbEntity
  8
0
  6
CONTINUOUS
 62
     7
100
AcDbCircle
 10
402.7445070062
 20
2584.3083483497
 30
0.0
 40
20.00000000000006
100
AcDbArc
 50
0.0
 51
90.0
  0
LINE
  5
6D
330
1F
100
AcDbEntity
  8
0
  6
CONTINUOUS
 62
     7
100
AcDbLine
 10
752.0868608932
 20
2379.3082386772
 30
0.0
 11
752.0868608932
 21
2404.3082148353
 31
0.0
  0
LINE
  5
6E
330
1F
100
AcDbEntity
  8
0
  6
CONTINUOUS
 62
     7
100
AcDbLine
 10
-447.9131495376
 20
2404.3082148353
 30
0.0
 11
-447.9131495376
 21
2379.3082386772
 31
0.0
  0
ARC
  5
6F
330
1F
100
AcDbEntity
  8
0
  6
CONTINUOUS
 62
     7
100
AcDbCircle
 10
-311.0680828701
 20
2584.3083483497
 30
0.0
 40
20.0
100
AcDbArc
 50
90.0
 51
180.0
  0
LINE
  5
70
330
1F
100
AcDbEntity
  8
0
  6
CONTINUOUS
 62
     7
100
AcDbLine
 10
-331.0680782218
 20
2584.3082815925
 30
0.0
 11
-331.0680782218
 21
2434.3084246437
 31
0.0
  0
LINE
  5
71
330
1F
100
AcDbEntity
  8
0
  6
CONTINUOUS
 62
     7
100
AcDbLine
 10
635.2417895775
 20
2434.3084246437
 30
0.0
 11
635.2417895775
 21
2584.3082815925
 31
0.0
  0
ARC
  5
72
330
1F
100
AcDbEntity
  8
0
  6
CONTINUOUS
 62
     7
100
AcDbCircle
 10
615.2418004843
 20
2584.3083483497
 30
0.0
 40
20.0
100
AcDbArc
 50
0.0
 51
90.0
  0
LINE
  5
73
330
1F
100
AcDbEntity
  8
0
  6
CONTINUOUS
 62
     7
100
AcDbLine
 10
-473.0542396922
 20
2584.3082815925
 30
0.0
 11
-473.0542396922
 21
2434.3084246437
 31
0.0
  0
ARC
  5
74
330
1F
100
AcDbEntity
  8
0
  6
CONTINUOUS
 62
     7
100
AcDbCircle
 10
-453.0542349878
 20
2584.3083483497
 30
0.0
 40
20.0
100
AcDbArc
 50
90.0
 51
180.0
  0
LINE
  5
75
330
1F
100
AcDbEntity
  8
0
  6
CONTINUOUS
 62
     7
100
AcDbLine
 10
777.2279510479
 20
2434.3084246437
 30
0.0
 11
777.2279510479
 21
2584.3082815925
 31
0.0
  0
ARC
  5
76
330
1F
100
AcDbEntity
  8
0
  6
CONTINUOUS
 62
     7
100
AcDbCircle
 10
757.227952602
 20
2584.3083483497
 30
0.0
 40
20.0
100
AcDbArc
 50
0.0
 51
90.0
  0
LINE
  5
77
330
1F
100
AcDbEntity
  8
0
  6
CONTINUOUS
 62
     7
100
AcDbLine
 10
-522.913078012
 20
2584.3082815925
 30
0.0
 11
-522.913078012
 21
2434.3084246437
 31
0.0
  0
ARC
  5
78
330
1F
100
AcDbEntity
  8
0
  6
CONTINUOUS
 62
     7
100
AcDbCircle
 10
-502.9131411929
 20
2584.3083483497
 30
0.0
 40
20.0
100
AcDbArc
 50
90.0
 51
180.0
  0
LINE
  5
79
330
1F
100
AcDbEntity
  8
0
  6
CONTINUOUS
 62
     7
100
AcDbLine
 10
827.0868638735
 20
2434.3084246437
 30
0.0
 11
827.0868638735
 21
2584.3082815925
 31
0.0
  0
ARC
  5
7A
330
1F
100
AcDbEntity
  8
0
  6
CONTINUOUS
 62
     7
100
AcDbCircle
 10
807.0868588071
 20
2584.3083483497
 30
0.0
 40
20.0
100
AcDbArc
 50
0.0
 51
90.0
  0
CIRCLE
  5
7B
330
1F
100
AcDbEntity
  8
0
  6
CONTINUOUS
 62
     7
100
AcDbCircle
 10
1137.0868588071
 20
-2725.6916516503
 30
0.0
 40
60.00000000000018
  0
LINE
  5
7C
330
1F
100
AcDbEntity
  8
0
  6
CONTINUOUS
 62
     7
100
AcDbLine
 10
1107.797983868
 20
-2705.8885544022
 30
0.0
 11
1105.6113315951
 21
-2710.3850542982
 31
0.0
  0
LINE
  5
7D
330
1F
100
AcDbEntity
  8
0
  6
CONTINUOUS
 62
     7
100
AcDbLine
 10
1105.6113315951
 20
-2710.3850542982
 30
0.0
 11
1103.4246769938
 21
-2714.8815541943
 31
0.0
  0
LINE
  5
7E
330
1F
100
AcDbEntity
  8
0
  6
CONTINUOUS
 62
     7
100
AcDbLine
 10
1103.4246769938
 20
-2714.8815541943
 30
0.0
 11
1103.7475129794
 21
-2715.0386124333
 31
0.0
  0
LINE
  5
7F
330
1F
100
AcDbEntity
  8
0
  6
CONTINUOUS
 62
     7
100
AcDbLine
 10
1117.4407790619
 20
-2754.6576708038
 30
0.0
 11
1117.2837836872
 21
-2754.9805044611
 31
0.0
  0
LINE
  5
80
330
1F
100
AcDbEntity
  8
0
  6
CONTINUOUS
 62
     7
100
AcDbLine
 10
1117.2837836872
 20
-2754.9805044611
 30
0.0
 11
1121.7802870757
 21
-2757.1671753605
 31
0.0
  0
LINE
  5
81
330
1F
100
AcDbEntity
  8
0
  6
CONTINUOUS
 62
     7
100
AcDbLine
 10
1121.7802870757
 20
-2757.1671753605
 30
0.0
 11
1126.2767916284
 21
-2759.3538462599
 31
0.0
  0
LINE
  5
82
330
1F
100
AcDbEntity
  8
0
  6
CONTINUOUS
 62
     7
100
AcDbLine
 10
1126.2767916284
 20
-2759.3538462599
 30
0.0
 11
1126.433785839
 21
-2759.0310126026
 31
0.0
  0
LINE
  5
83
330
1F
100
AcDbEntity
  8
0
  6
CONTINUOUS
 62
     7
100
AcDbLine
 10
1166.0529000889
 20
-2745.3377395352
 30
0.0
 11
1166.3757337462
 21
-2745.4947232683
 31
0.0
  0
LINE
  5
84
330
1F
100
AcDbEntity
  8
0
  6
CONTINUOUS
 62
     7
100
AcDbLine
 10
1166.3757337462
 20
-2745.4947232683
 30
0.0
 11
1168.5623860191
 21
-2740.9982233723
 31
0.0
  0
LINE
  5
85
330
1F
100
AcDbEntity
  8
0
  6
CONTINUOUS
 62
     7
100
AcDbLine
 10
1168.5623860191
 20
-2740.9982233723
 30
0.0
 11
1170.7490406204
 21
-2736.5017234762
 31
0.0
  0
LINE
  5
86
330
1F
100
AcDbEntity
  8
0
  6
CONTINUOUS
 62
     7
100
AcDbLine
 10
1170.7490406204
 20
-2736.5017234762
 30
0.0
 11
1170.4262046348
 21
-2736.3447397431
 31
0.0
  0
LINE
  5
87
330
1F
100
AcDbEntity
  8
0
  6
CONTINUOUS
 62
     7
100
AcDbLine
 10
1156.7329385522
 20
-2696.7256068667
 30
0.0
 11
1156.8899339269
 21
-2696.4027732094
 31
0.0
  0
LINE
  5
88
330
1F
100
AcDbEntity
  8
0
  6
CONTINUOUS
 62
     7
100
AcDbLine
 10
1147.8969259858
 20
-2692.0295059164
 30
0.0
 11
1147.7399317752
 21
-2692.3523395737
 31
0.0
  0
LINE
  5
89
330
1F
100
AcDbEntity
  8
0
  6
CONTINUOUS
 62
     7
100
AcDbLine
 10
1108.1208175253
 20
-2706.0455381354
 30
0.0
 11
1107.797983868
 21
-2705.8885544022
 31
0.0
  0
LINE
  5
8A
330
1F
100
AcDbEntity
  8
0
  6
CONTINUOUS
 62
     7
100
AcDbLine
 10
1152.3934305384
 20
-2694.21610231
 30
0.0
 11
1147.8969259858
 21
-2692.0295059164
 31
0.0
  0
LINE
  5
8B
330
1F
100
AcDbEntity
  8
0
  6
CONTINUOUS
 62
     7
100
AcDbLine
 10
1156.8899339269
 20
-2696.4027732094
 30
0.0
 11
1152.3934305384
 21
-2694.21610231
 31
0.0
  0
LINE
  5
8C
330
1F
100
AcDbEntity
  8
0
  6
CONTINUOUS
 62
     7
100
AcDbLine
 10
1147.7399317752
 20
-2692.3523395737
 30
0.0
 11
1134.777007837
 21
-2719.0085052927
 31
0.0
  0
LINE
  5
8D
330
1F
100
AcDbEntity
  8
0
  6
CONTINUOUS
 62
     7
100
AcDbLine
 10
1134.777007837
 20
-2719.0085052927
 30
0.0
 11
1108.1208175253
 21
-2706.0455381354
 31
0.0
  0
LINE
  5
8E
330
1F
100
AcDbEntity
  8
0
  6
CONTINUOUS
 62
     7
100
AcDbLine
 10
1126.433785839
 20
-2759.0310126026
 30
0.0
 11
1139.3967097771
 21
-2732.3747723778
 31
0.0
  0
LINE
  5
8F
330
1F
100
AcDbEntity
  8
0
  6
CONTINUOUS
 62
     7
100
AcDbLine
 10
1139.3967097771
 20
-2732.3747723778
 30
0.0
 11
1166.0529000889
 21
-2745.3377395352
 31
0.0
  0
LINE
  5
90
330
1F
100
AcDbEntity
  8
0
  6
CONTINUOUS
 62
     7
100
AcDbLine
 10
1130.4037019815
 20
-2728.0015050848
 30
0.0
 11
1117.4407790619
 21
-2754.6576708038
 31
0.0
  0
LINE
  5
91
330
1F
100
AcDbEntity
  8
0
  6
CONTINUOUS
 62
     7
100
AcDbLine
 10
1103.7475129794
 20
-2715.0386124333
 30
0.0
 11
1130.4037019815
 21
-2728.0015050848
 31
0.0
  0
LINE
  5
92
330
1F
100
AcDbEntity
  8
0
  6
CONTINUOUS
 62
     7
100
AcDbLine
 10
1143.7700156327
 20
-2723.3817725857
 30
0.0
 11
1156.7329385522
 21
-2696.7256068667
 31
0.0
  0
LINE
  5
93
330
1F
100
AcDbEntity
  8
0
  6
CONTINUOUS
 62
     7
100
AcDbLine
 10
1170.4262046348
 20
-2736.3447397431
 30
0.0
 11
1143.7700156327
 21
-2723.3817725857
 31
0.0
  0
LINE
  5
94
330
1F
100
AcDbEntity
  8
0
  6
CONTINUOUS
 62
     7
100
AcDbLine
 10
1337.0868543367
 20
-1973.6916496833
 30
0.0
 11
937.0868632774
 21
-1973.6916496833
 31
0.0
  0
LINE
  5
95
330
1F
100
AcDbEntity
  8
0
  6
CONTINUOUS
 62
     7
100
AcDbLine
 10
1337.0868543367
 20
-1973.6916496833
 30
0.0
 11
1337.0868543367
 21
-1985.6916665514
 31
0.0
  0
LINE
  5
96
330
1F
100
AcDbEntity
  8
0
  6
CONTINUOUS
 62
     7
100
AcDbLine
 10
937.0868632774
 20
-1973.6916496833
 30
0.0
 11
937.0868632774
 21
-1985.6916665514
 31
0.0
  0
LINE
  5
97
330
1F
100
AcDbEntity
  8
0
  6
CONTINUOUS
 62
     7
100
AcDbLine
 10
1337.0868543367
 20
-1985.6916665514
 30
0.0
 11
937.0868632774
 21
-1985.6916665514
 31
0.0
  0
LINE
  5
98
330
1F
100
AcDbEntity
  8
0
  6
CONTINUOUS
 62
     7
100
AcDbLine
 10
937.0868632774
 20
-1985.6916665514
 30
0.0
 11
937.0868632774
 21
-2053.6916627963
 31
0.0
  0
LINE
  5
99
330
1F
100
AcDbEntity
  8
0
  6
CONTINUOUS
 62
     7
100
AcDbLine
 10
1337.0868543367
 20
-1985.6916665514
 30
0.0
 11
1337.0868543367
 21
-2053.6916627963
 31
0.0
  0
LINE
  5
9A
330
1F
100
AcDbEntity
  8
0
  6
CONTINUOUS
 62
     7
100
AcDbLine
 10
1337.0868543367
 20
-2215.691648372
 30
0.0
 11
937.0868632774
 21
-2215.691648372
 31
0.0
  0
LINE
  5
9B
330
1F
100
AcDbEntity
  8
0
  6
CONTINUOUS
 62
     7
100
AcDbLine
 10
937.0868632774
 20
-2053.6916627963
 30
0.0
 11
937.0868632774
 21
-2215.691648372
 31
0.0
  0
LINE
  5
9C
330
1F
100
AcDbEntity
  8
0
  6
CONTINUOUS
 62
     7
100
AcDbLine
 10
1337.0868543367
 20
-2053.6916627963
 30
0.0
 11
1337.0868543367
 21
-2215.691648372
 31
0.0
  0
LINE
  5
9D
330
1F
100
AcDbEntity
  8
0
  6
CONTINUOUS
 62
     7
100
AcDbLine
 10
697.0868611913
 20
-790.6916290005
 30
0.0
 11
1577.0868564229
 21
-790.6916290005
 31
0.0
  0
LINE
  5
9E
330
1F
100
AcDbEntity
  8
0
  6
CONTINUOUS
 62
     7
100
AcDbLine
 10
697.0868611913
 20
-940.691634961
 30
0.0
 11
1577.0868564229
 21
-940.691634961
 31
0.0
  0
LINE
  5
9F
330
1F
100
AcDbEntity
  8
0
  6
CONTINUOUS
 62
     7
100
AcDbLine
 10
637.0868513565
 20
-690.6916498621
 30
0.0
 11
637.0868513565
 21
-730.6916564186
 31
0.0
  0
LINE
  5
A0
330
1F
100
AcDbEntity
  8
0
  6
CONTINUOUS
 62
     7
100
AcDbLine
 10
1637.0868662577
 20
-730.6916564186
 30
0.0
 11
1637.0868662577
 21
-690.6916498621
 31
0.0
  0
LINE
  5
A1
330
1F
100
AcDbEntity
  8
0
  6
CONTINUOUS
 62
     7
100
AcDbLine
 10
637.0868513565
 20
-840.6916558226
 30
0.0
 11
637.0868513565
 21
-880.6916623791
 31
0.0
  0
LINE
  5
A2
330
1F
100
AcDbEntity
  8
0
  6
CONTINUOUS
 62
     7
100
AcDbLine
 10
1637.0868662577
 20
-880.6916623791
 30
0.0
 11
1637.0868662577
 21
-840.6916558226
 31
0.0
  0
SPLINE
  5
A3
330
1F
100
AcDbEntity
  8
0
  6
CONTINUOUS
 62
     7
100
AcDbSpline
210
0.0
220
0.0
230
1.0
 70
     8
 71
     3
 72
    14
 73
    10
 74
     0
 42
0.00000001
 43
0.00000001
 40
0.0
 40
0.0
 40
0.0
 40
0.0
 40
0.25
 40
0.25
 40
0.5
 40
0.5
 40
0.75
 40
0.75
 40
1.0
 40
1.0
 40
1.0
 40
1.0
 10
1577.086858807083
 20
-790.6916516502527
 30
0.0
 10
1584.942256492559
 20
-790.6916516502527
 30
0.0
 10
1592.791731868639
 20
-789.1300122503513
 30
0.0
 10
1607.303997629336
 20
-783.1188349515078
 30
0.0
 10
1613.959662005577
 20
-778.6716621941433
 30
0.0
 10
1625.066869350973
 20
-767.5644548487473
 30
0.0
 10
1629.514042108338
 20
-760.9087904725064
 30
0.0
 10
1635.525219407181
 20
-746.3965247118093
 30
0.0
 10
1637.086858807083
 20
-738.5470493357293
 30
0.0
 10
1637.086858807083
 20
-730.6916516502527
 30
0.0
  0
LINE
  5
A4
330
1F
100
AcDbEntity
  8
0
  6
CONTINUOUS
 62
     7
100
AcDbLine
 10
1637.0868662577
 20
-690.6916498621
 30
0.0
 11
637.0868513565
 21
-690.6916498621
 31
0.0
  0
SPLINE
  5
A5
330
1F
100
AcDbEntity
  8
0
  6
CONTINUOUS
 62
     7
100
AcDbSpline
210
0.0
220
0.0
230
1.0
 70
     8
 71
     3
 72
    14
 73
    10
 74
     0
 42
0.00000001
 43
0.00000001
 40
0.0
 40
0.0
 40
0.0
 40
0.0
 40
0.25
 40
0.25
 40
0.5
 40
0.5
 40
0.75
 40
0.75
 40
1.0
 40
1.0
 40
1.0
 40
1.0
 10
637.0868588070824
 20
-730.6916516502527
 30
0.0
 10
637.0868588070824
 20
-738.5470493357293
 30
0.0
 10
638.6484982069834
 20
-746.3965247118093
 30
0.0
 10
644.6596755058271
 20
-760.9087904725064
 30
0.0
 10
649.1068482631915
 20
-767.5644548487473
 30
0.0
 10
660.2140556085875
 20
-778.6716621941431
 30
0.0
 10
666.8697199848284
 20
-783.1188349515078
 30
0.0
 10
681.3819857455255
 20
-789.1300122503513
 30
0.0
 10
689.2314611216053
 20
-790.6916516502527
 30
0.0
 10
697.0868588070825
 20
-790.6916516502527
 30
0.0
  0
SPLINE
  5
A6
330
1F
100
AcDbEntity
  8
0
  6
CONTINUOUS
 62
     7
100
AcDbSpline
210
0.0
220
0.0
230
1.0
 70
     8
 71
     3
 72
    14
 73
    10
 74
     0
 42
0.00000001
 43
0.00000001
 40
0.0
 40
0.0
 40
0.0
 40
0.0
 40
0.25
 40
0.25
 40
0.5
 40
0.5
 40
0.75
 40
0.75
 40
1.0
 40
1.0
 40
1.0
 40
1.0
 10
1577.086858807083
 20
-940.6916516502528
 30
0.0
 10
1584.942256492559
 20
-940.6916516502528
 30
0.0
 10
1592.791731868639
 20
-939.1300122503518
 30
0.0
 10
1607.303997629336
 20
-933.1188349515082
 30
0.0
 10
1613.959662005577
 20
-928.6716621941434
 30
0.0
 10
1625.066869350973
 20
-917.5644548487475
 30
0.0
 10
1629.514042108338
 20
-910.9087904725071
 30
0.0
 10
1635.525219407181
 20
-896.39652471181
 30
0.0
 10
1637.086858807083
 20
-888.5470493357298
 30
0.0
 10
1637.086858807083
 20
-880.6916516502528
 30
0.0
  0
LINE
  5
A7
330
1F
100
AcDbEntity
  8
0
  6
CONTINUOUS
 62
     7
100
AcDbLine
 10
1637.0868662577
 20
-840.6916558226
 30
0.0
 11
637.0868513565
 21
-840.6916558226
 31
0.0
  0
SPLINE
  5
A8
330
1F
100
AcDbEntity
  8
0
  6
CONTINUOUS
 62
     7
100
AcDbSpline
210
0.0
220
0.0
230
1.0
 70
     8
 71
     3
 72
    14
 73
    10
 74
     0
 42
0.00000001
 43
0.00000001
 40
0.0
 40
0.0
 40
0.0
 40
0.0
 40
0.25
 40
0.25
 40
0.5
 40
0.5
 40
0.75
 40
0.75
 40
1.0
 40
1.0
 40
1.0
 40
1.0
 10
637.0868588070824
 20
-880.6916516502528
 30
0.0
 10
637.0868588070824
 20
-888.5470493357295
 30
0.0
 10
638.6484982069834
 20
-896.3965247118094
 30
0.0
 10
644.6596755058271
 20
-910.9087904725067
 30
0.0
 10
649.1068482631915
 20
-917.5644548487475
 30
0.0
 10
660.2140556085875
 20
-928.6716621941432
 30
0.0
 10
666.8697199848284
 20
-933.1188349515079
 30
0.0
 10
681.3819857455255
 20
-939.1300122503516
 30
0.0
 10
689.2314611216053
 20
-940.6916516502528
 30
0.0
 10
697.0868588070825
 20
-940.6916516502528
 30
0.0
  0
LINE
  5
A9
330
1F
100
AcDbEntity
  8
0
  6
CONTINUOUS
 62
     7
100
AcDbLine
 10
937.0868632774
 20
-2203.6916687568
 30
0.0
 11
677.086857913
 21
-2203.6916687568
 31
0.0
  0
LINE
  5
AA
330
1F
100
AcDbEntity
  8
0
  6
CONTINUOUS
 62
     7
100
AcDbLine
 10
1897.0868343692
 20
-777.6916324576
 30
0.0
 11
1897.0868343692
 21
-1903.6916568359
 31
0.0
  0
ARC
  5
AB
330
1F
100
AcDbEntity
  8
0
  6
CONTINUOUS
 62
     7
100
AcDbCircle
 10
1597.0868588071
 20
-1903.6916516503
 30
0.0
 40
300.0000000000002
100
AcDbArc
 50
270.0
 51
0.0
  0
ARC
  5
AC
330
1F
100
AcDbEntity
  8
0
  6
CONTINUOUS
 62
     7
100
AcDbCircle
 10
677.0868588071
 20
-1903.6916516503
 30
0.0
 40
300.0000000000001
100
AcDbArc
 50
180.0
 51
270.0
  0
LINE
  5
AD
330
1F
100
AcDbEntity
  8
0
  6
CONTINUOUS
 62
     7
100
AcDbLine
 10
677.086857913
 20
-477.6916205366
 30
0.0
 11
1597.0868597012
 21
-477.6916205366
 31
0.0
  0
LINE
  5
AE
330
1F
100
AcDbEntity
  8
0
  6
CONTINUOUS
 62
     7
100
AcDbLine
 10
1597.0868597012
 20
-2203.6916687568
 30
0.0
 11
1337.0868543367
 21
-2203.6916687568
 31
0.0
  0
ARC
  5
AF
330
1F
100
AcDbEntity
  8
0
  6
CONTINUOUS
 62
     7
100
AcDbCircle
 10
1597.0868588071
 20
-777.6916516503
 30
0.0
 40
299.9999999999999
100
AcDbArc
 50
0.0
 51
90.0
  0
ARC
  5
B0
330
1F
100
AcDbEntity
  8
0
  6
CONTINUOUS
 62
     7
100
AcDbCircle
 10
677.0868588071
 20
-777.6916516503
 30
0.0
 40
300.0000000000001
100
AcDbArc
 50
90.0
 51
180.0
  0
LINE
  5
B1
330
1F
100
AcDbEntity
  8
0
  6
CONTINUOUS
 62
     7
100
AcDbLine
 10
377.086883245
 20
-1903.6916568359
 30
0.0
 11
377.086883245
 21
-777.6916324576
 31
0.0
  0
LINE
  5
B2
330
1F
100
AcDbEntity
  8
0
  6
CONTINUOUS
 62
     7
100
AcDbLine
 10
2032.0868844371
 20
-2640.6916528423
 30
0.0
 11
2062.086870728
 21
-2640.6916528423
 31
0.0
  0
ARC
  5
B3
330
1F
100
AcDbEntity
  8
0
  6
CONTINUOUS
 62
     7
100
AcDbCircle
 10
2032.0868588071
 20
-2690.6916516503
 30
0.0
 40
50.0
100
AcDbArc
 50
90.0
 51
180.0
  0
LINE
  5
B4
330
1F
100
AcDbEntity
  8
0
  6
CONTINUOUS
 62
     7
100
AcDbLine
 10
2062.086870728
 20
-2940.6916647633
 30
0.0
 11
1982.086857615
 21
-2940.6916647633
 31
0.0
  0
LINE
  5
B5
330
1F
100
AcDbEntity
  8
0
  6
CONTINUOUS
 62
     7
100
AcDbLine
 10
1982.086857615
 20
-2940.6916647633
 30
0.0
 11
1982.086857615
 21
-2690.6916796644
 31
0.0
  0
LINE
  5
B6
330
1F
100
AcDbEntity
  8
0
  6
CONTINUOUS
 62
     7
100
AcDbLine
 10
212.0868468862
 20
-2640.6916528423
 30
0.0
 11
242.0868331771
 21
-2640.6916528423
 31
0.0
  0
ARC
  5
B7
330
1F
100
AcDbEntity
  8
0
  6
CONTINUOUS
 62
     7
100
AcDbCircle
 10
242.0868588071
 20
-2690.6916516503
 30
0.0
 40
50.00000000000003
100
AcDbArc
 50
0.0
 51
90.0
  0
LINE
  5
B8
330
1F
100
AcDbEntity
  8
0
  6
CONTINUOUS
 62
     7
100
AcDbLine
 10
-237.9131709952
 20
-2940.6916647633
 30
0.0
 11
212.0868468862
 21
-2940.6916647633
 31
0.0
  0
ARC
  5
B9
330
1F
100
AcDbEntity
  8
0
  6
CONTINUOUS
 62
     7
100
AcDbCircle
 10
-267.9131411929
 20
-2690.6916516503
 30
0.0
 40
50.00000000000006
100
AcDbArc
 50
90.0
 51
180.0
  0
LINE
  5
BA
330
1F
100
AcDbEntity
  8
0
  6
CONTINUOUS
 62
     7
100
AcDbLine
 10
-267.9130827804
 20
-2640.6916528423
 30
0.0
 11
-237.9131709952
 21
-2640.6916528423
 31
0.0
  0
LINE
  5
BB
330
1F
100
AcDbEntity
  8
0
  6
CONTINUOUS
 62
     7
100
AcDbLine
 10
-317.9131841083
 20
-2940.6916647633
 30
0.0
 11
-317.9131841083
 21
-2690.6916796644
 31
0.0
  0
LINE
  5
BC
330
1F
100
AcDbEntity
  8
0
  6
CONTINUOUS
 62
     7
100
AcDbLine
 10
-237.9131709952
 20
-2940.6916647633
 30
0.0
 11
-317.9131841083
 21
-2940.6916647633
 31
0.0
  0
LINE
  5
BD
330
1F
100
AcDbEntity
  8
0
  6
CONTINUOUS
 62
     7
100
AcDbLine
 10
292.0868599992
 20
-2690.6916796644
 30
0.0
 11
292.0868599992
 21
-2940.6916647633
 31
0.0
  0
LINE
  5
BE
330
1F
100
AcDbEntity
  8
0
  6
CONTINUOUS
 62
     7
100
AcDbLine
 10
292.0868599992
 20
-2940.6916647633
 30
0.0
 11
212.0868468862
 21
-2940.6916647633
 31
0.0
  0
LINE
  5
BF
330
1F
100
AcDbEntity
  8
0
  6
CONTINUOUS
 62
     7
100
AcDbLine
 10
2512.0868886094
 20
-2640.6916528423
 30
0.0
 11
2542.0868003945
 21
-2640.6916528423
 31
0.0
  0
ARC
  5
C0
330
1F
100
AcDbEntity
  8
0
  6
CONTINUOUS
 62
     7
100
AcDbCircle
 10
2542.0868588071
 20
-2690.6916516503
 30
0.0
 40
50.0
100
AcDbArc
 50
0.0
 51
90.0
  0
LINE
  5
C1
330
1F
100
AcDbEntity
  8
0
  6
CONTINUOUS
 62
     7
100
AcDbLine
 10
-237.9131709952
 20
-2640.6916528423
 30
0.0
 11
212.0868468862
 21
-2640.6916528423
 31
0.0
  0
LINE
  5
C2
330
1F
100
AcDbEntity
  8
0
  6
CONTINUOUS
 62
     7
100
AcDbLine
 10
2062.086870728
 20
-2640.6916528423
 30
0.0
 11
2512.0868886094
 21
-2640.6916528423
 31
0.0
  0
LINE
  5
C3
330
1F
100
AcDbEntity
  8
0
  6
CONTINUOUS
 62
     7
100
AcDbLine
 10
2592.0869017224
 20
-2940.6916647633
 30
0.0
 11
2512.0868886094
 21
-2940.6916647633
 31
0.0
  0
LINE
  5
C4
330
1F
100
AcDbEntity
  8
0
  6
CONTINUOUS
 62
     7
100
AcDbLine
 10
2592.0869017224
 20
-2690.6916796644
 30
0.0
 11
2592.0869017224
 21
-2940.6916647633
 31
0.0
  0
LINE
  5
C5
330
1F
100
AcDbEntity
  8
0
  6
CONTINUOUS
 62
     7
100
AcDbLine
 10
2512.0868886094
 20
-2940.6916647633
 30
0.0
 11
2062.086870728
 21
-2940.6916647633
 31
0.0
  0
LINE
  5
C6
330
1F
100
AcDbEntity
  8
0
  6
CONTINUOUS
 62
     7
100
AcDbLine
 10
1375.6076039951
 20
-2250.6916820486
 30
0.0
 11
1955.6076431851
 21
-2770.6916182717
 31
0.0
  0
LINE
  5
C7
330
1F
100
AcDbEntity
  8
0
  6
CONTINUOUS
 62
     7
100
AcDbLine
 10
898.5661136191
 20
-2250.6916820486
 30
0.0
 11
1375.6076039951
 21
-2250.6916820486
 31
0.0
  0
LINE
  5
C8
330
1F
100
AcDbEntity
  8
0
  6
CONTINUOUS
 62
     7
100
AcDbLine
 10
318.566074429
 20
-2770.6916182717
 30
0.0
 11
292.0868599992
 21
-2770.6916182717
 31
0.0
  0
LINE
  5
C9
330
1F
100
AcDbEntity
  8
0
  6
CONTINUOUS
 62
     7
100
AcDbLine
 10
292.0868599992
 20
-2740.6916319807
 30
0.0
 11
307.0868903975
 21
-2740.6916319807
 31
0.0
  0
LINE
  5
CA
330
1F
100
AcDbEntity
  8
0
  6
CONTINUOUS
 62
     7
100
AcDbLine
 10
307.0868903975
 20
-2740.6916319807
 30
0.0
 11
887.0868550818
 21
-2220.6916585048
 31
0.0
  0
LINE
  5
CB
330
1F
100
AcDbEntity
  8
0
  6
CONTINUOUS
 62
     7
100
AcDbLine
 10
1387.0868625324
 20
-2220.6916585048
 30
0.0
 11
887.0868550818
 21
-2220.6916585048
 31
0.0
  0
LINE
  5
CC
330
1F
100
AcDbEntity
  8
0
  6
CONTINUOUS
 62
     7
100
AcDbLine
 10
1967.0868272166
 20
-2740.6916319807
 30
0.0
 11
1387.0868625324
 21
-2220.6916585048
 31
0.0
  0
LINE
  5
CD
330
1F
100
AcDbEntity
  8
0
  6
CONTINUOUS
 62
     7
100
AcDbLine
 10
1982.086857615
 20
-2740.6916319807
 30
0.0
 11
1967.0868272166
 21
-2740.6916319807
 31
0.0
  0
LINE
  5
CE
330
1F
100
AcDbEntity
  8
0
  6
CONTINUOUS
 62
     7
100
AcDbLine
 10
1955.6076431851
 20
-2770.6916182717
 30
0.0
 11
1982.086857615
 21
-2770.6916182717
 31
0.0
  0
LINE
  5
CF
330
1F
100
AcDbEntity
  8
0
  6
CONTINUOUS
 62
     7
100
AcDbLine
 10
898.5661136191
 20
-2250.6916820486
 30
0.0
 11
318.566074429
 21
-2770.6916182717
 31
0.0
  0
LINE
  5
D0
330
1F
100
AcDbEntity
  8
0
  6
CONTINUOUS
 62
     7
100
AcDbLine
 10
-761.697033586
 20
-1760.6916482975
 30
0.0
 11
-696.2465142627
 21
-1760.6916482975
 31
0.0
  0
LINE
  5
D1
330
1F
100
AcDbEntity
  8
0
  6
CONTINUOUS
 62
     7
100
AcDbLine
 10
-462.9131054301
 20
-1600.6916511753
 30
0.0
 11
-462.9131054301
 21
1641.7499334137
 31
0.0
  0
SPLINE
  5
D2
330
1F
100
AcDbEntity
  8
0
  6
CONTINUOUS
 62
     7
100
AcDbSpline
210
0.0
220
0.0
230
1.0
 70
     8
 71
     3
 72
    26
 73
    22
 74
     0
 42
0.00000001
 43
0.00000001
 40
0.0
 40
0.0
 40
0.0
 40
0.0
 40
0.1250000000000009
 40
0.1250000000000009
 40
0.2500000000000018
 40
0.2500000000000018
 40
0.3750000000000027
 40
0.3750000000000027
 40
0.4375000000000031
 40
0.4375000000000031
 40
0.5000000000000036
 40
0.5000000000000036
 40
0.6250000000000027
 40
0.6250000000000027
 40
0.6875000000000021
 40
0.6875000000000021
 40
0.7500000000000016
 40
0.7500000000000016
 40
0.8750000000000008
 40
0.8750000000000008
 40
1.0
 40
1.0
 40
1.0
 40
1.0
 10
-522.9131411929179
 20
-1727.63664887231
 30
0.0
 10
-517.4988423341052
 20
-1725.0617948358
 30
0.0
 10
-512.3722769672908
 20
-1722.012779824724
 30
0.0
 10
-502.6820393039934
 20
-1714.987148622222
 30
0.0
 10
-498.1045302969993
 20
-1710.996343599693
 30
0.0
 10
-489.6087444271875
 20
-1702.083003588004
 30
0.0
 10
-485.7945291875783
 20
-1697.274332674294
 30
0.0
 10
-480.7026964013965
 20
-1689.550391386686
 30
0.0
 10
-479.1109121616487
 20
-1686.890119050312
 30
0.0
 10
-476.1410941114665
 20
-1681.396080683997
 30
0.0
 10
-474.7570652057341
 20
-1678.547481217728
 30
0.0
 10
-470.9872056666488
 20
-1669.859451981593
 30
0.0
 10
-468.9816374636631
 20
-1663.891686563335
 30
0.0
 10
-466.6628030211499
 20
-1654.701340855665
 30
0.0
 10
-466.0050181332236
 20
-1651.59802617527
 30
0.0
 10
-464.90457956828
 20
-1645.316922602395
 30
0.0
 10
-464.462447602086
 20
-1642.135721814284
 30
0.0
 10
-463.4306833333858
 20
-1632.606677063342
 30
0.0
 10
-463.1340639944874
 20
-1626.233688364657
 30
0.0
 10
-462.8874135538109
 20
-1613.469733936186
 30
0.0
 10
-462.9131411929176
 20
-1607.080025565485
 30
0.0
 10
-462.9131411929176
 20
-1600.691651650253
 30
0.0
  0
ELLIPSE
  5
D3
330
1F
100
AcDbEntity
  8
0
  6
CONTINUOUS
 62
     7
100
AcDbEllipse
 10
-696.2464745263
 20
-1660.6916516503
 30
0.0
 11
233.3333333333334
 21
0.0
 31
0.0
210
0.0
220
0.0
230
1.0
 40
0.4285714286
 41
4.712388980384696
 42
5.549717188995056
  0
ARC
  5
D4
330
1F
100
AcDbEntity
  8
0
  6
CONTINUOUS
 62
     7
100
AcDbCircle
 10
-522.9131411929
 20
-1600.6916516503
 30
0.0
 40
160.0000000000002
100
AcDbArc
 50
270.0
 51
0.0
  0
SPLINE
  5
D5
330
1F
100
AcDbEntity
  8
0
  6
CONTINUOUS
 62
     7
100
AcDbSpline
210
0.0
220
0.0
230
1.0
 70
     8
 71
     3
 72
     8
 73
     4
 74
     0
 42
0.00000001
 43
0.00000001
 40
0.0
 40
0.0
 40
0.0
 40
0.0
 40
1.0
 40
1.0
 40
1.0
 40
1.0
 10
-462.4686037317948
 20
1665.659181039376
 30
0.0
 10
-461.7027358763585
 20
1685.992164161393
 30
0.0
 10
-459.8926290690207
 20
1706.205814228163
 30
0.0
 10
-456.7276728291948
 20
1726.264634584049
 30
0.0
  0
LINE
  5
D6
330
1F
100
AcDbEntity
  8
0
  6
CONTINUOUS
 62
     7
100
AcDbLine
 10
-462.9131054301
 20
1641.7499334137
 30
0.0
 11
-462.4686037917
 21
1665.6591445724
 31
0.0
  0
ELLIPSE
  5
D7
330
1F
100
AcDbEntity
  8
0
  6
CONTINUOUS
 62
     7
100
AcDbEllipse
 10
1567.9596870375
 20
-319.0926504016
 30
0.0
 11
-1939.578966770431
 21
2216.66167630906
 31
0.0
210
0.0
220
0.0
230
0.9999999999999999
 40
0.2716072381
 41
6.197715366302471
 42
6.506095920963236
  0
ARC
  5
D8
330
1F
100
AcDbEntity
  8
0
  6
CONTINUOUS
 62
     7
100
AcDbCircle
 10
-162.9131411929
 20
1665.6591810394
 30
0.0
 40
200.0000000000002
100
AcDbArc
 50
120.0
 51
180.0
  0
ELLIPSE
  5
D9
330
1F
100
AcDbEntity
  8
0
  6
CONTINUOUS
 62
     7
100
AcDbEllipse
 10
706.2140305767
 20
-319.0926504016
 30
0.0
 11
-1939.578966770431
 21
-2216.66167630906
 31
0.0
210
0.0
220
0.0
230
1.0
 40
0.2716072381
 41
2.894017002618554
 42
3.374920435059438
  0
LINE
  5
DA
330
1F
100
AcDbEntity
  8
0
  6
CONTINUOUS
 62
     7
100
AcDbLine
 10
2736.8488515
 20
1659.3082696716
 30
0.0
 11
2737.0868230443
 21
1641.7499334137
 31
0.0
  0
SPLINE
  5
DB
330
1F
100
AcDbEntity
  8
0
  6
CONTINUOUS
 62
     7
100
AcDbSpline
210
0.0
220
0.0
230
1.0
 70
     8
 71
     3
 72
     8
 73
     4
 74
     0
 42
0.00000001
 43
0.00000001
 40
0.0
 40
0.0
 40
0.0
 40
0.0
 40
1.0
 40
1.0
 40
1.0
 40
1.0
 10
2734.191703036805
 20
1700.88612528927
 30
0.0
 10
2735.614853692797
 20
1687.0494833323
 30
0.0
 10
2736.46858276426
 20
1673.188878525555
 30
0.0
 10
2736.848838180506
 20
1659.308348349748
 30
0.0
  0
ARC
  5
DC
330
1F
100
AcDbEntity
  8
0
  6
CONTINUOUS
 62
     7
100
AcDbCircle
 10
2437.0868588071
 20
1659.3083483497
 30
0.0
 40
200.0000000000005
100
AcDbArc
 50
0.0
 51
90.0
  0
ELLIPSE
  5
DD
330
1F
100
AcDbEntity
  8
0
  6
CONTINUOUS
 62
     7
100
AcDbEllipse
 10
2665.246663123
 20
-2290.6916516503
 30
0.0
 11
0.0
 21
350.0000000000002
 31
0.0
210
0.0
220
0.0
230
1.0
 40
0.205257702
 41
3.141592653589881
 42
4.712388980384692
  0
LINE
  5
DE
330
1F
100
AcDbEntity
  8
0
  6
CONTINUOUS
 62
     7
100
AcDbLine
 10
2665.246685801
 20
-2640.6916528423
 30
0.0
 11
2542.0868003945
 21
-2640.6916528423
 31
0.0
  0
LINE
  5
DF
330
1F
100
AcDbEntity
  8
0
  6
CONTINUOUS
 62
     7
100
AcDbLine
 10
2032.0868844371
 20
-2640.6916528423
 30
0.0
 11
2020.7680369
 21
-2640.6916528423
 31
0.0
  0
LINE
  5
E0
330
1F
100
AcDbEntity
  8
0
  6
CONTINUOUS
 62
     7
100
AcDbLine
 10
2807.0868158917
 20
-2640.6916528423
 30
0.0
 11
2665.246685801
 21
-2640.6916528423
 31
0.0
  0
SPLINE
  5
E1
330
1F
100
AcDbEntity
  8
0
  6
CONTINUOUS
 62
     7
100
AcDbSpline
210
0.0
220
0.0
230
1.0
 70
     8
 71
     3
 72
    10
 73
     6
 74
     0
 42
0.00000001
 43
0.00000001
 40
0.0
 40
0.0
 40
0.0
 40
0.0
 40
0.3806179954005319
 40
0.8811502686336923
 40
1.0
 40
1.0
 40
1.0
 40
1.0
 10
-231.2878167052316
 20
2009.308233908829
 30
0.0
 10
-228.5499086902283
 20
2015.369606484423
 30
0.0
 10
-222.211510579609
 20
2029.401996276323
 30
0.0
 10
-210.3064574399334
 20
2039.171621423114
 30
0.0
 10
-203.5960985074421
 20
2043.579417277323
 30
0.0
 10
-202.3084854502723
 20
2044.425204447922
 30
0.0
  0
SPLINE
  5
E2
330
1F
100
AcDbEntity
  8
0
  6
CONTINUOUS
 62
     7
100
AcDbSpline
210
0.0
220
0.0
230
1.0
 70
     8
 71
     3
 72
    13
 73
     9
 74
     0
 42
0.00000001
 43
0.00000001
 40
0.0
 40
0.0
 40
0.0
 40
0.0
 40
0.160043602978454
 40
0.3200598696993078
 40
0.4807019704117151
 40
0.6412240826286595
 40
0.9310901723070646
 40
1.0
 40
1.0
 40
1.0
 40
1.0
 10
-312.9130994696662
 20
1934.548810176071
 30
0.0
 10
-306.8364871070682
 20
1937.172608197803
 30
0.0
 10
-294.6843002980255
 20
1942.419756083279
 30
0.0
 10
-277.3272662264135
 20
1951.02727196267
 30
0.0
 10
-261.8402553339881
 20
1961.153780921035
 30
0.0
 10
-245.4431040828441
 20
1976.689654351221
 30
0.0
 10
-236.3025919686658
 20
1993.841830314565
 30
0.0
 10
-232.0958101988425
 20
2006.816247166204
 30
0.0
 10
-231.2878167052316
 20
2009.308233908829
 30
0.0
  0
LINE
  5
E3
330
1F
100
AcDbEntity
  8
0
  6
CONTINUOUS
 62
     7
100
AcDbLine
 10
-312.9130994697
 20
1934.5488101761
 30
0.0
 11
-313.1436204333
 21
1934.4486743728
 31
0.0
  0
SPLINE
  5
E4
330
1F
100
AcDbEntity
  8
0
  6
CONTINUOUS
 62
     7
100
AcDbSpline
210
0.0
220
0.0
230
1.0
 70
     8
 71
     3
 72
    30
 73
    26
 74
     0
 42
0.00000001
 43
0.00000001
 40
0.0
 40
0.0
 40
0.0
 40
0.0
 40
0.1250000000000005
 40
0.1250000000000005
 40
0.1875000000000002
 40
0.1875000000000002
 40
0.2499999999999999
 40
0.2499999999999999
 40
0.3750000000000004
 40
0.3750000000000004
 40
0.5000000000000009
 40
0.5000000000000009
 40
0.6250000000000013
 40
0.6250000000000013
 40
0.6875000000000017
 40
0.6875000000000017
 40
0.7500000000000019
 40
0.7500000000000019
 40
0.8750000000000012
 40
0.8750000000000012
 40
0.9375000000000003
 40
0.9375000000000003
 40
0.9687500000000006
 40
0.9687500000000006
 40
1.0
 40
1.0
 40
1.0
 40
1.0
 10
1945.629786461715
 20
-2140.691651650253
 30
0.0
 10
1948.645900374028
 20
-2140.691651650253
 30
0.0
 10
1952.34156551495
 20
-2141.761985693756
 30
0.0
 10
1958.812858707939
 20
-2144.593396662356
 30
0.0
 10
1961.143043931324
 20
-2145.755123199036
 30
0.0
 10
1966.009046597801
 20
-2148.405500872285
 30
0.0
 10
1968.54407560775
 20
-2149.891569022868
 30
0.0
 10
1976.431389234892
 20
-2154.760380885134
 30
0.0
 10
1982.077098497573
 20
-2158.558774242893
 30
0.0
 10
1994.003644944344
 20
-2166.989097762299
 30
0.0
 10
2000.145303251117
 20
-2171.52208899855
 30
0.0
 10
2012.753651038616
 20
-2181.065690049263
 30
0.0
 10
2019.220683961281
 20
-2186.078207971733
 30
0.0
 10
2029.16190881492
 20
-2193.897763957569
 30
0.0
 10
2032.522529472308
 20
-2196.560173226717
 30
0.0
 10
2039.242449873907
 20
-2201.913450873509
 30
0.0
 10
2042.611072643879
 20
-2204.611600449379
 30
0.0
 10
2052.74567475103
 20
-2212.761920851806
 30
0.0
 10
2059.540274174377
 20
-2218.26958290592
 30
0.0
 10
2069.801542560077
 20
-2226.61753289512
 30
0.0
 10
2073.233548934946
 20
-2229.414703933153
 30
0.0
 10
2078.400765402201
 20
-2233.629919563998
 30
0.0
 10
2080.126374948269
 20
-2235.038238718285
 30
0.0
 10
2083.584348717995
 20
-2237.861026623185
 30
0.0
 10
2085.328971666584
 20
-2239.285505030869
 30
0.0
 10
2087.051142699025
 20
-2240.691651650253
 30
0.0
  0
LINE
  5
E5
330
1F
100
AcDbEntity
  8
0
  6
CONTINUOUS
 62
     7
100
AcDbLine
 10
1937.0868409257
 20
-2290.6916886051
 30
0.0
 11
1937.0868409257
 21
-2140.6916453918
 31
0.0
  0
LINE
  5
E6
330
1F
100
AcDbEntity
  8
0
  6
CONTINUOUS
 62
     7
100
AcDbLine
 10
1937.0868409257
 20
-2140.6916453918
 30
0.0
 11
1945.6297511439
 21
-2140.6916453918
 31
0.0
  0
LINE
  5
E7
330
1F
100
AcDbEntity
  8
0
  6
CONTINUOUS
 62
     7
100
AcDbLine
 10
-212.9131948371
 20
2009.3082339088
 30
0.0
 11
-212.9131948371
 21
1925.4668504516
 31
0.0
  0
LINE
  5
E8
330
1F
100
AcDbEntity
  8
0
  6
CONTINUOUS
 62
     7
100
AcDbLine
 10
2437.0868111234
 20
1959.3082815925
 30
0.0
 11
2454.0285373311
 21
1959.3082815925
 31
0.0
  0
SPLINE
  5
E9
330
1F
100
AcDbEntity
  8
0
  6
CONTINUOUS
 62
     7
100
AcDbSpline
210
0.0
220
0.0
230
1.0
 70
     8
 71
     3
 72
    13
 73
     9
 74
     0
 42
0.00000001
 43
0.00000001
 40
0.0
 40
0.0
 40
0.0
 40
0.0
 40
0.1250000000000052
 40
0.1250000000000052
 40
0.2500000000000104
 40
0.5000000000000094
 40
0.5000000000000094
 40
1.0
 40
1.0
 40
1.0
 40
1.0
 10
1927.874699090471
 20
-2463.896732407142
 30
0.0
 10
1928.173140446877
 20
-2464.565738893024
 30
0.0
 10
1928.488679692588
 20
-2465.246393379427
 30
0.0
 10
1929.13378917988
 20
-2466.583032196438
 30
0.0
 10
1930.131736813423
 20
-2468.573129851014
 30
0.0
 10
1931.220913377663
 20
-2470.520014787942
 30
0.0
 10
1933.52220330268
 20
-2474.359455026143
 30
0.0
 10
1935.220171461312
 20
-2476.846752478149
 30
0.0
 10
1937.086858807083
 20
-2479.2690512118
 30
0.0
  0
SPLINE
  5
EA
330
1F
100
AcDbEntity
  8
0
  6
CONTINUOUS
 62
     7
100
AcDbSpline
210
0.0
220
0.0
230
1.0
 70
    24
 71
     3
 72
    16
 73
    12
 74
     0
 42
0.00000001
 43
0.00000001
 40
0.0
 40
0.0
 40
0.0
 40
0.0
 40
0.250000000000002
 40
0.250000000000002
 40
0.3750000000000023
 40
0.3750000000000023
 40
0.5000000000000026
 40
0.5000000000000026
 40
0.7500000000000013
 40
0.7500000000000013
 40
1.0
 40
1.0
 40
1.0
 40
1.0
 10
1937.086858807083
 20
-2479.2690512118
 30
0.0
 10
1937.086858807082
 20
-2464.536250925621
 30
0.0
 10
1937.086858807083
 20
-2449.405445127908
 30
0.0
 10
1937.086858807083
 20
-2426.245370112327
 30
0.0
 10
1937.086858807083
 20
-2418.437920002561
 30
0.0
 10
1937.086858807083
 20
-2402.738183731823
 30
0.0
 10
1937.086858807083
 20
-2394.846494908449
 30
0.0
 10
1937.086858807083
 20
-2371.05765682961
 30
0.0
 10
1937.086858807083
 20
-2355.052397210438
 30
0.0
 10
1937.086858807083
 20
-2322.925820098838
 30
0.0
 10
1937.086858807083
 20
-2306.811482015188
 30
0.0
 10
1937.086858807083
 20
-2290.691651650257
 30
0.0
  0
LINE
  5
EB
330
1F
100
AcDbEntity
  8
0
  6
CONTINUOUS
 62
     7
100
AcDbLine
 10
376.6939396243
 20
1959.3082815925
 30
0.0
 11
2437.0868111234
 21
1959.3082815925
 31
0.0
  0
LINE
  5
EC
330
1F
100
AcDbEntity
  8
0
  6
CONTINUOUS
 62
     7
100
AcDbLine
 10
2437.0868111234
 20
1859.30837696
 30
0.0
 11
387.0868290048
 21
1859.30837696
 31
0.0
  0
ARC
  5
ED
330
1F
100
AcDbEntity
  8
0
  6
CONTINUOUS
 62
     7
100
AcDbCircle
 10
387.0868588071
 20
1959.3083483497
 30
0.0
 40
100.0000000000002
100
AcDbArc
 50
214.1838826563
 51
270.0
  0
SPLINE
  5
EE
330
1F
100
AcDbEntity
  8
0
  6
CONTINUOUS
 62
     7
100
AcDbSpline
210
0.0
220
0.0
230
1.0
 70
     8
 71
     3
 72
    12
 73
     8
 74
     0
 42
0.00000001
 43
0.00000001
 40
0.0
 40
0.0
 40
0.0
 40
0.0
 40
0.1514597180146991
 40
0.3718759358976232
 40
0.5945735701679864
 40
0.8173603753174793
 40
1.0
 40
1.0
 40
1.0
 40
1.0
 10
376.6939396243051
 20
1959.308281592545
 30
0.0
 10
371.802758521934
 20
1958.644931637999
 30
0.0
 10
359.7935419861387
 20
1957.016222114385
 30
0.0
 10
343.7566441195303
 20
1945.419808957639
 30
0.0
 10
328.1444268381509
 20
1931.177308446284
 30
0.0
 10
314.9600249272652
 20
1916.514421695327
 30
0.0
 10
307.6541603482892
 20
1907.282170847305
 30
0.0
 10
304.3629581313089
 20
1903.123155287918
 30
0.0
  0
ARC
  5
EF
330
1F
100
AcDbEntity
  8
0
  6
CONTINUOUS
 62
     7
100
AcDbCircle
 10
-312.9131411929
 20
1925.4668021747
 30
0.0
 40
99.99999999999983
100
AcDbArc
 50
300.0
 51
0.0
  0
LINE
  5
F0
330
1F
100
AcDbEntity
  8
0
  6
CONTINUOUS
 62
     7
100
AcDbLine
 10
-362.9132007976
 20
1665.6591445724
 30
0.0
 11
-362.9132007976
 21
-1600.6916511753
 31
0.0
  0
LINE
  5
F1
330
1F
100
AcDbEntity
  8
0
  6
CONTINUOUS
 62
     7
100
AcDbLine
 10
1945.6297511439
 20
-2140.6916453918
 30
0.0
 11
2437.0868111234
 21
-2140.6916453918
 31
0.0
  0
LINE
  5
F2
330
1F
100
AcDbEntity
  8
0
  6
CONTINUOUS
 62
     7
100
AcDbLine
 10
2737.0868230443
 20
-1940.6916498621
 30
0.0
 11
2737.0868230443
 21
-879.6916454514
 31
0.0
  0
LINE
  5
F3
330
1F
100
AcDbEntity
  8
0
  6
CONTINUOUS
 62
     7
100
AcDbLine
 10
2737.0868230443
 20
-801.6916661938
 30
0.0
 11
2737.0868230443
 21
1641.7499334137
 31
0.0
  0
LINE
  5
F4
330
1F
100
AcDbEntity
  8
0
  6
CONTINUOUS
 62
     7
100
AcDbLine
 10
2737.0868230443
 20
-2290.6916886051
 30
0.0
 11
2737.0868230443
 21
-1940.6916498621
 31
0.0
  0
ARC
  5
F5
330
1F
100
AcDbEntity
  8
0
  6
CONTINUOUS
 62
     7
100
AcDbCircle
 10
2437.0868588071
 20
-1940.6916516503
 30
0.0
 40
200.0000000000005
100
AcDbArc
 50
270.0
 51
0.0
  0
SPLINE
  5
F6
330
1F
100
AcDbEntity
  8
0
  6
CONTINUOUS
 62
     7
100
AcDbSpline
210
0.0
220
0.0
230
1.0
 70
     8
 71
     3
 72
    10
 73
     6
 74
     0
 42
0.00000001
 43
0.00000001
 40
0.0
 40
0.0
 40
0.0
 40
0.0
 40
0.2824454624612058
 40
0.5624285092226036
 40
1.0
 40
1.0
 40
1.0
 40
1.0
 10
287.0868498663856
 20
2009.308233908829
 30
0.0
 10
286.7066344815812
 20
2013.848203726445
 30
0.0
 10
285.9495185052946
 20
2022.888563002135
 30
0.0
 10
280.0557759547727
 20
2036.306907910189
 30
0.0
 10
274.3069713118807
 20
2042.472180281771
 30
0.0
 10
270.8012962918237
 20
2046.231821231064
 30
0.0
  0
SPLINE
  5
F7
330
1F
100
AcDbEntity
  8
0
  6
CONTINUOUS
 62
     7
100
AcDbSpline
210
0.0
220
0.0
230
1.0
 70
     8
 71
     3
 72
    10
 73
     6
 74
     0
 42
0.00000001
 43
0.00000001
 40
0.0
 40
0.0
 40
0.0
 40
0.0
 40
0.2913426237681003
 40
0.6785383893801921
 40
1.0
 40
1.0
 40
1.0
 40
1.0
 10
287.0868498663858
 20
1959.308281592545
 30
0.0
 10
287.5260471962854
 20
1952.581966332823
 30
0.0
 10
288.5489399161893
 20
1936.916345340727
 30
0.0
 10
295.0086183134779
 20
1918.558856468979
 30
0.0
 10
301.4438185149085
 20
1907.940060350385
 30
0.0
 10
304.3629581313089
 20
1903.123155287918
 30
0.0
  0
SPLINE
  5
F8
330
1F
100
AcDbEntity
  8
0
  6
CONTINUOUS
 62
     7
100
AcDbSpline
210
0.0
220
0.0
230
1.0
 70
    24
 71
     3
 72
     8
 73
     4
 74
     0
 42
0.00000001
 43
0.00000001
 40
0.0
 40
0.0
 40
0.0
 40
0.0
 40
1.0
 40
1.0
 40
1.0
 40
1.0
 10
287.0868588070825
 20
1959.308348349747
 30
0.0
 10
287.0868588070825
 20
1975.985275551746
 30
0.0
 10
287.0868588070825
 20
1992.653270025799
 30
0.0
 10
287.0868588070825
 20
2009.30823310703
 30
0.0
  0
LINE
  5
F9
330
1F
100
AcDbEntity
  8
0
  6
CONTINUOUS
 62
     7
100
AcDbLine
 10
2637.0869184117
 20
-1940.6916498621
 30
0.0
 11
2637.0869184117
 21
-879.6916454514
 31
0.0
  0
LINE
  5
FA
330
1F
100
AcDbEntity
  8
0
  6
CONTINUOUS
 62
     7
100
AcDbLine
 10
2637.0869184117
 20
-801.6916661938
 30
0.0
 11
2637.0869184117
 21
1659.3082696716
 31
0.0
  0
LINE
  5
FB
330
1F
100
AcDbEntity
  8
0
  6
CONTINUOUS
 62
     7
100
AcDbLine
 10
-522.913078012
 20
-1760.6916482975
 30
0.0
 11
-696.2465142627
 21
-1760.6916482975
 31
0.0
  0
LINE
  5
FC
330
1F
100
AcDbEntity
  8
0
  6
CONTINUOUS
 62
     7
100
AcDbLine
 10
-196.4188014884
 20
2047.9287654678
 30
0.0
 11
-184.3274032493
 21
2054.4906408111
 31
0.0
  0
ARC
  5
FD
330
1F
100
AcDbEntity
  8
0
  6
CONTINUOUS
 62
     7
100
AcDbCircle
 10
-162.9131411929
 20
2009.3083483497
 30
0.0
 40
50.00000000000025
100
AcDbArc
 50
115.3588145552
 51
180.0
  0
SPLINE
  5
FE
330
1F
100
AcDbEntity
  8
0
  6
CONTINUOUS
 62
     7
100
AcDbSpline
210
0.0
220
0.0
230
1.0
 70
     8
 71
     3
 72
     8
 73
     4
 74
     0
 42
0.00000001
 43
0.00000001
 40
0.0
 40
0.0
 40
0.0
 40
0.0
 40
1.0
 40
1.0
 40
1.0
 40
1.0
 10
-202.3084413028507
 20
2044.425247500262
 30
0.0
 10
-200.2917243707846
 20
2045.704238886935
 30
0.0
 10
-198.3207247930129
 20
2046.857904573812
 30
0.0
 10
-196.4188387653533
 20
2047.928742570358
 30
0.0
  0
SPLINE
  5
FF
330
1F
100
AcDbEntity
  8
0
  6
CONTINUOUS
 62
     7
100
AcDbSpline
210
0.0
220
0.0
230
1.0
 70
     8
 71
     3
 72
    13
 73
     9
 74
     0
 42
0.00000001
 43
0.00000001
 40
0.0
 40
0.0
 40
0.0
 40
0.0
 40
0.1959865605569535
 40
0.3967725138887043
 40
0.5463414053938622
 40
0.6997471428282602
 40
0.8495599843396006
 40
1.0
 40
1.0
 40
1.0
 40
1.0
 10
-42.91314834547505
 20
-2295.297712035957
 30
0.0
 10
-48.2475769831095
 20
-2290.745176910207
 30
0.0
 10
-59.0470657577448
 20
-2281.528622462405
 30
0.0
 10
-71.56017531173023
 20
-2270.27927486097
 30
0.0
 10
-81.15490078445198
 20
-2261.550314659523
 30
0.0
 10
-87.71352525398513
 20
-2255.51093116524
 30
0.0
 10
-92.09505935977246
 20
-2251.452071868076
 30
0.0
 10
-92.60673503111508
 20
-2250.976421249348
 30
0.0
 10
-92.86310726595373
 20
-2250.738099165741
 30
0.0
  0
LINE
  5
100
330
1F
100
AcDbEntity
  8
0
  6
CONTINUOUS
 62
     7
100
AcDbLine
 10
-42.9131483455
 20
-2295.297712036
 30
0.0
 11
-42.9131483455
 21
-2530.6916534384
 31
0.0
  0
LINE
  5
101
330
1F
100
AcDbEntity
  8
0
  6
CONTINUOUS
 62
     7
100
AcDbLine
 10
-212.9131948371
 20
-2250.6916820486
 30
0.0
 11
-212.9131948371
 21
-2530.6916534384
 31
0.0
  0
SPLINE
  5
102
330
1F
100
AcDbEntity
  8
0
  6
CONTINUOUS
 62
     7
100
AcDbSpline
210
0.0
220
0.0
230
1.0
 70
     8
 71
     3
 72
    30
 73
    26
 74
     0
 42
0.00000001
 43
0.00000001
 40
0.0
 40
0.0
 40
0.0
 40
0.0
 40
0.1249999999999962
 40
0.1249999999999962
 40
0.1874999999999946
 40
0.1874999999999946
 40
0.249999999999993
 40
0.249999999999993
 40
0.3749999999999915
 40
0.3749999999999915
 40
0.49999999999999
 40
0.49999999999999
 40
0.5624999999999898
 40
0.5624999999999898
 40
0.6249999999999896
 40
0.6249999999999896
 40
0.7499999999999925
 40
0.7499999999999925
 40
0.8124999999999943
 40
0.8124999999999943
 40
0.8749999999999962
 40
0.8749999999999962
 40
0.9374999999999981
 40
0.9374999999999981
 40
1.0
 40
1.0
 40
1.0
 40
1.0
 10
120.1530974362632
 20
-2390.691651650253
 30
0.0
 10
120.153097436263
 20
-2383.702642349145
 30
0.0
 10
121.0403140314421
 20
-2376.953218397558
 30
0.0
 10
123.3743417529508
 20
-2367.11899399003
 30
0.0
 10
124.3271096836927
 20
-2363.866393131189
 30
0.0
 10
126.4593274511574
 20
-2357.583174289661
 30
0.0
 10
127.635294588728
 20
-2354.551681549028
 30
0.0
 10
131.390341392678
 20
-2345.731005598062
 30
0.0
 10
134.1955738628277
 20
-2340.204534939047
 30
0.0
 10
140.0191201300581
 20
-2329.749902125856
 30
0.0
 10
142.9726250534344
 20
-2324.939589648219
 30
0.0
 10
147.2785689802991
 20
-2318.268606064722
 30
0.0
 10
148.6939398445841
 20
-2316.137058678726
 30
0.0
 10
151.4582008456064
 20
-2312.059274888949
 30
0.0
 10
152.8050504515629
 20
-2310.116496653114
 30
0.0
 10
156.6337567098948
 20
-2304.679537971061
 30
0.0
 10
158.9318494773766
 20
-2301.532742039832
 30
0.0
 10
161.8545625717285
 20
-2297.590860807365
 30
0.0
 10
162.7438022315881
 20
-2296.404242786406
 30
0.0
 10
164.2797786203951
 20
-2294.366748898656
 30
0.0
 10
164.932264088207
 20
-2293.508063319345
 30
0.0
 10
165.9919373263297
 20
-2292.118219847208
 30
0.0
 10
166.3991936927645
 20
-2291.586996891092
 30
0.0
 10
166.9486443429433
 20
-2290.871132798127
 30
0.0
 10
167.0868588070827
 20
-2290.691651650253
 30
0.0
 10
167.0868588070824
 20
-2290.691651650253
 30
0.0
  0
LINE
  5
103
330
1F
100
AcDbEntity
  8
0
  6
CONTINUOUS
 62
     7
100
AcDbLine
 10
-42.9131483455
 20
-2390.6916677435
 30
0.0
 11
120.1530898194
 21
-2390.6916677435
 31
0.0
  0
LINE
  5
104
330
1F
100
AcDbEntity
  8
0
  6
CONTINUOUS
 62
     7
100
AcDbLine
 10
37.0868647675
 20
-2225.6916686376
 30
0.0
 11
167.0868301969
 21
-2225.6916686376
 31
0.0
  0
LINE
  5
105
330
1F
100
AcDbEntity
  8
0
  6
CONTINUOUS
 62
     7
100
AcDbLine
 10
-92.9131751676
 20
-2225.6916686376
 30
0.0
 11
37.0868647675
 21
-2225.6916686376
 31
0.0
  0
LINE
  5
106
330
1F
100
AcDbEntity
  8
0
  6
CONTINUOUS
 62
     7
100
AcDbLine
 10
197.0868909936
 20
-2390.6916677435
 30
0.0
 11
197.0868909936
 21
-2265.6916379412
 31
0.0
  0
LINE
  5
107
330
1F
100
AcDbEntity
  8
0
  6
CONTINUOUS
 62
     7
100
AcDbLine
 10
197.0868909936
 20
-2515.69162304
 30
0.0
 11
197.0868909936
 21
-2390.6916677435
 31
0.0
  0
LINE
  5
108
330
1F
100
AcDbEntity
  8
0
  6
CONTINUOUS
 62
     7
100
AcDbLine
 10
357.0868427138
 20
-2390.6916677435
 30
0.0
 11
357.0868427138
 21
-2265.6916379412
 31
0.0
  0
LINE
  5
109
330
1F
100
AcDbEntity
  8
0
  6
CONTINUOUS
 62
     7
100
AcDbLine
 10
357.0868427138
 20
-2515.69162304
 30
0.0
 11
357.0868427138
 21
-2390.6916677435
 31
0.0
  0
LINE
  5
10A
330
1F
100
AcDbEntity
  8
0
  6
CONTINUOUS
 62
     7
100
AcDbLine
 10
397.0868492703
 20
-2390.6916677435
 30
0.0
 11
397.0868492703
 21
-2475.6916164835
 31
0.0
  0
LINE
  5
10B
330
1F
100
AcDbEntity
  8
0
  6
CONTINUOUS
 62
     7
100
AcDbLine
 10
397.0868492703
 20
-2305.6916444977
 30
0.0
 11
397.0868492703
 21
-2390.6916677435
 31
0.0
  0
LINE
  5
10C
330
1F
100
AcDbEntity
  8
0
  6
CONTINUOUS
 62
     7
100
AcDbLine
 10
-312.9130994697
 20
-2390.6916677435
 30
0.0
 11
-312.9130994697
 21
-2270.691648074
 31
0.0
  0
LINE
  5
10D
330
1F
100
AcDbEntity
  8
0
  6
CONTINUOUS
 62
     7
100
AcDbLine
 10
-312.9130994697
 20
-2510.691687413
 30
0.0
 11
-312.9130994697
 21
-2390.6916677435
 31
0.0
  0
LINE
  5
10E
330
1F
100
AcDbEntity
  8
0
  6
CONTINUOUS
 62
     7
100
AcDbLine
 10
237.0868230443
 20
2059.3084842483
 30
0.0
 11
187.086870728
 21
2059.3084842483
 31
0.0
  0
SPLINE
  5
10F
330
1F
100
AcDbEntity
  8
0
  6
CONTINUOUS
 62
     7
100
AcDbSpline
210
0.0
220
0.0
230
1.0
 70
     8
 71
     3
 72
     9
 73
     5
 74
     0
 42
0.00000001
 43
0.00000001
 40
0.0
 40
0.0
 40
0.0
 40
0.0
 40
0.47689070724633
 40
1.0
 40
1.0
 40
1.0
 40
1.0
 10
270.8012962918237
 20
2046.231821231064
 30
0.0
 10
266.6195113539069
 20
2049.591025153772
 30
0.0
 10
257.8506574543128
 20
2056.634995337436
 30
0.0
 10
244.2181266117768
 20
2058.390279034818
 30
0.0
 10
237.0868230442956
 20
2059.308484248337
 30
0.0
  0
LINE
  5
110
330
1F
100
AcDbEntity
  8
0
  6
CONTINUOUS
 62
     7
100
AcDbLine
 10
-112.9131411929
 20
2059.3084842483
 30
0.0
 11
-162.9130935092
 21
2059.3084842483
 31
0.0
  0
SPLINE
  5
111
330
1F
100
AcDbEntity
  8
0
  6
CONTINUOUS
 62
     7
100
AcDbSpline
210
0.0
220
0.0
230
1.0
 70
     8
 71
     3
 72
     9
 73
     5
 74
     0
 42
0.00000001
 43
0.00000001
 40
0.0
 40
0.0
 40
0.0
 40
0.0
 40
0.9271077281018254
 40
1.0
 40
1.0
 40
1.0
 40
1.0
 10
-162.913093509202
 20
2059.308484248338
 30
0.0
 10
-170.0449443024622
 20
2058.469265355614
 30
0.0
 10
-177.7375247621911
 20
2057.564064301535
 30
0.0
 10
-183.8796870833144
 20
2054.699449119849
 30
0.0
 10
-184.3274032492683
 20
2054.490640811142
 30
0.0
  0
SPLINE
  5
112
330
1F
100
AcDbEntity
  8
0
  6
CONTINUOUS
 62
     7
100
AcDbSpline
210
0.0
220
0.0
230
1.0
 70
     8
 71
     3
 72
    16
 73
    12
 74
     0
 42
0.00000001
 43
0.00000001
 40
0.0
 40
0.0
 40
0.0
 40
0.0
 40
0.0738271751736493
 40
0.1896106293628335
 40
0.3053939026928425
 40
0.4215946978447211
 40
0.5377955951980525
 40
0.6532770350540542
 40
0.76875852367729
 40
0.8843808449797503
 40
0.9999999999999999
 40
0.9999999999999999
 40
0.9999999999999999
 40
0.9999999999999999
 10
2757.086863575454
 20
2359.308496169266
 30
0.0
 10
2771.431314634005
 20
2358.851783427671
 30
0.0
 10
2808.2722256763
 20
2357.678806266236
 30
0.0
 10
2866.780100510706
 20
2345.769822616312
 30
0.0
 10
2930.320351771131
 20
2322.04191806652
 30
0.0
 10
2988.889854467488
 20
2287.54257217644
 30
0.0
 10
3040.890500220154
 20
2243.932190612722
 30
0.0
 10
3084.592932557144
 20
2192.162891412659
 30
0.0
 10
3118.923120769172
 20
2134.010536549485
 30
0.0
 10
3143.641749960296
 20
2070.875314941364
 30
0.0
 10
3150.9179278044
 20
2026.447430520906
 30
0.0
 10
3154.555966911788
 20
2004.233792475876
 30
0.0
  0
SPLINE
  5
113
330
1F
100
AcDbEntity
  8
0
  6
CONTINUOUS
 62
     7
100
AcDbSpline
210
0.0
220
0.0
230
1.0
 70
     8
 71
     3
 72
    16
 73
    12
 74
     0
 42
0.00000001
 43
0.00000001
 40
0.0
 40
0.0
 40
0.0
 40
0.0
 40
0.113964730425036
 40
0.2312421716277771
 40
0.3450829211937427
 40
0.4622057235089657
 40
0.5767310850538523
 40
0.6946085336291602
 40
0.8087347989244302
 40
0.9261762179601198
 40
1.0
 40
1.0
 40
1.0
 40
1.0
 10
-880.3822492976236
 20
2004.233792475876
 30
0.0
 10
-876.8317287398812
 20
2026.13663204192
 30
0.0
 10
-869.6274815914924
 20
2070.57897983827
 30
0.0
 10
-844.9967035785734
 20
2133.419147200143
 30
0.0
 10
-810.6730632733273
 20
2191.940785007027
 30
0.0
 10
-767.1434748431457
 20
2243.450021437717
 30
0.0
 10
-715.0372605916299
 20
2287.415202125051
 30
0.0
 10
-656.7122324300641
 20
2321.728905640516
 30
0.0
 10
-592.9477310149902
 20
2345.75360124993
 30
0.0
 10
-534.4182827641715
 20
2357.656399156676
 30
0.0
 10
-497.2566465797744
 20
2358.848408962574
 30
0.0
 10
-482.9131459612891
 20
2359.308496169266
 30
0.0
  0
LINE
  5
114
330
1F
100
AcDbEntity
  8
0
  6
CONTINUOUS
 62
     7
100
AcDbLine
 10
-416.3013791461
 20
2359.3084961693
 30
0.0
 11
2690.4750967603
 21
2359.3084961693
 31
0.0
  0
SPLINE
  5
115
330
1F
100
AcDbEntity
  8
0
  6
CONTINUOUS
 62
     7
100
AcDbSpline
210
0.0
220
0.0
230
1.0
 70
     8
 71
     3
 72
    14
 73
    10
 74
     0
 42
0.00000001
 43
0.00000001
 40
0.0
 40
0.0
 40
0.0
 40
0.0
 40
0.25
 40
0.25
 40
0.5
 40
0.5
 40
0.75
 40
0.75
 40
1.0
 40
1.0
 40
1.0
 40
1.0
 10
1985.193679793923
 20
-1640.691651650253
 30
0.0
 10
1999.490896830988
 20
-1640.691651650253
 30
0.0
 10
2013.77503793275
 20
-1641.016932537881
 30
0.0
 10
2042.337082121889
 20
-1641.79320964006
 30
0.0
 10
2056.616032298358
 20
-1642.214516927651
 30
0.0
 10
2085.210387345281
 20
-1642.216335222147
 30
0.0
 10
2099.518032665052
 20
-1641.795383098115
 30
0.0
 10
2128.114251906109
 20
-1641.017964221949
 30
0.0
 10
2142.416697738518
 20
-1640.691651650251
 30
0.0
 10
2156.737478812235
 20
-1640.691651650253
 30
0.0
  0
SPLINE
  5
116
330
1F
100
AcDbEntity
  8
0
  6
CONTINUOUS
 62
     7
100
AcDbSpline
210
0.0
220
0.0
230
1.0
 70
     8
 71
     3
 72
    18
 73
    14
 74
     0
 42
0.00000001
 43
0.00000001
 40
0.0
 40
0.0
 40
0.0
 40
0.0
 40
0.249999999999999
 40
0.249999999999999
 40
0.499999999999998
 40
0.499999999999998
 40
0.749999999999997
 40
0.749999999999997
 40
0.8749999999999984
 40
0.8749999999999984
 40
0.9374999999999992
 40
0.9374999999999992
 40
1.0
 40
1.0
 40
1.0
 40
1.0
 10
2156.737478812235
 20
-1640.691651650253
 30
0.0
 10
2149.042744884662
 20
-1640.691651650249
 30
0.0
 10
2141.387695140948
 20
-1641.043744239819
 30
0.0
 10
2126.183857795539
 20
-1642.690725997296
 30
0.0
 10
2118.62120531726
 20
-1643.983275753643
 30
0.0
 10
2103.704836294324
 20
-1647.924892754651
 30
0.0
 10
2096.504209535566
 20
-1650.527783955153
 30
0.0
 10
2086.262526490606
 20
-1655.804615777818
 30
0.0
 10
2082.926358253097
 20
-1657.810688666572
 30
0.0
 10
2078.223276524334
 20
-1661.168016180516
 30
0.0
 10
2076.701852862916
 20
-1662.346651384377
 30
0.0
 10
2073.757436404346
 20
-1664.83055173384
 30
0.0
 10
2072.319703662014
 20
-1666.155747693892
 30
0.0
 10
2070.965579303013
 20
-1667.505001286569
 30
0.0
  0
LINE
  5
117
330
1F
100
AcDbEntity
  8
0
  6
CONTINUOUS
 62
     7
100
AcDbLine
 10
1897.0868343692
 20
-1560.6916527678
 30
0.0
 11
2437.0868111234
 21
-1560.6916527678
 31
0.0
  0
ARC
  5
118
330
1F
100
AcDbEntity
  8
0
  6
CONTINUOUS
 62
     7
100
AcDbCircle
 10
2467.0868588071
 20
-1600.6916516503
 30
0.0
 40
50.00000000000036
100
AcDbArc
 50
126.8698976458
 51
233.1301023542
  0
LINE
  5
119
330
1F
100
AcDbEntity
  8
0
  6
CONTINUOUS
 62
     7
100
AcDbLine
 10
2437.0868111234
 20
-1640.691651911
 30
0.0
 11
2156.7374820094
 21
-1640.691651911
 31
0.0
  0
LINE
  5
11A
330
1F
100
AcDbEntity
  8
0
  6
CONTINUOUS
 62
     7
100
AcDbLine
 10
1985.1936752181
 20
-1640.691651911
 30
0.0
 11
1897.0868343692
 21
-1640.691651911
 31
0.0
  0
LINE
  5
11B
330
1F
100
AcDbEntity
  8
0
  6
CONTINUOUS
 62
     7
100
AcDbLine
 10
167.0868301969
 20
-2290.6916886051
 30
0.0
 11
167.0868301969
 21
-2490.6916468819
 31
0.0
  0
LINE
  5
11C
330
1F
100
AcDbEntity
  8
0
  6
CONTINUOUS
 62
     7
100
AcDbLine
 10
1814.2296726088
 20
-570.6916301926
 30
0.0
 11
2437.0868111234
 21
-570.6916301926
 31
0.0
  0
ARC
  5
11D
330
1F
100
AcDbEntity
  8
0
  6
CONTINUOUS
 62
     7
100
AcDbCircle
 10
2467.0868588071
 20
-610.6916516503
 30
0.0
 40
50.00000000000055
100
AcDbArc
 50
126.8698976458
 51
233.1301023542
  0
LINE
  5
11E
330
1F
100
AcDbEntity
  8
0
  6
CONTINUOUS
 62
     7
100
AcDbLine
 10
2437.0868111234
 20
-650.6916433056
 30
0.0
 11
1868.8790852408
 21
-650.6916433056
 31
0.0
  0
LINE
  5
11F
330
1F
100
AcDbEntity
  8
0
  6
CONTINUOUS
 62
     7
100
AcDbLine
 10
37.0868647675
 20
-1971.0358529766
 30
0.0
 11
132.586842237
 21
-1971.0358529766
 31
0.0
  0
LINE
  5
120
330
1F
100
AcDbEntity
  8
0
  6
CONTINUOUS
 62
     7
100
AcDbLine
 10
-58.4131127019
 20
-1971.0358529766
 30
0.0
 11
37.0868647675
 21
-1971.0358529766
 31
0.0
  0
LINE
  5
121
330
1F
100
AcDbEntity
  8
0
  6
CONTINUOUS
 62
     7
100
AcDbLine
 10
37.0868647675
 20
-1895.6916517993
 30
0.0
 11
89.0868509393
 21
-1895.6916517993
 31
0.0
  0
LINE
  5
122
330
1F
100
AcDbEntity
  8
0
  6
CONTINUOUS
 62
     7
100
AcDbLine
 10
-14.9131214042
 20
-1895.6916517993
 30
0.0
 11
37.0868647675
 21
-1895.6916517993
 31
0.0
  0
LINE
  5
123
330
1F
100
AcDbEntity
  8
0
  6
CONTINUOUS
 62
     7
100
AcDbLine
 10
132.586842237
 20
-2115.6916692336
 30
0.0
 11
-58.4131127019
 21
-2115.6916692336
 31
0.0
  0
LINE
  5
124
330
1F
100
AcDbEntity
  8
0
  6
CONTINUOUS
 62
     7
100
AcDbLine
 10
132.586842237
 20
-2195.6916450937
 30
0.0
 11
-58.4131127019
 21
-2195.6916450937
 31
0.0
  0
LINE
  5
125
330
1F
100
AcDbEntity
  8
0
  6
CONTINUOUS
 62
     7
100
AcDbLine
 10
37.0868647675
 20
-2085.6916456898
 30
0.0
 11
132.586842237
 21
-2085.6916456898
 31
0.0
  0
LINE
  5
126
330
1F
100
AcDbEntity
  8
0
  6
CONTINUOUS
 62
     7
100
AcDbLine
 10
-58.4131127019
 20
-2085.6916456898
 30
0.0
 11
37.0868647675
 21
-2085.6916456898
 31
0.0
  0
LINE
  5
127
330
1F
100
AcDbEntity
  8
0
  6
CONTINUOUS
 62
     7
100
AcDbLine
 10
636.7696056347
 20
1559.308365039
 30
0.0
 11
1637.4041119795
 21
1559.308365039
 31
0.0
  0
ARC
  5
128
330
1F
100
AcDbEntity
  8
0
  6
CONTINUOUS
 62
     7
100
AcDbCircle
 10
1637.4041045233
 20
1658.9911026335
 30
0.0
 40
99.68275428378138
100
AcDbArc
 50
270.0
 51
0.0
  0
LINE
  5
129
330
1F
100
AcDbEntity
  8
0
  6
CONTINUOUS
 62
     7
100
AcDbLine
 10
1737.086845396
 20
1658.9911729614
 30
0.0
 11
1737.086845396
 21
1659.3082696716
 31
0.0
  0
ARC
  5
12A
330
1F
100
AcDbEntity
  8
0
  6
CONTINUOUS
 62
     7
100
AcDbCircle
 10
2337.0868588071
 20
1559.3083483497
 30
0.0
 40
100.0000000000005
100
AcDbArc
 50
0.0
 51
90.0
  0
LINE
  5
12B
330
1F
100
AcDbEntity
  8
0
  6
CONTINUOUS
 62
     7
100
AcDbLine
 10
2437.0868111234
 20
1409.308210067
 30
0.0
 11
2437.0868111234
 21
1559.308365039
 31
0.0
  0
LINE
  5
12C
330
1F
100
AcDbEntity
  8
0
  6
CONTINUOUS
 62
     7
100
AcDbLine
 10
137.0868439059
 20
1409.308210067
 30
0.0
 11
2437.0868111234
 21
1409.308210067
 31
0.0
  0
LINE
  5
12D
330
1F
100
AcDbEntity
  8
0
  6
CONTINUOUS
 62
     7
100
AcDbLine
 10
137.0868439059
 20
1559.308365039
 30
0.0
 11
137.0868439059
 21
1409.308210067
 31
0.0
  0
ARC
  5
12E
330
1F
100
AcDbEntity
  8
0
  6
CONTINUOUS
 62
     7
100
AcDbCircle
 10
237.0868588071
 20
1559.3083483497
 30
0.0
 40
100.0000000000001
100
AcDbArc
 50
90.0
 51
180.0
  0
LINE
  5
12F
330
1F
100
AcDbEntity
  8
0
  6
CONTINUOUS
 62
     7
100
AcDbLine
 10
537.0868722181
 20
1659.3082696716
 30
0.0
 11
237.0868230443
 21
1659.3082696716
 31
0.0
  0
LINE
  5
130
330
1F
100
AcDbEntity
  8
0
  6
CONTINUOUS
 62
     7
100
AcDbLine
 10
537.0868722181
 20
1659.3082696716
 30
0.0
 11
537.0868722181
 21
1658.9911729614
 31
0.0
  0
ARC
  5
131
330
1F
100
AcDbEntity
  8
0
  6
CONTINUOUS
 62
     7
100
AcDbCircle
 10
636.7696130909
 20
1658.9911026335
 30
0.0
 40
99.68275428378126
100
AcDbArc
 50
180.0
 51
270.0
  0
LINE
  5
132
330
1F
100
AcDbEntity
  8
0
  6
CONTINUOUS
 62
     7
100
AcDbLine
 10
2337.086831985
 20
1659.3082696716
 30
0.0
 11
1737.086845396
 21
1659.3082696716
 31
0.0
  0
LINE
  5
133
330
1F
100
AcDbEntity
  8
0
  6
CONTINUOUS
 62
     7
100
AcDbLine
 10
2437.0868111234
 20
-980.6916415175
 30
0.0
 11
1897.0868343692
 21
-980.6916415175
 31
0.0
  0
LINE
  5
134
330
1F
100
AcDbEntity
  8
0
  6
CONTINUOUS
 62
     7
100
AcDbLine
 10
2437.0868111234
 20
-1230.6916638692
 30
0.0
 11
2437.0868111234
 21
-980.6916415175
 31
0.0
  0
LINE
  5
135
330
1F
100
AcDbEntity
  8
0
  6
CONTINUOUS
 62
     7
100
AcDbLine
 10
1897.0868343692
 20
-1230.6916638692
 30
0.0
 11
2437.0868111234
 21
-1230.6916638692
 31
0.0
  0
LINE
  5
136
330
1F
100
AcDbEntity
  8
0
  6
CONTINUOUS
 62
     7
100
AcDbLine
 10
1897.0868343692
 20
-900.6916284044
 30
0.0
 11
2437.0868111234
 21
-900.6916284044
 31
0.0
  0
ARC
  5
137
330
1F
100
AcDbEntity
  8
0
  6
CONTINUOUS
 62
     7
100
AcDbCircle
 10
2467.0868588071
 20
-940.6916516503
 30
0.0
 40
50.00000000000064
100
AcDbArc
 50
126.8698976458
 51
233.1301023542
  0
LINE
  5
138
330
1F
100
AcDbEntity
  8
0
  6
CONTINUOUS
 62
     7
100
AcDbLine
 10
2437.0868111234
 20
339.3082768242
 30
0.0
 11
137.0868439059
 21
339.3082768242
 31
0.0
  0
LINE
  5
139
330
1F
100
AcDbEntity
  8
0
  6
CONTINUOUS
 62
     7
100
AcDbLine
 10
2437.0868111234
 20
89.3083662311
 30
0.0
 11
2437.0868111234
 21
339.3082768242
 31
0.0
  0
LINE
  5
13A
330
1F
100
AcDbEntity
  8
0
  6
CONTINUOUS
 62
     7
100
AcDbLine
 10
137.0868439059
 20
89.3083662311
 30
0.0
 11
2437.0868111234
 21
89.3083662311
 31
0.0
  0
LINE
  5
13B
330
1F
100
AcDbEntity
  8
0
  6
CONTINUOUS
 62
     7
100
AcDbLine
 10
137.0868439059
 20
339.3082768242
 30
0.0
 11
137.0868439059
 21
89.3083662311
 31
0.0
  0
LINE
  5
13C
330
1F
100
AcDbEntity
  8
0
  6
CONTINUOUS
 62
     7
100
AcDbLine
 10
237.0868230443
 20
-570.6916301926
 30
0.0
 11
459.9440450053
 21
-570.6916301926
 31
0.0
  0
ARC
  5
13D
330
1F
100
AcDbEntity
  8
0
  6
CONTINUOUS
 62
     7
100
AcDbCircle
 10
237.0868588071
 20
-470.6916516503
 30
0.0
 40
99.99999999999994
100
AcDbArc
 50
180.0
 51
270.0
  0
LINE
  5
13E
330
1F
100
AcDbEntity
  8
0
  6
CONTINUOUS
 62
     7
100
AcDbLine
 10
137.0868439059
 20
-320.6917195995
 30
0.0
 11
137.0868439059
 21
-470.6916510542
 31
0.0
  0
LINE
  5
13F
330
1F
100
AcDbEntity
  8
0
  6
CONTINUOUS
 62
     7
100
AcDbLine
 10
2437.0868111234
 20
-320.6917195995
 30
0.0
 11
137.0868439059
 21
-320.6917195995
 31
0.0
  0
LINE
  5
140
330
1F
100
AcDbEntity
  8
0
  6
CONTINUOUS
 62
     7
100
AcDbLine
 10
2437.0868111234
 20
-570.6916301926
 30
0.0
 11
2437.0868111234
 21
-320.6917195995
 31
0.0
  0
ARC
  5
141
330
1F
100
AcDbEntity
  8
0
  6
CONTINUOUS
 62
     7
100
AcDbCircle
 10
2467.0868588071
 20
-1270.6916516503
 30
0.0
 40
50.00000000000055
100
AcDbArc
 50
126.8698976458
 51
233.1301023542
  0
LINE
  5
142
330
1F
100
AcDbEntity
  8
0
  6
CONTINUOUS
 62
     7
100
AcDbLine
 10
2437.0868111234
 20
-1310.6916583558
 30
0.0
 11
1897.0868343692
 21
-1310.6916583558
 31
0.0
  0
ARC
  5
143
330
1F
100
AcDbEntity
  8
0
  6
CONTINUOUS
 62
     7
100
AcDbCircle
 10
2467.0868588071
 20
1369.3083483497
 30
0.0
 40
50.0
100
AcDbArc
 50
126.8698976458
 51
233.1301023542
  0
LINE
  5
144
330
1F
100
AcDbEntity
  8
0
  6
CONTINUOUS
 62
     7
100
AcDbLine
 10
2437.0868111234
 20
1329.3083459656
 30
0.0
 11
137.0868439059
 21
1329.3083459656
 31
0.0
  0
ARC
  5
145
330
1F
100
AcDbEntity
  8
0
  6
CONTINUOUS
 62
     7
100
AcDbCircle
 10
107.0868588071
 20
1369.3083483497
 30
0.0
 40
50.00000000000001
100
AcDbArc
 50
306.8698976458
 51
53.1301023542
  0
LINE
  5
146
330
1F
100
AcDbEntity
  8
0
  6
CONTINUOUS
 62
     7
100
AcDbLine
 10
2070.9655786138
 20
-1940.6916498621
 30
0.0
 11
1938.3006150107
 21
-1940.6916498621
 31
0.0
  0
LINE
  5
147
330
1F
100
AcDbEntity
  8
0
  6
CONTINUOUS
 62
     7
100
AcDbLine
 10
1938.3006150107
 20
-1940.6916498621
 30
0.0
 11
1938.3006150107
 21
-2140.6916453918
 31
0.0
  0
LINE
  5
148
330
1F
100
AcDbEntity
  8
0
  6
CONTINUOUS
 62
     7
100
AcDbLine
 10
2437.0868111234
 20
-1560.6916527678
 30
0.0
 11
2437.0868111234
 21
-1310.6916583558
 31
0.0
  0
LINE
  5
149
330
1F
100
AcDbEntity
  8
0
  6
CONTINUOUS
 62
     7
100
AcDbLine
 10
2437.0868111234
 20
999.3084222595
 30
0.0
 11
137.0868439059
 21
999.3084222595
 31
0.0
  0
LINE
  5
14A
330
1F
100
AcDbEntity
  8
0
  6
CONTINUOUS
 62
     7
100
AcDbLine
 10
137.0868439059
 20
749.3083626549
 30
0.0
 11
2437.0868111234
 21
749.3083626549
 31
0.0
  0
LINE
  5
14B
330
1F
100
AcDbEntity
  8
0
  6
CONTINUOUS
 62
     7
100
AcDbLine
 10
137.0868439059
 20
999.3084222595
 30
0.0
 11
137.0868439059
 21
749.3083626549
 31
0.0
  0
LINE
  5
14C
330
1F
100
AcDbEntity
  8
0
  6
CONTINUOUS
 62
     7
100
AcDbLine
 10
2437.0868111234
 20
749.3083626549
 30
0.0
 11
2437.0868111234
 21
999.3084222595
 31
0.0
  0
LINE
  5
14D
330
1F
100
AcDbEntity
  8
0
  6
CONTINUOUS
 62
     7
100
AcDbLine
 10
2437.0868111234
 20
-900.6916284044
 30
0.0
 11
2437.0868111234
 21
-879.6916454514
 31
0.0
  0
LINE
  5
14E
330
1F
100
AcDbEntity
  8
0
  6
CONTINUOUS
 62
     7
100
AcDbLine
 10
2437.0868111234
 20
-801.6916661938
 30
0.0
 11
2437.0868111234
 21
-650.6916433056
 31
0.0
  0
ARC
  5
14F
330
1F
100
AcDbEntity
  8
0
  6
CONTINUOUS
 62
     7
100
AcDbCircle
 10
636.7696130909
 20
1658.9911026335
 30
0.0
 40
52.16742218642037
100
AcDbArc
 50
180.0
 51
270.0
  0
ARC
  5
150
330
1F
100
AcDbEntity
  8
0
  6
CONTINUOUS
 62
     7
100
AcDbCircle
 10
2467.0868588071
 20
709.3083483497
 30
0.0
 40
50.0
100
AcDbArc
 50
126.8698976458
 51
233.1301023542
  0
LINE
  5
151
330
1F
100
AcDbEntity
  8
0
  6
CONTINUOUS
 62
     7
100
AcDbLine
 10
2437.0868111234
 20
669.3083495418
 30
0.0
 11
137.0868439059
 21
669.3083495418
 31
0.0
  0
ARC
  5
152
330
1F
100
AcDbEntity
  8
0
  6
CONTINUOUS
 62
     7
100
AcDbCircle
 10
107.0868588071
 20
709.3083483497
 30
0.0
 40
50.0000000000001
100
AcDbArc
 50
306.8698976458
 51
53.1301023542
  0
LINE
  5
153
330
1F
100
AcDbEntity
  8
0
  6
CONTINUOUS
 62
     7
100
AcDbLine
 10
137.0868439059
 20
1079.3082863609
 30
0.0
 11
2437.0868111234
 21
1079.3082863609
 31
0.0
  0
ARC
  5
154
330
1F
100
AcDbEntity
  8
0
  6
CONTINUOUS
 62
     7
100
AcDbCircle
 10
2467.0868588071
 20
1039.3083483497
 30
0.0
 40
49.99999999999982
100
AcDbArc
 50
126.8698976458
 51
233.1301023542
  0
ARC
  5
155
330
1F
100
AcDbEntity
  8
0
  6
CONTINUOUS
 62
     7
100
AcDbCircle
 10
107.0868588071
 20
1039.3083483497
 30
0.0
 40
50.00000000000019
100
AcDbArc
 50
306.8698976458
 51
53.1301023542
  0
LINE
  5
156
330
1F
100
AcDbEntity
  8
0
  6
CONTINUOUS
 62
     7
100
AcDbLine
 10
137.0868439059
 20
419.3082899372
 30
0.0
 11
2437.0868111234
 21
419.3082899372
 31
0.0
  0
LINE
  5
157
330
1F
100
AcDbEntity
  8
0
  6
CONTINUOUS
 62
     7
100
AcDbLine
 10
137.0868439059
 20
669.3083495418
 30
0.0
 11
137.0868439059
 21
419.3082899372
 31
0.0
  0
LINE
  5
158
330
1F
100
AcDbEntity
  8
0
  6
CONTINUOUS
 62
     7
100
AcDbLine
 10
2437.0868111234
 20
419.3082899372
 30
0.0
 11
2437.0868111234
 21
669.3083495418
 31
0.0
  0
LINE
  5
159
330
1F
100
AcDbEntity
  8
0
  6
CONTINUOUS
 62
     7
100
AcDbLine
 10
2437.0868111234
 20
-1840.6916520973
 30
0.0
 11
2437.0868111234
 21
-1640.691651911
 31
0.0
  0
LINE
  5
15A
330
1F
100
AcDbEntity
  8
0
  6
CONTINUOUS
 62
     7
100
AcDbLine
 10
2070.9655786138
 20
-1940.6916498621
 30
0.0
 11
2337.086831985
 21
-1940.6916498621
 31
0.0
  0
ARC
  5
15B
330
1F
100
AcDbEntity
  8
0
  6
CONTINUOUS
 62
     7
100
AcDbCircle
 10
2337.0868588071
 20
-1840.6916516503
 30
0.0
 40
100.0
100
AcDbArc
 50
270.0
 51
0.0
  0
LINE
  5
15C
330
1F
100
AcDbEntity
  8
0
  6
CONTINUOUS
 62
     7
100
AcDbLine
 10
2437.0868111234
 20
1079.3082863609
 30
0.0
 11
2437.0868111234
 21
1329.3083459656
 31
0.0
  0
LINE
  5
15D
330
1F
100
AcDbEntity
  8
0
  6
CONTINUOUS
 62
     7
100
AcDbLine
 10
137.0868439059
 20
1329.3083459656
 30
0.0
 11
137.0868439059
 21
1079.3082863609
 31
0.0
  0
LINE
  5
15E
330
1F
100
AcDbEntity
  8
0
  6
CONTINUOUS
 62
     7
100
AcDbLine
 10
2437.0868111234
 20
9.3083531181
 30
0.0
 11
137.0868439059
 21
9.3083531181
 31
0.0
  0
LINE
  5
15F
330
1F
100
AcDbEntity
  8
0
  6
CONTINUOUS
 62
     7
100
AcDbLine
 10
2437.0868111234
 20
-240.6917064865
 30
0.0
 11
2437.0868111234
 21
9.3083531181
 31
0.0
  0
LINE
  5
160
330
1F
100
AcDbEntity
  8
0
  6
CONTINUOUS
 62
     7
100
AcDbLine
 10
137.0868439059
 20
-240.6917064865
 30
0.0
 11
2437.0868111234
 21
-240.6917064865
 31
0.0
  0
LINE
  5
161
330
1F
100
AcDbEntity
  8
0
  6
CONTINUOUS
 62
     7
100
AcDbLine
 10
137.0868439059
 20
9.3083531181
 30
0.0
 11
137.0868439059
 21
-240.6917064865
 31
0.0
  0
LINE
  5
162
330
1F
100
AcDbEntity
  8
0
  6
CONTINUOUS
 62
     7
100
AcDbLine
 10
1724.4160900097
 20
1759.6255690376
 30
0.0
 11
1724.4160900097
 21
1659.3082696716
 31
0.0
  0
LINE
  5
163
330
1F
100
AcDbEntity
  8
0
  6
CONTINUOUS
 62
     7
100
AcDbLine
 10
1689.5715126972
 20
1658.9911729614
 30
0.0
 11
1689.5715126972
 21
1759.6255690376
 31
0.0
  0
LINE
  5
164
330
1F
100
AcDbEntity
  8
0
  6
CONTINUOUS
 62
     7
100
AcDbLine
 10
1724.4160900097
 20
1659.3082696716
 30
0.0
 11
1737.086845396
 21
1659.3082696716
 31
0.0
  0
ARC
  5
165
330
1F
100
AcDbEntity
  8
0
  6
CONTINUOUS
 62
     7
100
AcDbCircle
 10
107.0868588071
 20
379.3083483497
 30
0.0
 40
50.00000000000006
100
AcDbArc
 50
306.8698976458
 51
53.1301023542
  0
ARC
  5
166
330
1F
100
AcDbEntity
  8
0
  6
CONTINUOUS
 62
     7
100
AcDbCircle
 10
2467.0868588071
 20
379.3083483497
 30
0.0
 40
50.00000000000059
100
AcDbArc
 50
126.8698976458
 51
233.1301023542
  0
LINE
  5
167
330
1F
100
AcDbEntity
  8
0
  6
CONTINUOUS
 62
     7
100
AcDbLine
 10
636.7696056347
 20
1606.8236977379
 30
0.0
 11
1637.4041119795
 21
1606.8236977379
 31
0.0
  0
LINE
  5
168
330
1F
100
AcDbEntity
  8
0
  6
CONTINUOUS
 62
     7
100
AcDbLine
 10
549.7576276045
 20
1659.3082696716
 30
0.0
 11
549.7576276045
 21
1759.6255690376
 31
0.0
  0
LINE
  5
169
330
1F
100
AcDbEntity
  8
0
  6
CONTINUOUS
 62
     7
100
AcDbLine
 10
584.6022049169
 20
1759.6255690376
 30
0.0
 11
584.6022049169
 21
1658.9911729614
 31
0.0
  0
LINE
  5
16A
330
1F
100
AcDbEntity
  8
0
  6
CONTINUOUS
 62
     7
100
AcDbLine
 10
537.0868722181
 20
1659.3082696716
 30
0.0
 11
549.7576276045
 21
1659.3082696716
 31
0.0
  0
ARC
  5
16B
330
1F
100
AcDbEntity
  8
0
  6
CONTINUOUS
 62
     7
100
AcDbCircle
 10
107.0868588071
 20
49.3083483497
 30
0.0
 40
50.00000000000004
100
AcDbArc
 50
306.8698976458
 51
53.1301023542
  0
ARC
  5
16C
330
1F
100
AcDbEntity
  8
0
  6
CONTINUOUS
 62
     7
100
AcDbCircle
 10
2467.0868588071
 20
49.3083483497
 30
0.0
 40
50.00000000000036
100
AcDbArc
 50
126.8698976458
 51
233.1301023542
  0
ARC
  5
16D
330
1F
100
AcDbEntity
  8
0
  6
CONTINUOUS
 62
     7
100
AcDbCircle
 10
1637.4041045233
 20
1658.9911026335
 30
0.0
 40
52.16742218642048
100
AcDbArc
 50
270.0
 51
0.0
  0
ARC
  5
16E
330
1F
100
AcDbEntity
  8
0
  6
CONTINUOUS
 62
     7
100
AcDbCircle
 10
107.0868588071
 20
-280.6916516503
 30
0.0
 40
50.00000000000006
100
AcDbArc
 50
306.8698976458
 51
53.1301023542
  0
ARC
  5
16F
330
1F
100
AcDbEntity
  8
0
  6
CONTINUOUS
 62
     7
100
AcDbCircle
 10
2467.0868588071
 20
-280.6916516503
 30
0.0
 40
50.00000000000057
100
AcDbArc
 50
126.8698976458
 51
233.1301023542
  0
LINE
  5
170
330
1F
100
AcDbEntity
  8
0
  6
CONTINUOUS
 62
     7
100
AcDbLine
 10
2690.4750967603
 20
2359.3084961693
 30
0.0
 11
2757.0868635755
 21
2359.3084961693
 31
0.0
  0
LINE
  5
171
330
1F
100
AcDbEntity
  8
0
  6
CONTINUOUS
 62
     7
100
AcDbLine
 10
-482.9131459613
 20
2359.3084961693
 30
0.0
 11
-416.3013791461
 21
2359.3084961693
 31
0.0
  0
ARC
  5
172
330
1F
100
AcDbEntity
  8
0
  6
CONTINUOUS
 62
     7
100
AcDbCircle
 10
2757.0868588071
 20
1959.3083483497
 30
0.0
 40
400.0
100
AcDbArc
 50
0.0
 51
6.4487184658
  0
ARC
  5
173
330
1F
100
AcDbEntity
  8
0
  6
CONTINUOUS
 62
     7
100
AcDbCircle
 10
-482.9131411929
 20
1959.3083483497
 30
0.0
 40
400.0000000000001
100
AcDbArc
 50
173.5512815342
 51
180.0
  0
LINE
  5
174
330
1F
100
AcDbEntity
  8
0
  6
CONTINUOUS
 62
     7
100
AcDbLine
 10
-882.9132115264
 20
-1760.6916482975
 30
0.0
 11
-882.9132115264
 21
1959.3082815925
 31
0.0
  0
LINE
  5
175
330
1F
100
AcDbEntity
  8
0
  6
CONTINUOUS
 62
     7
100
AcDbLine
 10
-761.697033586
 20
-1760.6916482975
 30
0.0
 11
-882.9132115264
 21
-1760.6916482975
 31
0.0
  0
LINE
  5
176
330
1F
100
AcDbEntity
  8
0
  6
CONTINUOUS
 62
     7
100
AcDbLine
 10
3157.0869291406
 20
1959.3082815925
 30
0.0
 11
3157.0869291406
 21
-2290.6916886051
 31
0.0
  0
ARC
  5
177
330
1F
100
AcDbEntity
  8
0
  6
CONTINUOUS
 62
     7
100
AcDbCircle
 10
2807.0868588071
 20
-2290.6916516503
 30
0.0
 40
350.0
100
AcDbArc
 50
270.0
 51
0.0
  0
LINE
  5
178
330
1F
100
AcDbEntity
  8
0
  6
CONTINUOUS
 62
     7
100
AcDbLine
 10
-112.9131411929
 20
2059.3084842483
 30
0.0
 11
187.086870728
 21
2059.3084842483
 31
0.0
  0
LINE
  5
179
330
1F
100
AcDbEntity
  8
0
  6
CONTINUOUS
 62
     7
100
AcDbLine
 10
74.1678828578
 20
1735.3134304802
 30
0.0
 11
74.1678828578
 21
-1610.6916516503
 31
0.0
  0
SPLINE
  5
17A
330
1F
100
AcDbEntity
  8
0
  6
CONTINUOUS
 62
     7
100
AcDbSpline
210
0.0
220
0.0
230
1.0
 70
     8
 71
     3
 72
    10
 73
     6
 74
     0
 42
0.00000001
 43
0.00000001
 40
0.0
 40
0.0
 40
0.0
 40
0.0
 40
0.6036895835719699
 40
0.9084560434136838
 40
0.9999999999999999
 40
0.9999999999999999
 40
0.9999999999999999
 40
0.9999999999999999
 10
0.0058466772988319
 20
-1610.691651650253
 30
0.0
 10
-0.4017757461267923
 20
-1624.155542224423
 30
0.0
 10
-1.015182145821109
 20
-1644.41653908906
 30
0.0
 10
-3.023700486123604
 20
-1665.742880691805
 30
0.0
 10
-2.740752150571513
 20
-1673.55260473496
 30
0.0
 10
-2.675393762116146
 20
-1675.35657709885
 30
0.0
  0
SPLINE
  5
17B
330
1F
100
AcDbEntity
  8
0
  6
CONTINUOUS
 62
     7
100
AcDbSpline
210
0.0
220
0.0
230
1.0
 70
     8
 71
     3
 72
    11
 73
     7
 74
     0
 42
0.00000001
 43
0.00000001
 40
0.0
 40
0.0
 40
0.0
 40
0.0
 40
0.0093730230332929
 40
0.3621194183506559
 40
0.7244770769319624
 40
1.0
 40
1.0
 40
1.0
 40
1.0
 10
77.0240629296258
 20
-1675.912124984446
 30
0.0
 10
77.04493787198896
 20
-1675.73269200531
 30
0.0
 10
77.85142495303293
 20
-1668.800439112411
 30
0.0
 10
75.78581821104643
 20
-1652.940332705804
 30
0.0
 10
74.55187305343405
 20
-1631.295244638618
 30
0.0
 10
74.28371129570371
 20
-1616.90660718364
 30
0.0
 10
74.16788285779491
 20
-1610.691651650253
 30
0.0
  0
LINE
  5
17C
330
1F
100
AcDbEntity
  8
0
  6
CONTINUOUS
 62
     7
100
AcDbLine
 10
0.0058466773
 20
-1610.6916516503
 30
0.0
 11
0.0058466773
 21
1735.3134304802
 31
0.0
  0
ARC
  5
17D
330
1F
100
AcDbEntity
  8
0
  6
CONTINUOUS
 62
     7
100
AcDbCircle
 10
37.0868588071
 20
1750.3133989836
 30
0.0
 40
40.00000000000004
100
AcDbArc
 50
180.0
 51
202.024312837
  0
ARC
  5
17E
330
1F
100
AcDbEntity
  8
0
  6
CONTINUOUS
 62
     7
100
AcDbCircle
 10
37.0868588071
 20
1750.3133989836
 30
0.0
 40
40.00000000000021
100
AcDbArc
 50
337.975687163
 51
0.0
  0
LINE
  5
17F
330
1F
100
AcDbEntity
  8
0
  6
CONTINUOUS
 62
     7
100
AcDbLine
 10
250.8466297965
 20
1735.3134304802
 30
0.0
 11
74.1678828578
 21
1735.3134304802
 31
0.0
  0
LINE
  5
180
330
1F
100
AcDbEntity
  8
0
  6
CONTINUOUS
 62
     7
100
AcDbLine
 10
0.0058466773
 20
1735.3134304802
 30
0.0
 11
-176.6729747672
 21
1735.3134304802
 31
0.0
  0
ELLIPSE
  5
181
330
1F
100
AcDbEntity
  8
0
  6
CONTINUOUS
 62
     7
100
AcDbEllipse
 10
221.640062627
 20
2011.8083483497
 30
0.0
 11
62.94679618009462
 21
0.0
 31
0.0
210
0.0
220
0.0
230
1.0
 40
0.7546055222
 41
0.0
 42
1.570796326794897
  0
LINE
  5
182
330
1F
100
AcDbEntity
  8
0
  6
CONTINUOUS
 62
     7
100
AcDbLine
 10
284.5868820529
 20
2011.8083507339
 30
0.0
 11
284.5868820529
 21
1771.3200003425
 31
0.0
  0
ARC
  5
183
330
1F
100
AcDbEntity
  8
0
  6
CONTINUOUS
 62
     7
100
AcDbCircle
 10
636.7696130909
 20
1759.625594066
 30
0.0
 40
87.01199905781846
100
AcDbArc
 50
90.0
 51
180.0
  0
ARC
  5
184
330
1F
100
AcDbEntity
  8
0
  6
CONTINUOUS
 62
     7
100
AcDbCircle
 10
636.7696130909
 20
1759.625594066
 30
0.0
 40
52.16742218642048
100
AcDbArc
 50
90.0
 51
180.0
  0
ELLIPSE
  5
185
330
1F
100
AcDbEntity
  8
0
  6
CONTINUOUS
 62
     7
100
AcDbEllipse
 10
-147.4663450128
 20
2011.8083483497
 30
0.0
 11
-62.94679618009476
 21
0.0
 31
0.0
210
0.0
220
0.0
230
1.0
 40
0.7546055222
 41
4.7123889803847
 42
6.283185307179586
  0
ARC
  5
186
330
1F
100
AcDbEntity
  8
0
  6
CONTINUOUS
 62
     7
100
AcDbCircle
 10
1637.4041045233
 20
1759.625594066
 30
0.0
 40
87.01199905781846
100
AcDbArc
 50
0.0
 51
90.0
  0
LINE
  5
187
330
1F
100
AcDbEntity
  8
0
  6
CONTINUOUS
 62
     7
100
AcDbLine
 10
636.7696056347
 20
1846.6376215736
 30
0.0
 11
1637.4041119795
 21
1846.6376215736
 31
0.0
  0
ELLIPSE
  5
188
330
1F
100
AcDbEntity
  8
0
  6
CONTINUOUS
 62
     7
100
AcDbEllipse
 10
221.640062627
 20
1802.4885431964
 30
0.0
 11
-51.74479542254628
 21
59.50651473592733
 31
0.0
210
0.0
220
0.0
230
1.0
 40
0.602350221
 41
2.659100328214707
 42
3.747404329634545
  0
ELLIPSE
  5
189
330
1F
100
AcDbEntity
  8
0
  6
CONTINUOUS
 62
     7
100
AcDbEllipse
 10
-147.4663450128
 20
1802.4885431964
 30
0.0
 11
51.74479542254625
 21
59.50651473592734
 31
0.0
210
0.0
220
0.0
230
1.0
 40
0.602350221
 41
2.535780977545059
 42
3.624084978964897
  0
LINE
  5
18A
330
1F
100
AcDbEntity
  8
0
  6
CONTINUOUS
 62
     7
100
AcDbLine
 10
1637.4041119795
 20
1811.7930442612
 30
0.0
 11
636.7696056347
 21
1811.7930442612
 31
0.0
  0
LINE
  5
18B
330
1F
100
AcDbEntity
  8
0
  6
CONTINUOUS
 62
     7
100
AcDbLine
 10
-210.413078012
 20
1771.3200003425
 30
0.0
 11
-210.413078012
 21
2011.8083507339
 31
0.0
  0
ARC
  5
18C
330
1F
100
AcDbEntity
  8
0
  6
CONTINUOUS
 62
     7
100
AcDbCircle
 10
1637.4041045233
 20
1759.625594066
 30
0.0
 40
52.16742218642048
100
AcDbArc
 50
0.0
 51
90.0
  0
LINE
  5
18D
330
1F
100
AcDbEntity
  8
0
  6
CONTINUOUS
 62
     7
100
AcDbLine
 10
-882.9132115264
 20
-1910.6916449447
 30
0.0
 11
-882.9132115264
 21
-1760.6916482975
 31
0.0
  0
LINE
  5
18E
330
1F
100
AcDbEntity
  8
0
  6
CONTINUOUS
 62
     7
100
AcDbLine
 10
1902.364825664
 20
-2620.691686817
 30
0.0
 11
1833.2407230716
 21
-2620.691686817
 31
0.0
  0
LINE
  5
18F
330
1F
100
AcDbEntity
  8
0
  6
CONTINUOUS
 62
     7
100
AcDbLine
 10
1788.299938498
 20
-2620.691686817
 30
0.0
 11
1737.086845396
 21
-2620.691686817
 31
0.0
  0
LINE
  5
190
330
1F
100
AcDbEntity
  8
0
  6
CONTINUOUS
 62
     7
100
AcDbLine
 10
2020.7680369
 20
-2640.6916528423
 30
0.0
 11
1937.0868409257
 21
-2640.6916528423
 31
0.0
  0
SPLINE
  5
191
330
1F
100
AcDbEntity
  8
0
  6
CONTINUOUS
 62
     7
100
AcDbSpline
210
0.0
220
0.0
230
1.0
 70
    24
 71
     3
 72
    16
 73
    12
 74
     0
 42
0.00000001
 43
0.00000001
 40
0.0
 40
0.0
 40
0.0
 40
0.0
 40
0.2499999999999981
 40
0.2499999999999981
 40
0.4999999999999962
 40
0.4999999999999962
 40
0.624999999999997
 40
0.624999999999997
 40
0.7499999999999979
 40
0.7499999999999979
 40
1.0
 40
1.0
 40
1.0
 40
1.0
 10
1923.97288935803
 20
-2627.577682201077
 30
0.0
 10
1926.346760241524
 20
-2629.951553084572
 30
0.0
 10
1928.324939534783
 20
-2631.929732377953
 30
0.0
 10
1931.642112961919
 20
-2635.24690580509
 30
0.0
 10
1932.979784806255
 20
-2636.584577649426
 30
0.0
 10
1934.563332213314
 20
-2638.168125056484
 30
0.0
 10
1935.020948656477
 20
-2638.625741499647
 30
0.0
 10
1935.791031008638
 20
-2639.395823851808
 30
0.0
 10
1936.105192254997
 20
-2639.709985098167
 30
0.0
 10
1936.850937442106
 20
-2640.455730285277
 30
0.0
 10
1937.086858807083
 20
-2640.691651650253
 30
0.0
 10
1937.086858807083
 20
-2640.691651650253
 30
0.0
  0
SPLINE
  5
192
330
1F
100
AcDbEntity
  8
0
  6
CONTINUOUS
 62
     7
100
AcDbSpline
210
0.0
220
0.0
230
1.0
 70
     8
 71
     3
 72
     9
 73
     5
 74
     0
 42
0.00000001
 43
0.00000001
 40
0.0
 40
0.0
 40
0.0
 40
0.0
 40
0.5
 40
1.0
 40
1.0
 40
1.0
 40
1.0
 10
1923.97288935803
 20
-2627.577682201077
 30
0.0
 10
1920.345729470229
 20
-2626.525441939693
 30
0.0
 10
1913.118883530129
 20
-2624.319381990152
 30
0.0
 10
1905.94202591556
 20
-2621.928499449954
 30
0.0
 10
1902.364796188829
 20
-2620.691651650252
 30
0.0
  0
LINE
  5
193
330
1F
100
AcDbEntity
  8
0
  6
CONTINUOUS
 62
     7
100
AcDbLine
 10
-882.9132115264
 20
-2178.6002367218
 30
0.0
 11
-882.9132115264
 21
-1910.6916449447
 31
0.0
  0
LINE
  5
194
330
1F
100
AcDbEntity
  8
0
  6
CONTINUOUS
 62
     7
100
AcDbLine
 10
-882.9132115264
 20
-2290.6916886051
 30
0.0
 11
-882.9132115264
 21
-2178.6002367218
 31
0.0
  0
LINE
  5
195
330
1F
100
AcDbEntity
  8
0
  6
CONTINUOUS
 62
     7
100
AcDbLine
 10
1337.0868543367
 20
-2815.691634961
 30
0.0
 11
1337.0868543367
 21
-2490.6916468819
 31
0.0
  0
LINE
  5
196
330
1F
100
AcDbEntity
  8
0
  6
CONTINUOUS
 62
     7
100
AcDbLine
 10
937.0868632774
 20
-2815.691634961
 30
0.0
 11
1337.0868543367
 21
-2815.691634961
 31
0.0
  0
LINE
  5
197
330
1F
100
AcDbEntity
  8
0
  6
CONTINUOUS
 62
     7
100
AcDbLine
 10
937.0868632774
 20
-2815.691634961
 30
0.0
 11
937.0868632774
 21
-2490.6916468819
 31
0.0
  0
LWPOLYLINE
  5
198
330
1F
100
AcDbEntity
  8
0
  6
CONTINUOUS
 62
     7
100
AcDbPolyline
 90
        5
 70
   128
 43
0.0
 10
337.0868766885
 20
-2640.6916528423
 10
338.363831697
 20
-2639.414623328
 10
342.1730900388
 20
-2635.605439492
 10
348.449682651
 20
-2629.328772374
 10
357.0868427138
 20
-2620.691686817
  0
LINE
  5
199
330
1F
100
AcDbEntity
  8
0
  6
CONTINUOUS
 62
     7
100
AcDbLine
 10
337.0868766885
 20
-2640.6916528423
 30
0.0
 11
242.0868331771
 21
-2640.6916528423
 31
0.0
  0
LINE
  5
19A
330
1F
100
AcDbEntity
  8
0
  6
CONTINUOUS
 62
     7
100
AcDbLine
 10
-267.9130827804
 20
-2640.6916528423
 30
0.0
 11
-532.9130982776
 21
-2640.6916528423
 31
0.0
  0
LINE
  5
19B
330
1F
100
AcDbEntity
  8
0
  6
CONTINUOUS
 62
     7
100
AcDbLine
 10
1737.086845396
 20
-2620.691686817
 30
0.0
 11
1337.0868543367
 21
-2620.691686817
 31
0.0
  0
LINE
  5
19C
330
1F
100
AcDbEntity
  8
0
  6
CONTINUOUS
 62
     7
100
AcDbLine
 10
937.0868632774
 20
-2620.691686817
 30
0.0
 11
485.8737791161
 21
-2620.691686817
 31
0.0
  0
LINE
  5
19D
330
1F
100
AcDbEntity
  8
0
  6
CONTINUOUS
 62
     7
100
AcDbLine
 10
440.9329945426
 20
-2620.691686817
 30
0.0
 11
357.0868427138
 21
-2620.691686817
 31
0.0
  0
ARC
  5
19E
330
1F
100
AcDbEntity
  8
0
  6
CONTINUOUS
 62
     7
100
AcDbCircle
 10
-532.9131411929
 20
-2290.6916516503
 30
0.0
 40
350.0
100
AcDbArc
 50
180.0
 51
270.0
  0
LINE
  5
19F
330
1F
100
AcDbEntity
  8
0
  6
CONTINUOUS
 62
     7
100
AcDbLine
 10
152.0868743043
 20
2379.3082386772
 30
0.0
 11
832.0868553798
 21
2379.3082386772
 31
0.0
  0
LINE
  5
1A0
330
1F
100
AcDbEntity
  8
0
  6
CONTINUOUS
 62
     7
100
AcDbLine
 10
-527.9131626506
 20
2379.3082386772
 30
0.0
 11
152.0868743043
 21
2379.3082386772
 31
0.0
  0
ARC
  5
1A1
330
1F
100
AcDbEntity
  8
0
  6
CONTINUOUS
 62
     7
100
AcDbCircle
 10
152.0868588071
 20
2584.3083483497
 30
0.0
 40
20.00000000000017
100
AcDbArc
 50
90.0
 51
180.0
  0
ARC
  5
1A2
330
1F
100
AcDbEntity
  8
0
  6
CONTINUOUS
 62
     7
100
AcDbCircle
 10
152.0868588071
 20
2584.3083483497
 30
0.0
 40
20.00000000000003
100
AcDbArc
 50
0.0
 51
90.0
  0
LINE
  5
1A3
330
1F
100
AcDbEntity
  8
0
  6
CONTINUOUS
 62
     7
100
AcDbLine
 10
132.0868337731
 20
2434.3084246437
 30
0.0
 11
132.0868337731
 21
2584.3082815925
 31
0.0
  0
LINE
  5
1A4
330
1F
100
AcDbEntity
  8
0
  6
CONTINUOUS
 62
     7
100
AcDbLine
 10
172.0868403296
 20
2434.3084246437
 30
0.0
 11
172.0868403296
 21
2584.3082815925
 31
0.0
  0
LINE
  5
1A5
330
1F
100
AcDbEntity
  8
0
  6
CONTINUOUS
 62
     7
100
AcDbLine
 10
410.3982055764
 20
2434.3084246437
 30
0.0
 11
629.3839195948
 21
2434.3084246437
 31
0.0
  0
LINE
  5
1A6
330
1F
100
AcDbEntity
  8
0
  6
CONTINUOUS
 62
     7
100
AcDbLine
 10
629.3839195948
 20
2434.3084246437
 30
0.0
 11
775.7055366616
 21
2434.3084246437
 31
0.0
  0
LINE
  5
1A7
330
1F
100
AcDbEntity
  8
0
  6
CONTINUOUS
 62
     7
100
AcDbLine
 10
775.7055366616
 20
2434.3084246437
 30
0.0
 11
827.0868638735
 21
2434.3084246437
 31
0.0
  0
LINE
  5
1A8
330
1F
100
AcDbEntity
  8
0
  6
CONTINUOUS
 62
     7
100
AcDbLine
 10
-522.913078012
 20
2434.3084246437
 30
0.0
 11
-471.531788053
 21
2434.3084246437
 31
0.0
  0
LINE
  5
1A9
330
1F
100
AcDbEntity
  8
0
  6
CONTINUOUS
 62
     7
100
AcDbLine
 10
-471.531788053
 20
2434.3084246437
 30
0.0
 11
-325.2102827449
 21
2434.3084246437
 31
0.0
  0
LINE
  5
1AA
330
1F
100
AcDbEntity
  8
0
  6
CONTINUOUS
 62
     7
100
AcDbLine
 10
-325.2102827449
 20
2434.3084246437
 30
0.0
 11
-106.2244569678
 21
2434.3084246437
 31
0.0
  0
LINE
  5
1AB
330
1F
100
AcDbEntity
  8
0
  6
CONTINUOUS
 62
     7
100
AcDbLine
 10
152.0868743043
 20
2404.3082148353
 30
0.0
 11
827.0868638735
 21
2404.3082148353
 31
0.0
  0
LINE
  5
1AC
330
1F
100
AcDbEntity
  8
0
  6
CONTINUOUS
 62
     7
100
AcDbLine
 10
-522.913078012
 20
2404.3082148353
 30
0.0
 11
152.0868743043
 21
2404.3082148353
 31
0.0
  0
LINE
  5
1AD
330
1F
100
AcDbEntity
  8
0
  6
CONTINUOUS
 62
     7
100
AcDbLine
 10
-106.2244569678
 20
2434.3084246437
 30
0.0
 11
152.0868743043
 21
2434.3084246437
 31
0.0
  0
LINE
  5
1AE
330
1F
100
AcDbEntity
  8
0
  6
CONTINUOUS
 62
     7
100
AcDbLine
 10
152.0868743043
 20
2434.3084246437
 30
0.0
 11
410.3982055764
 21
2434.3084246437
 31
0.0
  0
LINE
  5
1AF
330
1F
100
AcDbEntity
  8
0
  6
CONTINUOUS
 62
     7
100
AcDbLine
 10
-447.9131495376
 20
2624.3083626549
 30
0.0
 11
752.0868608932
 21
2624.3083626549
 31
0.0
  0
SPLINE
  5
1B0
330
1F
100
AcDbEntity
  8
0
  6
CONTINUOUS
 62
     7
100
AcDbSpline
210
0.0
220
0.0
230
1.0
 70
     8
 71
     3
 72
    20
 73
    16
 74
     0
 42
0.00000001
 43
0.00000001
 40
0.0
 40
0.0
 40
0.0
 40
0.0
 40
0.1250000000000003
 40
0.1250000000000003
 40
0.2500000000000006
 40
0.2500000000000006
 40
0.4999999999999983
 40
0.4999999999999983
 40
0.6249999999999988
 40
0.6249999999999988
 40
0.7499999999999991
 40
0.7499999999999991
 40
0.8749999999999996
 40
0.8749999999999996
 40
1.0
 40
1.0
 40
1.0
 40
1.0
 10
604.6351987664784
 20
2604.308348349748
 30
0.0
 10
603.6601953322191
 20
2604.308348349748
 30
0.0
 10
602.7801551397993
 20
2604.167373710051
 30
0.0
 10
601.1871742604551
 20
2603.62328941711
 30
0.0
 10
600.4710838889511
 20
2603.213337808656
 30
0.0
 10
598.6284356482295
 20
2601.657802464077
 30
0.0
 10
597.7568065177051
 20
2600.162173138778
 30
0.0
 10
596.8729055585753
 20
2597.437288722856
 30
0.0
 10
596.6449683860812
 20
2596.433156491986
 30
0.0
 10
596.31987472867
 20
2594.309459728867
 30
0.0
 10
596.2200237879591
 20
2593.185491334531
 30
0.0
 10
596.1360801551057
 20
2590.80322769334
 30
0.0
 10
596.1536591651219
 20
2589.539035471036
 30
0.0
 10
596.3046525600247
 20
2586.972200388127
 30
0.0
 10
596.4370338283525
 20
2585.657407693669
 30
0.0
 10
596.6318463004048
 20
2584.308348349748
 30
0.0
  0
SPLINE
  5
1B1
330
1F
100
AcDbEntity
  8
0
  6
CONTINUOUS
 62
     7
100
AcDbSpline
210
0.0
220
0.0
230
1.0
 70
     8
 71
     3
 72
     8
 73
     4
 74
     0
 42
0.00000001
 43
0.00000001
 40
0.0
 40
0.0
 40
0.0
 40
0.0
 40
1.0
 40
1.0
 40
1.0
 40
1.0
 10
596.6318463004048
 20
2584.308348349748
 30
0.0
 10
597.1082832880746
 20
2581.009063846895
 30
0.0
 10
597.346508116759
 20
2577.675731117198
 30
0.0
 10
597.346508116759
 20
2574.308348349748
 30
0.0
  0
SPLINE
  5
1B2
330
1F
100
AcDbEntity
  8
0
  6
CONTINUOUS
 62
     7
100
AcDbSpline
210
0.0
220
0.0
230
1.0
 70
     8
 71
     3
 72
    20
 73
    16
 74
     0
 42
0.00000001
 43
0.00000001
 40
0.0
 40
0.0
 40
0.0
 40
0.0
 40
0.1249999999999991
 40
0.1249999999999991
 40
0.2499999999999982
 40
0.2499999999999982
 40
0.4999999999999964
 40
0.4999999999999964
 40
0.6249999999999973
 40
0.6249999999999973
 40
0.7499999999999982
 40
0.7499999999999982
 40
0.8749999999999991
 40
0.8749999999999991
 40
1.0
 40
1.0
 40
1.0
 40
1.0
 10
397.0042555207428
 20
2604.308348349748
 30
0.0
 10
395.7303521429122
 20
2604.308348349748
 30
0.0
 10
394.5251522476079
 20
2604.167373710051
 30
0.0
 10
392.2366798622205
 20
2603.623289417111
 30
0.0
 10
391.1470153155855
 20
2603.213337808656
 30
0.0
 10
388.1829982092577
 20
2601.657802464075
 30
0.0
 10
386.5403803279166
 20
2600.162173138779
 30
0.0
 10
384.6089572651687
 20
2597.437288722855
 30
0.0
 10
384.0443149556838
 20
2596.433156491986
 30
0.0
 10
383.1052425563754
 20
2594.309459728867
 30
0.0
 10
382.7256041612391
 20
2593.185491334531
 30
0.0
 10
382.1434935665852
 20
2590.803227693342
 30
0.0
 10
381.9428951225928
 20
2589.539035471037
 30
0.0
 10
381.7449414685144
 20
2586.972200388128
 30
0.0
 10
381.7435186249497
 20
2585.65740769367
 30
0.0
 10
381.8489503750845
 20
2584.308348349748
 30
0.0
  0
SPLINE
  5
1B3
330
1F
100
AcDbEntity
  8
0
  6
CONTINUOUS
 62
     7
100
AcDbSpline
210
0.0
220
0.0
230
1.0
 70
     8
 71
     3
 72
     8
 73
     4
 74
     0
 42
0.00000001
 43
0.00000001
 40
0.0
 40
0.0
 40
0.0
 40
0.0
 40
1.0
 40
1.0
 40
1.0
 40
1.0
 10
381.8489503750845
 20
2584.308348349748
 30
0.0
 10
382.1067962147769
 20
2581.009063846895
 30
0.0
 10
382.2357225630188
 20
2577.675731117198
 30
0.0
 10
382.2357225630188
 20
2574.308348349748
 30
0.0
  0
SPLINE
  5
1B4
330
1F
100
AcDbEntity
  8
0
  6
CONTINUOUS
 62
     7
100
AcDbSpline
210
0.0
220
0.0
230
1.0
 70
     8
 71
     3
 72
     8
 73
     4
 74
     0
 42
0.00000001
 43
0.00000001
 40
0.0
 40
0.0
 40
0.0
 40
0.0
 40
1.0
 40
1.0
 40
1.0
 40
1.0
 10
-78.06200494884536
 20
2574.308348349748
 30
0.0
 10
-78.06200494884536
 20
2577.675731117198
 30
0.0
 10
-77.93307860060342
 20
2581.009063846895
 30
0.0
 10
-77.67523276091107
 20
2584.308348349748
 30
0.0
  0
SPLINE
  5
1B5
330
1F
100
AcDbEntity
  8
0
  6
CONTINUOUS
 62
     7
100
AcDbSpline
210
0.0
220
0.0
230
1.0
 70
     8
 71
     3
 72
    22
 73
    18
 74
     0
 42
0.00000001
 43
0.00000001
 40
0.0
 40
0.0
 40
0.0
 40
0.0
 40
0.125
 40
0.125
 40
0.25
 40
0.25
 40
0.375
 40
0.375
 40
0.5
 40
0.5
 40
0.625
 40
0.625
 40
0.75
 40
0.75
 40
0.875
 40
0.875
 40
1.0
 40
1.0
 40
1.0
 40
1.0
 10
-77.67523276091107
 20
2584.308348349748
 30
0.0
 10
-77.56980576084108
 20
2585.657346913878
 30
0.0
 10
-77.57132199425712
 20
2586.970655609096
 30
0.0
 10
-77.76844254169745
 20
2589.532313535821
 30
0.0
 10
-77.96766578472933
 20
2590.792886290913
 30
0.0
 10
-78.550594297956
 20
2593.181898566135
 30
0.0
 10
-78.93096048823045
 20
2594.308267371733
 30
0.0
 10
-79.87160243033198
 20
2596.435345298154
 30
0.0
 10
-80.43639146569123
 20
2597.438809650412
 30
0.0
 10
-81.72071768138333
 20
2599.250966923539
 30
0.0
 10
-82.44356595427799
 20
2600.070248104475
 30
0.0
 10
-84.07920251603876
 20
2601.533568050625
 30
0.0
 10
-84.99022417565769
 20
2602.171538753641
 30
0.0
 10
-86.96031655012759
 20
2603.207583640759
 30
0.0
 10
-88.03970714020032
 20
2603.616508883022
 30
0.0
 10
-90.34591635033729
 20
2604.167297854783
 30
0.0
 10
-91.55652450003826
 20
2604.308348349748
 30
0.0
 10
-92.8305379065661
 20
2604.308348349748
 30
0.0
  0
SPLINE
  5
1B6
330
1F
100
AcDbEntity
  8
0
  6
CONTINUOUS
 62
     7
100
AcDbSpline
210
0.0
220
0.0
230
1.0
 70
     8
 71
     3
 72
     8
 73
     4
 74
     0
 42
0.00000001
 43
0.00000001
 40
0.0
 40
0.0
 40
0.0
 40
0.0
 40
1.0
 40
1.0
 40
1.0
 40
1.0
 10
-293.1727905025873
 20
2574.308348349748
 30
0.0
 10
-293.1727905025873
 20
2577.675731117198
 30
0.0
 10
-292.9345656739031
 20
2581.009063846895
 30
0.0
 10
-292.4581286862334
 20
2584.308348349748
 30
0.0
  0
SPLINE
  5
1B7
330
1F
100
AcDbEntity
  8
0
  6
CONTINUOUS
 62
     7
100
AcDbSpline
210
0.0
220
0.0
230
1.0
 70
     8
 71
     3
 72
    22
 73
    18
 74
     0
 42
0.00000001
 43
0.00000001
 40
0.0
 40
0.0
 40
0.0
 40
0.0
 40
0.125
 40
0.125
 40
0.25
 40
0.25
 40
0.375
 40
0.375
 40
0.5
 40
0.5
 40
0.625
 40
0.625
 40
0.75
 40
0.75
 40
0.875
 40
0.875
 40
1.0
 40
1.0
 40
1.0
 40
1.0
 10
-292.4581286862334
 20
2584.308348349748
 30
0.0
 10
-292.2633249911565
 20
2585.657346913878
 30
0.0
 10
-292.1311458881266
 20
2586.970655609096
 30
0.0
 10
-291.9802172828224
 20
2589.532313535821
 30
0.0
 10
-291.9622379976318
 20
2590.792886290913
 30
0.0
 10
-292.0459411148927
 20
2593.181898566135
 30
0.0
 10
-292.1459516509599
 20
2594.308267371733
 30
0.0
 10
-292.4716087817484
 20
2596.435345298154
 30
0.0
 10
-292.6997304333696
 20
2597.438809650412
 30
0.0
 10
-293.2874617530186
 20
2599.250966923539
 30
0.0
 10
-293.6477085171445
 20
2600.070248104475
 30
0.0
 10
-294.5363739931738
 20
2601.533568050625
 30
0.0
 10
-295.0647976873387
 20
2602.171538753641
 30
0.0
 10
-296.2890449178236
 20
2603.207583640759
 30
0.0
 10
-296.9976193485101
 20
2603.616508883022
 30
0.0
 10
-298.602250320371
 20
2604.167297854783
 30
0.0
 10
-299.4863935057231
 20
2604.308348349748
 30
0.0
 10
-300.4614811523017
 20
2604.308348349748
 30
0.0
  0
SPLINE
  5
1B8
330
1F
100
AcDbEntity
  8
0
  6
CONTINUOUS
 62
     7
100
AcDbSpline
210
0.0
220
0.0
230
1.0
 70
     8
 71
     3
 72
     8
 73
     4
 74
     0
 42
0.00000001
 43
0.00000001
 40
0.0
 40
0.0
 40
0.0
 40
0.0
 40
1.0
 40
1.0
 40
1.0
 40
1.0
 10
-440.496830737704
 20
2574.308348349748
 30
0.0
 10
-440.496830737704
 20
2577.675731117198
 30
0.0
 10
-440.1855749992313
 20
2581.009063846895
 30
0.0
 10
-439.5630800760446
 20
2584.308348349748
 30
0.0
  0
SPLINE
  5
1B9
330
1F
100
AcDbEntity
  8
0
  6
CONTINUOUS
 62
     7
100
AcDbSpline
210
0.0
220
0.0
230
1.0
 70
     8
 71
     3
 72
    22
 73
    18
 74
     0
 42
0.00000001
 43
0.00000001
 40
0.0
 40
0.0
 40
0.0
 40
0.0
 40
0.125
 40
0.125
 40
0.25
 40
0.25
 40
0.375
 40
0.375
 40
0.5
 40
0.5
 40
0.625
 40
0.625
 40
0.75
 40
0.75
 40
0.875
 40
0.875
 40
1.0
 40
1.0
 40
1.0
 40
1.0
 10
-439.5630800760449
 20
2584.308348349748
 30
0.0
 10
-439.3085567826365
 20
2585.657346913878
 30
0.0
 10
-439.0628054133909
 20
2586.970655609096
 30
0.0
 10
-438.5868051673282
 20
2589.532313535821
 30
0.0
 10
-438.354360537102
 20
2590.792886290913
 30
0.0
 10
-437.9260952175661
 20
2593.181898566135
 30
0.0
 10
-437.7305244019068
 20
2594.308267371733
 30
0.0
 10
-437.3916183753095
 20
2596.435345298154
 30
0.0
 10
-437.2483431896616
 20
2597.438809650412
 30
0.0
 10
-437.0500028476486
 20
2599.250966923539
 30
0.0
 10
-436.992803798812
 20
2600.070248104475
 30
0.0
 10
-436.9992069261565
 20
2601.533568050625
 30
0.0
 10
-437.0645849376036
 20
2602.171538753641
 30
0.0
 10
-437.3566064810911
 20
2603.207583640759
 30
0.0
 10
-437.5864907185613
 20
2603.616508883022
 30
0.0
 10
-438.2452529326973
 20
2604.167297854783
 30
0.0
 10
-438.6683283685096
 20
2604.308348349748
 30
0.0
 10
-439.1960420001383
 20
2604.308348349748
 30
0.0
  0
SPLINE
  5
1BA
330
1F
100
AcDbEntity
  8
0
  6
CONTINUOUS
 62
     7
100
AcDbSpline
210
0.0
220
0.0
230
1.0
 70
     8
 71
     3
 72
     8
 73
     4
 74
     0
 42
0.00000001
 43
0.00000001
 40
0.0
 40
0.0
 40
0.0
 40
0.0
 40
1.0
 40
1.0
 40
1.0
 40
1.0
 10
-497.6053760241488
 20
2574.308348349748
 30
0.0
 10
-497.6053760241488
 20
2577.675731117198
 30
0.0
 10
-497.2684752405294
 20
2581.009063846895
 30
0.0
 10
-496.5946915909507
 20
2584.308348349748
 30
0.0
  0
SPLINE
  5
1BB
330
1F
100
AcDbEntity
  8
0
  6
CONTINUOUS
 62
     7
100
AcDbSpline
210
0.0
220
0.0
230
1.0
 70
     8
 71
     3
 72
    22
 73
    18
 74
     0
 42
0.00000001
 43
0.00000001
 40
0.0
 40
0.0
 40
0.0
 40
0.0
 40
0.125
 40
0.125
 40
0.25
 40
0.25
 40
0.375
 40
0.375
 40
0.5
 40
0.5
 40
0.625
 40
0.625
 40
0.75
 40
0.75
 40
0.875
 40
0.875
 40
1.0
 40
1.0
 40
1.0
 40
1.0
 10
-496.5946915909507
 20
2584.308348349748
 30
0.0
 10
-496.3191975633723
 20
2585.657346913878
 30
0.0
 10
-495.9972873461376
 20
2586.970655609096
 30
0.0
 10
-495.2686821818268
 20
2589.532313535821
 30
0.0
 10
-494.8571597944014
 20
2590.792886290913
 30
0.0
 10
-493.982125550732
 20
2593.181898566135
 30
0.0
 10
-493.5207472671784
 20
2594.308267371733
 30
0.0
 10
-492.5688734535531
 20
2596.435345298154
 30
0.0
 10
-492.0760137788575
 20
2597.438809650412
 30
0.0
 10
-491.1217972942945
 20
2599.250966923539
 30
0.0
 10
-490.6558604691712
 20
2600.070248104475
 30
0.0
 10
-489.7790264297368
 20
2601.533568050625
 30
0.0
 10
-489.3714055488755
 20
2602.171538753641
 30
0.0
 10
-488.6867437725527
 20
2603.207583640759
 30
0.0
 10
-488.4029400255584
 20
2603.616508883022
 30
0.0
 10
-488.0155429065601
 20
2604.167297854783
 30
0.0
 10
-487.9131411929179
 20
2604.308348349748
 30
0.0
 10
-487.9131411929176
 20
2604.308348349748
 30
0.0
  0
SPLINE
  5
1BC
330
1F
100
AcDbEntity
  8
0
  6
CONTINUOUS
 62
     7
100
AcDbSpline
210
0.0
220
0.0
230
1.0
 70
     8
 71
     3
 72
    20
 73
    16
 74
     0
 42
0.00000001
 43
0.00000001
 40
0.0
 40
0.0
 40
0.0
 40
0.0
 40
0.1249999999999994
 40
0.1249999999999994
 40
0.2499999999999988
 40
0.2499999999999988
 40
0.4999999999999976
 40
0.4999999999999976
 40
0.6249999999999981
 40
0.6249999999999981
 40
0.7499999999999988
 40
0.7499999999999988
 40
0.8749999999999993
 40
0.8749999999999993
 40
1.0
 40
1.0
 40
1.0
 40
1.0
 10
792.0868588070891
 20
2604.308348349748
 30
0.0
 10
792.0868588070889
 20
2604.308348349747
 30
0.0
 10
792.1891728708295
 20
2604.16737371005
 30
0.0
 10
792.5719224224682
 20
2603.623289417111
 30
0.0
 10
792.8565648795768
 20
2603.213337808656
 30
0.0
 10
793.8848079832436
 20
2601.657802464077
 30
0.0
 10
794.8156711955886
 20
2600.162173138779
 30
0.0
 10
796.2505499848485
 20
2597.437288722855
 30
0.0
 10
796.7435839174908
 20
2596.433156491986
 30
0.0
 10
797.6939179392614
 20
2594.309459728866
 30
0.0
 10
798.1543367300253
 20
2593.185491334531
 30
0.0
 10
799.0272790012323
 20
2590.803227693341
 30
0.0
 10
799.4403760789431
 20
2589.539035471038
 30
0.0
 10
800.1706770395242
 20
2586.972200388128
 30
0.0
 10
800.4929027650193
 20
2585.65740769367
 30
0.0
 10
800.7684092051156
 20
2584.308348349748
 30
0.0
  0
SPLINE
  5
1BD
330
1F
100
AcDbEntity
  8
0
  6
CONTINUOUS
 62
     7
100
AcDbSpline
210
0.0
220
0.0
230
1.0
 70
     8
 71
     3
 72
     8
 73
     4
 74
     0
 42
0.00000001
 43
0.00000001
 40
0.0
 40
0.0
 40
0.0
 40
0.0
 40
1.0
 40
1.0
 40
1.0
 40
1.0
 10
800.768409205116
 20
2584.308348349748
 30
0.0
 10
801.4421928546947
 20
2581.009063846895
 30
0.0
 10
801.7790936383141
 20
2577.675731117198
 30
0.0
 10
801.7790936383141
 20
2574.308348349748
 30
0.0
  0
SPLINE
  5
1BE
330
1F
100
AcDbEntity
  8
0
  6
CONTINUOUS
 62
     7
100
AcDbSpline
210
0.0
220
0.0
230
1.0
 70
     8
 71
     3
 72
    20
 73
    16
 74
     0
 42
0.00000001
 43
0.00000001
 40
0.0
 40
0.0
 40
0.0
 40
0.0
 40
0.1250000000000003
 40
0.1250000000000003
 40
0.2500000000000006
 40
0.2500000000000006
 40
0.4999999999999989
 40
0.4999999999999989
 40
0.6249999999999991
 40
0.6249999999999991
 40
0.7499999999999994
 40
0.7499999999999994
 40
0.8749999999999997
 40
0.8749999999999997
 40
1.0
 40
1.0
 40
1.0
 40
1.0
 10
743.3697596143128
 20
2604.308348349748
 30
0.0
 10
742.8420915580625
 20
2604.308348349748
 30
0.0
 10
742.4211892102395
 20
2604.167373710051
 30
0.0
 10
741.7662167354104
 20
2603.62328941711
 30
0.0
 10
741.5327188067233
 20
2603.213337808656
 30
0.0
 10
741.09196592261
 20
2601.657802464078
 30
0.0
 10
741.1240231766873
 20
2600.162173138779
 30
0.0
 10
741.4222102296208
 20
2597.437288722855
 30
0.0
 10
741.5656795623746
 20
2596.433156491987
 30
0.0
 10
741.9040572092198
 20
2594.309459728867
 30
0.0
 10
742.0991951235067
 20
2593.185491334531
 30
0.0
 10
742.5261981096043
 20
2590.803227693341
 30
0.0
 10
742.7592783287082
 20
2589.539035471038
 30
0.0
 10
743.2362313969769
 20
2586.972200388128
 30
0.0
 10
743.4822629291326
 20
2585.657407693671
 30
0.0
 10
743.7367976902129
 20
2584.308348349748
 30
0.0
  0
SPLINE
  5
1BF
330
1F
100
AcDbEntity
  8
0
  6
CONTINUOUS
 62
     7
100
AcDbSpline
210
0.0
220
0.0
230
1.0
 70
     8
 71
     3
 72
     8
 73
     4
 74
     0
 42
0.00000001
 43
0.00000001
 40
0.0
 40
0.0
 40
0.0
 40
0.0
 40
1.0
 40
1.0
 40
1.0
 40
1.0
 10
743.736797690213
 20
2584.308348349748
 30
0.0
 10
744.3592926133996
 20
2581.009063846895
 30
0.0
 10
744.6705483518725
 20
2577.675731117198
 30
0.0
 10
744.6705483518725
 20
2574.308348349748
 30
0.0
  0
LINE
  5
1C0
330
1F
100
AcDbEntity
  8
0
  6
CONTINUOUS
 62
     7
100
AcDbLine
 10
-78.0620073695
 20
2574.3084103386
 30
0.0
 11
-78.0620073695
 21
2434.3084246437
 31
0.0
  0
LINE
  5
1C1
330
1F
100
AcDbEntity
  8
0
  6
CONTINUOUS
 62
     7
100
AcDbLine
 10
382.2357559781
 20
2434.3084246437
 30
0.0
 11
382.2357559781
 21
2574.3084103386
 31
0.0
  0
LINE
  5
1C2
330
1F
100
AcDbEntity
  8
0
  6
CONTINUOUS
 62
     7
100
AcDbLine
 10
-98.5707735438
 20
2604.3083221237
 30
0.0
 11
-92.8305482287
 21
2604.3083221237
 31
0.0
  0
LINE
  5
1C3
330
1F
100
AcDbEntity
  8
0
  6
CONTINUOUS
 62
     7
100
AcDbLine
 10
402.7445221524
 20
2604.3083221237
 30
0.0
 11
397.0042223315
 21
2604.3083221237
 31
0.0
  0
LINE
  5
1C4
330
1F
100
AcDbEntity
  8
0
  6
CONTINUOUS
 62
     7
100
AcDbLine
 10
-293.1727861781
 20
2574.3084103386
 30
0.0
 11
-293.1727861781
 21
2434.3084246437
 31
0.0
  0
LINE
  5
1C5
330
1F
100
AcDbEntity
  8
0
  6
CONTINUOUS
 62
     7
100
AcDbLine
 10
597.3464975338
 20
2434.3084246437
 30
0.0
 11
597.3464975338
 21
2574.3084103386
 31
0.0
  0
LINE
  5
1C6
330
1F
100
AcDbEntity
  8
0
  6
CONTINUOUS
 62
     7
100
AcDbLine
 10
-311.0680376906
 20
2604.3083221237
 30
0.0
 11
-300.4615401645
 21
2604.3083221237
 31
0.0
  0
LINE
  5
1C7
330
1F
100
AcDbEntity
  8
0
  6
CONTINUOUS
 62
     7
100
AcDbLine
 10
615.2417862992
 20
2604.3083221237
 30
0.0
 11
604.6352142672
 21
2604.3083221237
 31
0.0
  0
LINE
  5
1C8
330
1F
100
AcDbEntity
  8
0
  6
CONTINUOUS
 62
     7
100
AcDbLine
 10
-440.4968416114
 20
2574.3084103386
 30
0.0
 11
-440.4968416114
 21
2434.3084246437
 31
0.0
  0
LINE
  5
1C9
330
1F
100
AcDbEntity
  8
0
  6
CONTINUOUS
 62
     7
100
AcDbLine
 10
744.6705529671
 20
2434.3084246437
 30
0.0
 11
744.6705529671
 21
2574.3084103386
 31
0.0
  0
LINE
  5
1CA
330
1F
100
AcDbEntity
  8
0
  6
CONTINUOUS
 62
     7
100
AcDbLine
 10
-453.0541991611
 20
2604.3083221237
 30
0.0
 11
-439.1959702392
 21
2604.3083221237
 31
0.0
  0
LINE
  5
1CB
330
1F
100
AcDbEntity
  8
0
  6
CONTINUOUS
 62
     7
100
AcDbLine
 10
757.2279477696
 20
2604.3083221237
 30
0.0
 11
743.3697561007
 21
2604.3083221237
 31
0.0
  0
LINE
  5
1CC
330
1F
100
AcDbEntity
  8
0
  6
CONTINUOUS
 62
     7
100
AcDbLine
 10
-497.6053928752
 20
2574.3084103386
 30
0.0
 11
-497.6053928752
 21
2434.3084246437
 31
0.0
  0
LINE
  5
1CD
330
1F
100
AcDbEntity
  8
0
  6
CONTINUOUS
 62
     7
100
AcDbLine
 10
801.7791042309
 20
2434.3084246437
 30
0.0
 11
801.7791042309
 21
2574.3084103386
 31
0.0
  0
LINE
  5
1CE
330
1F
100
AcDbEntity
  8
0
  6
CONTINUOUS
 62
     7
100
AcDbLine
 10
-502.9131864924
 20
2604.3083221237
 30
0.0
 11
-487.9130815883
 21
2604.3083221237
 31
0.0
  0
LINE
  5
1CF
330
1F
100
AcDbEntity
  8
0
  6
CONTINUOUS
 62
     7
100
AcDbLine
 10
807.0868605952
 20
2604.3083221237
 30
0.0
 11
792.0868674498
 21
2604.3083221237
 31
0.0
  0
LINE
  5
1D0
330
1F
100
AcDbEntity
  8
0
  6
CONTINUOUS
 62
     7
100
AcDbLine
 10
357.2154397349
 20
-2620.691686817
 30
0.0
 11
337.0868766885
 21
-2640.6916528423
 31
0.0
  0
LINE
  5
1D1
330
1F
100
AcDbEntity
  8
0
  6
CONTINUOUS
 62
     7
100
AcDbLine
 10
937.0868588071
 20
-2490.6916516503
 30
0.0
 11
937.0868588071
 21
-2250.6916516503
 31
0.0
  0
LINE
  5
1D2
330
1F
100
AcDbEntity
  8
0
  6
CONTINUOUS
 62
     7
100
AcDbLine
 10
1337.0868588071
 20
-2490.6916516503
 30
0.0
 11
1337.0868588071
 21
-2250.6916516503
 31
0.0
  0
LINE
  5
1D3
330
1F
100
AcDbEntity
  8
0
  6
CONTINUOUS
 62
     7
100
AcDbLine
 10
937.0868588071
 20
-2635.6916516503
 30
0.0
 11
1337.0868588071
 21
-2635.6916516503
 31
0.0
  0
SPLINE
  5
1D4
330
1F
100
AcDbEntity
  8
0
  6
CONTINUOUS
 62
     5
100
AcDbSpline
210
0.0
220
0.0
230
1.0
 70
     8
 71
     3
 72
     8
 73
     4
 74
     0
 42
0.00000001
 43
0.00000001
 40
0.0
 40
0.0
 40
0.0
 40
0.0
 40
1.0
 40
1.0
 40
1.0
 40
1.0
 10
2897.086858807083
 20
-801.6916516502531
 30
0.0
 10
2851.579693094314
 20
-828.8410037501415
 30
0.0
 10
2938.07802812817
 20
-847.7889573847485
 30
0.0
 10
2897.086858807083
 20
-879.6916516502531
 30
0.0
  0
SPLINE
  5
1D5
330
1F
100
AcDbEntity
  8
0
  6
CONTINUOUS
 62
     5
100
AcDbSpline
210
0.0
220
0.0
230
1.0
 70
     8
 71
     3
 72
     8
 73
     4
 74
     0
 42
0.00000001
 43
0.00000001
 40
0.0
 40
0.0
 40
0.0
 40
0.0
 40
1.0
 40
1.0
 40
1.0
 40
1.0
 10
597.0868588070825
 20
-2351.691651650253
 30
0.0
 10
524.9465256058903
 20
-2387.418750068965
 30
0.0
 10
675.4171030410519
 20
-2389.922368355952
 30
0.0
 10
597.0868588070825
 20
-2429.691651650253
 30
0.0
  0
LINE
  5
1D6
330
1F
100
AcDbEntity
  8
0
  6
CENTERX2
 62
     7
100
AcDbLine
 10
2917.0868588071
 20
-840.6916516503
 30
0.0
 11
1877.0868588071
 21
-840.6916516503
 31
0.0
  0
LINE
  5
1D7
330
1F
100
AcDbEntity
  8
0
  6
CENTERX2
 62
     7
100
AcDbLine
 10
1137.0868588071
 20
2820.8933392465
 30
0.0
 11
1137.0868588071
 21
-3021.5659392259
 31
0.0
  0
LINE
  5
1D8
330
1F
100
AcDbEntity
  8
0
  6
CONTINUOUS
 62
     7
100
AcDbLine
 10
1897.0868343692
 20
3998.7540956369
 30
0.0
 11
2897.0868492703
 21
3998.7540956369
 31
0.0
  0
LINE
  5
1D9
330
1F
100
AcDbEntity
  8
0
  6
CONTINUOUS
 62
     7
100
AcDbLine
 10
2897.0868492703
 20
4076.7540748945
 30
0.0
 11
1897.0868343692
 21
4076.7540748945
 31
0.0
  0
LINE
  5
1DA
330
1F
100
AcDbEntity
  8
0
  6
CONTINUOUS
 62
     7
100
AcDbLine
 10
-212.9131948371
 20
4252.7541484466
 30
0.0
 11
-42.9131483455
 21
4252.7541484466
 31
0.0
  0
LINE
  5
1DB
330
1F
100
AcDbEntity
  8
0
  6
CONTINUOUS
 62
     7
100
AcDbLine
 10
197.0868909936
 20
4267.7541043392
 30
0.0
 11
280.9425795655
 21
4267.7541043392
 31
0.0
  0
LINE
  5
1DC
330
1F
100
AcDbEntity
  8
0
  6
CONTINUOUS
 62
     7
100
AcDbLine
 10
120.1530898194
 20
4292.7541550031
 30
0.0
 11
167.0868301969
 21
4292.7541550031
 31
0.0
  0
CIRCLE
  5
1DD
330
1F
100
AcDbEntity
  8
0
  6
CONTINUOUS
 62
     7
100
AcDbCircle
 10
1137.0868588071
 20
6812.7541323533
 30
0.0
 40
47.5
  0
LINE
  5
1DE
330
1F
100
AcDbEntity
  8
0
  6
CONTINUOUS
 62
     7
100
AcDbLine
 10
1174.9389258418
 20
6807.7541108957
 30
0.0
 11
1174.9389258418
 21
6817.7541311613
 31
0.0
  0
SPLINE
  5
1DF
330
1F
100
AcDbEntity
  8
0
  6
CONTINUOUS
 62
     7
100
AcDbSpline
210
0.0
220
0.0
230
1.0
 70
    24
 71
     3
 72
     9
 73
     5
 74
     0
 42
0.00000001
 43
0.00000001
 40
0.0
 40
0.0
 40
0.0
 40
0.0
 40
0.6022811773158442
 40
0.9999999999999999
 40
0.9999999999999999
 40
0.9999999999999999
 40
0.9999999999999999
 10
1174.938925841774
 20
6817.754131161256
 30
0.0
 10
1172.87829786278
 20
6817.754131161256
 30
0.0
 10
1169.456925824926
 20
6817.754131161256
 30
0.0
 10
1165.644691593467
 20
6817.754131161257
 30
0.0
 10
1164.128494283135
 20
6817.754131161256
 30
0.0
  0
SPLINE
  5
1E0
330
1F
100
AcDbEntity
  8
0
  6
CONTINUOUS
 62
     7
100
AcDbSpline
210
0.0
220
0.0
230
1.0
 70
    24
 71
     3
 72
     9
 73
     5
 74
     0
 42
0.00000001
 43
0.00000001
 40
0.0
 40
0.0
 40
0.0
 40
0.0
 40
0.6147172692972216
 40
1.0
 40
1.0
 40
1.0
 40
1.0
 10
1142.08685904457
 20
6839.795779787584
 30
0.0
 10
1142.08685904457
 20
6842.148470706708
 30
0.0
 10
1142.08685904457
 20
6845.975743888433
 30
0.0
 10
1142.08685904457
 20
6849.318404718192
 30
0.0
 10
1142.08685904457
 20
6850.606274210496
 30
0.0
  0
LINE
  5
1E1
330
1F
100
AcDbEntity
  8
0
  6
CONTINUOUS
 62
     7
100
AcDbLine
 10
1142.0868590446
 20
6850.6062742105
 30
0.0
 11
1132.0868585696
 21
6850.6062742105
 31
0.0
  0
SPLINE
  5
1E2
330
1F
100
AcDbEntity
  8
0
  6
CONTINUOUS
 62
     7
100
AcDbSpline
210
0.0
220
0.0
230
1.0
 70
    24
 71
     3
 72
     9
 73
     5
 74
     0
 42
0.00000001
 43
0.00000001
 40
0.0
 40
0.0
 40
0.0
 40
0.0
 40
0.6022853963237831
 40
1.0
 40
1.0
 40
1.0
 40
1.0
 10
1132.086858569595
 20
6850.606274210496
 30
0.0
 10
1132.086858569595
 20
6848.545616309028
 30
0.0
 10
1132.086858569595
 20
6845.124218556322
 30
0.0
 10
1132.086858569595
 20
6841.311967647071
 30
0.0
 10
1132.086858569595
 20
6839.795779787583
 30
0.0
  0
SPLINE
  5
1E3
330
1F
100
AcDbEntity
  8
0
  6
CONTINUOUS
 62
     7
100
AcDbSpline
210
0.0
220
0.0
230
1.0
 70
    24
 71
     3
 72
     9
 73
     5
 74
     0
 42
0.00000001
 43
0.00000001
 40
0.0
 40
0.0
 40
0.0
 40
0.0
 40
0.6147245449006982
 40
1.0
 40
1.0
 40
1.0
 40
1.0
 10
1110.04522333103
 20
6817.754131161256
 30
0.0
 10
1107.692510480367
 20
6817.754131161257
 30
0.0
 10
1103.86524691951
 20
6817.754131161257
 30
0.0
 10
1100.522622800911
 20
6817.754131161256
 30
0.0
 10
1099.234791772391
 20
6817.754131161256
 30
0.0
  0
LINE
  5
1E4
330
1F
100
AcDbEntity
  8
0
  6
CONTINUOUS
 62
     7
100
AcDbLine
 10
1099.2347917724
 20
6817.7541311613
 30
0.0
 11
1099.2347917724
 21
6807.7541108957
 31
0.0
  0
SPLINE
  5
1E5
330
1F
100
AcDbEntity
  8
0
  6
CONTINUOUS
 62
     7
100
AcDbSpline
210
0.0
220
0.0
230
1.0
 70
    24
 71
     3
 72
     9
 73
     5
 74
     0
 42
0.00000001
 43
0.00000001
 40
0.0
 40
0.0
 40
0.0
 40
0.0
 40
0.6022811773158442
 40
0.9999999999999999
 40
0.9999999999999999
 40
0.9999999999999999
 40
0.9999999999999999
 10
1099.234791772391
 20
6807.754110895677
 30
0.0
 10
1101.295419751385
 20
6807.754110895677
 30
0.0
 10
1104.716791789238
 20
6807.754110895677
 30
0.0
 10
1108.529026020698
 20
6807.754110895677
 30
0.0
 10
1110.04522333103
 20
6807.754110895677
 30
0.0
  0
SPLINE
  5
1E6
330
1F
100
AcDbEntity
  8
0
  6
CONTINUOUS
 62
     7
100
AcDbSpline
210
0.0
220
0.0
230
1.0
 70
    24
 71
     3
 72
     9
 73
     5
 74
     0
 42
0.00000001
 43
0.00000001
 40
0.0
 40
0.0
 40
0.0
 40
0.0
 40
0.6147245339128413
 40
1.0
 40
1.0
 40
1.0
 40
1.0
 10
1132.086858569595
 20
6785.712462269349
 30
0.0
 10
1132.086858569595
 20
6783.359766003029
 30
0.0
 10
1132.086858569595
 20
6779.532529352256
 30
0.0
 10
1132.086858569595
 20
6776.189936050372
 30
0.0
 10
1132.086858569595
 20
6774.902116858048
 30
0.0
  0
LINE
  5
1E7
330
1F
100
AcDbEntity
  8
0
  6
CONTINUOUS
 62
     7
100
AcDbLine
 10
1132.0868585696
 20
6774.902116858
 30
0.0
 11
1142.0868590446
 21
6774.902116858
 31
0.0
  0
SPLINE
  5
1E8
330
1F
100
AcDbEntity
  8
0
  6
CONTINUOUS
 62
     7
100
AcDbSpline
210
0.0
220
0.0
230
1.0
 70
    24
 71
     3
 72
     9
 73
     5
 74
     0
 42
0.00000001
 43
0.00000001
 40
0.0
 40
0.0
 40
0.0
 40
0.0
 40
0.6022805657922601
 40
1.0
 40
1.0
 40
1.0
 40
1.0
 10
1142.08685904457
 20
6774.902116858048
 30
0.0
 10
1142.08685904457
 20
6776.9627242641
 30
0.0
 10
1142.08685904457
 20
6780.384065617426
 30
0.0
 10
1142.08685904457
 20
6784.196273218978
 30
0.0
 10
1142.08685904457
 20
6785.712462269349
 30
0.0
  0
SPLINE
  5
1E9
330
1F
100
AcDbEntity
  8
0
  6
CONTINUOUS
 62
     7
100
AcDbSpline
210
0.0
220
0.0
230
1.0
 70
    24
 71
     3
 72
     9
 73
     5
 74
     0
 42
0.00000001
 43
0.00000001
 40
0.0
 40
0.0
 40
0.0
 40
0.0
 40
0.6147245449006982
 40
1.0
 40
1.0
 40
1.0
 40
1.0
 10
1164.128494283135
 20
6807.754110895677
 30
0.0
 10
1166.481207133798
 20
6807.754110895677
 30
0.0
 10
1170.308470694654
 20
6807.754110895677
 30
0.0
 10
1173.651094813255
 20
6807.754110895677
 30
0.0
 10
1174.938925841774
 20
6807.754110895677
 30
0.0
  0
LINE
  5
1EA
330
1F
100
AcDbEntity
  8
0
  6
CONTINUOUS
 62
     7
100
AcDbLine
 10
1132.0868585696
 20
6839.7957797876
 30
0.0
 11
1132.0868585696
 21
6817.7541311613
 31
0.0
  0
LINE
  5
1EB
330
1F
100
AcDbEntity
  8
0
  6
CONTINUOUS
 62
     7
100
AcDbLine
 10
1132.0868585696
 20
6817.7541311613
 30
0.0
 11
1110.045223331
 21
6817.7541311613
 31
0.0
  0
LINE
  5
1EC
330
1F
100
AcDbEntity
  8
0
  6
CONTINUOUS
 62
     7
100
AcDbLine
 10
1164.1284942831
 20
6817.7541311613
 30
0.0
 11
1142.0868590446
 21
6817.7541311613
 31
0.0
  0
LINE
  5
1ED
330
1F
100
AcDbEntity
  8
0
  6
CONTINUOUS
 62
     7
100
AcDbLine
 10
1142.0868590446
 20
6817.7541311613
 30
0.0
 11
1142.0868590446
 21
6839.7957797876
 31
0.0
  0
LINE
  5
1EE
330
1F
100
AcDbEntity
  8
0
  6
CONTINUOUS
 62
     7
100
AcDbLine
 10
1142.0868590446
 20
6785.7124622693
 30
0.0
 11
1142.0868590446
 21
6807.7541108957
 31
0.0
  0
LINE
  5
1EF
330
1F
100
AcDbEntity
  8
0
  6
CONTINUOUS
 62
     7
100
AcDbLine
 10
1142.0868590446
 20
6807.7541108957
 30
0.0
 11
1164.1284942831
 21
6807.7541108957
 31
0.0
  0
LINE
  5
1F0
330
1F
100
AcDbEntity
  8
0
  6
CONTINUOUS
 62
     7
100
AcDbLine
 10
1110.045223331
 20
6807.7541108957
 30
0.0
 11
1132.0868585696
 21
6807.7541108957
 31
0.0
  0
LINE
  5
1F1
330
1F
100
AcDbEntity
  8
0
  6
CONTINUOUS
 62
     7
100
AcDbLine
 10
1132.0868585696
 20
6807.7541108957
 30
0.0
 11
1132.0868585696
 21
6785.7124622693
 31
0.0
  0
CIRCLE
  5
1F2
330
1F
100
AcDbEntity
  8
0
  6
CONTINUOUS
 62
     7
100
AcDbCircle
 10
152.0868588071
 20
5347.7541323533
 30
0.0
 40
505.0000000000009
  0
SPLINE
  5
1F3
330
1F
100
AcDbEntity
  8
0
  6
CONTINUOUS
 62
     7
100
AcDbSpline
210
0.0
220
0.0
230
1.0
 70
     8
 71
     3
 72
    22
 73
    18
 74
     0
 42
0.00000001
 43
0.00000001
 40
0.0
 40
0.0
 40
0.0
 40
0.0
 40
0.125
 40
0.125
 40
0.25
 40
0.25
 40
0.375
 40
0.375
 40
0.5
 40
0.5
 40
0.625
 40
0.625
 40
0.75
 40
0.75
 40
0.875
 40
0.875
 40
1.0
 40
1.0
 40
1.0
 40
1.0
 10
624.9161175478667
 20
4903.209144860029
 30
0.0
 10
624.72131385279
 20
4903.403948555105
 30
0.0
 10
624.3982431607394
 20
4903.536127658134
 30
0.0
 10
623.5187684610609
 20
4903.687056263439
 30
0.0
 10
622.9547672047343
 20
4903.70503554863
 30
0.0
 10
621.6335787925349
 20
4903.621332431369
 30
0.0
 10
620.8810808304806
 20
4903.521321895301
 30
0.0
 10
619.2092708427963
 20
4903.195664764513
 30
0.0
 10
618.2841403548732
 20
4902.967543112892
 30
0.0
 10
616.3469431413154
 20
4902.379811793243
 30
0.0
 10
615.3277621998908
 20
4902.019565029117
 30
0.0
 10
613.199066133344
 20
4901.130899553088
 30
0.0
 10
612.0941794611592
 20
4900.602475858924
 30
0.0
 10
609.9016742609583
 20
4899.378228628439
 30
0.0
 10
608.7917407222212
 20
4898.669654197752
 30
0.0
 10
606.6392474906489
 20
4897.065023225891
 30
0.0
 10
605.610286413053
 20
4896.180880040539
 30
0.0
 10
604.6351987664744
 20
4895.20579239396
 30
0.0
  0
SPLINE
  5
1F4
330
1F
100
AcDbEntity
  8
0
  6
CONTINUOUS
 62
     7
100
AcDbSpline
210
0.0
220
0.0
230
1.0
 70
     8
 71
     3
 72
    20
 73
    16
 74
     0
 42
0.00000001
 43
0.00000001
 40
0.0
 40
0.0
 40
0.0
 40
0.0
 40
0.1250000000000003
 40
0.1250000000000003
 40
0.2500000000000006
 40
0.2500000000000006
 40
0.4999999999999983
 40
0.4999999999999983
 40
0.6249999999999988
 40
0.6249999999999988
 40
0.7499999999999991
 40
0.7499999999999991
 40
0.8749999999999996
 40
0.8749999999999996
 40
1.0
 40
1.0
 40
1.0
 40
1.0
 10
604.6351987664784
 20
4895.205792393955
 30
0.0
 10
603.6601953322191
 20
4894.230788959695
 30
0.0
 10
602.7801551397993
 20
4893.206054830713
 30
0.0
 10
601.1871742604551
 20
4891.071784344448
 30
0.0
 10
600.4710838889511
 20
4889.953148749674
 30
0.0
 10
598.6284356482295
 20
4886.656345166331
 30
0.0
 10
597.7568065177051
 20
4884.468276656194
 30
0.0
 10
596.8729055585753
 20
4881.555150652931
 30
0.0
 10
596.6449683860812
 20
4880.629958206184
 30
0.0
 10
596.31987472867
 20
4878.9608892864
 30
0.0
 10
596.2200237879591
 20
4878.209907847419
 30
0.0
 10
596.1360801551057
 20
4876.891437415456
 30
0.0
 10
596.1536591651219
 20
4876.324808935598
 30
0.0
 10
596.3046525600247
 20
4875.443000807432
 30
0.0
 10
596.4370338283525
 20
4875.119686084619
 30
0.0
 10
596.6318463004048
 20
4874.924873612566
 30
0.0
  0
ARC
  5
1F5
330
1F
100
AcDbEntity
  8
0
  6
CONTINUOUS
 62
     7
100
AcDbCircle
 10
152.0868588071
 20
5347.7541323533
 30
0.0
 40
650.0000000000005
100
AcDbArc
 50
294.2632253576
 51
313.2367746424
  0
SPLINE
  5
1F6
330
1F
100
AcDbEntity
  8
0
  6
CONTINUOUS
 62
     7
100
AcDbSpline
210
0.0
220
0.0
230
1.0
 70
     8
 71
     3
 72
    22
 73
    18
 74
     0
 42
0.00000001
 43
0.00000001
 40
0.0
 40
0.0
 40
0.0
 40
0.0
 40
0.125
 40
0.125
 40
0.25
 40
0.25
 40
0.375
 40
0.375
 40
0.5
 40
0.5
 40
0.625
 40
0.625
 40
0.75
 40
0.75
 40
0.875
 40
0.875
 40
1.0
 40
1.0
 40
1.0
 40
1.0
 10
418.804131675536
 20
4756.104193470219
 30
0.0
 10
418.6987046754663
 20
4756.358716763628
 30
0.0
 10
418.4508090283613
 20
4756.604468132873
 30
0.0
 10
417.6960382306862
 20
4757.080468378936
 30
0.0
 10
417.1818493882238
 20
4757.312913009162
 30
0.0
 10
415.9291986593885
 20
4757.741178328698
 30
0.0
 10
415.1957088187752
 20
4757.936749144357
 30
0.0
 10
413.5265342003212
 20
4758.275655170954
 30
0.0
 10
412.5845267009882
 20
4758.418930356603
 30
0.0
 10
410.569874806232
 20
4758.617270698615
 30
0.0
 10
409.4904139263306
 20
4758.674469747451
 30
0.0
 10
407.1836776449197
 20
4758.668066620107
 30
0.0
 10
405.9606764697174
 20
4758.602688608661
 30
0.0
 10
403.4665666581018
 20
4758.310667065173
 30
0.0
 10
402.1699620839936
 20
4758.080782827702
 30
0.0
 10
399.5672519554837
 20
4757.422020613566
 30
0.0
 10
398.2782689272692
 20
4756.998945177755
 30
0.0
 10
397.0042555207414
 20
4756.471231546126
 30
0.0
  0
SPLINE
  5
1F7
330
1F
100
AcDbEntity
  8
0
  6
CONTINUOUS
 62
     7
100
AcDbSpline
210
0.0
220
0.0
230
1.0
 70
     8
 71
     3
 72
    20
 73
    16
 74
     0
 42
0.00000001
 43
0.00000001
 40
0.0
 40
0.0
 40
0.0
 40
0.0
 40
0.1249999999999991
 40
0.1249999999999991
 40
0.2499999999999982
 40
0.2499999999999982
 40
0.4999999999999964
 40
0.4999999999999964
 40
0.6249999999999973
 40
0.6249999999999973
 40
0.7499999999999982
 40
0.7499999999999982
 40
0.8749999999999991
 40
0.8749999999999991
 40
1.0
 40
1.0
 40
1.0
 40
1.0
 10
397.0042555207428
 20
4756.471231546119
 30
0.0
 10
395.7303521429122
 20
4755.943563489869
 30
0.0
 10
394.5251522476079
 20
4755.33360940329
 30
0.0
 10
392.2366798622205
 20
4753.971407974787
 30
0.0
 10
391.1470153155855
 20
4753.211959365688
 30
0.0
 10
388.1829982092577
 20
4750.871260965728
 30
0.0
 10
386.5403803279166
 20
4749.183307280898
 30
0.0
 10
384.6089572651687
 20
4746.830184043768
 30
0.0
 10
384.0443149556838
 20
4746.062645458118
 30
0.0
 10
383.1052425563754
 20
4744.645034801438
 30
0.0
 10
382.7256041612391
 20
4743.989429721383
 30
0.0
 10
382.1434935665852
 20
4742.803445712617
 30
0.0
 10
381.9428951225928
 20
4742.273222061646
 30
0.0
 10
381.7449414685144
 20
4741.400754909807
 30
0.0
 10
381.7435186249497
 20
4741.051390936695
 30
0.0
 10
381.8489503750845
 20
4740.796856175615
 30
0.0
  0
ARC
  5
1F8
330
1F
100
AcDbEntity
  8
0
  6
CONTINUOUS
 62
     7
100
AcDbCircle
 10
152.0868588071
 20
5347.7541323533
 30
0.0
 40
650.0000000000008
100
AcDbArc
 50
271.7632253576
 51
290.7367746424
  0
SPLINE
  5
1F9
330
1F
100
AcDbEntity
  8
0
  6
CONTINUOUS
 62
     7
100
AcDbSpline
210
0.0
220
0.0
230
1.0
 70
     8
 71
     3
 72
    22
 73
    18
 74
     0
 42
0.00000001
 43
0.00000001
 40
0.0
 40
0.0
 40
0.0
 40
0.0
 40
0.125
 40
0.125
 40
0.25
 40
0.25
 40
0.375
 40
0.375
 40
0.5
 40
0.5
 40
0.625
 40
0.625
 40
0.75
 40
0.75
 40
0.875
 40
0.875
 40
1.0
 40
1.0
 40
1.0
 40
1.0
 10
172.0868588070825
 20
4699.072581955315
 30
0.0
 10
172.0868588070827
 20
4699.348075982894
 30
0.0
 10
171.9518780700147
 20
4699.669986200129
 30
0.0
 10
171.436718186275
 20
4700.398591364439
 30
0.0
 10
171.0506223478085
 20
4700.810113751865
 30
0.0
 10
170.0572140204953
 20
4701.685147995535
 30
0.0
 10
169.4543994804544
 20
4702.146526279089
 30
0.0
 10
168.0419769357854
 20
4703.098400092714
 30
0.0
 10
167.2265045274954
 20
4703.591259767409
 30
0.0
 10
165.4411104396533
 20
4704.545476251972
 30
0.0
 10
164.4657077549022
 20
4705.011413077096
 30
0.0
 10
162.3321109468556
 20
4705.88824711653
 30
0.0
 10
161.1771861110274
 20
4706.295867997391
 30
0.0
 10
158.7611772976535
 20
4706.980529773715
 30
0.0
 10
157.4752979808326
 20
4707.264333520709
 30
0.0
 10
154.8186099788248
 20
4707.651730639706
 30
0.0
 10
153.465840981377
 20
4707.754132353349
 30
0.0
 10
152.0868588070835
 20
4707.754132353349
 30
0.0
  0
SPLINE
  5
1FA
330
1F
100
AcDbEntity
  8
0
  6
CONTINUOUS
 62
     7
100
AcDbSpline
210
0.0
220
0.0
230
1.0
 70
     8
 71
     3
 72
    20
 73
    16
 74
     0
 42
0.00000001
 43
0.00000001
 40
0.0
 40
0.0
 40
0.0
 40
0.0
 40
0.1249999999999957
 40
0.1249999999999957
 40
0.2499999999999913
 40
0.2499999999999913
 40
0.4999999999999972
 40
0.4999999999999972
 40
0.6249999999999979
 40
0.6249999999999979
 40
0.7499999999999986
 40
0.7499999999999986
 40
0.8749999999999992
 40
0.8749999999999992
 40
1.0
 40
1.0
 40
1.0
 40
1.0
 10
152.0868588070824
 20
4707.754132353342
 30
0.0
 10
150.7079957269924
 20
4707.754132353342
 30
0.0
 10
149.3611168876989
 20
4707.651818289602
 30
0.0
 10
146.7255521718902
 20
4707.269068737963
 30
0.0
 10
145.4282049995156
 20
4706.984426280854
 30
0.0
 10
141.7940637631379
 20
4705.956183177188
 30
0.0
 10
139.6305308130456
 20
4705.025319964843
 30
0.0
 10
136.94562729959
 20
4703.590441175583
 30
0.0
 10
136.1302415262375
 20
4703.097407242941
 30
0.0
 10
134.7201556451145
 20
4702.14707322117
 30
0.0
 10
134.1185262997817
 20
4701.686654430407
 30
0.0
 10
133.1268698045182
 20
4700.813712159199
 30
0.0
 10
132.7386332011851
 20
4700.400615081488
 30
0.0
 10
132.2218691475048
 20
4699.670314120907
 30
0.0
 10
132.0868588070825
 20
4699.348088395412
 30
0.0
 10
132.0868588070824
 20
4699.072581955315
 30
0.0
  0
ARC
  5
1FB
330
1F
100
AcDbEntity
  8
0
  6
CONTINUOUS
 62
     7
100
AcDbCircle
 10
152.0868588071
 20
5347.7541323533
 30
0.0
 40
650.0000000000005
100
AcDbArc
 50
249.2632253576
 51
268.2367746424
  0
SPLINE
  5
1FC
330
1F
100
AcDbEntity
  8
0
  6
CONTINUOUS
 62
     7
100
AcDbSpline
210
0.0
220
0.0
230
1.0
 70
     8
 71
     3
 72
    22
 73
    18
 74
     0
 42
0.00000001
 43
0.00000001
 40
0.0
 40
0.0
 40
0.0
 40
0.0
 40
0.125
 40
0.125
 40
0.25
 40
0.25
 40
0.375
 40
0.375
 40
0.5
 40
0.5
 40
0.625
 40
0.625
 40
0.75
 40
0.75
 40
0.875
 40
0.875
 40
1.0
 40
1.0
 40
1.0
 40
1.0
 10
-77.67523276091107
 20
4740.796856175612
 30
0.0
 10
-77.56980576084108
 20
4741.051379469021
 30
0.0
 10
-77.57132199425712
 20
4741.400440621795
 30
0.0
 10
-77.76844254169745
 20
4742.27072717291
 30
0.0
 10
-77.96766578472933
 20
4742.798676764508
 30
0.0
 10
-78.550594297956
 20
4743.987263900918
 30
0.0
 10
-78.93096048823045
 20
4744.644208991101
 30
0.0
 10
-79.87160243033198
 20
4746.064136432386
 30
0.0
 10
-80.43639146569123
 20
4746.831547178441
 30
0.0
 10
-81.72071768138333
 20
4748.396368995773
 30
0.0
 10
-82.44356595427799
 20
4749.200108939287
 30
0.0
 10
-84.07920251603876
 20
4750.826690111516
 30
0.0
 10
-84.99022417565769
 20
4751.645253300666
 30
0.0
 10
-86.96031655012759
 20
4753.202364847831
 30
0.0
 10
-88.03970714020032
 20
4753.956650031496
 30
0.0
 10
-90.34591635033729
 20
4755.331228784024
 30
0.0
 10
-91.55652450003826
 20
4755.943517914493
 30
0.0
 10
-92.8305379065661
 20
4756.471231546122
 30
0.0
  0
SPLINE
  5
1FD
330
1F
100
AcDbEntity
  8
0
  6
CONTINUOUS
 62
     7
100
AcDbSpline
210
0.0
220
0.0
230
1.0
 70
     8
 71
     3
 72
    20
 73
    16
 74
     0
 42
0.00000001
 43
0.00000001
 40
0.0
 40
0.0
 40
0.0
 40
0.0
 40
0.1250000000000044
 40
0.1250000000000044
 40
0.2500000000000088
 40
0.2500000000000088
 40
0.500000000000006
 40
0.500000000000006
 40
0.6250000000000046
 40
0.6250000000000046
 40
0.750000000000003
 40
0.750000000000003
 40
0.8750000000000016
 40
0.8750000000000016
 40
1.0
 40
1.0
 40
1.0
 40
1.0
 10
-92.8305379065697
 20
4756.471231546116
 30
0.0
 10
-94.10444128440027
 20
4756.998899602367
 30
0.0
 10
-95.38794897388792
 20
4757.419801950189
 30
0.0
 10
-97.96936518358932
 20
4758.074774425018
 30
0.0
 10
-99.27688563519068
 20
4758.308272353705
 30
0.0
 10
-103.0278859419527
 20
4758.749025237818
 30
0.0
 10
-105.3829556816188
 20
4758.716967983742
 30
0.0
 10
-108.4125874245699
 20
4758.418780930808
 30
0.0
 10
-109.3545815692876
 20
4758.275311598054
 30
0.0
 10
-111.0210081392841
 20
4757.936933951209
 30
0.0
 10
-111.7530358207708
 20
4757.741796036922
 30
0.0
 10
-113.0032675046284
 20
4757.314793050824
 30
0.0
 10
-113.5200367638183
 20
4757.08171283172
 30
0.0
 10
-114.2769385744054
 20
4756.604759763452
 30
0.0
 10
-114.5249823112275
 20
4756.358728231296
 30
0.0
 10
-114.6304140613626
 20
4756.104193470215
 30
0.0
  0
ARC
  5
1FE
330
1F
100
AcDbEntity
  8
0
  6
CONTINUOUS
 62
     7
100
AcDbCircle
 10
152.0868588071
 20
5347.7541323533
 30
0.0
 40
650.0000000000007
100
AcDbArc
 50
226.7632253576
 51
245.7367746424
  0
SPLINE
  5
1FF
330
1F
100
AcDbEntity
  8
0
  6
CONTINUOUS
 62
     7
100
AcDbSpline
210
0.0
220
0.0
230
1.0
 70
     8
 71
     3
 72
    22
 73
    18
 74
     0
 42
0.00000001
 43
0.00000001
 40
0.0
 40
0.0
 40
0.0
 40
0.0
 40
0.125
 40
0.125
 40
0.25
 40
0.25
 40
0.375
 40
0.375
 40
0.5
 40
0.5
 40
0.625
 40
0.625
 40
0.75
 40
0.75
 40
0.875
 40
0.875
 40
1.0
 40
1.0
 40
1.0
 40
1.0
 10
-292.4581286862334
 20
4874.92487361256
 30
0.0
 10
-292.2633249911565
 20
4875.119677307636
 30
0.0
 10
-292.1311458881266
 20
4875.442747999687
 30
0.0
 10
-291.9802172828224
 20
4876.322222699367
 30
0.0
 10
-291.9622379976318
 20
4876.886223955693
 30
0.0
 10
-292.0459411148927
 20
4878.207412367892
 30
0.0
 10
-292.1459516509599
 20
4878.959910329946
 30
0.0
 10
-292.4716087817484
 20
4880.63172031763
 30
0.0
 10
-292.6997304333696
 20
4881.556850805553
 30
0.0
 10
-293.2874617530186
 20
4883.494048019112
 30
0.0
 10
-293.6477085171445
 20
4884.513228960536
 30
0.0
 10
-294.5363739931738
 20
4886.641925027083
 30
0.0
 10
-295.0647976873387
 20
4887.746811699268
 30
0.0
 10
-296.2890449178236
 20
4889.939316899468
 30
0.0
 10
-296.9976193485101
 20
4891.049250438205
 30
0.0
 10
-298.602250320371
 20
4893.201743669778
 30
0.0
 10
-299.4863935057231
 20
4894.230704747374
 30
0.0
 10
-300.4614811523017
 20
4895.205792393952
 30
0.0
  0
SPLINE
  5
200
330
1F
100
AcDbEntity
  8
0
  6
CONTINUOUS
 62
     7
100
AcDbSpline
210
0.0
220
0.0
230
1.0
 70
     8
 71
     3
 72
    20
 73
    16
 74
     0
 42
0.00000001
 43
0.00000001
 40
0.0
 40
0.0
 40
0.0
 40
0.0
 40
0.1249999999999997
 40
0.1249999999999997
 40
0.2499999999999993
 40
0.2499999999999993
 40
0.4999999999999987
 40
0.4999999999999987
 40
0.624999999999999
 40
0.624999999999999
 40
0.7499999999999993
 40
0.7499999999999993
 40
0.8749999999999997
 40
0.8749999999999997
 40
1.0
 40
1.0
 40
1.0
 40
1.0
 10
-300.4614811523072
 20
4895.205792393948
 30
0.0
 10
-301.4364845865665
 20
4896.180795828208
 30
0.0
 10
-302.4612187155491
 20
4897.060836020627
 30
0.0
 10
-304.5954892018134
 20
4898.653816899971
 30
0.0
 10
-305.7141247965882
 20
4899.369907271476
 30
0.0
 10
-309.0109283799315
 20
4901.212555512197
 30
0.0
 10
-311.1989968900681
 20
4902.084184642722
 30
0.0
 10
-314.1121228933306
 20
4902.968085601851
 30
0.0
 10
-315.0373153400783
 20
4903.196022774346
 30
0.0
 10
-316.7063842598615
 20
4903.521116431757
 30
0.0
 10
-317.4573656988421
 20
4903.620967372467
 30
0.0
 10
-318.7758361308056
 20
4903.704911005321
 30
0.0
 10
-319.342464610665
 20
4903.687331995305
 30
0.0
 10
-320.2242727388292
 20
4903.536338600402
 30
0.0
 10
-320.5475874616433
 20
4903.403957332074
 30
0.0
 10
-320.7423999336957
 20
4903.209144860022
 30
0.0
  0
ARC
  5
201
330
1F
100
AcDbEntity
  8
0
  6
CONTINUOUS
 62
     7
100
AcDbCircle
 10
152.0868588071
 20
5347.7541323533
 30
0.0
 40
650.0000000000002
100
AcDbArc
 50
204.2632253576
 51
223.2367746424
  0
SPLINE
  5
202
330
1F
100
AcDbEntity
  8
0
  6
CONTINUOUS
 62
     7
100
AcDbSpline
210
0.0
220
0.0
230
1.0
 70
     8
 71
     3
 72
    22
 73
    18
 74
     0
 42
0.00000001
 43
0.00000001
 40
0.0
 40
0.0
 40
0.0
 40
0.0
 40
0.125
 40
0.125
 40
0.25
 40
0.25
 40
0.375
 40
0.375
 40
0.5
 40
0.5
 40
0.625
 40
0.625
 40
0.75
 40
0.75
 40
0.875
 40
0.875
 40
1.0
 40
1.0
 40
1.0
 40
1.0
 10
-439.5630800760449
 20
5081.03685948489
 30
0.0
 10
-439.3085567826365
 20
5081.142286484958
 30
0.0
 10
-439.0628054133909
 20
5081.390182132064
 30
0.0
 10
-438.5868051673282
 20
5082.144952929739
 30
0.0
 10
-438.354360537102
 20
5082.659141772201
 30
0.0
 10
-437.9260952175661
 20
5083.911792501037
 30
0.0
 10
-437.7305244019068
 20
5084.64528234165
 30
0.0
 10
-437.3916183753095
 20
5086.314456960104
 30
0.0
 10
-437.2483431896616
 20
5087.256464459438
 30
0.0
 10
-437.0500028476486
 20
5089.271116354194
 30
0.0
 10
-436.992803798812
 20
5090.350577234095
 30
0.0
 10
-436.9992069261565
 20
5092.657313515506
 30
0.0
 10
-437.0645849376036
 20
5093.880314690708
 30
0.0
 10
-437.3566064810911
 20
5096.374424502324
 30
0.0
 10
-437.5864907185613
 20
5097.671029076431
 30
0.0
 10
-438.2452529326973
 20
5100.273739204941
 30
0.0
 10
-438.6683283685096
 20
5101.562722233156
 30
0.0
 10
-439.1960420001383
 20
5102.836735639684
 30
0.0
  0
SPLINE
  5
203
330
1F
100
AcDbEntity
  8
0
  6
CONTINUOUS
 62
     7
100
AcDbSpline
210
0.0
220
0.0
230
1.0
 70
     8
 71
     3
 72
    20
 73
    16
 74
     0
 42
0.00000001
 43
0.00000001
 40
0.0
 40
0.0
 40
0.0
 40
0.0
 40
0.1250000000000005
 40
0.1250000000000005
 40
0.250000000000001
 40
0.250000000000001
 40
0.4999999999999997
 40
0.4999999999999997
 40
0.6249999999999998
 40
0.6249999999999998
 40
0.7499999999999999
 40
0.7499999999999999
 40
0.8749999999999999
 40
0.8749999999999999
 40
1.0
 40
1.0
 40
1.0
 40
1.0
 10
-439.1960420001446
 20
5102.836735639682
 30
0.0
 10
-439.7237100563949
 20
5104.110639017513
 30
0.0
 10
-440.3336641429732
 20
5105.315838912818
 30
0.0
 10
-441.6958655714757
 20
5107.604311298205
 30
0.0
 10
-442.4553141805764
 20
5108.69397584484
 30
0.0
 10
-444.796012580536
 20
5111.657992951167
 30
0.0
 10
-446.4839662653657
 20
5113.30061083251
 30
0.0
 10
-448.8370895024964
 20
5115.232033895256
 30
0.0
 10
-449.6046280881467
 20
5115.796676204742
 30
0.0
 10
-451.0222387448264
 20
5116.73574860405
 30
0.0
 10
-451.6778438248804
 20
5117.115386999186
 30
0.0
 10
-452.8638278336476
 20
5117.697497593839
 30
0.0
 10
-453.3940514846175
 20
5117.898096037833
 30
0.0
 10
-454.2665186364574
 20
5118.096049691911
 30
0.0
 10
-454.615882609569
 20
5118.097472535475
 30
0.0
 10
-454.8704173706487
 20
5117.992040785341
 30
0.0
  0
ARC
  5
204
330
1F
100
AcDbEntity
  8
0
  6
CONTINUOUS
 62
     7
100
AcDbCircle
 10
152.0868588071
 20
5347.7541323533
 30
0.0
 40
650.0
100
AcDbArc
 50
181.7632253576
 51
200.7367746424
  0
SPLINE
  5
205
330
1F
100
AcDbEntity
  8
0
  6
CONTINUOUS
 62
     7
100
AcDbSpline
210
0.0
220
0.0
230
1.0
 70
     8
 71
     3
 72
    22
 73
    18
 74
     0
 42
0.00000001
 43
0.00000001
 40
0.0
 40
0.0
 40
0.0
 40
0.0
 40
0.125
 40
0.125
 40
0.25
 40
0.25
 40
0.375
 40
0.375
 40
0.5
 40
0.5
 40
0.625
 40
0.625
 40
0.75
 40
0.75
 40
0.875
 40
0.875
 40
1.0
 40
1.0
 40
1.0
 40
1.0
 10
-496.5946915909507
 20
5327.754132353341
 30
0.0
 10
-496.3191975633723
 20
5327.754132353341
 30
0.0
 10
-495.9972873461376
 20
5327.88911309041
 30
0.0
 10
-495.2686821818268
 20
5328.40427297415
 30
0.0
 10
-494.8571597944014
 20
5328.790368812616
 30
0.0
 10
-493.982125550732
 20
5329.783777139929
 30
0.0
 10
-493.5207472671784
 20
5330.38659167997
 30
0.0
 10
-492.5688734535531
 20
5331.79901422464
 30
0.0
 10
-492.0760137788575
 20
5332.61448663293
 30
0.0
 10
-491.1217972942945
 20
5334.399880720772
 30
0.0
 10
-490.6558604691712
 20
5335.375283405522
 30
0.0
 10
-489.7790264297368
 20
5337.50888021357
 30
0.0
 10
-489.3714055488755
 20
5338.663805049398
 30
0.0
 10
-488.6867437725527
 20
5341.079813862772
 30
0.0
 10
-488.4029400255584
 20
5342.365693179591
 30
0.0
 10
-488.0155429065601
 20
5345.0223811816
 30
0.0
 10
-487.9131411929179
 20
5346.375150179047
 30
0.0
 10
-487.9131411929176
 20
5347.754132353341
 30
0.0
  0
SPLINE
  5
206
330
1F
100
AcDbEntity
  8
0
  6
CONTINUOUS
 62
     7
100
AcDbSpline
210
0.0
220
0.0
230
1.0
 70
     8
 71
     3
 72
    20
 73
    16
 74
     0
 42
0.00000001
 43
0.00000001
 40
0.0
 40
0.0
 40
0.0
 40
0.0
 40
0.1249999999999953
 40
0.1249999999999953
 40
0.2499999999999907
 40
0.2499999999999907
 40
0.4999999999999879
 40
0.4999999999999879
 40
0.6249999999999909
 40
0.6249999999999909
 40
0.7499999999999939
 40
0.7499999999999939
 40
0.8749999999999969
 40
0.8749999999999969
 40
1.0
 40
1.0
 40
1.0
 40
1.0
 10
-487.9131411929242
 20
5347.754132353341
 30
0.0
 10
-487.9131411929242
 20
5349.132995433432
 30
0.0
 10
-488.0154552566644
 20
5350.479874272725
 30
0.0
 10
-488.3982048083034
 20
5353.115438988534
 30
0.0
 10
-488.6828472654127
 20
5354.412786160909
 30
0.0
 10
-489.7110903690786
 20
5358.046927397287
 30
0.0
 10
-490.6419535814234
 20
5360.210460347379
 30
0.0
 10
-492.0768323706844
 20
5362.895363860835
 30
0.0
 10
-492.5698663033264
 20
5363.710749634188
 30
0.0
 10
-493.5202003250967
 20
5365.12083551531
 30
0.0
 10
-493.9806191158612
 20
5365.722464860643
 30
0.0
 10
-494.8535613870674
 20
5366.714121355907
 30
0.0
 10
-495.266658464779
 20
5367.102357959239
 30
0.0
 10
-495.9969594253595
 20
5367.61912201292
 30
0.0
 10
-496.3191851508546
 20
5367.754132353341
 30
0.0
 10
-496.594691590951
 20
5367.754132353341
 30
0.0
  0
ARC
  5
207
330
1F
100
AcDbEntity
  8
0
  6
CONTINUOUS
 62
     7
100
AcDbCircle
 10
152.0868588071
 20
5347.7541323533
 30
0.0
 40
650.0
100
AcDbArc
 50
159.2632253576
 51
178.2367746424
  0
SPLINE
  5
208
330
1F
100
AcDbEntity
  8
0
  6
CONTINUOUS
 62
     7
100
AcDbSpline
210
0.0
220
0.0
230
1.0
 70
     8
 71
     3
 72
    22
 73
    18
 74
     0
 42
0.00000001
 43
0.00000001
 40
0.0
 40
0.0
 40
0.0
 40
0.0
 40
0.125
 40
0.125
 40
0.25
 40
0.25
 40
0.375
 40
0.375
 40
0.5
 40
0.5
 40
0.625
 40
0.625
 40
0.75
 40
0.75
 40
0.875
 40
0.875
 40
1.0
 40
1.0
 40
1.0
 40
1.0
 10
-454.8704173706535
 20
5577.516223921345
 30
0.0
 10
-454.6158940772451
 20
5577.410796921275
 30
0.0
 10
-454.266832924471
 20
5577.41231315469
 30
0.0
 10
-453.3965463733562
 20
5577.609433702131
 30
0.0
 10
-452.8685967817576
 20
5577.808656945163
 30
0.0
 10
-451.6800096453484
 20
5578.391585458388
 30
0.0
 10
-451.0230645551651
 20
5578.771951648664
 30
0.0
 10
-449.6031371138799
 20
5579.712593590765
 30
0.0
 10
-448.8357263678251
 20
5580.277382626125
 30
0.0
 10
-447.270904550492
 20
5581.561708841817
 30
0.0
 10
-446.4671646069789
 20
5582.284557114712
 30
0.0
 10
-444.84058343475
 20
5583.920193676473
 30
0.0
 10
-444.0220202456001
 20
5584.831215336091
 30
0.0
 10
-442.4649086984357
 20
5586.801307710562
 30
0.0
 10
-441.7106235147696
 20
5587.880698300633
 30
0.0
 10
-440.3360447622419
 20
5590.18690751077
 30
0.0
 10
-439.7237556317727
 20
5591.397515660471
 30
0.0
 10
-439.1960420001441
 20
5592.671529066999
 30
0.0
  0
SPLINE
  5
209
330
1F
100
AcDbEntity
  8
0
  6
CONTINUOUS
 62
     7
100
AcDbSpline
210
0.0
220
0.0
230
1.0
 70
     8
 71
     3
 72
    20
 73
    16
 74
     0
 42
0.00000001
 43
0.00000001
 40
0.0
 40
0.0
 40
0.0
 40
0.0
 40
0.1250000000000023
 40
0.1250000000000023
 40
0.2500000000000046
 40
0.2500000000000046
 40
0.5000000000000034
 40
0.5000000000000034
 40
0.6250000000000026
 40
0.6250000000000026
 40
0.7500000000000018
 40
0.7500000000000018
 40
0.8750000000000009
 40
0.8750000000000009
 40
1.0
 40
1.0
 40
1.0
 40
1.0
 10
-439.1960420001496
 20
5592.671529067003
 30
0.0
 10
-438.6683739438997
 20
5593.945432444833
 30
0.0
 10
-438.2474715960764
 20
5595.228940134321
 30
0.0
 10
-437.5924991212478
 20
5597.810356344023
 30
0.0
 10
-437.3590011925606
 20
5599.117876795624
 30
0.0
 10
-436.9182483084473
 20
5602.868877102386
 30
0.0
 10
-436.9503055625244
 20
5605.223946842053
 30
0.0
 10
-437.2484926154578
 20
5608.253578585003
 30
0.0
 10
-437.3919619482118
 20
5609.195572729721
 30
0.0
 10
-437.7303395950567
 20
5610.861999299717
 30
0.0
 10
-437.9254775093443
 20
5611.594026981204
 30
0.0
 10
-438.3524804954413
 20
5612.844258665062
 30
0.0
 10
-438.5855607145454
 20
5613.361027924251
 30
0.0
 10
-439.062513782814
 20
5614.117929734839
 30
0.0
 10
-439.3085453149694
 20
5614.365973471661
 30
0.0
 10
-439.5630800760501
 20
5614.471405221796
 30
0.0
  0
ARC
  5
20A
330
1F
100
AcDbEntity
  8
0
  6
CONTINUOUS
 62
     7
100
AcDbCircle
 10
152.0868588071
 20
5347.7541323533
 30
0.0
 40
649.9999999999995
100
AcDbArc
 50
136.7632253576
 51
155.7367746424
  0
SPLINE
  5
20B
330
1F
100
AcDbEntity
  8
0
  6
CONTINUOUS
 62
     7
100
AcDbSpline
210
0.0
220
0.0
230
1.0
 70
     8
 71
     3
 72
    22
 73
    18
 74
     0
 42
0.00000001
 43
0.00000001
 40
0.0
 40
0.0
 40
0.0
 40
0.0
 40
0.125
 40
0.125
 40
0.25
 40
0.25
 40
0.375
 40
0.375
 40
0.5
 40
0.5
 40
0.625
 40
0.625
 40
0.75
 40
0.75
 40
0.875
 40
0.875
 40
1.0
 40
1.0
 40
1.0
 40
1.0
 10
-320.7423999337049
 20
5792.299119846667
 30
0.0
 10
-320.5475962386277
 20
5792.104316151589
 30
0.0
 10
-320.2245255465781
 20
5791.97213704856
 30
0.0
 10
-319.3450508468988
 20
5791.821208443256
 30
0.0
 10
-318.7810495905725
 20
5791.803229158065
 30
0.0
 10
-317.4598611783732
 20
5791.886932275325
 30
0.0
 10
-316.707363216319
 20
5791.986942811393
 30
0.0
 10
-315.0355532286349
 20
5792.312599942182
 30
0.0
 10
-314.1104227407114
 20
5792.540721593803
 30
0.0
 10
-312.1732255271535
 20
5793.128452913452
 30
0.0
 10
-311.1540445857293
 20
5793.488699677578
 30
0.0
 10
-309.0253485191823
 20
5794.377365153607
 30
0.0
 10
-307.9204618469979
 20
5794.905788847772
 30
0.0
 10
-305.7279566467967
 20
5796.130036078256
 30
0.0
 10
-304.6180231080593
 20
5796.838610508943
 30
0.0
 10
-302.4655298764874
 20
5798.443241480804
 30
0.0
 10
-301.4365687988914
 20
5799.327384666157
 30
0.0
 10
-300.4614811523128
 20
5800.302472312735
 30
0.0
  0
SPLINE
  5
20C
330
1F
100
AcDbEntity
  8
0
  6
CONTINUOUS
 62
     7
100
AcDbSpline
210
0.0
220
0.0
230
1.0
 70
     8
 71
     3
 72
    20
 73
    16
 74
     0
 42
0.00000001
 43
0.00000001
 40
0.0
 40
0.0
 40
0.0
 40
0.0
 40
0.125
 40
0.125
 40
0.25
 40
0.25
 40
0.5
 40
0.5
 40
0.625
 40
0.625
 40
0.75
 40
0.75
 40
0.875
 40
0.875
 40
1.0
 40
1.0
 40
1.0
 40
1.0
 10
-300.4614811523167
 20
5800.302472312741
 30
0.0
 10
-299.4864777180571
 20
5801.277475747
 30
0.0
 10
-298.6064375256377
 20
5802.302209875982
 30
0.0
 10
-297.0134566462933
 20
5804.436480362247
 30
0.0
 10
-296.2973662747893
 20
5805.55511595702
 30
0.0
 10
-294.4547180340672
 20
5808.851919540364
 30
0.0
 10
-293.5830889035433
 20
5811.039988050501
 30
0.0
 10
-292.6991879444139
 20
5813.953114053764
 30
0.0
 10
-292.47125077192
 20
5814.878306500511
 30
0.0
 10
-292.1461571145083
 20
5816.547375420295
 30
0.0
 10
-292.0463061737978
 20
5817.298356859275
 30
0.0
 10
-291.9623625409441
 20
5818.616827291238
 30
0.0
 10
-291.9799415509604
 20
5819.183455771097
 30
0.0
 10
-292.1309349458635
 20
5820.065263899262
 30
0.0
 10
-292.2633162141912
 20
5820.388578622075
 30
0.0
 10
-292.4581286862434
 20
5820.583391094128
 30
0.0
  0
ARC
  5
20D
330
1F
100
AcDbEntity
  8
0
  6
CONTINUOUS
 62
     7
100
AcDbCircle
 10
152.0868588071
 20
5347.7541323533
 30
0.0
 40
650.0
100
AcDbArc
 50
114.2632253576
 51
133.2367746424
  0
SPLINE
  5
20E
330
1F
100
AcDbEntity
  8
0
  6
CONTINUOUS
 62
     7
100
AcDbSpline
210
0.0
220
0.0
230
1.0
 70
     8
 71
     3
 72
    22
 73
    18
 74
     0
 42
0.00000001
 43
0.00000001
 40
0.0
 40
0.0
 40
0.0
 40
0.0
 40
0.1250000000000044
 40
0.1250000000000044
 40
0.2500000000000087
 40
0.2500000000000087
 40
0.3750000000000072
 40
0.3750000000000072
 40
0.5000000000000058
 40
0.5000000000000058
 40
0.6250000000000042
 40
0.6250000000000042
 40
0.7500000000000028
 40
0.7500000000000028
 40
0.8750000000000014
 40
0.8750000000000014
 40
1.0
 40
1.0
 40
1.0
 40
1.0
 10
-114.6304140613753
 20
5939.404071236477
 30
0.0
 10
-114.5249870613059
 20
5939.149547943069
 30
0.0
 10
-114.2770914142004
 20
5938.903796573823
 30
0.0
 10
-113.5223206165252
 20
5938.427796327761
 30
0.0
 10
-113.0081317740635
 20
5938.195351697534
 30
0.0
 10
-111.7554810452282
 20
5937.767086377998
 30
0.0
 10
-111.0219912046147
 20
5937.57151556234
 30
0.0
 10
-109.3528165861613
 20
5937.232609535742
 30
0.0
 10
-108.4108090868277
 20
5937.089334350094
 30
0.0
 10
-106.396157192071
 20
5936.89099400808
 30
0.0
 10
-105.31669631217
 20
5936.833794959244
 30
0.0
 10
-103.0099600307592
 20
5936.840198086589
 30
0.0
 10
-101.7869588555571
 20
5936.905576098036
 30
0.0
 10
-99.29284904394098
 20
5937.197597641523
 30
0.0
 10
-97.99624446983304
 20
5937.427481878994
 30
0.0
 10
-95.39353434132356
 20
5938.08624409313
 30
0.0
 10
-94.10455131310877
 20
5938.509319528942
 30
0.0
 10
-92.83053790658094
 20
5939.03703316057
 30
0.0
  0
SPLINE
  5
20F
330
1F
100
AcDbEntity
  8
0
  6
CONTINUOUS
 62
     7
100
AcDbSpline
210
0.0
220
0.0
230
1.0
 70
     8
 71
     3
 72
    20
 73
    16
 74
     0
 42
0.00000001
 43
0.00000001
 40
0.0
 40
0.0
 40
0.0
 40
0.0
 40
0.1249999999999965
 40
0.1249999999999965
 40
0.2499999999999931
 40
0.2499999999999931
 40
0.4999999999999953
 40
0.4999999999999953
 40
0.6249999999999964
 40
0.6249999999999964
 40
0.7499999999999976
 40
0.7499999999999976
 40
0.8749999999999988
 40
0.8749999999999988
 40
1.0
 40
1.0
 40
1.0
 40
1.0
 10
-92.83053790658232
 20
5939.037033160577
 30
0.0
 10
-91.5566345287519
 20
5939.564701216827
 30
0.0
 10
-90.35143463344733
 20
5940.174655303405
 30
0.0
 10
-88.06296224805985
 20
5941.536856731908
 30
0.0
 10
-86.97329770142467
 20
5942.296305341009
 30
0.0
 10
-84.00928059509705
 20
5944.637003740969
 30
0.0
 10
-82.36666271375593
 20
5946.324957425798
 30
0.0
 10
-80.43523965100816
 20
5948.678080662928
 30
0.0
 10
-79.87059734152314
 20
5949.445619248579
 30
0.0
 10
-78.93152494221442
 20
5950.863229905259
 30
0.0
 10
-78.55188654707842
 20
5951.518834985313
 30
0.0
 10
-77.96977595242491
 20
5952.70481899408
 30
0.0
 10
-77.76917750843215
 20
5953.235042645049
 30
0.0
 10
-77.57122385435369
 20
5954.10750979689
 30
0.0
 10
-77.56980101078906
 20
5954.456873770001
 30
0.0
 10
-77.67523276092369
 20
5954.71140853108
 30
0.0
  0
ARC
  5
210
330
1F
100
AcDbEntity
  8
0
  6
CONTINUOUS
 62
     7
100
AcDbCircle
 10
152.0868588071
 20
5347.7541323533
 30
0.0
 40
649.9999999999998
100
AcDbArc
 50
91.7632253576
 51
110.7367746424
  0
SPLINE
  5
211
330
1F
100
AcDbEntity
  8
0
  6
CONTINUOUS
 62
     7
100
AcDbSpline
210
0.0
220
0.0
230
1.0
 70
     8
 71
     3
 72
    22
 73
    18
 74
     0
 42
0.00000001
 43
0.00000001
 40
0.0
 40
0.0
 40
0.0
 40
0.0
 40
0.125
 40
0.125
 40
0.25
 40
0.25
 40
0.375
 40
0.375
 40
0.5
 40
0.5
 40
0.625
 40
0.625
 40
0.75
 40
0.75
 40
0.875
 40
0.875
 40
1.0
 40
1.0
 40
1.0
 40
1.0
 10
132.0868588070824
 20
5996.435682751382
 30
0.0
 10
132.0868588070827
 20
5996.160188723805
 30
0.0
 10
132.2218395441499
 20
5995.838278506569
 30
0.0
 10
132.7369994278899
 20
5995.109673342258
 30
0.0
 10
133.1230952663562
 20
5994.698150954833
 30
0.0
 10
134.1165035936695
 20
5993.823116711163
 30
0.0
 10
134.7193181337103
 20
5993.361738427609
 30
0.0
 10
136.1317406783796
 20
5992.409864613985
 30
0.0
 10
136.9472130866693
 20
5991.917004939289
 30
0.0
 10
138.7326071745114
 20
5990.962788454725
 30
0.0
 10
139.7080098592625
 20
5990.496851629602
 30
0.0
 10
141.841606667309
 20
5989.620017590169
 30
0.0
 10
142.9965315031376
 20
5989.212396709307
 30
0.0
 10
145.4125403165112
 20
5988.527734932984
 30
0.0
 10
146.6984196333321
 20
5988.243931185991
 30
0.0
 10
149.3551076353399
 20
5987.856534066992
 30
0.0
 10
150.7078766327874
 20
5987.754132353349
 30
0.0
 10
152.0868588070813
 20
5987.754132353349
 30
0.0
  0
SPLINE
  5
212
330
1F
100
AcDbEntity
  8
0
  6
CONTINUOUS
 62
     7
100
AcDbSpline
210
0.0
220
0.0
230
1.0
 70
     8
 71
     3
 72
    20
 73
    16
 74
     0
 42
0.00000001
 43
0.00000001
 40
0.0
 40
0.0
 40
0.0
 40
0.0
 40
0.1249999999999957
 40
0.1249999999999957
 40
0.2499999999999913
 40
0.2499999999999913
 40
0.4999999999999972
 40
0.4999999999999972
 40
0.6249999999999979
 40
0.6249999999999979
 40
0.7499999999999986
 40
0.7499999999999986
 40
0.8749999999999992
 40
0.8749999999999992
 40
1.0
 40
1.0
 40
1.0
 40
1.0
 10
152.0868588070824
 20
5987.754132353356
 30
0.0
 10
153.4657218871727
 20
5987.754132353356
 30
0.0
 10
154.8126007264658
 20
5987.856446417096
 30
0.0
 10
157.4481654422744
 20
5988.239195968736
 30
0.0
 10
158.7455126146492
 20
5988.523838425844
 30
0.0
 10
162.3796538510271
 20
5989.55208152951
 30
0.0
 10
164.5431868011192
 20
5990.482944741855
 30
0.0
 10
167.2280903145748
 20
5991.917823531116
 30
0.0
 10
168.0434760879274
 20
5992.410857463758
 30
0.0
 10
169.4535619690503
 20
5993.361191485528
 30
0.0
 10
170.0551913143829
 20
5993.821610276292
 30
0.0
 10
171.0468478096464
 20
5994.694552547499
 30
0.0
 10
171.4350844129796
 20
5995.10764962521
 30
0.0
 10
171.9518484666598
 20
5995.83795058579
 30
0.0
 10
172.0868588070825
 20
5996.160176311286
 30
0.0
 10
172.0868588070825
 20
5996.435682751382
 30
0.0
  0
ARC
  5
213
330
1F
100
AcDbEntity
  8
0
  6
CONTINUOUS
 62
     7
100
AcDbCircle
 10
152.0868588071
 20
5347.7541323533
 30
0.0
 40
650.0000000000002
100
AcDbArc
 50
69.2632253576
 51
88.2367746424
  0
SPLINE
  5
214
330
1F
100
AcDbEntity
  8
0
  6
CONTINUOUS
 62
     7
100
AcDbSpline
210
0.0
220
0.0
230
1.0
 70
     8
 71
     3
 72
    22
 73
    18
 74
     0
 42
0.00000001
 43
0.00000001
 40
0.0
 40
0.0
 40
0.0
 40
0.0
 40
0.125
 40
0.125
 40
0.25
 40
0.25
 40
0.375
 40
0.375
 40
0.5
 40
0.5
 40
0.625
 40
0.625
 40
0.75
 40
0.75
 40
0.875
 40
0.875
 40
1.0
 40
1.0
 40
1.0
 40
1.0
 10
381.8489503750802
 20
5954.711408531084
 30
0.0
 10
381.7435233750108
 20
5954.456885237676
 30
0.0
 10
381.7450396084258
 20
5954.107824084902
 30
0.0
 10
381.9421601558668
 20
5953.237537533786
 30
0.0
 10
382.1413833988982
 20
5952.709587942188
 30
0.0
 10
382.7243119121247
 20
5951.521000805778
 30
0.0
 10
383.1046781023993
 20
5950.864055715596
 30
0.0
 10
384.0453200445007
 20
5949.44412827431
 30
0.0
 10
384.6101090798603
 20
5948.676717528255
 30
0.0
 10
385.8944352955525
 20
5947.111895710923
 30
0.0
 10
386.6172835684469
 20
5946.30815576741
 30
0.0
 10
388.2529201302076
 20
5944.681574595181
 30
0.0
 10
389.1639417898264
 20
5943.863011406031
 30
0.0
 10
391.1340341642965
 20
5942.305899858866
 30
0.0
 10
392.2134247543693
 20
5941.5516146752
 30
0.0
 10
394.5196339645063
 20
5940.177035922672
 30
0.0
 10
395.7302421142069
 20
5939.564746792203
 30
0.0
 10
397.0042555207349
 20
5939.037033160575
 30
0.0
  0
SPLINE
  5
215
330
1F
100
AcDbEntity
  8
0
  6
CONTINUOUS
 62
     7
100
AcDbSpline
210
0.0
220
0.0
230
1.0
 70
     8
 71
     3
 72
    20
 73
    16
 74
     0
 42
0.00000001
 43
0.00000001
 40
0.0
 40
0.0
 40
0.0
 40
0.0
 40
0.1249999999999977
 40
0.1249999999999977
 40
0.2499999999999953
 40
0.2499999999999953
 40
0.5000000000000031
 40
0.5000000000000031
 40
0.6250000000000023
 40
0.6250000000000023
 40
0.7500000000000016
 40
0.7500000000000016
 40
0.8750000000000008
 40
0.8750000000000008
 40
1.0
 40
1.0
 40
1.0
 40
1.0
 10
397.0042555207386
 20
5939.03703316058
 30
0.0
 10
398.2781588985695
 20
5938.50936510433
 30
0.0
 10
399.5616665880564
 20
5938.088462756506
 30
0.0
 10
402.1430827977583
 20
5937.433490281678
 30
0.0
 10
403.4506032493597
 20
5937.19999235299
 30
0.0
 10
407.2016035561211
 20
5936.759239468878
 30
0.0
 10
409.556673295788
 20
5936.791296722954
 30
0.0
 10
412.5863050387391
 20
5937.089483775888
 30
0.0
 10
413.5282991834565
 20
5937.232953108643
 30
0.0
 10
415.1947257534534
 20
5937.571330755488
 30
0.0
 10
415.9267534349398
 20
5937.766468669774
 30
0.0
 10
417.1769851187976
 20
5938.193471655873
 30
0.0
 10
417.6937543779871
 20
5938.426551874975
 30
0.0
 10
418.4506561885747
 20
5938.903504943245
 30
0.0
 10
418.6986999253971
 20
5939.149536475401
 30
0.0
 10
418.804131675532
 20
5939.40407123648
 30
0.0
  0
ARC
  5
216
330
1F
100
AcDbEntity
  8
0
  6
CONTINUOUS
 62
     7
100
AcDbCircle
 10
152.0868588071
 20
5347.7541323533
 30
0.0
 40
650.0
100
AcDbArc
 50
46.7632253576
 51
65.7367746424
  0
SPLINE
  5
217
330
1F
100
AcDbEntity
  8
0
  6
CONTINUOUS
 62
     7
100
AcDbSpline
210
0.0
220
0.0
230
1.0
 70
     8
 71
     3
 72
    22
 73
    18
 74
     0
 42
0.00000001
 43
0.00000001
 40
0.0
 40
0.0
 40
0.0
 40
0.0
 40
0.125
 40
0.125
 40
0.25
 40
0.25
 40
0.375
 40
0.375
 40
0.5
 40
0.5
 40
0.625
 40
0.625
 40
0.75
 40
0.75
 40
0.875
 40
0.875
 40
1.0
 40
1.0
 40
1.0
 40
1.0
 10
596.6318463004018
 20
5820.583391094136
 30
0.0
 10
596.437042605325
 20
5820.388587399058
 30
0.0
 10
596.3048635022949
 20
5820.065516707008
 30
0.0
 10
596.1539348969914
 20
5819.186042007328
 30
0.0
 10
596.1359556117998
 20
5818.622040751003
 30
0.0
 10
596.219658729061
 20
5817.300852338803
 30
0.0
 10
596.3196692651283
 20
5816.54835437675
 30
0.0
 10
596.6453263959168
 20
5814.876544389063
 30
0.0
 10
596.8734480475382
 20
5813.951413901142
 30
0.0
 10
597.4611793671874
 20
5812.014216687583
 30
0.0
 10
597.8214261313128
 20
5810.995035746159
 30
0.0
 10
598.710091607342
 20
5808.866339679613
 30
0.0
 10
599.2385153015067
 20
5807.761453007427
 30
0.0
 10
600.4627625319918
 20
5805.568947807227
 30
0.0
 10
601.1713369626779
 20
5804.459014268489
 30
0.0
 10
602.7759679345389
 20
5802.306521036918
 30
0.0
 10
603.6601111198913
 20
5801.277559959321
 30
0.0
 10
604.6351987664699
 20
5800.302472312743
 30
0.0
  0
SPLINE
  5
218
330
1F
100
AcDbEntity
  8
0
  6
CONTINUOUS
 62
     7
100
AcDbSpline
210
0.0
220
0.0
230
1.0
 70
     8
 71
     3
 72
    20
 73
    16
 74
     0
 42
0.00000001
 43
0.00000001
 40
0.0
 40
0.0
 40
0.0
 40
0.0
 40
0.1249999999999973
 40
0.1249999999999973
 40
0.2499999999999947
 40
0.2499999999999947
 40
0.4999999999999973
 40
0.4999999999999973
 40
0.624999999999998
 40
0.624999999999998
 40
0.7499999999999987
 40
0.7499999999999987
 40
0.8749999999999993
 40
0.8749999999999993
 40
1.0
 40
1.0
 40
1.0
 40
1.0
 10
604.6351987664754
 20
5800.302472312746
 30
0.0
 10
605.6102022007349
 20
5799.327468878487
 30
0.0
 10
606.6349363297173
 20
5798.447428686068
 30
0.0
 10
608.7692068159816
 20
5796.854447806723
 30
0.0
 10
609.887842410756
 20
5796.138357435218
 30
0.0
 10
613.1846459940992
 20
5794.295709194498
 30
0.0
 10
615.3727145042362
 20
5793.424080063974
 30
0.0
 10
618.2858405074987
 20
5792.540179104843
 30
0.0
 10
619.211032954246
 20
5792.312241932349
 30
0.0
 10
620.8801018740295
 20
5791.987148274939
 30
0.0
 10
621.63108331301
 20
5791.887297334228
 30
0.0
 10
622.9495537449735
 20
5791.803353701373
 30
0.0
 10
623.5161822248328
 20
5791.82093271139
 30
0.0
 10
624.3979903529976
 20
5791.971926106293
 30
0.0
 10
624.7213050758108
 20
5792.10430737462
 30
0.0
 10
624.9161175478637
 20
5792.299119846673
 30
0.0
  0
ARC
  5
219
330
1F
100
AcDbEntity
  8
0
  6
CONTINUOUS
 62
     7
100
AcDbCircle
 10
152.0868588071
 20
5347.7541323533
 30
0.0
 40
649.9999999999994
100
AcDbArc
 50
24.2632253576
 51
43.2367746424
  0
SPLINE
  5
21A
330
1F
100
AcDbEntity
  8
0
  6
CONTINUOUS
 62
     7
100
AcDbSpline
210
0.0
220
0.0
230
1.0
 70
     8
 71
     3
 72
    22
 73
    18
 74
     0
 42
0.00000001
 43
0.00000001
 40
0.0
 40
0.0
 40
0.0
 40
0.0
 40
0.125
 40
0.125
 40
0.25
 40
0.25
 40
0.375
 40
0.375
 40
0.5
 40
0.5
 40
0.625
 40
0.625
 40
0.75
 40
0.75
 40
0.875
 40
0.875
 40
1.0
 40
1.0
 40
1.0
 40
1.0
 10
743.7367976902112
 20
5614.471405221805
 30
0.0
 10
743.4822743968028
 20
5614.365978221735
 30
0.0
 10
743.2365230275573
 20
5614.11808257463
 30
0.0
 10
742.7605227814954
 20
5613.363311776954
 30
0.0
 10
742.5280781512686
 20
5612.849122934493
 30
0.0
 10
742.0998128317324
 20
5611.596472205658
 30
0.0
 10
741.9042420160736
 20
5610.862982365044
 30
0.0
 10
741.5653359894761
 20
5609.193807746591
 30
0.0
 10
741.422060803828
 20
5608.251800247257
 30
0.0
 10
741.223720461815
 20
5606.237148352501
 30
0.0
 10
741.1665214129787
 20
5605.1576874726
 30
0.0
 10
741.1729245403232
 20
5602.850951191188
 30
0.0
 10
741.2383025517698
 20
5601.627950015986
 30
0.0
 10
741.5303240952576
 20
5599.133840204371
 30
0.0
 10
741.7602083327281
 20
5597.837235630263
 30
0.0
 10
742.4189705468635
 20
5595.234525501752
 30
0.0
 10
742.8420459826754
 20
5593.945542473539
 30
0.0
 10
743.3697596143044
 20
5592.67152906701
 30
0.0
  0
SPLINE
  5
21B
330
1F
100
AcDbEntity
  8
0
  6
CONTINUOUS
 62
     7
100
AcDbSpline
210
0.0
220
0.0
230
1.0
 70
     8
 71
     3
 72
    20
 73
    16
 74
     0
 42
0.00000001
 43
0.00000001
 40
0.0
 40
0.0
 40
0.0
 40
0.0
 40
0.1249999999999999
 40
0.1249999999999999
 40
0.2499999999999999
 40
0.2499999999999999
 40
0.4999999999999975
 40
0.4999999999999975
 40
0.6249999999999982
 40
0.6249999999999982
 40
0.7499999999999988
 40
0.7499999999999988
 40
0.8749999999999994
 40
0.8749999999999994
 40
1.0
 40
1.0
 40
1.0
 40
1.0
 10
743.369759614311
 20
5592.671529067012
 30
0.0
 10
743.8974276705615
 20
5591.397625689181
 30
0.0
 10
744.5073817571399
 20
5590.192425793876
 30
0.0
 10
745.8695831856429
 20
5587.90395340849
 30
0.0
 10
746.6290317947427
 20
5586.814288861854
 30
0.0
 10
748.969730194703
 20
5583.850271755526
 30
0.0
 10
750.6576838795323
 20
5582.207653874185
 30
0.0
 10
753.0108071166625
 20
5580.276230811437
 30
0.0
 10
753.7783457023125
 20
5579.711588501952
 30
0.0
 10
755.1959563589932
 20
5578.772516102645
 30
0.0
 10
755.8515614390469
 20
5578.392877707508
 30
0.0
 10
757.0375454478138
 20
5577.810767112854
 30
0.0
 10
757.5677690987842
 20
5577.610168668862
 30
0.0
 10
758.4402362506237
 20
5577.412215014783
 30
0.0
 10
758.7896002237349
 20
5577.410792171219
 30
0.0
 10
759.0441349848151
 20
5577.516223921354
 30
0.0
  0
ARC
  5
21C
330
1F
100
AcDbEntity
  8
0
  6
CONTINUOUS
 62
     7
100
AcDbCircle
 10
152.0868588071
 20
5347.7541323533
 30
0.0
 40
649.9999999999999
100
AcDbArc
 50
1.7632253576
 51
20.7367746424
  0
SPLINE
  5
21D
330
1F
100
AcDbEntity
  8
0
  6
CONTINUOUS
 62
     7
100
AcDbSpline
210
0.0
220
0.0
230
1.0
 70
     8
 71
     3
 72
    22
 73
    18
 74
     0
 42
0.00000001
 43
0.00000001
 40
0.0
 40
0.0
 40
0.0
 40
0.0
 40
0.125
 40
0.125
 40
0.25
 40
0.25
 40
0.3749999999999999
 40
0.3749999999999999
 40
0.4999999999999999
 40
0.4999999999999999
 40
0.6249999999999999
 40
0.6249999999999999
 40
0.7499999999999999
 40
0.7499999999999999
 40
0.875
 40
0.875
 40
1.0
 40
1.0
 40
1.0
 40
1.0
 10
800.7684092051156
 20
5367.754132353351
 30
0.0
 10
800.4929151775376
 20
5367.754132353351
 30
0.0
 10
800.1710049603025
 20
5367.619151616283
 30
0.0
 10
799.4423997959924
 20
5367.103991732543
 30
0.0
 10
799.0308774085667
 20
5366.717895894078
 30
0.0
 10
798.1558431648971
 20
5365.724487566764
 30
0.0
 10
797.694464881343
 20
5365.121673026723
 30
0.0
 10
796.7425910677181
 20
5363.709250482054
 30
0.0
 10
796.2497313930222
 20
5362.893778073764
 30
0.0
 10
795.295514908459
 20
5361.108383985922
 30
0.0
 10
794.8295780833356
 20
5360.132981301171
 30
0.0
 10
793.9527440439017
 20
5357.999384493124
 30
0.0
 10
793.5451231630408
 20
5356.844459657296
 30
0.0
 10
792.8604613867171
 20
5354.428450843922
 30
0.0
 10
792.5766576397228
 20
5353.142571527102
 30
0.0
 10
792.189260520725
 20
5350.485883525093
 30
0.0
 10
792.0868588070824
 20
5349.133114527646
 30
0.0
 10
792.0868588070823
 20
5347.754132353353
 30
0.0
  0
SPLINE
  5
21E
330
1F
100
AcDbEntity
  8
0
  6
CONTINUOUS
 62
     7
100
AcDbSpline
210
0.0
220
0.0
230
1.0
 70
     8
 71
     3
 72
    20
 73
    16
 74
     0
 42
0.00000001
 43
0.00000001
 40
0.0
 40
0.0
 40
0.0
 40
0.0
 40
0.1249999999999994
 40
0.1249999999999994
 40
0.2499999999999988
 40
0.2499999999999988
 40
0.4999999999999976
 40
0.4999999999999976
 40
0.6249999999999981
 40
0.6249999999999981
 40
0.7499999999999988
 40
0.7499999999999988
 40
0.8749999999999993
 40
0.8749999999999993
 40
1.0
 40
1.0
 40
1.0
 40
1.0
 10
792.0868588070891
 20
5347.754132353351
 30
0.0
 10
792.0868588070889
 20
5346.375269273261
 30
0.0
 10
792.1891728708295
 20
5345.028390433968
 30
0.0
 10
792.5719224224682
 20
5342.39282571816
 30
0.0
 10
792.8565648795768
 20
5341.095478545784
 30
0.0
 10
793.8848079832436
 20
5337.461337309407
 30
0.0
 10
794.8156711955886
 20
5335.297804359315
 30
0.0
 10
796.2505499848485
 20
5332.612900845859
 30
0.0
 10
796.7435839174908
 20
5331.797515072506
 30
0.0
 10
797.6939179392614
 20
5330.387429191383
 30
0.0
 10
798.1543367300253
 20
5329.78579984605
 30
0.0
 10
799.0272790012323
 20
5328.794143350787
 30
0.0
 10
799.4403760789431
 20
5328.405906747455
 30
0.0
 10
800.1706770395242
 20
5327.889142693773
 30
0.0
 10
800.4929027650193
 20
5327.754132353351
 30
0.0
 10
800.7684092051156
 20
5327.754132353351
 30
0.0
  0
ARC
  5
21F
330
1F
100
AcDbEntity
  8
0
  6
CONTINUOUS
 62
     7
100
AcDbCircle
 10
152.0868588071
 20
5347.7541323533
 30
0.0
 40
650.0000000000003
100
AcDbArc
 50
339.2632253576
 51
358.2367746424
  0
SPLINE
  5
220
330
1F
100
AcDbEntity
  8
0
  6
CONTINUOUS
 62
     7
100
AcDbSpline
210
0.0
220
0.0
230
1.0
 70
     8
 71
     3
 72
    22
 73
    18
 74
     0
 42
0.00000001
 43
0.00000001
 40
0.0
 40
0.0
 40
0.0
 40
0.0
 40
0.125
 40
0.125
 40
0.25
 40
0.25
 40
0.375
 40
0.375
 40
0.5
 40
0.5
 40
0.625
 40
0.625
 40
0.75
 40
0.75
 40
0.875
 40
0.875
 40
1.0
 40
1.0
 40
1.0
 40
1.0
 10
759.0441349848167
 20
5117.992040785349
 30
0.0
 10
758.789611691408
 20
5118.097467785418
 30
0.0
 10
758.4405505386339
 20
5118.095951552003
 30
0.0
 10
757.5702639875199
 20
5117.898831004562
 30
0.0
 10
757.0423143959206
 20
5117.699607761531
 30
0.0
 10
755.8537272595114
 20
5117.116679248305
 30
0.0
 10
755.1967821693281
 20
5116.73631305803
 30
0.0
 10
753.7768547280426
 20
5115.795671115928
 30
0.0
 10
753.009443981988
 20
5115.230882080569
 30
0.0
 10
751.4446221646554
 20
5113.946555864876
 30
0.0
 10
750.6408822211417
 20
5113.223707591983
 30
0.0
 10
749.0143010489134
 20
5111.588071030222
 30
0.0
 10
748.1957378597631
 20
5110.677049370603
 30
0.0
 10
746.6386263125985
 20
5108.706956996133
 30
0.0
 10
745.8843411289323
 20
5107.62756640606
 30
0.0
 10
744.509762376405
 20
5105.321357195923
 30
0.0
 10
743.8974732459361
 20
5104.110749046223
 30
0.0
 10
743.3697596143071
 20
5102.836735639694
 30
0.0
  0
SPLINE
  5
221
330
1F
100
AcDbEntity
  8
0
  6
CONTINUOUS
 62
     7
100
AcDbSpline
210
0.0
220
0.0
230
1.0
 70
     8
 71
     3
 72
    20
 73
    16
 74
     0
 42
0.00000001
 43
0.00000001
 40
0.0
 40
0.0
 40
0.0
 40
0.0
 40
0.1250000000000003
 40
0.1250000000000003
 40
0.2500000000000006
 40
0.2500000000000006
 40
0.4999999999999989
 40
0.4999999999999989
 40
0.6249999999999991
 40
0.6249999999999991
 40
0.7499999999999994
 40
0.7499999999999994
 40
0.8749999999999997
 40
0.8749999999999997
 40
1.0
 40
1.0
 40
1.0
 40
1.0
 10
743.3697596143128
 20
5102.836735639691
 30
0.0
 10
742.8420915580625
 20
5101.56283226186
 30
0.0
 10
742.4211892102395
 20
5100.279324572373
 30
0.0
 10
741.7662167354104
 20
5097.69790836267
 30
0.0
 10
741.5327188067233
 20
5096.390387911069
 30
0.0
 10
741.09196592261
 20
5092.639387604308
 30
0.0
 10
741.1240231766873
 20
5090.284317864642
 30
0.0
 10
741.4222102296208
 20
5087.25468612169
 30
0.0
 10
741.5656795623746
 20
5086.312691976973
 30
0.0
 10
741.9040572092198
 20
5084.646265406976
 30
0.0
 10
742.0991951235067
 20
5083.914237725489
 30
0.0
 10
742.5261981096043
 20
5082.664006041632
 30
0.0
 10
742.7592783287082
 20
5082.147236782442
 30
0.0
 10
743.2362313969769
 20
5081.390334971855
 30
0.0
 10
743.4822629291326
 20
5081.142291235033
 30
0.0
 10
743.7367976902129
 20
5081.036859484898
 30
0.0
  0
ARC
  5
222
330
1F
100
AcDbEntity
  8
0
  6
CONTINUOUS
 62
     7
100
AcDbCircle
 10
152.0868588071
 20
5347.7541323533
 30
0.0
 40
650.0000000000005
100
AcDbArc
 50
316.7632253576
 51
335.7367746424
  0
LINE
  5
223
330
1F
100
AcDbEntity
  8
0
  6
CONTINUOUS
 62
     7
100
AcDbLine
 10
-80.0931846519
 20
5960.5488892427
 30
0.0
 11
-77.6752477307
 21
5954.7113965979
 31
0.0
  0
LINE
  5
224
330
1F
100
AcDbEntity
  8
0
  6
CONTINUOUS
 62
     7
100
AcDbLine
 10
421.2221110444
 20
5945.2415596476
 30
0.0
 11
418.8040996175
 21
5939.4040670028
 31
0.0
  0
LINE
  5
225
330
1F
100
AcDbEntity
  8
0
  6
CONTINUOUS
 62
     7
100
AcDbLine
 10
629.3839195948
 20
5796.7669483057
 30
0.0
 11
624.916104434
 21
5792.2991331449
 31
0.0
  0
LINE
  5
226
330
1F
100
AcDbEntity
  8
0
  6
CONTINUOUS
 62
     7
100
AcDbLine
 10
-296.925941648
 20
5825.0512148967
 30
0.0
 11
-292.4581264873
 21
5820.583399736
 31
0.0
  0
LINE
  5
227
330
1F
100
AcDbEntity
  8
0
  6
CONTINUOUS
 62
     7
100
AcDbLine
 10
-445.4005157371
 20
5616.8893690935
 30
0.0
 11
-439.563134851
 21
5614.4714135459
 31
0.0
  0
LINE
  5
228
330
1F
100
AcDbEntity
  8
0
  6
CONTINUOUS
 62
     7
100
AcDbLine
 10
764.8816311936
 20
5579.9341913095
 30
0.0
 11
759.0441385488
 21
5577.5162171355
 31
0.0
  0
LINE
  5
229
330
1F
100
AcDbEntity
  8
0
  6
CONTINUOUS
 62
     7
100
AcDbLine
 10
-460.7078825851
 20
5115.5740733972
 30
0.0
 11
-454.8703526874
 21
5117.9920475712
 31
0.0
  0
LINE
  5
22A
330
1F
100
AcDbEntity
  8
0
  6
CONTINUOUS
 62
     7
100
AcDbLine
 10
749.5743015985
 20
5078.6188956132
 30
0.0
 11
743.7368089538
 21
5081.0368511608
 31
0.0
  0
LINE
  5
22B
330
1F
100
AcDbEntity
  8
0
  6
CONTINUOUS
 62
     7
100
AcDbLine
 10
-325.2102827449
 20
4898.741316401
 30
0.0
 11
-320.7424675841
 21
4903.2091315618
 31
0.0
  0
LINE
  5
22C
330
1F
100
AcDbEntity
  8
0
  6
CONTINUOUS
 62
     7
100
AcDbLine
 10
-117.0483624358
 20
4750.2667050591
 30
0.0
 11
-114.6303510089
 21
4756.1041977039
 31
0.0
  0
LINE
  5
22D
330
1F
100
AcDbEntity
  8
0
  6
CONTINUOUS
 62
     7
100
AcDbLine
 10
601.0996530037
 20
4870.45704981
 30
0.0
 11
596.6318378429
 21
4874.9248649707
 31
0.0
  0
LINE
  5
22E
330
1F
100
AcDbEntity
  8
0
  6
CONTINUOUS
 62
     7
100
AcDbLine
 10
384.2669332604
 20
4734.959375464
 30
0.0
 11
381.8489218335
 21
4740.7968681088
 31
0.0
  0
LINE
  5
22F
330
1F
100
AcDbEntity
  8
0
  6
CONTINUOUS
 62
     7
100
AcDbLine
 10
-114.6303510089
 20
5939.4040670028
 30
0.0
 11
-117.0483624358
 21
5945.2415596476
 31
0.0
  0
LINE
  5
230
330
1F
100
AcDbEntity
  8
0
  6
CONTINUOUS
 62
     7
100
AcDbLine
 10
381.8489218335
 20
5954.7113965979
 30
0.0
 11
384.2669332604
 21
5960.5488892427
 31
0.0
  0
LINE
  5
231
330
1F
100
AcDbEntity
  8
0
  6
CONTINUOUS
 62
     7
100
AcDbLine
 10
596.6318378429
 20
5820.583399736
 30
0.0
 11
601.0996530037
 21
5825.0512148967
 31
0.0
  0
LINE
  5
232
330
1F
100
AcDbEntity
  8
0
  6
CONTINUOUS
 62
     7
100
AcDbLine
 10
-320.7424675841
 20
5792.2991331449
 30
0.0
 11
-325.2102827449
 21
5796.7669483057
 31
0.0
  0
LINE
  5
233
330
1F
100
AcDbEntity
  8
0
  6
CONTINUOUS
 62
     7
100
AcDbLine
 10
743.7368089538
 20
5614.4714135459
 30
0.0
 11
749.5743015985
 21
5616.8893690935
 31
0.0
  0
LINE
  5
234
330
1F
100
AcDbEntity
  8
0
  6
CONTINUOUS
 62
     7
100
AcDbLine
 10
-454.8703526874
 20
5577.5162171355
 30
0.0
 11
-460.7078825851
 21
5579.9341913095
 31
0.0
  0
LINE
  5
235
330
1F
100
AcDbEntity
  8
0
  6
CONTINUOUS
 62
     7
100
AcDbLine
 10
759.0441385488
 20
5117.9920475712
 30
0.0
 11
764.8816311936
 21
5115.5740733972
 31
0.0
  0
LINE
  5
236
330
1F
100
AcDbEntity
  8
0
  6
CONTINUOUS
 62
     7
100
AcDbLine
 10
-439.563134851
 20
5081.0368511608
 30
0.0
 11
-445.4005157371
 21
5078.6188956132
 31
0.0
  0
LINE
  5
237
330
1F
100
AcDbEntity
  8
0
  6
CONTINUOUS
 62
     7
100
AcDbLine
 10
624.916104434
 20
4903.2091315618
 30
0.0
 11
629.3839195948
 21
4898.741316401
 31
0.0
  0
LINE
  5
238
330
1F
100
AcDbEntity
  8
0
  6
CONTINUOUS
 62
     7
100
AcDbLine
 10
-292.4581264873
 20
4874.9248649707
 30
0.0
 11
-296.925941648
 21
4870.45704981
 31
0.0
  0
LINE
  5
239
330
1F
100
AcDbEntity
  8
0
  6
CONTINUOUS
 62
     7
100
AcDbLine
 10
418.8040996175
 20
4756.1041977039
 30
0.0
 11
421.2221110444
 21
4750.2667050591
 31
0.0
  0
LINE
  5
23A
330
1F
100
AcDbEntity
  8
0
  6
CONTINUOUS
 62
     7
100
AcDbLine
 10
-77.6752477307
 20
4740.7968681088
 30
0.0
 11
-80.0931846519
 21
4734.959375464
 31
0.0
  0
ARC
  5
23B
330
1F
100
AcDbEntity
  8
0
  6
CONTINUOUS
 62
     7
100
AcDbCircle
 10
402.7445070062
 20
5952.8952261482
 30
0.0
 40
20.0000000000003
100
AcDbArc
 50
337.5
 51
157.5
  0
LINE
  5
23C
330
1F
100
AcDbEntity
  8
0
  6
CONTINUOUS
 62
     7
100
AcDbLine
 10
172.0868403296
 20
6002.7541186443
 30
0.0
 11
172.0868403296
 21
5996.4356537691
 31
0.0
  0
LINE
  5
23D
330
1F
100
AcDbEntity
  8
0
  6
CONTINUOUS
 62
     7
100
AcDbLine
 10
132.0868337731
 20
5996.4356537691
 30
0.0
 11
132.0868337731
 21
6002.7541186443
 31
0.0
  0
ARC
  5
23E
330
1F
100
AcDbEntity
  8
0
  6
CONTINUOUS
 62
     7
100
AcDbCircle
 10
152.0868588071
 20
6002.7541323533
 30
0.0
 40
20.00000000000017
100
AcDbArc
 50
0.0
 51
180.0
  0
ARC
  5
23F
330
1F
100
AcDbEntity
  8
0
  6
CONTINUOUS
 62
     7
100
AcDbCircle
 10
-98.5707893921
 20
5952.8952261482
 30
0.0
 40
20.0000000000003
100
AcDbArc
 50
22.5
 51
202.5
  0
ARC
  5
240
330
1F
100
AcDbEntity
  8
0
  6
CONTINUOUS
 62
     7
100
AcDbCircle
 10
615.2418004843
 20
5810.9090740305
 30
0.0
 40
19.99999999999992
100
AcDbArc
 50
315.0
 51
135.0
  0
ARC
  5
241
330
1F
100
AcDbEntity
  8
0
  6
CONTINUOUS
 62
     7
100
AcDbCircle
 10
-311.0680828701
 20
5810.9090740305
 30
0.0
 40
20.00000000000041
100
AcDbArc
 50
45.0
 51
225.0
  0
ARC
  5
242
330
1F
100
AcDbEntity
  8
0
  6
CONTINUOUS
 62
     7
100
AcDbCircle
 10
757.227952602
 20
5598.4117805525
 30
0.0
 40
19.99999999999982
100
AcDbArc
 50
292.5
 51
112.5
  0
ARC
  5
243
330
1F
100
AcDbEntity
  8
0
  6
CONTINUOUS
 62
     7
100
AcDbCircle
 10
-453.0542349878
 20
5598.4117805525
 30
0.0
 40
20.00000000000055
100
AcDbArc
 50
67.5
 51
247.5
  0
LINE
  5
244
330
1F
100
AcDbEntity
  8
0
  6
CONTINUOUS
 62
     7
100
AcDbLine
 10
807.0868605952
 20
5327.7541314034
 30
0.0
 11
800.76839572
 21
5327.7541314034
 31
0.0
  0
LINE
  5
245
330
1F
100
AcDbEntity
  8
0
  6
CONTINUOUS
 62
     7
100
AcDbLine
 10
-502.9131864924
 20
5367.7541333033
 30
0.0
 11
-496.5946471114
 21
5367.7541333033
 31
0.0
  0
ARC
  5
246
330
1F
100
AcDbEntity
  8
0
  6
CONTINUOUS
 62
     7
100
AcDbCircle
 10
807.0868588071
 20
5347.7541323534
 30
0.0
 40
20.0
100
AcDbArc
 50
270.0
 51
90.0
  0
LINE
  5
247
330
1F
100
AcDbEntity
  8
0
  6
CONTINUOUS
 62
     7
100
AcDbLine
 10
-496.5946471114
 20
5327.7541314034
 30
0.0
 11
-502.9131864924
 21
5327.7541314034
 31
0.0
  0
ARC
  5
248
330
1F
100
AcDbEntity
  8
0
  6
CONTINUOUS
 62
     7
100
AcDbCircle
 10
-502.9131411929
 20
5347.7541323533
 30
0.0
 40
20.0
100
AcDbArc
 50
90.0
 51
270.0
  0
LINE
  5
249
330
1F
100
AcDbEntity
  8
0
  6
CONTINUOUS
 62
     7
100
AcDbLine
 10
800.76839572
 20
5367.7541333033
 30
0.0
 11
807.0868605952
 21
5367.7541333033
 31
0.0
  0
ARC
  5
24A
330
1F
100
AcDbEntity
  8
0
  6
CONTINUOUS
 62
     7
100
AcDbCircle
 10
757.227952602
 20
5097.0964841542
 30
0.0
 40
19.99999999999982
100
AcDbArc
 50
247.5
 51
67.5
  0
ARC
  5
24B
330
1F
100
AcDbEntity
  8
0
  6
CONTINUOUS
 62
     7
100
AcDbCircle
 10
-453.0542349878
 20
5097.0964841542
 30
0.0
 40
19.9999999999999
100
AcDbArc
 50
112.5
 51
292.5
  0
ARC
  5
24C
330
1F
100
AcDbEntity
  8
0
  6
CONTINUOUS
 62
     7
100
AcDbCircle
 10
615.2418004843
 20
4884.5991906762
 30
0.0
 40
20.00000000000048
100
AcDbArc
 50
225.0
 51
45.0
  0
ARC
  5
24D
330
1F
100
AcDbEntity
  8
0
  6
CONTINUOUS
 62
     7
100
AcDbCircle
 10
-311.0680828701
 20
4884.5991906762
 30
0.0
 40
20.00000000000056
100
AcDbArc
 50
135.0
 51
315.0
  0
LINE
  5
24E
330
1F
100
AcDbEntity
  8
0
  6
CONTINUOUS
 62
     7
100
AcDbLine
 10
132.0868337731
 20
4692.7541460624
 30
0.0
 11
132.0868337731
 21
4699.0726109376
 31
0.0
  0
ARC
  5
24F
330
1F
100
AcDbEntity
  8
0
  6
CONTINUOUS
 62
     7
100
AcDbCircle
 10
-98.570789392
 20
4742.6130385585
 30
0.0
 40
19.99999999999995
100
AcDbArc
 50
157.5
 51
337.5
  0
ARC
  5
250
330
1F
100
AcDbEntity
  8
0
  6
CONTINUOUS
 62
     7
100
AcDbCircle
 10
402.7445070062
 20
4742.6130385585
 30
0.0
 40
20.00000000000038
100
AcDbArc
 50
202.5
 51
22.5
  0
LINE
  5
251
330
1F
100
AcDbEntity
  8
0
  6
CONTINUOUS
 62
     7
100
AcDbLine
 10
172.0868403296
 20
4699.0726109376
 30
0.0
 11
172.0868403296
 21
4692.7541460624
 31
0.0
  0
ARC
  5
252
330
1F
100
AcDbEntity
  8
0
  6
CONTINUOUS
 62
     7
100
AcDbCircle
 10
152.0868588071
 20
4692.7541323533
 30
0.0
 40
20.00000000000017
100
AcDbArc
 50
180.0
 51
0.0
  0
ARC
  5
253
330
1F
100
AcDbEntity
  8
0
  6
CONTINUOUS
 62
     7
100
AcDbCircle
 10
152.0868588071
 20
5347.7541323533
 30
0.0
 40
675.0
100
AcDbArc
 50
45.0
 51
67.5
  0
ARC
  5
254
330
1F
100
AcDbEntity
  8
0
  6
CONTINUOUS
 62
     7
100
AcDbCircle
 10
152.0868588071
 20
5347.7541323533
 30
0.0
 40
675.0
100
AcDbArc
 50
67.5
 51
90.0
  0
ARC
  5
255
330
1F
100
AcDbEntity
  8
0
  6
CONTINUOUS
 62
     7
100
AcDbCircle
 10
152.0868588071
 20
5347.7541323533
 30
0.0
 40
675.0
100
AcDbArc
 50
90.0
 51
112.5
  0
ARC
  5
256
330
1F
100
AcDbEntity
  8
0
  6
CONTINUOUS
 62
     7
100
AcDbCircle
 10
152.0868588071
 20
5347.7541323533
 30
0.0
 40
674.9999999999995
100
AcDbArc
 50
112.5
 51
135.0
  0
ARC
  5
257
330
1F
100
AcDbEntity
  8
0
  6
CONTINUOUS
 62
     7
100
AcDbCircle
 10
152.0868588071
 20
5347.7541323533
 30
0.0
 40
674.9999999999999
100
AcDbArc
 50
135.0
 51
157.5
  0
ARC
  5
258
330
1F
100
AcDbEntity
  8
0
  6
CONTINUOUS
 62
     7
100
AcDbCircle
 10
152.0868588071
 20
5347.7541323533
 30
0.0
 40
675.0
100
AcDbArc
 50
22.5
 51
45.0
  0
ARC
  5
259
330
1F
100
AcDbEntity
  8
0
  6
CONTINUOUS
 62
     7
100
AcDbCircle
 10
152.0868588071
 20
5347.7541323533
 30
0.0
 40
675.0
100
AcDbArc
 50
0.0
 51
22.5
  0
ARC
  5
25A
330
1F
100
AcDbEntity
  8
0
  6
CONTINUOUS
 62
     7
100
AcDbCircle
 10
152.0868588071
 20
5347.7541323533
 30
0.0
 40
675.0
100
AcDbArc
 50
157.5
 51
180.0
  0
ARC
  5
25B
330
1F
100
AcDbEntity
  8
0
  6
CONTINUOUS
 62
     7
100
AcDbCircle
 10
152.0868588071
 20
5347.7541323533
 30
0.0
 40
675.0000000000005
100
AcDbArc
 50
337.5
 51
0.0
  0
ARC
  5
25C
330
1F
100
AcDbEntity
  8
0
  6
CONTINUOUS
 62
     7
100
AcDbCircle
 10
152.0868588071
 20
5347.7541323533
 30
0.0
 40
675.0000000000001
100
AcDbArc
 50
180.0
 51
202.5
  0
ARC
  5
25D
330
1F
100
AcDbEntity
  8
0
  6
CONTINUOUS
 62
     7
100
AcDbCircle
 10
152.0868588071
 20
5347.7541323533
 30
0.0
 40
675.0000000000006
100
AcDbArc
 50
315.0
 51
337.5
  0
ARC
  5
25E
330
1F
100
AcDbEntity
  8
0
  6
CONTINUOUS
 62
     7
100
AcDbCircle
 10
152.0868588071
 20
5347.7541323533
 30
0.0
 40
675.0000000000009
100
AcDbArc
 50
202.5
 51
225.0
  0
ARC
  5
25F
330
1F
100
AcDbEntity
  8
0
  6
CONTINUOUS
 62
     7
100
AcDbCircle
 10
152.0868588071
 20
5347.7541323533
 30
0.0
 40
675.0000000000009
100
AcDbArc
 50
225.0
 51
247.5
  0
ARC
  5
260
330
1F
100
AcDbEntity
  8
0
  6
CONTINUOUS
 62
     7
100
AcDbCircle
 10
152.0868588071
 20
5347.7541323533
 30
0.0
 40
675.000000000001
100
AcDbArc
 50
292.5
 51
315.0
  0
ARC
  5
261
330
1F
100
AcDbEntity
  8
0
  6
CONTINUOUS
 62
     7
100
AcDbCircle
 10
152.0868588071
 20
5347.7541323533
 30
0.0
 40
675.000000000001
100
AcDbArc
 50
270.0
 51
292.5
  0
ARC
  5
262
330
1F
100
AcDbEntity
  8
0
  6
CONTINUOUS
 62
     7
100
AcDbCircle
 10
152.0868588071
 20
5347.7541323533
 30
0.0
 40
675.0000000000009
100
AcDbArc
 50
247.5
 51
270.0
  0
CIRCLE
  5
263
330
1F
100
AcDbEntity
  8
0
  6
CONTINUOUS
 62
     7
100
AcDbCircle
 10
152.0868588071
 20
5347.7541323533
 30
0.0
 40
680.0000000000009
  0
LINE
  5
264
330
1F
100
AcDbEntity
  8
0
  6
CONTINUOUS
 62
     7
100
AcDbLine
 10
3157.0869291406
 20
6185.8749355903
 30
0.0
 11
3157.0869291406
 21
4509.6333291164
 31
0.0
  0
LINE
  5
265
330
1F
100
AcDbEntity
  8
0
  6
CONTINUOUS
 62
     7
100
AcDbLine
 10
-882.9132115264
 20
4509.6333291164
 30
0.0
 11
-882.9132115264
 21
6185.8749355903
 31
0.0
  0
SPLINE
  5
266
330
1F
100
AcDbEntity
  8
0
  6
CONTINUOUS
 62
     7
100
AcDbSpline
210
0.0
220
0.0
230
1.0
 70
     8
 71
     3
 72
    13
 73
     9
 74
     0
 42
0.00000001
 43
0.00000001
 40
0.0
 40
0.0
 40
0.0
 40
0.0
 40
0.2309726745157722
 40
0.3187895829014177
 40
0.5765948847134972
 40
0.5931489349055575
 40
0.8391170094255753
 40
1.0
 40
1.0
 40
1.0
 40
1.0
 10
-112.9131411929175
 20
4327.754151426835
 30
0.0
 10
-119.1954145642836
 20
4327.419690920564
 30
0.0
 10
-127.866238123517
 20
4326.95806694052
 30
0.0
 10
-142.2107394646684
 20
4323.659773161273
 30
0.0
 10
-150.106495028192
 20
4320.72054055102
 30
0.0
 10
-159.1023754488839
 20
4316.578266618855
 30
0.0
 10
-164.9579658239798
 20
4313.25115762108
 30
0.0
 10
-168.1773328180826
 20
4311.09163672591
 30
0.0
 10
-169.4503819365546
 20
4310.237687431855
 30
0.0
  0
SPLINE
  5
267
330
1F
100
AcDbEntity
  8
0
  6
CONTINUOUS
 62
     7
100
AcDbSpline
210
0.0
220
0.0
230
1.0
 70
     8
 71
     3
 72
    12
 73
     8
 74
     0
 42
0.00000001
 43
0.00000001
 40
0.0
 40
0.0
 40
0.0
 40
0.0
 40
0.287206730629112
 40
0.5167416119330425
 40
0.7397870845193426
 40
0.8177981421005831
 40
1.0
 40
1.0
 40
1.0
 40
1.0
 10
243.6241114716484
 20
4310.237687431855
 30
0.0
 10
241.1515693574205
 20
4311.886358282282
 30
0.0
 10
236.7029779372976
 20
4314.852642641045
 30
0.0
 10
223.9297032046635
 20
4321.139850435527
 30
0.0
 10
211.4967823872627
 20
4324.962333452096
 30
0.0
 10
199.0888315342346
 20
4327.255101685785
 30
0.0
 10
192.029697434775
 20
4327.548625310904
 30
0.0
 10
187.0868707280114
 20
4327.754151426835
 30
0.0
  0
LINE
  5
268
330
1F
100
AcDbEntity
  8
0
  6
CONTINUOUS
 62
     7
100
AcDbLine
 10
187.086870728
 20
4327.7541514268
 30
0.0
 11
-112.9131411929
 21
4327.7541514268
 31
0.0
  0
LINE
  5
269
330
1F
100
AcDbEntity
  8
0
  6
CONTINUOUS
 62
     7
100
AcDbLine
 10
2454.0285373311
 20
6497.754153215
 30
0.0
 11
2737.0868230443
 21
6497.754153215
 31
0.0
  0
LINE
  5
26A
330
1F
100
AcDbEntity
  8
0
  6
CONTINUOUS
 62
     7
100
AcDbLine
 10
2737.0868230443
 20
6497.754153215
 30
0.0
 11
3034.6053445916
 21
6370.2462579837
 31
0.0
  0
LINE
  5
26B
330
1F
100
AcDbEntity
  8
0
  6
CONTINUOUS
 62
     7
100
AcDbLine
 10
2734.1916764359
 20
4197.7541114917
 30
0.0
 11
2454.0285373311
 21
4197.7541114917
 31
0.0
  0
LINE
  5
26C
330
1F
100
AcDbEntity
  8
0
  6
CONTINUOUS
 62
     7
100
AcDbLine
 10
3034.6053445916
 20
4325.262006723
 30
0.0
 11
2737.0868230443
 21
4197.7541114917
 31
0.0
  0
LINE
  5
26D
330
1F
100
AcDbEntity
  8
0
  6
CONTINUOUS
 62
     7
100
AcDbLine
 10
2736.8488515
 20
4197.7544095149
 30
0.0
 11
2737.0868230443
 21
4197.7541114917
 31
0.0
  0
SPLINE
  5
26E
330
1F
100
AcDbEntity
  8
0
  6
CONTINUOUS
 62
     7
100
AcDbSpline
210
0.0
220
0.0
230
1.0
 70
     8
 71
     3
 72
     8
 73
     4
 74
     0
 42
0.00000001
 43
0.00000001
 40
0.0
 40
0.0
 40
0.0
 40
0.0
 40
1.0
 40
1.0
 40
1.0
 40
1.0
 10
2734.191703036805
 20
4197.754132353349
 30
0.0
 10
2735.614853692797
 20
4197.754132353349
 30
0.0
 10
2736.46858276426
 20
4197.755320711732
 30
0.0
 10
2736.848838180506
 20
4197.754415622843
 30
0.0
  0
SPLINE
  5
26F
330
1F
100
AcDbEntity
  8
0
  6
CONTINUOUS
 62
     7
100
AcDbSpline
210
0.0
220
0.0
230
1.0
 70
     8
 71
     3
 72
     8
 73
     4
 74
     0
 42
0.00000001
 43
0.00000001
 40
0.0
 40
0.0
 40
0.0
 40
0.0
 40
1.0
 40
1.0
 40
1.0
 40
1.0
 10
-462.4686037317948
 20
4197.755120426003
 30
0.0
 10
-461.7027358763585
 20
4197.758525029162
 30
0.0
 10
-459.8926290690207
 20
4197.754132353349
 30
0.0
 10
-456.7276728291948
 20
4197.754132353349
 30
0.0
  0
LINE
  5
270
330
1F
100
AcDbEntity
  8
0
  6
CONTINUOUS
 62
     7
100
AcDbLine
 10
-462.9131054301
 20
4197.7541114917
 30
0.0
 11
-462.4686037917
 21
4197.755154573
 31
0.0
  0
LINE
  5
271
330
1F
100
AcDbEntity
  8
0
  6
CONTINUOUS
 62
     7
100
AcDbLine
 10
-462.9131054301
 20
4197.7541114917
 30
0.0
 11
-760.4316269774
 21
4325.262006723
 31
0.0
  0
LINE
  5
272
330
1F
100
AcDbEntity
  8
0
  6
CONTINUOUS
 62
     7
100
AcDbLine
 10
-313.1436204333
 20
4197.7541114917
 30
0.0
 11
-456.7276334186
 21
4197.7541114917
 31
0.0
  0
LINE
  5
273
330
1F
100
AcDbEntity
  8
0
  6
CONTINUOUS
 62
     7
100
AcDbLine
 10
-462.9131054301
 20
6497.754153215
 30
0.0
 11
-179.8548197169
 21
6497.754153215
 31
0.0
  0
LINE
  5
274
330
1F
100
AcDbEntity
  8
0
  6
CONTINUOUS
 62
     7
100
AcDbLine
 10
-760.4316269774
 20
6370.2462579837
 30
0.0
 11
-462.9131054301
 21
6497.754153215
 31
0.0
  0
LINE
  5
275
330
1F
100
AcDbEntity
  8
0
  6
CONTINUOUS
 62
     7
100
AcDbLine
 10
-179.8548197169
 20
6497.754153215
 30
0.0
 11
2454.0285373311
 21
6497.754153215
 31
0.0
  0
SPLINE
  5
276
330
1F
100
AcDbEntity
  8
0
  6
CONTINUOUS
 62
     7
100
AcDbSpline
210
0.0
220
0.0
230
1.0
 70
     8
 71
     3
 72
     8
 73
     4
 74
     0
 42
0.00000001
 43
0.00000001
 40
0.0
 40
0.0
 40
0.0
 40
0.0
 40
1.0
 40
1.0
 40
1.0
 40
1.0
 10
-202.3084413028507
 20
4274.360266881378
 30
0.0
 10
-200.2917243707846
 20
4277.079887782141
 30
0.0
 10
-198.3207247930129
 20
4279.883731880863
 30
0.0
 10
-196.4188387653533
 20
4282.770479677947
 30
0.0
  0
ARC
  5
277
330
1F
100
AcDbEntity
  8
0
  6
CONTINUOUS
 62
     7
100
AcDbCircle
 10
-112.9131411929
 20
4227.7541323533
 30
0.0
 40
100.0000000000003
100
AcDbArc
 50
124.4281444547
 51
146.6217713611
  0
LINE
  5
278
330
1F
100
AcDbEntity
  8
0
  6
CONTINUOUS
 62
     7
100
AcDbLine
 10
2437.0868111234
 20
4197.7541114917
 30
0.0
 11
2454.0285373311
 21
4197.7541114917
 31
0.0
  0
LINE
  5
279
330
1F
100
AcDbEntity
  8
0
  6
CONTINUOUS
 62
     7
100
AcDbLine
 10
376.6939396243
 20
4197.7541114917
 30
0.0
 11
2437.0868111234
 21
4197.7541114917
 31
0.0
  0
SPLINE
  5
27A
330
1F
100
AcDbEntity
  8
0
  6
CONTINUOUS
 62
     7
100
AcDbSpline
210
0.0
220
0.0
230
1.0
 70
     8
 71
     3
 72
    10
 73
     6
 74
     0
 42
0.00000001
 43
0.00000001
 40
0.0
 40
0.0
 40
0.0
 40
0.0
 40
0.2824454624612058
 40
0.5624285092226036
 40
1.0
 40
1.0
 40
1.0
 40
1.0
 10
287.0868498663856
 20
4257.365610801263
 30
0.0
 10
286.7066344815812
 20
4258.440982023762
 30
0.0
 10
285.9495185052946
 20
4260.582349168628
 30
0.0
 10
280.0557759547727
 20
4269.016785033231
 30
0.0
 10
274.3069713118807
 20
4277.362820790569
 30
0.0
 10
270.8012962918237
 20
4282.452311717553
 30
0.0
  0
SPLINE
  5
27B
330
1F
100
AcDbEntity
  8
0
  6
CONTINUOUS
 62
     7
100
AcDbSpline
210
0.0
220
0.0
230
1.0
 70
     8
 71
     3
 72
    12
 73
     8
 74
     0
 42
0.00000001
 43
0.00000001
 40
0.0
 40
0.0
 40
0.0
 40
0.0
 40
0.1514597180146991
 40
0.3718759358976232
 40
0.5945735701679864
 40
0.8173603753174793
 40
1.0
 40
1.0
 40
1.0
 40
1.0
 10
376.6939396243051
 20
4197.754111491723
 30
0.0
 10
371.802758521934
 20
4197.74544265468
 30
0.0
 10
359.7935419861387
 20
4197.724158237075
 30
0.0
 10
343.7566441195303
 20
4198.35299461929
 30
0.0
 10
328.1444268381509
 20
4201.459782976212
 30
0.0
 10
314.9600249272652
 20
4206.76245840896
 30
0.0
 10
307.6541603482892
 20
4212.462496945083
 30
0.0
 10
304.3629581313089
 20
4215.030294262452
 30
0.0
  0
SPLINE
  5
27C
330
1F
100
AcDbEntity
  8
0
  6
CONTINUOUS
 62
     7
100
AcDbSpline
210
0.0
220
0.0
230
1.0
 70
     8
 71
     3
 72
    10
 73
     6
 74
     0
 42
0.00000001
 43
0.00000001
 40
0.0
 40
0.0
 40
0.0
 40
0.0
 40
0.2913426237681003
 40
0.6785383893801921
 40
1.0
 40
1.0
 40
1.0
 40
1.0
 10
287.0868498663858
 20
4250.931959950013
 30
0.0
 10
287.5260471962854
 20
4249.338832630668
 30
0.0
 10
288.5489399161893
 20
4245.628431346554
 30
0.0
 10
295.0086183134779
 20
4231.059267881166
 30
0.0
 10
301.4438185149085
 20
4220.032337465056
 30
0.0
 10
304.3629581313089
 20
4215.030294262452
 30
0.0
  0
SPLINE
  5
27D
330
1F
100
AcDbEntity
  8
0
  6
CONTINUOUS
 62
     7
100
AcDbSpline
210
0.0
220
0.0
230
1.0
 70
    24
 71
     3
 72
     8
 73
     4
 74
     0
 42
0.00000001
 43
0.00000001
 40
0.0
 40
0.0
 40
0.0
 40
0.0
 40
1.0
 40
1.0
 40
1.0
 40
1.0
 10
287.0868588070825
 20
4250.931956913268
 30
0.0
 10
287.0868588070825
 20
4252.995903639516
 30
0.0
 10
287.0868588070825
 20
4255.12976403738
 30
0.0
 10
287.0868588070825
 20
4257.365617076695
 30
0.0
  0
ARC
  5
27E
330
1F
100
AcDbEntity
  8
0
  6
CONTINUOUS
 62
     7
100
AcDbCircle
 10
187.0868588071
 20
4227.7541323533
 30
0.0
 40
100.0000000000001
100
AcDbArc
 50
33.1601793926
 51
55.5718555453
  0
SPLINE
  5
27F
330
1F
100
AcDbEntity
  8
0
  6
CONTINUOUS
 62
     7
100
AcDbSpline
210
0.0
220
0.0
230
1.0
 70
     8
 71
     3
 72
    10
 73
     6
 74
     0
 42
0.00000001
 43
0.00000001
 40
0.0
 40
0.0
 40
0.0
 40
0.0
 40
0.3806179954005319
 40
0.8811502686336923
 40
1.0
 40
1.0
 40
1.0
 40
1.0
 10
-231.2878167052316
 20
4239.984821878953
 30
0.0
 10
-228.5499086902283
 20
4243.294537086473
 30
0.0
 10
-222.211510579609
 20
4250.956698307039
 30
0.0
 10
-210.3064574399334
 20
4263.784459761582
 30
0.0
 10
-203.5960985074421
 20
4272.657616046934
 30
0.0
 10
-202.3084854502723
 20
4274.360236131234
 30
0.0
  0
SPLINE
  5
280
330
1F
100
AcDbEntity
  8
0
  6
CONTINUOUS
 62
     7
100
AcDbSpline
210
0.0
220
0.0
230
1.0
 70
     8
 71
     3
 72
    13
 73
     9
 74
     0
 42
0.00000001
 43
0.00000001
 40
0.0
 40
0.0
 40
0.0
 40
0.0
 40
0.160043602978454
 40
0.3200598696993078
 40
0.4807019704117151
 40
0.6412240826286595
 40
0.9310901723070646
 40
1.0
 40
1.0
 40
1.0
 40
1.0
 10
-312.9130994696662
 20
4197.754111491723
 30
0.0
 10
-306.8364871070682
 20
4198.089527743133
 30
0.0
 10
-294.6843002980255
 20
4198.760302955159
 30
0.0
 10
-277.3272662264135
 20
4203.760757295073
 30
0.0
 10
-261.8402553339881
 20
4211.289615953109
 30
0.0
 10
-245.4431040828441
 20
4222.903098177631
 30
0.0
 10
-236.3025919686658
 20
4233.083219297024
 30
0.0
 10
-232.0958101988425
 20
4238.872817912923
 30
0.0
 10
-231.2878167052316
 20
4239.984821878953
 30
0.0
  0
LINE
  5
281
330
1F
100
AcDbEntity
  8
0
  6
CONTINUOUS
 62
     7
100
AcDbLine
 10
-312.9130994697
 20
4197.7541114917
 30
0.0
 11
-313.1436204333
 21
4197.7541114917
 31
0.0
  0
ARC
  5
282
330
1F
100
AcDbEntity
  8
0
  6
CONTINUOUS
 62
     7
100
AcDbCircle
 10
-682.9131411929
 20
6185.8749007572
 30
0.0
 40
199.9999999999999
100
AcDbArc
 50
113.1985905136
 51
180.0
  0
LWPOLYLINE
  5
283
330
1F
100
AcDbEntity
  8
0
  6
CONTINUOUS
 62
     7
100
AcDbPolyline
 90
        4
 70
   128
 43
0.0
 10
-761.697033586
 20
6369.7039302221
 10
-761.5562176127
 20
6369.7642054191
 10
-761.1342167277
 20
6369.945105516
 10
-760.4316269774
 20
6370.2462579837
  0
LWPOLYLINE
  5
284
330
1F
100
AcDbEntity
  8
0
  6
CONTINUOUS
 62
     7
100
AcDbPolyline
 90
        4
 70
   128
 43
0.0
 10
3035.8707512002
 20
4325.8043344846
 10
3035.7299352269
 20
4325.7440592876
 10
3035.3079343419
 20
4325.5631591907
 10
3034.6053445916
 20
4325.262006723
  0
ARC
  5
285
330
1F
100
AcDbEntity
  8
0
  6
CONTINUOUS
 62
     7
100
AcDbCircle
 10
2957.0868588071
 20
4509.6333639495
 30
0.0
 40
200.0
100
AcDbArc
 50
293.1985905136
 51
0.0
  0
LWPOLYLINE
  5
286
330
1F
100
AcDbEntity
  8
0
  6
CONTINUOUS
 62
     7
100
AcDbPolyline
 90
        4
 70
   128
 43
0.0
 10
-760.4316269774
 20
4325.262006723
 10
-761.1342167277
 20
4325.5631591907
 10
-761.5562176127
 20
4325.7440592876
 10
-761.697033586
 20
4325.8043344846
  0
ARC
  5
287
330
1F
100
AcDbEntity
  8
0
  6
CONTINUOUS
 62
     7
100
AcDbCircle
 10
-682.9131411929
 20
4509.6333639495
 30
0.0
 40
200.0000000000002
100
AcDbArc
 50
180.0
 51
246.8014094864
  0
LWPOLYLINE
  5
288
330
1F
100
AcDbEntity
  8
0
  6
CONTINUOUS
 62
     7
100
AcDbPolyline
 90
        4
 70
   128
 43
0.0
 10
3034.6053445916
 20
6370.2462579837
 10
3035.3079343419
 20
6369.945105516
 10
3035.7299352269
 20
6369.7642054191
 10
3035.8707512002
 20
6369.7039302221
  0
ARC
  5
289
330
1F
100
AcDbEntity
  8
0
  6
CONTINUOUS
 62
     7
100
AcDbCircle
 10
2957.0868588071
 20
6185.8749007572
 30
0.0
 40
200.0
100
AcDbArc
 50
0.0
 51
66.8014094864
  0
LINE
  5
28A
330
1F
100
AcDbEntity
  8
0
  6
CONTINUOUS
 62
     7
100
AcDbLine
 10
258.5011327844
 20
4297.7541651359
 30
0.0
 11
237.0868230443
 21
4297.7541651359
 31
0.0
  0
LINE
  5
28B
330
1F
100
AcDbEntity
  8
0
  6
CONTINUOUS
 62
     7
100
AcDbLine
 10
137.0868439059
 20
4297.7541651359
 30
0.0
 11
137.0868439059
 21
4327.7541514268
 31
0.0
  0
LINE
  5
28C
330
1F
100
AcDbEntity
  8
0
  6
CONTINUOUS
 62
     7
100
AcDbLine
 10
237.0868230443
 20
4297.7541651359
 30
0.0
 11
137.0868439059
 21
4297.7541651359
 31
0.0
  0
LINE
  5
28D
330
1F
100
AcDbEntity
  8
0
  6
CONTINUOUS
 62
     7
100
AcDbLine
 10
1597.0868597012
 20
6682.7540810934
 30
0.0
 11
1747.0868656616
 21
6682.7540810934
 31
0.0
  0
ARC
  5
28E
330
1F
100
AcDbEntity
  8
0
  6
CONTINUOUS
 62
     7
100
AcDbCircle
 10
1747.0868588071
 20
6532.7541323533
 30
0.0
 40
150.0
100
AcDbArc
 50
0.0
 51
90.0
  0
LINE
  5
28F
330
1F
100
AcDbEntity
  8
0
  6
CONTINUOUS
 62
     7
100
AcDbLine
 10
677.086857913
 20
6682.7540810934
 30
0.0
 11
1597.0868597012
 21
6682.7540810934
 31
0.0
  0
LINE
  5
290
330
1F
100
AcDbEntity
  8
0
  6
CONTINUOUS
 62
     7
100
AcDbLine
 10
527.0868519525
 20
6682.7540810934
 30
0.0
 11
677.086857913
 21
6682.7540810934
 31
0.0
  0
ARC
  5
291
330
1F
100
AcDbEntity
  8
0
  6
CONTINUOUS
 62
     7
100
AcDbCircle
 10
527.0868588071
 20
6532.7541323533
 30
0.0
 40
150.0000000000002
100
AcDbArc
 50
90.0
 51
180.0
  0
LINE
  5
292
330
1F
100
AcDbEntity
  8
0
  6
CONTINUOUS
 62
     7
100
AcDbLine
 10
1897.0868343692
 20
6532.7541496387
 30
0.0
 11
1897.0868343692
 21
6497.754153215
 31
0.0
  0
LINE
  5
293
330
1F
100
AcDbEntity
  8
0
  6
CONTINUOUS
 62
     7
100
AcDbLine
 10
377.086883245
 20
6532.7541496387
 30
0.0
 11
377.086883245
 21
6497.754153215
 31
0.0
  0
LINE
  5
294
330
1F
100
AcDbEntity
  8
0
  6
CONTINUOUS
 62
     7
100
AcDbLine
 10
377.086883245
 20
3752.7541037431
 30
0.0
 11
377.086883245
 21
4197.7541114917
 31
0.0
  0
LINE
  5
295
330
1F
100
AcDbEntity
  8
0
  6
CONTINUOUS
 62
     7
100
AcDbLine
 10
1897.0868343692
 20
3752.7541037431
 30
0.0
 11
1897.0868343692
 21
4197.7541114917
 31
0.0
  0
LINE
  5
296
330
1F
100
AcDbEntity
  8
0
  6
CONTINUOUS
 62
     7
100
AcDbLine
 10
1597.0868597012
 20
3602.7540977827
 30
0.0
 11
677.086857913
 21
3602.7540977827
 31
0.0
  0
LINE
  5
297
330
1F
100
AcDbEntity
  8
0
  6
CONTINUOUS
 62
     7
100
AcDbLine
 10
1747.0868656616
 20
3602.7540977827
 30
0.0
 11
1597.0868597012
 21
3602.7540977827
 31
0.0
  0
ARC
  5
298
330
1F
100
AcDbEntity
  8
0
  6
CONTINUOUS
 62
     7
100
AcDbCircle
 10
1747.0868588071
 20
3752.7541323533
 30
0.0
 40
150.0
100
AcDbArc
 50
270.0
 51
0.0
  0
LINE
  5
299
330
1F
100
AcDbEntity
  8
0
  6
CONTINUOUS
 62
     7
100
AcDbLine
 10
677.086857913
 20
3602.7540977827
 30
0.0
 11
527.0868519525
 21
3602.7540977827
 31
0.0
  0
ARC
  5
29A
330
1F
100
AcDbEntity
  8
0
  6
CONTINUOUS
 62
     7
100
AcDbCircle
 10
527.0868588071
 20
3752.7541323533
 30
0.0
 40
150.0000000000001
100
AcDbArc
 50
180.0
 51
270.0
  0
ARC
  5
29B
330
1F
100
AcDbEntity
  8
0
  6
CONTINUOUS
 62
     7
100
AcDbCircle
 10
37.0868588071
 20
4392.7541323533
 30
0.0
 40
95.50000000000091
100
AcDbArc
 50
270.0
 51
317.1072420182
  0
ARC
  5
29C
330
1F
100
AcDbEntity
  8
0
  6
CONTINUOUS
 62
     7
100
AcDbCircle
 10
37.0868588071
 20
4392.7541323533
 30
0.0
 40
95.50000000000091
100
AcDbArc
 50
222.8927579818
 51
270.0
  0
LINE
  5
29D
330
1F
100
AcDbEntity
  8
0
  6
CONTINUOUS
 62
     7
100
AcDbLine
 10
2737.0868230443
 20
4197.7541114917
 30
0.0
 11
2734.1916764359
 21
4197.7541114917
 31
0.0
  0
LINE
  5
29E
330
1F
100
AcDbEntity
  8
0
  6
CONTINUOUS
 62
     7
100
AcDbLine
 10
1237.0868565719
 20
6698.7542029252
 30
0.0
 11
1037.0868610423
 21
6698.7542029252
 31
0.0
  0
LINE
  5
29F
330
1F
100
AcDbEntity
  8
0
  6
CONTINUOUS
 62
     7
100
AcDbLine
 10
1037.0868610423
 20
6698.7542029252
 30
0.0
 11
1037.0868610423
 21
6682.7540810934
 31
0.0
  0
LINE
  5
2A0
330
1F
100
AcDbEntity
  8
0
  6
CONTINUOUS
 62
     7
100
AcDbLine
 10
1237.0868565719
 20
6698.7542029252
 30
0.0
 11
1237.0868565719
 21
6682.7540810934
 31
0.0
  0
LINE
  5
2A1
330
1F
100
AcDbEntity
  8
0
  6
CONTINUOUS
 62
     7
100
AcDbLine
 10
1337.0868543367
 20
3572.7541859975
 30
0.0
 11
937.0868632774
 21
3572.7541859975
 31
0.0
  0
LINE
  5
2A2
330
1F
100
AcDbEntity
  8
0
  6
CONTINUOUS
 62
     7
100
AcDbLine
 10
937.0868632774
 20
3602.7540977827
 30
0.0
 11
937.0868632774
 21
3572.7541859975
 31
0.0
  0
LINE
  5
2A3
330
1F
100
AcDbEntity
  8
0
  6
CONTINUOUS
 62
     7
100
AcDbLine
 10
1337.0868543367
 20
3602.7540977827
 30
0.0
 11
1337.0868543367
 21
3572.7541859975
 31
0.0
  0
LINE
  5
2A4
330
1F
100
AcDbEntity
  8
0
  6
CONTINUOUS
 62
     7
100
AcDbLine
 10
1237.0868565719
 20
6877.7541037431
 30
0.0
 11
1037.0868610423
 21
6877.7541037431
 31
0.0
  0
LINE
  5
2A5
330
1F
100
AcDbEntity
  8
0
  6
CONTINUOUS
 62
     7
100
AcDbLine
 10
1037.0868610423
 20
6877.7541037431
 30
0.0
 11
1037.0868610423
 21
6698.7542029252
 31
0.0
  0
LINE
  5
2A6
330
1F
100
AcDbEntity
  8
0
  6
CONTINUOUS
 62
     7
100
AcDbLine
 10
1237.0868565719
 20
6877.7541037431
 30
0.0
 11
1237.0868565719
 21
6698.7542029252
 31
0.0
  0
LINE
  5
2A7
330
1F
100
AcDbEntity
  8
0
  6
CONTINUOUS
 62
     7
100
AcDbLine
 10
1287.0868554543
 20
6877.7541037431
 30
0.0
 11
1287.0868554543
 21
6682.7540810934
 31
0.0
  0
LINE
  5
2A8
330
1F
100
AcDbEntity
  8
0
  6
CONTINUOUS
 62
     7
100
AcDbLine
 10
987.0868621598
 20
6877.7541037431
 30
0.0
 11
987.0868621598
 21
6682.7540810934
 31
0.0
  0
LINE
  5
2A9
330
1F
100
AcDbEntity
  8
0
  6
CONTINUOUS
 62
     7
100
AcDbLine
 10
1237.0868565719
 20
6877.7541037431
 30
0.0
 11
1287.0868554543
 21
6877.7541037431
 31
0.0
  0
LINE
  5
2AA
330
1F
100
AcDbEntity
  8
0
  6
CONTINUOUS
 62
     7
100
AcDbLine
 10
987.0868621598
 20
6877.7541037431
 30
0.0
 11
1037.0868610423
 21
6877.7541037431
 31
0.0
  0
LINE
  5
2AB
330
1F
100
AcDbEntity
  8
0
  6
CONTINUOUS
 62
     7
100
AcDbLine
 10
330.4894620757
 20
6497.754153215
 30
0.0
 11
330.4894620757
 21
6677.7541454664
 31
0.0
  0
LINE
  5
2AC
330
1F
100
AcDbEntity
  8
0
  6
CONTINUOUS
 62
     7
100
AcDbLine
 10
330.4894620757
 20
6677.7541454664
 30
0.0
 11
488.6811578851
 21
6677.7541454664
 31
0.0
  0
LINE
  5
2AD
330
1F
100
AcDbEntity
  8
0
  6
CONTINUOUS
 62
     7
100
AcDbLine
 10
1943.6842555385
 20
6497.754153215
 30
0.0
 11
1943.6842555385
 21
6677.7541454664
 31
0.0
  0
LINE
  5
2AE
330
1F
100
AcDbEntity
  8
0
  6
CONTINUOUS
 62
     7
100
AcDbLine
 10
1943.6842555385
 20
6677.7541454664
 30
0.0
 11
1785.4925597291
 21
6677.7541454664
 31
0.0
  0
LINE
  5
2AF
330
1F
100
AcDbEntity
  8
0
  6
CONTINUOUS
 62
     7
100
AcDbLine
 10
307.0868903975
 20
3872.7541979185
 30
0.0
 11
307.0868903975
 21
3842.7541371217
 31
0.0
  0
LINE
  5
2B0
330
1F
100
AcDbEntity
  8
0
  6
CONTINUOUS
 62
     7
100
AcDbLine
 10
307.0868903975
 20
3872.7541979185
 30
0.0
 11
377.086883245
 21
3872.7541979185
 31
0.0
  0
LINE
  5
2B1
330
1F
100
AcDbEntity
  8
0
  6
CONTINUOUS
 62
     7
100
AcDbLine
 10
307.0868903975
 20
3842.7541371217
 30
0.0
 11
377.086883245
 21
3842.7541371217
 31
0.0
  0
LINE
  5
2B2
330
1F
100
AcDbEntity
  8
0
  6
CONTINUOUS
 62
     7
100
AcDbLine
 10
1967.0868272166
 20
3872.7541979185
 30
0.0
 11
1967.0868272166
 21
3842.7541371217
 31
0.0
  0
LINE
  5
2B3
330
1F
100
AcDbEntity
  8
0
  6
CONTINUOUS
 62
     7
100
AcDbLine
 10
1967.0868272166
 20
3842.7541371217
 30
0.0
 11
1897.0868343692
 21
3842.7541371217
 31
0.0
  0
LINE
  5
2B4
330
1F
100
AcDbEntity
  8
0
  6
CONTINUOUS
 62
     7
100
AcDbLine
 10
1967.0868272166
 20
3872.7541979185
 30
0.0
 11
1897.0868343692
 21
3872.7541979185
 31
0.0
  0
ARC
  5
2B5
330
1F
100
AcDbEntity
  8
0
  6
CONTINUOUS
 62
     7
100
AcDbCircle
 10
37.0868588071
 20
4392.7541323533
 30
0.0
 40
130.0000000000009
100
AcDbArc
 50
270.0
 51
320.2848627682
  0
ARC
  5
2B6
330
1F
100
AcDbEntity
  8
0
  6
CONTINUOUS
 62
     7
100
AcDbCircle
 10
37.0868588071
 20
4392.7541323533
 30
0.0
 40
130.0000000000009
100
AcDbArc
 50
210.0
 51
270.0
  0
LINE
  5
2B7
330
1F
100
AcDbEntity
  8
0
  6
CONTINUOUS
 62
     7
100
AcDbLine
 10
-42.9131483455
 20
4290.2846600643
 30
0.0
 11
-42.9131483455
 21
4252.7541484466
 31
0.0
  0
LINE
  5
2B8
330
1F
100
AcDbEntity
  8
0
  6
CONTINUOUS
 62
     7
100
AcDbLine
 10
-212.9131948371
 20
4260.6952007642
 30
0.0
 11
-212.9131948371
 21
4252.7541484466
 31
0.0
  0
LINE
  5
2B9
330
1F
100
AcDbEntity
  8
0
  6
CONTINUOUS
 62
     7
100
AcDbLine
 10
197.0868909936
 20
4267.7541043392
 30
0.0
 11
197.0868909936
 21
4297.7541651359
 31
0.0
  0
LINE
  5
2BA
330
1F
100
AcDbEntity
  8
0
  6
CONTINUOUS
 62
     7
100
AcDbLine
 10
167.0868301969
 20
4297.7541651359
 30
0.0
 11
167.0868301969
 21
4292.7541550031
 31
0.0
  0
LINE
  5
2BB
330
1F
100
AcDbEntity
  8
0
  6
CONTINUOUS
 62
     7
100
AcDbLine
 10
2237.0868528466
 20
6497.754153215
 30
0.0
 11
2237.0868528466
 21
6677.7541454664
 31
0.0
  0
LINE
  5
2BC
330
1F
100
AcDbEntity
  8
0
  6
CONTINUOUS
 62
     7
100
AcDbLine
 10
2237.0868528466
 20
6677.7541454664
 30
0.0
 11
1943.6842555385
 21
6677.7541454664
 31
0.0
  0
LINE
  5
2BD
330
1F
100
AcDbEntity
  8
0
  6
CONTINUOUS
 62
     7
100
AcDbLine
 10
37.0868647675
 20
6497.754153215
 30
0.0
 11
37.0868647675
 21
6677.7541454664
 31
0.0
  0
LINE
  5
2BE
330
1F
100
AcDbEntity
  8
0
  6
CONTINUOUS
 62
     7
100
AcDbLine
 10
37.0868647675
 20
6677.7541454664
 30
0.0
 11
330.4894620757
 21
6677.7541454664
 31
0.0
  0
ARC
  5
2BF
330
1F
100
AcDbEntity
  8
0
  6
CONTINUOUS
 62
     7
100
AcDbCircle
 10
2062.0868588071
 20
6867.7541323533
 30
0.0
 40
80.00000000000023
100
AcDbArc
 50
90.0
 51
180.0
  0
ARC
  5
2C0
330
1F
100
AcDbEntity
  8
0
  6
CONTINUOUS
 62
     7
100
AcDbCircle
 10
-237.9131411929
 20
6867.7541323533
 30
0.0
 40
80.00000000000006
100
AcDbArc
 50
90.0
 51
180.0
  0
ARC
  5
2C1
330
1F
100
AcDbEntity
  8
0
  6
CONTINUOUS
 62
     7
100
AcDbCircle
 10
212.0868588071
 20
6867.7541323533
 30
0.0
 40
80.00000000000009
100
AcDbArc
 50
0.0
 51
90.0
  0
LINE
  5
2C2
330
1F
100
AcDbEntity
  8
0
  6
CONTINUOUS
 62
     7
100
AcDbLine
 10
-237.9131709952
 20
6947.7540965906
 30
0.0
 11
212.0868468862
 21
6947.7540965906
 31
0.0
  0
ARC
  5
2C3
330
1F
100
AcDbEntity
  8
0
  6
CONTINUOUS
 62
     7
100
AcDbCircle
 10
2512.0868588071
 20
6867.7541323533
 30
0.0
 40
80.00000000000045
100
AcDbArc
 50
0.0
 51
90.0
  0
LINE
  5
2C4
330
1F
100
AcDbEntity
  8
0
  6
CONTINUOUS
 62
     7
100
AcDbLine
 10
2062.086870728
 20
6947.7540965906
 30
0.0
 11
2512.0868886094
 21
6947.7540965906
 31
0.0
  0
CIRCLE
  5
2C5
330
1F
100
AcDbEntity
  8
0
  6
CONTINUOUS
 62
     7
100
AcDbCircle
 10
-12.9131411929
 20
6797.7541323533
 30
0.0
 40
60.0
  0
CIRCLE
  5
2C6
330
1F
100
AcDbEntity
  8
0
  6
CONTINUOUS
 62
     7
100
AcDbCircle
 10
2287.0868588071
 20
6797.7541323533
 30
0.0
 40
60.0
  0
LINE
  5
2C7
330
1F
100
AcDbEntity
  8
0
  6
CONTINUOUS
 62
     7
100
AcDbLine
 10
2592.0869017224
 20
6867.7540834775
 30
0.0
 11
2592.0869017224
 21
6497.754153215
 31
0.0
  0
LINE
  5
2C8
330
1F
100
AcDbEntity
  8
0
  6
CONTINUOUS
 62
     7
100
AcDbLine
 10
2592.0869017224
 20
4197.7541114917
 30
0.0
 11
2592.0869017224
 21
4076.7540748945
 31
0.0
  0
LINE
  5
2C9
330
1F
100
AcDbEntity
  8
0
  6
CONTINUOUS
 62
     7
100
AcDbLine
 10
2592.0869017224
 20
3998.7540956369
 30
0.0
 11
2592.0869017224
 21
3827.7541812292
 31
0.0
  0
LINE
  5
2CA
330
1F
100
AcDbEntity
  8
0
  6
CONTINUOUS
 62
     7
100
AcDbLine
 10
292.0868599992
 20
6867.7540834775
 30
0.0
 11
292.0868599992
 21
6677.7541454664
 31
0.0
  0
LINE
  5
2CB
330
1F
100
AcDbEntity
  8
0
  6
CONTINUOUS
 62
     7
100
AcDbLine
 10
292.0868599992
 20
4238.3629049888
 30
0.0
 11
292.0868599992
 21
3827.7541812292
 31
0.0
  0
LINE
  5
2CC
330
1F
100
AcDbEntity
  8
0
  6
CONTINUOUS
 62
     7
100
AcDbLine
 10
-317.9131841083
 20
3827.7541812292
 30
0.0
 11
-317.9131841083
 21
4197.7541114917
 31
0.0
  0
LINE
  5
2CD
330
1F
100
AcDbEntity
  8
0
  6
CONTINUOUS
 62
     7
100
AcDbLine
 10
-317.9131841083
 20
6497.754153215
 30
0.0
 11
-317.9131841083
 21
6867.7540834775
 31
0.0
  0
LINE
  5
2CE
330
1F
100
AcDbEntity
  8
0
  6
CONTINUOUS
 62
     7
100
AcDbLine
 10
1982.086857615
 20
3827.7541812292
 30
0.0
 11
1982.086857615
 21
3998.7540956369
 31
0.0
  0
LINE
  5
2CF
330
1F
100
AcDbEntity
  8
0
  6
CONTINUOUS
 62
     7
100
AcDbLine
 10
1982.086857615
 20
4076.7540748945
 30
0.0
 11
1982.086857615
 21
4197.7541114917
 31
0.0
  0
LINE
  5
2D0
330
1F
100
AcDbEntity
  8
0
  6
CONTINUOUS
 62
     7
100
AcDbLine
 10
1982.086857615
 20
6677.7541454664
 30
0.0
 11
1982.086857615
 21
6867.7540834775
 31
0.0
  0
CIRCLE
  5
2D1
330
1F
100
AcDbEntity
  8
0
  6
CONTINUOUS
 62
     7
100
AcDbCircle
 10
-12.9131411929
 20
3897.7541323533
 30
0.0
 40
60.0
  0
CIRCLE
  5
2D2
330
1F
100
AcDbEntity
  8
0
  6
CONTINUOUS
 62
     7
100
AcDbCircle
 10
2287.0868588071
 20
3897.7541323533
 30
0.0
 40
60.0
  0
ARC
  5
2D3
330
1F
100
AcDbEntity
  8
0
  6
CONTINUOUS
 62
     7
100
AcDbCircle
 10
212.0868588071
 20
3827.7541323533
 30
0.0
 40
80.00000000000006
100
AcDbArc
 50
270.0
 51
0.0
  0
ARC
  5
2D4
330
1F
100
AcDbEntity
  8
0
  6
CONTINUOUS
 62
     7
100
AcDbCircle
 10
2512.0868588071
 20
3827.7541323533
 30
0.0
 40
80.0
100
AcDbArc
 50
270.0
 51
0.0
  0
ARC
  5
2D5
330
1F
100
AcDbEntity
  8
0
  6
CONTINUOUS
 62
     7
100
AcDbCircle
 10
-237.9131411929
 20
3827.7541323533
 30
0.0
 40
80.00000000000009
100
AcDbArc
 50
180.0
 51
270.0
  0
ARC
  5
2D6
330
1F
100
AcDbEntity
  8
0
  6
CONTINUOUS
 62
     7
100
AcDbCircle
 10
2062.0868588071
 20
3827.7541323533
 30
0.0
 40
80.00000000000023
100
AcDbArc
 50
180.0
 51
270.0
  0
LINE
  5
2D7
330
1F
100
AcDbEntity
  8
0
  6
CONTINUOUS
 62
     7
100
AcDbLine
 10
2512.0868886094
 20
3747.7541681161
 30
0.0
 11
2062.086870728
 21
3747.7541681161
 31
0.0
  0
LINE
  5
2D8
330
1F
100
AcDbEntity
  8
0
  6
CONTINUOUS
 62
     7
100
AcDbLine
 10
212.0868468862
 20
3747.7541681161
 30
0.0
 11
-237.9131709952
 21
3747.7541681161
 31
0.0
  0
LINE
  5
2D9
330
1F
100
AcDbEntity
  8
0
  6
CONTINUOUS
 62
     7
100
AcDbLine
 10
1982.086857615
 20
3842.7541371217
 30
0.0
 11
1967.0868272166
 21
3842.7541371217
 31
0.0
  0
LINE
  5
2DA
330
1F
100
AcDbEntity
  8
0
  6
CONTINUOUS
 62
     7
100
AcDbLine
 10
1982.086857615
 20
3872.7541979185
 30
0.0
 11
1967.0868272166
 21
3872.7541979185
 31
0.0
  0
LINE
  5
2DB
330
1F
100
AcDbEntity
  8
0
  6
CONTINUOUS
 62
     7
100
AcDbLine
 10
292.0868599992
 20
3842.7541371217
 30
0.0
 11
307.0868903975
 21
3842.7541371217
 31
0.0
  0
LINE
  5
2DC
330
1F
100
AcDbEntity
  8
0
  6
CONTINUOUS
 62
     7
100
AcDbLine
 10
292.0868599992
 20
3872.7541979185
 30
0.0
 11
307.0868903975
 21
3872.7541979185
 31
0.0
  0
SPLINE
  5
2DD
330
1F
100
AcDbEntity
  8
0
  6
CONTINUOUS
 62
     5
100
AcDbSpline
210
0.0
220
0.0
230
1.0
 70
     8
 71
     3
 72
     8
 73
     4
 74
     0
 42
0.00000001
 43
0.00000001
 40
0.0
 40
0.0
 40
0.0
 40
0.0
 40
1.0
 40
1.0
 40
1.0
 40
1.0
 10
2897.086858807083
 20
4076.754132353346
 30
0.0
 10
2817.145655882963
 20
4044.333352604874
 30
0.0
 10
2961.668652120068
 20
4035.87930866108
 30
0.0
 10
2897.086858807083
 20
3998.754132353346
 30
0.0
  0
INSERT
  5
2E9
330
1F
100
AcDbEntity
  8
0
  6
CONTINUOUS
 62
     7
100
AcDbBlockReference
  2
SW_CENTERMARKSYMBOL_0
 10
-12.9131411929
 20
6797.7541323534
 30
0.0
  0
INSERT
  5
2F5
330
1F
100
AcDbEntity
  8
0
  6
CONTINUOUS
 62
     7
100
AcDbBlockReference
  2
SW_CENTERMARKSYMBOL_1
 10
2287.0868588071
 20
6797.7541323534
 30
0.0
  0
INSERT
  5
301
330
1F
100
AcDbEntity
  8
0
  6
CONTINUOUS
 62
     7
100
AcDbBlockReference
  2
SW_CENTERMARKSYMBOL_2
 10
2287.0868588071
 20
3897.7541323534
 30
0.0
  0
INSERT
  5
30D
330
1F
100
AcDbEntity
  8
0
  6
CONTINUOUS
 62
     7
100
AcDbBlockReference
  2
SW_CENTERMARKSYMBOL_3
 10
-12.9131411929
 20
3897.7541323534
 30
0.0
  0
LINE
  5
30E
330
1F
100
AcDbEntity
  8
0
  6
CENTERX2
 62
     7
100
AcDbLine
 10
-1132.9683978243
 20
5347.7541323533
 30
0.0
 11
3340.4896056833
 21
5347.7541323533
 31
0.0
  0
LINE
  5
30F
330
1F
100
AcDbEntity
  8
0
  6
CENTERX2
 62
     7
100
AcDbLine
 10
1137.0868588071
 20
7111.9232453613
 30
0.0
 11
1137.0868588071
 21
3441.6796464735
 31
0.0
  0
ENDSEC
  0
SECTION
  2
OBJECTS
  0
DICTIONARY
  5
C
330
0
100
AcDbDictionary
  3
ACAD_GROUP
350
D
  3
ACAD_MLINESTYLE
350
17
  0
DICTIONARY
  5
D
102
{ACAD_REACTORS
330
C
102
}
330
C
100
AcDbDictionary
  0
DICTIONARY
  5
17
102
{ACAD_REACTORS
330
C
102
}
330
C
100
AcDbDictionary
  3
STANDARD
350
18
  0
MLINESTYLE
  5
18
102
{ACAD_REACTORS
330
17
102
}
330
17
100
AcDbMlineStyle
  2
Standard
 70
     0
  3

 62
   256
 51
90.0
 52
90.0
 71
     2
 49
0.5
 62
   256
  6
BYLAYER
 49
-0.5
 62
   256
  6
BYLAYER
  0
ENDSEC
  0
EOF
