  0
SECTION
  2
HEADER
  9
$ACADVER
  1
AC1015
  9
$ACADMAINTVER
 70
     6
  9
$DWGCODEPAGE
  3
DOS932
  9
$INSBASE
 10
0.0
 20
0.0
 30
0.0
  9
$EXTMIN
 10
0.0
 20
0.0
 30
0.0
  9
$EXTMAX
 10
297.0
 20
210.0
 30
0.0
  9
$LIMMIN
 10
0.0
 20
0.0
  9
$LIMMAX
 10
297.0
 20
210.0
  9
$ORTHOMODE
 70
     0
  9
$REGENMODE
 70
     1
  9
$FILLMODE
 70
     1
  9
$QTEXTMODE
 70
     0
  9
$MIRRTEXT
 70
     1
  9
$LTSCALE
 40
1.0
  9
$ATTMODE
 70
     1
  9
$TEXTSIZE
 40
3.5
  9
$TRACEWID
 40
1.0
  9
$TEXTSTYLE
  7
Standard
  9
$CLAYER
  8
0
  9
$CELTYPE
  6
ByLayer
  9
$CECOLOR
 62
   256
  9
$CELTSCALE
 40
1.0
  9
$DISPSILH
 70
     0
  9
$DIMSCALE
 40
1.0
  9
$DIMASZ
 40
2.0
  9
$DIMEXO
 40
1.0
  9
$DIMDLI
 40
3.75
  9
$DIMRND
 40
0.0
  9
$DIMDLE
 40
0.0
  9
$DIMEXE
 40
1.0
  9
$DIMTP
 40
0.0
  9
$DIMTM
 40
0.0
  9
$DIMTXT
 40
2.7999999523
  9
$DIMCEN
 40
2.5
  9
$DIMTSZ
 40
0.0
  9
$DIMTOL
 70
     0
  9
$DIMLIM
 70
     0
  9
$DIMTIH
 70
     1
  9
$DIMTOH
 70
     1
  9
$DIMSE1
 70
     0
  9
$DIMSE2
 70
     0
  9
$DIMTAD
 70
     1
  9
$DIMZIN
 70
     1
  9
$DIMBLK
  1

  9
$DIMASO
 70
     1
  9
$DIMSHO
 70
     1
  9
$DIMPOST
  1

  9
$DIMAPOST
  1

  9
$DIMALT
 70
     0
  9
$DIMALTD
 70
     3
  9
$DIMALTF
 40
0.0393700787
  9
$DIMLFAC
 40
10.0
  9
$DIMTOFL
 70
     1
  9
$DIMTVP
 40
0.0
  9
$DIMTIX
 70
     0
  9
$DIMSOXD
 70
     0
  9
$DIMSAH
 70
     0
  9
$DIMBLK1
  1

  9
$DIMBLK2
  1

  9
$DIMSTYLE
  2
ISO-25
  9
$DIMCLRD
 70
     0
  9
$DIMCLRE
 70
     0
  9
$DIMCLRT
 70
     0
  9
$DIMTFAC
 40
1.0
  9
$DIMGAP
 40
1.524
  9
$DIMJUST
 70
     0
  9
$DIMSD1
 70
     0
  9
$DIMSD2
 70
     0
  9
$DIMTOLJ
 70
     0
  9
$DIMTZIN
 70
     1
  9
$DIMALTZ
 70
     0
  9
$DIMALTTZ
 70
     0
  9
$DIMUPT
 70
     0
  9
$DIMDEC
 70
     3
  9
$DIMTDEC
 70
     3
  9
$DIMALTU
 70
     2
  9
$DIMALTTD
 70
     3
  9
$DIMTXSTY
  7
Standard
  9
$DIMAUNIT
 70
     0
  9
$DIMADEC
 70
     0
  9
$DIMALTRND
 40
0.0
  9
$DIMAZIN
 70
     0
  9
$DIMDSEP
 70
    44
  9
$DIMATFIT
 70
     3
  9
$DIMFRAC
 70
     0
  9
$DIMLDRBLK
  1

  9
$DIMLUNIT
 70
     2
  9
$DIMLWD
 70
    -2
  9
$DIMLWE
 70
    -2
  9
$DIMTMOVE
 70
     0
  9
$LUNITS
 70
     2
  9
$LUPREC
 70
     3
  9
$SKETCHINC
 40
1.0
  9
$FILLETRAD
 40
10.0
  9
$AUNITS
 70
     0
  9
$AUPREC
 70
     0
  9
$MENU
  1
.
  9
$ELEVATION
 40
0.0
  9
$PELEVATION
 40
0.0
  9
$THICKNESS
 40
0.0
  9
$LIMCHECK
 70
     0
  9
$CHAMFERA
 40
10.0
  9
$CHAMFERB
 40
10.0
  9
$CHAMFERC
 40
20.0
  9
$CHAMFERD
 40
0.0
  9
$SKPOLY
 70
     0
  9
$TDCREATE
 40
2456703.789884977
  9
$TDUCREATE
 40
2456703.414884977
  9
$TDUPDATE
 40
2456703.78988787
  9
$TDUUPDATE
 40
2456703.41488787
  9
$TDINDWG
 40
0.0000000116
  9
$TDUSRTIMER
 40
0.0000000116
  9
$USRTIMER
 70
     1
  9
$ANGBASE
 50
0.0
  9
$ANGDIR
 70
     0
  9
$PDMODE
 70
     0
  9
$PDSIZE
 40
-1.0
  9
$PLINEWID
 40
0.0
  9
$SPLFRAME
 70
     0
  9
$SPLINETYPE
 70
     6
  9
$SPLINESEGS
 70
     8
  9
$HANDSEED
  5
3C9
  9
$SURFTAB1
 70
     6
  9
$SURFTAB2
 70
     6
  9
$SURFTYPE
 70
     6
  9
$SURFU
 70
     6
  9
$SURFV
 70
     6
  9
$UCSBASE
  2

  9
$UCSNAME
  2

  9
$UCSORG
 10
0.0
 20
0.0
 30
0.0
  9
$UCSXDIR
 10
1.0
 20
0.0
 30
0.0
  9
$UCSYDIR
 10
0.0
 20
1.0
 30
0.0
  9
$UCSORTHOREF
  2

  9
$UCSORTHOVIEW
 70
     0
  9
$UCSORGTOP
 10
0.0
 20
0.0
 30
0.0
  9
$UCSORGBOTTOM
 10
0.0
 20
0.0
 30
0.0
  9
$UCSORGLEFT
 10
0.0
 20
0.0
 30
0.0
  9
$UCSORGRIGHT
 10
0.0
 20
0.0
 30
0.0
  9
$UCSORGFRONT
 10
0.0
 20
0.0
 30
0.0
  9
$UCSORGBACK
 10
0.0
 20
0.0
 30
0.0
  9
$PUCSBASE
  2

  9
$PUCSNAME
  2

  9
$PUCSORG
 10
0.0
 20
0.0
 30
0.0
  9
$PUCSXDIR
 10
1.0
 20
0.0
 30
0.0
  9
$PUCSYDIR
 10
0.0
 20
1.0
 30
0.0
  9
$PUCSORTHOREF
  2

  9
$PUCSORTHOVIEW
 70
     0
  9
$PUCSORGTOP
 10
0.0
 20
0.0
 30
0.0
  9
$PUCSORGBOTTOM
 10
0.0
 20
0.0
 30
0.0
  9
$PUCSORGLEFT
 10
0.0
 20
0.0
 30
0.0
  9
$PUCSORGRIGHT
 10
0.0
 20
0.0
 30
0.0
  9
$PUCSORGFRONT
 10
0.0
 20
0.0
 30
0.0
  9
$PUCSORGBACK
 10
0.0
 20
0.0
 30
0.0
  9
$USERI1
 70
     0
  9
$USERI2
 70
     0
  9
$USERI3
 70
     0
  9
$USERI4
 70
     0
  9
$USERI5
 70
     0
  9
$USERR1
 40
0.0
  9
$USERR2
 40
0.0
  9
$USERR3
 40
0.0
  9
$USERR4
 40
0.0
  9
$USERR5
 40
0.0
  9
$WORLDVIEW
 70
     1
  9
$SHADEDGE
 70
     3
  9
$SHADEDIF
 70
    70
  9
$TILEMODE
 70
     1
  9
$MAXACTVP
 70
    64
  9
$PINSBASE
 10
0.0
 20
0.0
 30
0.0
  9
$PLIMCHECK
 70
     0
  9
$PEXTMIN
 10
1.0000000000E+20
 20
1.0000000000E+20
 30
1.0000000000E+20
  9
$PEXTMAX
 10
-1.0000000000E+20
 20
-1.0000000000E+20
 30
-1.0000000000E+20
  9
$PLIMMIN
 10
0.0
 20
0.0
  9
$PLIMMAX
 10
420.0
 20
297.0
  9
$UNITMODE
 70
     0
  9
$VISRETAIN
 70
     1
  9
$PLINEGEN
 70
     0
  9
$PSLTSCALE
 70
     1
  9
$TREEDEPTH
 70
  3020
  9
$CMLSTYLE
  2
Standard
  9
$CMLJUST
 70
     0
  9
$CMLSCALE
 40
20.0
  9
$PROXYGRAPHICS
 70
     1
  9
$MEASUREMENT
 70
     1
  9
$CELWEIGHT
370
    -1
  9
$ENDCAPS
280
     0
  9
$JOINSTYLE
280
     0
  9
$LWDISPLAY
290
     1
  9
$INSUNITS
 70
     4
  9
$HYPERLINKBASE
  1

  9
$STYLESHEET
  1

  9
$XEDIT
290
     1
  9
$CEPSNTYPE
380
     0
  9
$PSTYLEMODE
290
     1
  9
$FINGERPRINTGUID
  2
{D4FA7920-DE26-4F03-885E-ECC3F9D19C26}
  9
$VERSIONGUID
  2
{FAEB1C32-E019-11D5-929B-00C0DF256EC4}
  9
$EXTNAMES
290
     1
  9
$PSVPSCALE
 40
0.0
  9
$OLESTARTUP
290
     0
  0
ENDSEC
  0
SECTION
  2
CLASSES
  0
CLASS
  1
ACDBDICTIONARYWDFLT
  2
AcDbDictionaryWithDefault
  3
ObjectDBX Classes
 90
        0
280
     0
281
     0
  0
CLASS
  1
VISUALSTYLE
  2
AcDbVisualStyle
  3
ObjectDBX Classes
 90
     4095
280
     0
281
     0
  0
CLASS
  1
MATERIAL
  2
AcDbMaterial
  3
ObjectDBX Classes
 90
     1153
280
     0
281
     0
  0
CLASS
  1
ACDBPLACEHOLDER
  2
AcDbPlaceHolder
  3
ObjectDBX Classes
 90
        0
280
     0
281
     0
  0
CLASS
  1
LAYOUT
  2
AcDbLayout
  3
ObjectDBX Classes
 90
        0
280
     0
281
     0
  0
ENDSEC
  0
SECTION
  2
TABLES
  0
TABLE
  2
VPORT
  5
8
330
0
100
AcDbSymbolTable
 70
     1
  0
VPORT
  5
29
330
8
100
AcDbSymbolTableRecord
100
AcDbViewportTableRecord
  2
*Active
 70
     0
 10
0.0
 20
0.0
 11
1.0
 21
1.0
 12
148.5
 22
105.0
 13
0.0
 23
0.0
 14
10.0
 24
10.0
 15
10.0
 25
10.0
 16
0.0
 26
0.0
 36
1.0
 17
0.0
 27
0.0
 37
0.0
 40
210.0
 41
1.4142857143
 42
50.0
 43
0.0
 44
0.0
 50
0.0
 51
0.0
 71
     0
 72
  2000
 73
     1
 74
     3
 75
     0
 76
     0
 77
     0
 78
     0
281
     0
 65
     1
110
0.0
120
0.0
130
0.0
111
1.0
121
0.0
131
0.0
112
0.0
122
1.0
132
0.0
 79
     0
146
0.0
  0
ENDTAB
  0
TABLE
  2
LTYPE
  5
5
330
0
100
AcDbSymbolTable
 70
     6
  0
LTYPE
  5
14
330
5
100
AcDbSymbolTableRecord
100
AcDbLinetypeTableRecord
  2
ByBlock
 70
     0
  3

 72
    65
 73
     0
 40
0.0
  0
LTYPE
  5
15
330
5
100
AcDbSymbolTableRecord
100
AcDbLinetypeTableRecord
  2
ByLayer
 70
     0
  3

 72
    65
 73
     0
 40
0.0
  0
LTYPE
  5
16
330
5
100
AcDbSymbolTableRecord
100
AcDbLinetypeTableRecord
  2
Continuous
 70
     0
  3
Solid line
 72
    65
 73
     0
 40
0.0
  0
LTYPE
  5
3F
330
5
100
AcDbSymbolTableRecord
100
AcDbLinetypeTableRecord
  2
HIDDEN
 70
     0
  3
Hidden __ __ __ __ __ __ __ __ __ __ __ __ __ __
 72
    65
 73
     2
 40
1.905
 49
1.27
 74
     0
 49
-0.635
 74
     0
  0
LTYPE
  5
40
330
5
100
AcDbSymbolTableRecord
100
AcDbLinetypeTableRecord
  2
PHANTOM
 70
     0
  3
Phantom ______  __  __  ______  __  __  ______
 72
    65
 73
     6
 40
12.7
 49
6.35
 74
     0
 49
-1.27
 74
     0
 49
1.27
 74
     0
 49
-1.27
 74
     0
 49
1.27
 74
     0
 49
-1.27
 74
     0
  0
LTYPE
  5
41
330
5
100
AcDbSymbolTableRecord
100
AcDbLinetypeTableRecord
  2
CENTER
 70
     0
  3
Center ____ _ ____ _ ____ _ ____ _ ____ _ ____
 72
    65
 73
     4
 40
10.16
 49
6.35
 74
     0
 49
-1.27
 74
     0
 49
1.27
 74
     0
 49
-1.27
 74
     0
  0
LTYPE
  5
42
330
5
100
AcDbSymbolTableRecord
100
AcDbLinetypeTableRecord
  2
CENTERX2
 70
     0
  3
Center (2x) ________  __  ________  __  _____
 72
    65
 73
     4
 40
20.32
 49
12.7
 74
     0
 49
-2.54
 74
     0
 49
2.54
 74
     0
 49
-2.54
 74
     0
  0
LTYPE
  5
43
330
5
100
AcDbSymbolTableRecord
100
AcDbLinetypeTableRecord
  2
DOT2
 70
     0
  3
Dot (.5x) ........................................
 72
    65
 73
     2
 40
0.635
 49
0.0
 74
     0
 49
-0.635
 74
     0
  0
ENDTAB
  0
TABLE
  2
LAYER
  5
2
330
0
100
AcDbSymbolTable
 70
     2
  0
LAYER
  5
10
330
2
100
AcDbSymbolTableRecord
100
AcDbLayerTableRecord
  2
0
 70
     0
 62
     7
  6
Continuous
370
    -3
390
F
  0
LAYER
  5
44
330
2
100
AcDbSymbolTableRecord
100
AcDbLayerTableRecord
  2
SLD-0
 70
     0
 62
     3
  6
Continuous
370
    -3
390
F
  0
ENDTAB
  0
TABLE
  2
STYLE
  5
3
330
0
100
AcDbSymbolTable
 70
     1
  0
STYLE
  5
11
330
3
100
AcDbSymbolTableRecord
100
AcDbTextStyleTableRecord
  2
Standard
 70
     0
 40
0.0
 41
1.0
 50
0.0
 71
     0
 42
3.5
  3
txt
  4
bigfont
  0
ENDTAB
  0
TABLE
  2
VIEW
  5
6
330
0
100
AcDbSymbolTable
 70
     0
  0
ENDTAB
  0
TABLE
  2
UCS
  5
7
330
0
100
AcDbSymbolTable
 70
     0
  0
ENDTAB
  0
TABLE
  2
APPID
  5
9
330
0
100
AcDbSymbolTable
 70
     1
  0
APPID
  5
12
330
9
100
AcDbSymbolTableRecord
100
AcDbRegAppTableRecord
  2
ACAD
 70
     0
  0
ENDTAB
  0
TABLE
  2
DIMSTYLE
  5
A
330
0
100
AcDbSymbolTable
 70
     1
100
AcDbDimStyleTable
  0
DIMSTYLE
105
27
330
A
100
AcDbSymbolTableRecord
100
AcDbDimStyleTableRecord
  2
ISO-25
 70
     0
 41
2.5
 42
0.625
 43
3.75
 44
1.25
 73
     0
 74
     0
 77
     1
 78
     8
140
2.5
141
2.5
143
0.0393700787
147
0.625
171
     3
172
     1
178
     0
271
     2
272
     2
274
     3
278
    44
283
     0
284
     8
340
11
  0
ENDTAB
  0
TABLE
  2
BLOCK_RECORD
  5
1
330
0
100
AcDbSymbolTable
 70
     1
  0
BLOCK_RECORD
  5
1F
330
1
100
AcDbSymbolTableRecord
100
AcDbBlockTableRecord
  2
*Model_Space
340
22
  0
BLOCK_RECORD
  5
1B
330
1
100
AcDbSymbolTableRecord
100
AcDbBlockTableRecord
  2
*Paper_Space
340
1E
  0
BLOCK_RECORD
  5
23
330
1
100
AcDbSymbolTableRecord
100
AcDbBlockTableRecord
  2
*Paper_Space0
340
26
  0
ENDTAB
  0
ENDSEC
  0
SECTION
  2
BLOCKS
  0
BLOCK
  5
20
330
1F
100
AcDbEntity
  8
0
100
AcDbBlockBegin
  2
*Model_Space
 70
     0
 10
0.0
 20
0.0
 30
0.0
  3
*Model_Space
  1

  0
ENDBLK
  5
21
330
1F
100
AcDbEntity
  8
0
100
AcDbBlockEnd
  0
BLOCK
  5
1C
330
1B
100
AcDbEntity
 67
     1
  8
0
100
AcDbBlockBegin
  2
*Paper_Space
 70
     0
 10
0.0
 20
0.0
 30
0.0
  3
*Paper_Space
  1

  0
ENDBLK
  5
1D
330
1B
100
AcDbEntity
 67
     1
  8
0
100
AcDbBlockEnd
  0
BLOCK
  5
24
330
23
100
AcDbEntity
  8
0
100
AcDbBlockBegin
  2
*Paper_Space0
 70
     0
 10
0.0
 20
0.0
 30
0.0
  3
*Paper_Space0
  1

  0
ENDBLK
  5
25
330
23
100
AcDbEntity
  8
0
100
AcDbBlockEnd
  0
ENDSEC
  0
SECTION
  2
ENTITIES
  0
LINE
  5
45
330
1F
100
AcDbEntity
  8
0
  6
Continuous
 62
     7
370
    15
100
AcDbLine
 10
68.1154231385
 20
216.8513308662
 30
0.0
 11
68.1154231385
 21
68.3514695066
 31
0.0
  0
LINE
  5
46
330
1F
100
AcDbEntity
  8
0
  6
Continuous
 62
     7
370
    15
100
AcDbLine
 10
447.5154380158
 20
181.6548402804
 30
0.0
 11
447.5154380158
 21
216.8513308662
 31
0.0
  0
LINE
  5
47
330
1F
100
AcDbEntity
  8
0
  6
Continuous
 62
     7
370
    15
100
AcDbLine
 10
447.5154380158
 20
68.3514695066
 30
0.0
 11
447.5154380158
 21
111.0480982262
 31
0.0
  0
SPLINE
  5
48
330
1F
100
AcDbEntity
  8
0
  6
Continuous
 62
     7
370
    15
100
AcDbSpline
210
0.0
220
0.0
230
1.0
 70
     8
 71
     3
 72
    12
 73
     8
 74
     0
 42
0.00000001
 43
0.00000001
 12
1.0
 22
0.0
 32
0.0
 13
1.0
 23
0.0
 33
0.0
 40
0.0
 40
0.0
 40
0.0
 40
0.0
 40
0.072360798820691
 40
0.4570244645494819
 40
0.7458784311627182
 40
0.9520929169665148
 40
1.0
 40
1.0
 40
1.0
 40
1.0
 10
444.5088605240358
 20
154.5724491971823
 30
0.0
 10
444.5084451670957
 20
154.9285996448125
 30
0.0
 10
444.5058218090585
 20
157.1780146634413
 30
0.0
 10
444.5069947482859
 20
160.7559466311039
 30
0.0
 10
444.6289774818766
 20
164.9656278955258
 30
0.0
 10
444.8080152039322
 20
167.5264064239446
 30
0.0
 10
444.9949512952012
 20
168.650740247115
 30
0.0
 10
445.0301925495637
 20
168.8627000349852
 30
0.0
  0
SPLINE
  5
49
330
1F
100
AcDbEntity
  8
0
  6
Continuous
 62
     7
370
    15
100
AcDbSpline
210
0.0
220
0.0
230
1.0
 70
     8
 71
     3
 72
    12
 73
     8
 74
     0
 42
0.00000001
 43
0.00000001
 12
1.0
 22
0.0
 32
0.0
 13
1.0
 23
0.0
 33
0.0
 40
0.0
 40
0.0
 40
0.0
 40
0.0
 40
0.1246095742522277
 40
0.3364862042820303
 40
0.6127894762540383
 40
0.9448825297957477
 40
1.0
 40
1.0
 40
1.0
 40
1.0
 10
445.0361679152024
 20
123.8428238231035
 30
0.0
 10
444.953426271684
 20
124.4345999536258
 30
0.0
 10
444.7299970389731
 20
126.0325871479411
 30
0.0
 10
444.5726420950742
 20
129.059444082067
 30
0.0
 10
444.4834258708318
 20
133.1984009623873
 30
0.0
 10
444.4556730765673
 20
136.49867881593
 30
0.0
 10
444.4657478787647
 20
138.4876530961709
 30
0.0
 10
444.4671819761766
 20
138.7707735794874
 30
0.0
  0
SPLINE
  5
4A
330
1F
100
AcDbEntity
  8
0
  6
Continuous
 62
     7
370
    15
100
AcDbSpline
210
0.0
220
0.0
230
1.0
 70
     8
 71
     3
 72
    11
 73
     7
 74
     0
 42
0.00000001
 43
0.00000001
 12
1.0
 22
0.0
 32
0.0
 13
1.0
 23
0.0
 33
0.0
 40
0.0
 40
0.0
 40
0.0
 40
0.0
 40
0.1490233033352657
 40
0.4061361838782405
 40
0.6895354724322408
 40
1.0
 40
1.0
 40
1.0
 40
1.0
 10
445.0093160227311
 20
168.8614557880255
 30
0.0
 10
445.0605646128228
 20
169.2323877565147
 30
0.0
 10
445.2002334185945
 20
170.2432960560157
 30
0.0
 10
445.4524503245812
 20
171.7221028030652
 30
0.0
 10
445.762994304057
 20
173.3832753035315
 30
0.0
 10
445.9704410325608
 20
174.3871679143623
 30
0.0
 10
446.0788915709032
 20
174.9119903344007
 30
0.0
  0
SPLINE
  5
4B
330
1F
100
AcDbEntity
  8
0
  6
Continuous
 62
     7
370
    15
100
AcDbSpline
210
0.0
220
0.0
230
1.0
 70
     8
 71
     3
 72
    12
 73
     8
 74
     0
 42
0.00000001
 43
0.00000001
 12
1.0
 22
0.0
 32
0.0
 13
1.0
 23
0.0
 33
0.0
 40
0.0
 40
0.0
 40
0.0
 40
0.0
 40
0.0149111752637224
 40
0.3681940260084685
 40
0.7052855195020302
 40
0.9513817480678435
 40
1.0
 40
1.0
 40
1.0
 40
1.0
 10
446.056361015178
 20
117.8991194266172
 30
0.0
 10
446.051546674116
 20
117.9221511633162
 30
0.0
 10
445.932668612066
 20
118.4908620604235
 30
0.0
 10
445.6745831795561
 20
119.7734041184857
 30
0.0
 10
445.3399501773693
 20
121.5851249719649
 30
0.0
 10
445.1128125341953
 20
122.9427692034733
 30
0.0
 10
445.0174356039635
 20
123.6796317537963
 30
0.0
 10
445.0017015293611
 20
123.8011899787279
 30
0.0
  0
SPLINE
  5
4C
330
1F
100
AcDbEntity
  8
0
  6
Continuous
 62
     7
370
    15
100
AcDbSpline
210
0.0
220
0.0
230
1.0
 70
     8
 71
     3
 72
    16
 73
    12
 74
     0
 42
0.00000001
 43
0.00000001
 12
1.0
 22
0.0
 32
0.0
 13
1.0
 23
0.0
 33
0.0
 40
0.0
 40
0.0
 40
0.0
 40
0.0
 40
0.0462986624825592
 40
0.0839352922073303
 40
0.1166116023733947
 40
0.1628878780492153
 40
0.2396457701795589
 40
0.3715625505857332
 40
0.615449224258323
 40
0.9447296263551085
 40
1.0
 40
1.0
 40
1.0
 40
1.0
 10
447.5101034000886
 20
111.0580410260054
 30
0.0
 10
447.5015176189181
 20
111.2264349448494
 30
0.0
 10
447.4859523733425
 20
111.5317179060892
 30
0.0
 10
447.434971038541
 20
111.8723677071981
 30
0.0
 10
447.3933630406277
 20
112.0991659270061
 30
0.0
 10
447.3526512751687
 20
112.2854765446436
 30
0.0
 10
447.31013205451
 20
112.461432855706
 30
0.0
 10
447.2292849295554
 20
112.7613371293649
 30
0.0
 10
447.1434979396379
 20
113.0577874799793
 30
0.0
 10
447.0454001288167
 20
113.3912903715666
 30
0.0
 10
446.9558247191183
 20
113.7322036719516
 30
0.0
 10
446.9429503038896
 20
113.7812021571489
 30
0.0
  0
SPLINE
  5
4D
330
1F
100
AcDbEntity
  8
0
  6
Continuous
 62
     7
370
    15
100
AcDbSpline
210
0.0
220
0.0
230
1.0
 70
     8
 71
     3
 72
    15
 73
    11
 74
     0
 42
0.00000001
 43
0.00000001
 12
1.0
 22
0.0
 32
0.0
 13
1.0
 23
0.0
 33
0.0
 40
0.0
 40
0.0
 40
0.0
 40
0.0
 40
0.0011605626059345
 40
0.0982183540017527
 40
0.2395423204458772
 40
0.4118807548332358
 40
0.5948215682701098
 40
0.7775184887975471
 40
0.956977798523961
 40
1.0
 40
1.0
 40
1.0
 40
1.0
 10
447.2083548859132
 20
112.7717304426523
 30
0.0
 10
447.2084402875219
 20
112.7714565999903
 30
0.0
 10
447.2156678213036
 20
112.7482813095014
 30
0.0
 10
447.1828988237579
 20
112.8562136099087
 30
0.0
 10
447.1088942578175
 20
113.1270267397164
 30
0.0
 10
446.9540639039615
 20
113.7267095299343
 30
0.0
 10
446.7338177519996
 20
114.6408404717703
 30
0.0
 10
446.4555791917384
 20
115.8899405272995
 30
0.0
 10
446.2237247045421
 20
116.9733972456565
 30
0.0
 10
446.0779740337455
 20
117.7258373712469
 30
0.0
 10
446.0497896030916
 20
117.8713399368616
 30
0.0
  0
SPLINE
  5
4E
330
1F
100
AcDbEntity
  8
0
  6
Continuous
 62
     7
370
    15
100
AcDbSpline
210
0.0
220
0.0
230
1.0
 70
     8
 71
     3
 72
    18
 73
    14
 74
     0
 42
0.00000001
 43
0.00000001
 12
1.0
 22
0.0
 32
0.0
 13
1.0
 23
0.0
 33
0.0
 40
0.0
 40
0.0
 40
0.0
 40
0.0
 40
0.0239846205431501
 40
0.1628766217189052
 40
0.3080575085147185
 40
0.4602157325665324
 40
0.6203529382613703
 40
0.7924320000913097
 40
0.9062383806383282
 40
0.937455656528313
 40
0.9632679243253335
 40
0.983600654775848
 40
1.0
 40
1.0
 40
1.0
 40
1.0
 10
446.04590040002
 20
175.0442008870932
 30
0.0
 10
446.0639864712483
 20
175.1376304723364
 30
0.0
 10
446.1868067667181
 20
175.7720993473241
 30
0.0
 10
446.3967394026763
 20
176.7142956385837
 30
0.0
 10
446.6667572983963
 20
177.8709140547251
 30
0.0
 10
446.9014415095316
 20
178.7801673978847
 30
0.0
 10
447.0956270922183
 20
179.4827174443688
 30
0.0
 10
447.2120407458734
 20
179.8818887635744
 30
0.0
 10
447.3087637481106
 20
180.2302314157521
 30
0.0
 10
447.3830229446752
 20
180.5495400459353
 30
0.0
 10
447.4389508314845
 20
180.8501081429365
 30
0.0
 10
447.4957930582358
 20
181.2487604037437
 30
0.0
 10
447.499824685395
 20
181.5233767530362
 30
0.0
 10
447.5016246393693
 20
181.645981540093
 30
0.0
  0
LINE
  5
4F
330
1F
100
AcDbEntity
  8
0
  6
Continuous
 62
     7
370
    15
100
AcDbLine
 10
108.9674482897
 20
290.3081993955
 30
0.0
 11
105.8232883767
 21
289.8112903732
 31
0.0
  0
LINE
  5
50
330
1F
100
AcDbEntity
  8
0
  6
Continuous
 62
     7
370
    15
100
AcDbLine
 10
105.8232883767
 20
276.8916408914
 30
0.0
 11
108.9674482897
 21
276.3947318691
 31
0.0
  0
LINE
  5
51
330
1F
100
AcDbEntity
  8
0
  6
Continuous
 62
     7
370
    15
100
AcDbLine
 10
194.6070740775
 20
103.7384118337
 30
0.0
 11
190.7720441774
 21
91.2787686485
 31
0.0
  0
LINE
  5
52
330
1F
100
AcDbEntity
  8
0
  6
Continuous
 62
     7
370
    15
100
AcDbLine
 10
186.3898361877
 20
113.49321114
 30
0.0
 11
194.6062619642
 21
103.735759427
 31
0.0
  0
ARC
  5
53
330
1F
100
AcDbEntity
  8
0
  6
Continuous
 62
     7
370
    15
100
AcDbCircle
 10
192.264029936
 20
88.8840371427
 30
0.0
 40
1.0
100
AcDbArc
 50
191.1668538591
 51
270.0
  0
LINE
  5
54
330
1F
100
AcDbEntity
  8
0
  6
Continuous
 62
     7
370
    15
100
AcDbLine
 10
190.7720367268
 20
91.2785954225
 30
0.0
 11
191.2829602912
 21
88.6903698939
 31
0.0
  0
LINE
  5
55
330
1F
100
AcDbEntity
  8
0
  6
Continuous
 62
     7
370
    15
100
AcDbLine
 10
192.2640303925
 20
87.8840363968
 30
0.0
 11
193.2900870994
 21
87.8840363968
 31
0.0
  0
ARC
  5
56
330
1F
100
AcDbEntity
  8
0
  6
Continuous
 62
     7
370
    15
100
AcDbCircle
 10
188.7702604007
 20
116.7141471762
 30
0.0
 40
1.0
100
AcDbArc
 50
90.0
 51
102.6015671274
  0
LINE
  5
57
330
1F
100
AcDbEntity
  8
0
  6
Continuous
 62
     7
370
    15
100
AcDbLine
 10
188.5520915345
 20
117.6900561351
 30
0.0
 11
186.6366143182
 21
117.2618414658
 31
0.0
  0
LINE
  5
58
330
1F
100
AcDbEntity
  8
0
  6
Continuous
 62
     7
370
    15
100
AcDbLine
 10
185.873712118
 20
116.0922642249
 30
0.0
 11
186.384643133
 21
113.5040405589
 31
0.0
  0
LINE
  5
59
330
1F
100
AcDbEntity
  8
0
  6
Continuous
 62
     7
370
    15
100
AcDbLine
 10
195.268640931
 20
117.7141475874
 30
0.0
 11
188.7702594355
 21
117.7141475874
 31
0.0
  0
ARC
  5
5A
330
1F
100
AcDbEntity
  8
0
  6
Continuous
 62
     7
370
    15
100
AcDbCircle
 10
186.8547805776
 20
116.285931699
 30
0.0
 40
0.9999999999999892
100
AcDbArc
 50
102.6015671274
 51
191.1668538591
  0
LINE
  5
5B
330
1F
100
AcDbEntity
  8
0
  6
Continuous
 62
     7
370
    15
100
AcDbLine
 10
193.2900870994
 20
87.8840363968
 30
0.0
 11
193.2872782305
 21
87.8841742325
 31
0.0
  0
ARC
  5
5C
330
1F
100
AcDbEntity
  8
0
  6
Continuous
 62
     7
370
    15
100
AcDbCircle
 10
179.3131109229
 20
85.988791837
 30
0.0
 40
1.000000000000029
100
AcDbArc
 50
220.0996160531
 51
270.0
  0
LINE
  5
5D
330
1F
100
AcDbEntity
  8
0
  6
Continuous
 62
     7
370
    15
100
AcDbLine
 10
168.4103633121
 20
97.3838898736
 30
0.0
 11
178.5481820658
 21
85.3446736384
 31
0.0
  0
LINE
  5
5E
330
1F
100
AcDbEntity
  8
0
  6
Continuous
 62
     7
370
    15
100
AcDbLine
 10
179.313110824
 20
84.9887910682
 30
0.0
 11
185.8114923194
 21
84.9887910682
 31
0.0
  0
ARC
  5
5F
330
1F
100
AcDbEntity
  8
0
  6
Continuous
 62
     7
370
    15
100
AcDbCircle
 10
175.8193413875
 20
113.8189018705
 30
0.0
 40
1.0
100
AcDbArc
 50
90.0
 51
102.6015671274
  0
LINE
  5
60
330
1F
100
AcDbEntity
  8
0
  6
Continuous
 62
     7
370
    15
100
AcDbLine
 10
172.9481096223
 20
113.6848624247
 30
0.0
 11
168.2195390419
 21
98.3221861917
 31
0.0
  0
LINE
  5
61
330
1F
100
AcDbEntity
  8
0
  6
Continuous
 62
     7
370
    15
100
AcDbLine
 10
175.6011719659
 20
114.7948126692
 30
0.0
 11
173.6856947497
 21
114.3665979999
 31
0.0
  0
LINE
  5
62
330
1F
100
AcDbEntity
  8
0
  6
Continuous
 62
     7
370
    15
100
AcDbLine
 10
176.8454040245
 20
114.8189003962
 30
0.0
 11
175.819339867
 21
114.8189003962
 31
0.0
  0
ARC
  5
63
330
1F
100
AcDbEntity
  8
0
  6
Continuous
 62
     7
370
    15
100
AcDbCircle
 10
173.9038615644
 20
113.3906863933
 30
0.0
 40
1.000000000000002
100
AcDbArc
 50
102.6015671274
 51
162.8918302481
  0
LINE
  5
64
330
1F
100
AcDbEntity
  8
0
  6
Continuous
 62
     7
370
    15
100
AcDbLine
 10
185.9576801613
 20
116.7277614969
 30
0.0
 11
179.150509353
 21
115.2059841353
 31
0.0
  0
ARC
  5
65
330
1F
100
AcDbEntity
  8
0
  6
Continuous
 62
     7
370
    15
100
AcDbCircle
 10
169.1752868255
 20
98.0280087237
 30
0.0
 40
1.000000000000002
100
AcDbArc
 50
162.8918302481
 51
191.1668538591
  0
ARC
  5
66
330
1F
100
AcDbEntity
  8
0
  6
Continuous
 62
     7
370
    15
100
AcDbCircle
 10
169.1752868255
 20
98.0280087237
 30
0.0
 40
1.000000000000002
100
AcDbArc
 50
191.1668538591
 51
220.0996160531
  0
LINE
  5
67
330
1F
100
AcDbEntity
  8
0
  6
Continuous
 62
     7
370
    15
100
AcDbLine
 10
446.1406866864
 20
121.349751522
 30
0.0
 11
449.3406812504
 21
121.349751522
 31
0.0
  0
LINE
  5
68
330
1F
100
AcDbEntity
  8
0
  6
Continuous
 62
     7
370
    15
100
AcDbLine
 10
449.3406812504
 20
171.35319071
 30
0.0
 11
446.1406866864
 21
171.35319071
 31
0.0
  0
ARC
  5
69
330
1F
100
AcDbEntity
  8
0
  6
Continuous
 62
     7
370
    15
100
AcDbCircle
 10
449.3406874126
 20
122.3497509
 30
0.0
 40
1.0
100
AcDbArc
 50
270.0
 51
0.0
  0
ARC
  5
6A
330
1F
100
AcDbEntity
  8
0
  6
Continuous
 62
     7
370
    15
100
AcDbCircle
 10
449.3406874126
 20
170.3531881133
 30
0.0
 40
1.000000000000028
100
AcDbArc
 50
0.0
 51
90.0
  0
LINE
  5
6B
330
1F
100
AcDbEntity
  8
0
  6
Continuous
 62
     7
370
    15
100
AcDbLine
 10
445.7406948164
 20
122.3514709073
 30
0.0
 11
446.1406866864
 21
122.3514709073
 31
0.0
  0
LINE
  5
6C
330
1F
100
AcDbEntity
  8
0
  6
Continuous
 62
     7
370
    15
100
AcDbLine
 10
446.1406866864
 20
170.3514675993
 30
0.0
 11
445.7406948164
 21
170.3514675993
 31
0.0
  0
LINE
  5
6D
330
1F
100
AcDbEntity
  8
0
  6
Continuous
 62
     7
370
    15
100
AcDbLine
 10
48.7154374674
 20
269.8513190645
 30
0.0
 11
48.8201628283
 21
263.8513218063
 31
0.0
  0
LINE
  5
6E
330
1F
100
AcDbEntity
  8
0
  6
Continuous
 62
     7
370
    15
100
AcDbLine
 10
466.810698326
 20
263.8513218063
 30
0.0
 11
466.9111470536
 21
269.6061502594
 31
0.0
  0
ARC
  5
6F
330
1F
100
AcDbEntity
  8
0
  6
Continuous
 62
     7
370
    15
100
AcDbCircle
 10
13.0015678893
 20
246.0460329859
 30
0.0
 40
39.99999999999997
100
AcDbArc
 50
1.0
 51
26.4318020975
  0
ARC
  5
70
330
1F
100
AcDbEntity
  8
0
  6
Continuous
 62
     7
370
    15
100
AcDbCircle
 10
502.629293265
 20
246.0460329859
 30
0.0
 40
40.00000000000003
100
AcDbArc
 50
153.5681979025
 51
179.0
  0
LINE
  5
71
330
1F
100
AcDbEntity
  8
0
  6
Continuous
 62
     7
370
    15
100
AcDbLine
 10
52.995483096
 20
246.7441331047
 30
0.0
 11
53.1696776703
 21
236.764065494
 31
0.0
  0
LINE
  5
72
330
1F
100
AcDbEntity
  8
0
  6
Continuous
 62
     7
370
    15
100
AcDbLine
 10
462.4611834839
 20
236.764065494
 30
0.0
 11
462.6353780583
 21
246.7441331047
 31
0.0
  0
ARC
  5
73
330
1F
100
AcDbEntity
  8
0
  6
Continuous
 62
     7
370
    15
100
AcDbCircle
 10
457.4619442616
 20
236.851324052
 30
0.0
 40
5.000000000000009
100
AcDbArc
 50
331.6935716211
 51
359.0
  0
ARC
  5
74
330
1F
100
AcDbEntity
  8
0
  6
Continuous
 62
     7
370
    15
100
AcDbCircle
 10
58.1689168927
 20
236.851324052
 30
0.0
 40
5.00000000000003
100
AcDbArc
 50
181.0
 51
208.3064283789
  0
LINE
  5
75
330
1F
100
AcDbEntity
  8
0
  6
Continuous
 62
     7
370
    15
100
AcDbLine
 10
62.0046059445
 20
219.1852103371
 30
0.0
 11
62.9784266308
 21
217.3771332401
 31
0.0
  0
LINE
  5
76
330
1F
100
AcDbEntity
  8
0
  6
Continuous
 62
     7
370
    15
100
AcDbLine
 10
53.7667970017
 20
234.4803880352
 30
0.0
 11
59.1238389567
 21
224.5339374441
 31
0.0
  0
LINE
  5
77
330
1F
100
AcDbEntity
  8
0
  6
Continuous
 62
     7
370
    15
100
AcDbLine
 10
456.501329954
 20
224.523387422
 30
0.0
 11
461.8640641526
 21
234.4803880352
 31
0.0
  0
LINE
  5
78
330
1F
100
AcDbEntity
  8
0
  6
Continuous
 62
     7
370
    15
100
AcDbLine
 10
452.6524345234
 20
217.3771332401
 30
0.0
 11
453.6270747736
 21
219.1867451567
 31
0.0
  0
ARC
  5
79
330
1F
100
AcDbEntity
  8
0
  6
Continuous
 62
     7
370
    15
100
AcDbCircle
 10
451.7720130887
 20
217.851324052
 30
0.0
 40
1.0
100
AcDbArc
 50
270.0
 51
331.6935716211
  0
ARC
  5
7A
330
1F
100
AcDbEntity
  8
0
  6
Continuous
 62
     7
370
    15
100
AcDbCircle
 10
63.8588480656
 20
217.851324052
 30
0.0
 40
1.0
100
AcDbArc
 50
208.3064283789
 51
270.0
  0
LINE
  5
7B
330
1F
100
AcDbEntity
  8
0
  6
Continuous
 62
     7
370
    15
100
AcDbLine
 10
466.9215927676
 20
269.6061502594
 30
0.0
 11
466.5272335366
 21
292.1986799139
 31
0.0
  0
ARC
  5
7C
330
1F
100
AcDbEntity
  8
0
  6
Continuous
 62
     7
370
    15
100
AcDbCircle
 10
465.5273883277
 20
292.1812259489
 30
0.0
 40
1.000000000000012
100
AcDbArc
 50
1.0
 51
45.0
  0
LINE
  5
7D
330
1F
100
AcDbEntity
  8
0
  6
Continuous
 62
     7
370
    15
100
AcDbLine
 10
466.2345002249
 20
292.8883354563
 30
0.0
 11
464.8058811978
 21
294.3169544834
 31
0.0
  0
ARC
  5
7E
330
1F
100
AcDbEntity
  8
0
  6
Continuous
 62
     7
370
    15
100
AcDbCircle
 10
465.5129812582
 20
295.0240601431
 30
0.0
 40
1.000000000000014
100
AcDbArc
 50
181.0
 51
225.0
  0
LINE
  5
7F
330
1F
100
AcDbEntity
  8
0
  6
Continuous
 62
     7
370
    15
100
AcDbLine
 10
464.513132985
 20
295.0066100258
 30
0.0
 11
463.5600994185
 21
349.6061484712
 31
0.0
  0
LINE
  5
80
330
1F
100
AcDbEntity
  8
0
  6
Continuous
 62
     7
370
    15
100
AcDbLine
 10
52.0707617358
 20
349.6061484712
 30
0.0
 11
52.0259390429
 21
347.0377545256
 31
0.0
  0
LINE
  5
81
330
1F
100
AcDbEntity
  8
0
  6
Continuous
 62
     7
370
    15
100
AcDbLine
 10
463.5600994185
 20
349.6061484712
 30
0.0
 11
454.3887327269
 21
524.6061603922
 31
0.0
  0
LINE
  5
82
330
1F
100
AcDbEntity
  8
0
  6
Continuous
 62
     7
370
    15
100
AcDbLine
 10
61.2421284274
 20
524.6061603922
 30
0.0
 11
52.0707617358
 21
349.6061484712
 31
0.0
  0
LINE
  5
83
330
1F
100
AcDbEntity
  8
0
  6
Continuous
 62
     7
370
    15
100
AcDbLine
 10
454.3887327269
 20
524.6061603922
 30
0.0
 11
453.4420470551
 21
578.8415293592
 31
0.0
  0
LINE
  5
84
330
1F
100
AcDbEntity
  8
0
  6
Continuous
 62
     7
370
    15
100
AcDbLine
 10
62.1888140992
 20
578.8415293592
 30
0.0
 11
61.2421284274
 21
524.6061603922
 31
0.0
  0
ARC
  5
85
330
1F
100
AcDbEntity
  8
0
  6
Continuous
 62
     7
370
    15
100
AcDbCircle
 10
438.4443359407
 20
578.5797545549
 30
0.0
 40
14.99999999999994
100
AcDbArc
 50
1.0
 51
83.0134913609
  0
ARC
  5
86
330
1F
100
AcDbEntity
  8
0
  6
Continuous
 62
     7
370
    15
100
AcDbCircle
 10
77.1865252136
 20
578.5797545549
 30
0.0
 40
14.99999999999994
100
AcDbArc
 50
96.9865086391
 51
179.0
  0
ARC
  5
87
330
1F
100
AcDbEntity
  8
0
  6
Continuous
 62
     7
370
    15
100
AcDbCircle
 10
257.8154305771
 20
-895.3938539426
 30
0.0
 40
1500.0
100
AcDbArc
 50
90.3055789394
 51
96.9865086391
  0
ARC
  5
88
330
1F
100
AcDbEntity
  8
0
  6
Continuous
 62
     7
370
    15
100
AcDbCircle
 10
257.8154305771
 20
-895.3938539426
 30
0.0
 40
1500.0
100
AcDbArc
 50
83.0134913609
 51
89.6944210606
  0
LINE
  5
89
330
1F
100
AcDbEntity
  8
0
  6
Continuous
 62
     7
370
    15
100
AcDbLine
 10
110.2244059399
 20
292.6061521667
 30
0.0
 11
109.8225216225
 21
292.6061521667
 31
0.0
  0
LINE
  5
8A
330
1F
100
AcDbEntity
  8
0
  6
Continuous
 62
     7
370
    15
100
AcDbLine
 10
53.8640270785
 20
322.4786143202
 30
0.0
 11
53.3792327002
 21
295.0067739385
 31
0.0
  0
LINE
  5
8B
330
1F
100
AcDbEntity
  8
0
  6
Continuous
 62
     7
370
    15
100
AcDbLine
 10
51.3415287093
 20
292.198873629
 30
0.0
 11
50.9471843794
 21
269.8513190645
 31
0.0
  0
SPLINE
  5
8C
330
1F
100
AcDbEntity
  8
0
  6
Continuous
 62
     7
370
    15
100
AcDbSpline
210
0.0
220
0.0
230
1.0
 70
     8
 71
     3
 72
    10
 73
     6
 74
     0
 42
0.00000001
 43
0.00000001
 12
1.0
 22
0.0
 32
0.0
 13
1.0
 23
0.0
 33
0.0
 40
0.0
 40
0.0
 40
0.0
 40
0.0
 40
0.1188360407675258
 40
0.5929054607543208
 40
1.0
 40
1.0
 40
1.0
 40
1.0
 10
53.3726612881196
 20
295.0066696304174
 30
0.0
 10
53.37307484996418
 20
294.9764743394442
 30
0.0
 10
53.37513822294792
 20
294.8258217866372
 30
0.0
 10
53.29524785319453
 20
294.5705504819301
 30
0.0
 10
53.14398466456311
 20
294.403726986512
 30
0.0
 10
53.0741016224397
 20
294.3266551393362
 30
0.0
  0
ARC
  5
8D
330
1F
100
AcDbEntity
  8
0
  6
Continuous
 62
     7
370
    15
100
AcDbCircle
 10
52.34132922
 20
292.1812259489
 30
0.0
 40
0.9999999999999682
100
AcDbArc
 50
134.6877867379
 51
178.9890441422
  0
LWPOLYLINE
  5
8E
330
1F
100
AcDbEntity
  8
0
  6
Continuous
 62
     7
370
    15
100
AcDbPolyline
 90
        3
 70
   128
 43
0.0
 10
53.0825356797
 20
294.3208287853
 10
52.0714024857
 20
293.3207820553
 10
51.6381363228
 20
292.8921203512
  0
LINE
  5
8F
330
1F
100
AcDbEntity
  8
0
  6
Continuous
 62
     7
370
    15
100
AcDbLine
 10
452.4076680497
 20
156.3994433183
 30
0.0
 11
450.4076639966
 21
156.3994433183
 31
0.0
  0
LINE
  5
90
330
1F
100
AcDbEntity
  8
0
  6
Continuous
 62
     7
370
    15
100
AcDbLine
 10
450.4076639966
 20
136.3994474906
 30
0.0
 11
452.4076680497
 21
136.3994474906
 31
0.0
  0
LINE
  5
91
330
1F
100
AcDbEntity
  8
0
  6
Continuous
 62
     7
370
    15
100
AcDbLine
 10
450.4076639966
 20
151.3514663476
 30
0.0
 11
450.340683277
 21
151.3514663476
 31
0.0
  0
LINE
  5
92
330
1F
100
AcDbEntity
  8
0
  6
Continuous
 62
     7
370
    15
100
AcDbLine
 10
446.1406866864
 20
151.3514663476
 30
0.0
 11
444.5154319361
 21
151.3514663476
 31
0.0
  0
LINE
  5
93
330
1F
100
AcDbEntity
  8
0
  6
Continuous
 62
     7
370
    15
100
AcDbLine
 10
444.5154319361
 20
141.3514684337
 30
0.0
 11
446.1406866864
 21
141.3514684337
 31
0.0
  0
LINE
  5
94
330
1F
100
AcDbEntity
  8
0
  6
Continuous
 62
     7
370
    15
100
AcDbLine
 10
450.340683277
 20
141.3514684337
 30
0.0
 11
450.4076639966
 21
141.3514684337
 31
0.0
  0
LINE
  5
95
330
1F
100
AcDbEntity
  8
0
  6
Continuous
 62
     7
370
    15
100
AcDbLine
 10
452.7368048981
 20
156.3994209665
 30
0.0
 11
452.4076680497
 21
156.3994209665
 31
0.0
  0
LINE
  5
96
330
1F
100
AcDbEntity
  8
0
  6
Continuous
 62
     7
370
    15
100
AcDbLine
 10
450.736800845
 20
136.3994176883
 30
0.0
 11
452.7368048981
 21
136.3994176883
 31
0.0
  0
ARC
  5
97
330
1F
100
AcDbEntity
  8
0
  6
Continuous
 62
     7
370
    15
100
AcDbCircle
 10
94.1952863108
 20
62.3079550792
 30
0.0
 40
2.000000000000007
100
AcDbArc
 50
0.0
 51
90.0
  0
ARC
  5
98
330
1F
100
AcDbEntity
  8
0
  6
Continuous
 62
     7
370
    15
100
AcDbCircle
 10
88.6952863108
 20
62.3079550792
 30
0.0
 40
2.000000000000014
100
AcDbArc
 50
90.0
 51
180.0
  0
LINE
  5
99
330
1F
100
AcDbEntity
  8
0
  6
Continuous
 62
     7
370
    15
100
AcDbLine
 10
96.1952905015
 20
60.607954898
 30
0.0
 11
96.1952905015
 21
62.3079552698
 31
0.0
  0
LINE
  5
9A
330
1F
100
AcDbEntity
  8
0
  6
Continuous
 62
     7
370
    15
100
AcDbLine
 10
86.6952936009
 20
62.3079552698
 30
0.0
 11
86.6952936009
 21
60.607954898
 31
0.0
  0
LINE
  5
9B
330
1F
100
AcDbEntity
  8
0
  6
Continuous
 62
     7
370
    15
100
AcDbLine
 10
93.945289667
 20
57.8854042488
 30
0.0
 11
93.945289667
 21
60.607954898
 31
0.0
  0
LINE
  5
9C
330
1F
100
AcDbEntity
  8
0
  6
Continuous
 62
     7
370
    15
100
AcDbLine
 10
88.9452795342
 20
60.607954898
 30
0.0
 11
88.9452795342
 21
57.7477920252
 31
0.0
  0
LINE
  5
9D
330
1F
100
AcDbEntity
  8
0
  6
Continuous
 62
     7
370
    15
100
AcDbLine
 10
70.4154322699
 20
68.3514695066
 30
0.0
 11
70.4154322699
 21
57.7211431611
 31
0.0
  0
LINE
  5
9E
330
1F
100
AcDbEntity
  8
0
  6
Continuous
 62
     7
370
    15
100
AcDbLine
 10
445.2154288844
 20
57.721119878
 30
0.0
 11
445.2154288844
 21
68.3514695066
 31
0.0
  0
SPLINE
  5
9F
330
1F
100
AcDbEntity
  8
0
  6
Continuous
 62
     7
370
    15
100
AcDbSpline
210
0.0
220
0.0
230
1.0
 70
     8
 71
     3
 72
    21
 73
    17
 74
     0
 42
0.00000001
 43
0.00000001
 12
1.0
 22
0.0
 32
0.0
 13
1.0
 23
0.0
 33
0.0
 40
0.0
 40
0.0
 40
0.0
 40
0.0
 40
0.0791996835075453
 40
0.1955984054200451
 40
0.3005004261793912
 40
0.396024818975859
 40
0.4827203428738594
 40
0.5603659124619813
 40
0.6281304284627408
 40
0.6843310200241243
 40
0.7260088609570836
 40
0.7546509979429694
 40
0.7832483153261706
 40
0.8402209664302066
 40
0.9435748171732552
 40
1.0
 40
1.0
 40
1.0
 40
1.0
 10
462.821121032573
 20
52.18017058552227
 30
0.0
 10
462.8252899710399
 20
52.44180651429692
 30
0.0
 10
462.8355859429466
 20
53.08796528921211
 30
0.0
 10
462.5350938469282
 20
54.04809575038261
 30
0.0
 10
462.048357133938
 20
54.97388263569952
 30
0.0
 10
461.4419857531383
 20
55.70707120759933
 30
0.0
 10
460.7861932598424
 20
56.26139184960893
 30
0.0
 10
460.1286386354917
 20
56.6548024824916
 30
0.0
 10
459.5155955161981
 20
56.9108851888821
 30
0.0
 10
458.9943156815778
 20
57.05774963902693
 30
0.0
 10
458.5976529634345
 20
57.12940848825354
 30
0.0
 10
458.3439687703264
 20
57.1603442629211
 30
0.0
 10
458.1259065223591
 20
57.18044229375357
 30
0.0
 10
457.8281772467571
 20
57.20044288028275
 30
0.0
 10
457.415215347157
 20
57.22258126489421
 30
0.0
 10
456.9759831521737
 20
57.24033214526158
 30
0.0
 10
456.8208704546464
 20
57.24660078168831
 30
0.0
  0
LINE
  5
A0
330
1F
100
AcDbEntity
  8
0
  6
Continuous
 62
     7
370
    15
100
AcDbLine
 10
462.861741598
 20
40.8514696556
 30
0.0
 11
462.861741598
 21
52.1791740704
 31
0.0
  0
SPLINE
  5
A1
330
1F
100
AcDbEntity
  8
0
  6
Continuous
 62
     7
370
    15
100
AcDbSpline
210
0.0
220
0.0
230
1.0
 70
     8
 71
     3
 72
    19
 73
    15
 74
     0
 42
0.00000001
 43
0.00000001
 12
1.0
 22
0.0
 32
0.0
 13
1.0
 23
0.0
 33
0.0
 40
0.0
 40
0.0
 40
0.0
 40
0.0
 40
0.0418114604518351
 40
0.147023605058186
 40
0.205199141014825
 40
0.2502888798361209
 40
0.2869777129750417
 40
0.3424754765614995
 40
0.4603776092952008
 40
0.5621732650558043
 40
0.6699497448069096
 40
0.7821299183264484
 40
0.9009425917304233
 40
0.9999999999999999
 40
0.9999999999999999
 40
0.9999999999999999
 40
0.9999999999999999
 10
58.75780683312543
 20
57.24440751702509
 30
0.0
 10
58.64212436021424
 20
57.23978951824188
 30
0.0
 10
58.23534463939972
 20
57.22355103190535
 30
0.0
 10
57.84014594646433
 20
57.20268105488352
 30
0.0
 10
57.51344304014713
 20
57.18103095028648
 30
0.0
 10
57.25034421556477
 20
57.15799091640461
 30
0.0
 10
56.8552765178292
 20
57.10232556763911
 30
0.0
 10
56.19042211995928
 20
56.94993299389306
 30
0.0
 10
55.35465104446108
 20
56.60155216790691
 30
0.0
 10
54.47352371670444
 20
55.98525753274042
 30
0.0
 10
53.74668811376515
 20
55.21483139136107
 30
0.0
 10
53.17994171446664
 20
54.25822813698156
 30
0.0
 10
52.82327737381717
 20
53.22418430172882
 30
0.0
 10
52.80084905506488
 20
52.51031773628917
 30
0.0
 10
52.79065173421033
 20
52.18574920774422
 30
0.0
  0
LINE
  5
A2
330
1F
100
AcDbEntity
  8
0
  6
Continuous
 62
     7
370
    15
100
AcDbLine
 10
52.7691195563
 20
52.1794720936
 30
0.0
 11
52.7691195563
 21
40.8514696556
 31
0.0
  0
SPLINE
  5
A3
330
1F
100
AcDbEntity
  8
0
  6
Continuous
 62
     7
370
    15
100
AcDbSpline
210
0.0
220
0.0
230
1.0
 70
     8
 71
     3
 72
    14
 73
    10
 74
     0
 42
0.00000001
 43
0.00000001
 12
1.0
 22
0.0
 32
0.0
 13
1.0
 23
0.0
 33
0.0
 40
0.0
 40
0.0
 40
0.0
 40
0.0
 40
0.0061602508408226
 40
0.167835460055645
 40
0.335004861108961
 40
0.5038311143038671
 40
0.6803431582704634
 40
0.8877165762659408
 40
1.0
 40
1.0
 40
1.0
 40
1.0
 10
84.73492663655408
 20
61.22007038549504
 30
0.0
 10
84.73191247937581
 20
61.20584215788932
 30
0.0
 10
84.64979204795756
 20
60.81819542276595
 30
0.0
 10
84.32757823032178
 20
60.15942377935435
 30
0.0
 10
83.82316477263102
 20
59.34563994037146
 30
0.0
 10
83.23499550115265
 20
58.75191750273551
 30
0.0
 10
82.64666421927144
 20
58.37888165494653
 30
0.0
 10
82.18660319132931
 20
58.20693845987712
 30
0.0
 10
81.92186496001597
 20
58.20893326029864
 30
0.0
 10
81.82887237820752
 20
58.20963395864687
 30
0.0
  0
SPLINE
  5
A4
330
1F
100
AcDbEntity
  8
0
  6
Continuous
 62
     7
370
    15
100
AcDbSpline
210
0.0
220
0.0
230
1.0
 70
     8
 71
     3
 72
     9
 73
     5
 74
     0
 42
0.00000001
 43
0.00000001
 12
1.0
 22
0.0
 32
0.0
 13
1.0
 23
0.0
 33
0.0
 40
0.0
 40
0.0
 40
0.0
 40
0.0
 40
0.1819098604306968
 40
1.0
 40
1.0
 40
1.0
 40
1.0
 10
433.8028381422532
 20
58.19044219435177
 30
0.0
 10
433.7755738169193
 20
58.19068808382788
 30
0.0
 10
433.6256956010308
 20
58.19203979437037
 30
0.0
 10
433.4555687964137
 20
58.24686348796826
 30
0.0
 10
433.3163897350801
 20
58.29171421111545
 30
0.0
  0
SPLINE
  5
A5
330
1F
100
AcDbEntity
  8
0
  6
Continuous
 62
     7
370
    15
100
AcDbSpline
210
0.0
220
0.0
230
1.0
 70
     8
 71
     3
 72
    13
 73
     9
 74
     0
 42
0.00000001
 43
0.00000001
 12
1.0
 22
0.0
 32
0.0
 13
1.0
 23
0.0
 33
0.0
 40
0.0
 40
0.0
 40
0.0
 40
0.0
 40
0.0537736932903762
 40
0.1829860165299846
 40
0.4020998233343673
 40
0.6371353652114594
 40
0.8675250423550703
 40
1.0
 40
1.0
 40
1.0
 40
1.0
 10
433.3434353426469
 20
58.27186307043753
 30
0.0
 10
433.2990741738797
 20
58.2836463009595
 30
0.0
 10
433.1481179522661
 20
58.3237433499651
 30
0.0
 10
433.0655466107599
 20
58.40049216062803
 30
0.0
 10
433.0307881449079
 20
58.41793407880741
 30
0.0
 10
432.9092143552846
 20
58.63541098858999
 30
0.0
 10
432.7869225234188
 20
59.03196979396053
 30
0.0
 10
432.7959821444697
 20
59.44202872724247
 30
0.0
 10
432.7992896393312
 20
59.59173342318258
 30
0.0
  0
SPLINE
  5
A6
330
1F
100
AcDbEntity
  8
0
  6
Continuous
 62
     7
370
    15
100
AcDbSpline
210
0.0
220
0.0
230
1.0
 70
     8
 71
     3
 72
    10
 73
     6
 74
     0
 42
0.00000001
 43
0.00000001
 12
1.0
 22
0.0
 32
0.0
 13
1.0
 23
0.0
 33
0.0
 40
0.0
 40
0.0
 40
0.0
 40
0.0
 40
0.5
 40
0.5
 40
1.0
 40
1.0
 40
1.0
 40
1.0
 10
278.6721995754364
 20
119.4525729338985
 30
0.0
 10
280.1312330578743
 20
120.1441147290801
 30
0.0
 10
281.5430647560677
 20
120.9102459155791
 30
0.0
 10
284.2639207749993
 20
122.6058295014204
 30
0.0
 10
285.5741016343569
 20
123.5334113663207
 30
0.0
 10
286.8175306789823
 20
124.5677407570155
 30
0.0
  0
SPLINE
  5
A7
330
1F
100
AcDbEntity
  8
0
  6
Continuous
 62
     7
370
    15
100
AcDbSpline
210
0.0
220
0.0
230
1.0
 70
     8
 71
     3
 72
    26
 73
    22
 74
     0
 42
0.00000001
 43
0.00000001
 12
1.0
 22
0.0
 32
0.0
 13
1.0
 23
0.0
 33
0.0
 40
0.0
 40
0.0
 40
0.0
 40
0.0
 40
0.1249999999999999
 40
0.1249999999999999
 40
0.1875
 40
0.1875
 40
0.2500000000000001
 40
0.2500000000000001
 40
0.3750000000000002
 40
0.3750000000000002
 40
0.5000000000000002
 40
0.5000000000000002
 40
0.6250000000000001
 40
0.6250000000000001
 40
0.7500000000000001
 40
0.7500000000000001
 40
0.8125
 40
0.8125
 40
0.8749999999999998
 40
0.8749999999999998
 40
1.0
 40
1.0
 40
1.0
 40
1.0
 10
236.9586615788363
 20
119.4525729338985
 30
0.0
 10
238.5870275163325
 20
118.6807722060994
 30
0.0
 10
240.2518415494077
 20
118.012713354525
 30
0.0
 10
242.7995653566116
 20
117.1536487936783
 30
0.0
 10
243.6572715751992
 20
116.8912707969695
 30
0.0
 10
245.3893797422564
 20
116.4137130462874
 30
0.0
 10
246.2658050008087
 20
116.1981286043086
 30
0.0
 10
248.9030373563631
 20
115.6255968621713
 30
0.0
 10
250.6700217989888
 20
115.3423313224106
 30
0.0
 10
254.2209021624899
 20
114.963897570749
 30
0.0
 10
256.0048015977627
 20
114.8687703882802
 30
0.0
 10
259.589602377253
 20
114.8674839815981
 30
0.0
 10
261.3973107557907
 20
114.9627093000579
 30
0.0
 10
264.9646203548367
 20
115.3425749671834
 30
0.0
 10
266.7307370925384
 20
115.6264914992821
 30
0.0
 10
269.3532718363851
 20
116.1954399661353
 30
0.0
 10
270.222996923614
 20
116.4090074620477
 30
0.0
 10
271.9533101525509
 20
116.8852974800806
 30
0.0
 10
272.8154257453435
 20
117.1485489717317
 30
0.0
 10
275.3754092772855
 20
118.0109983915418
 30
0.0
 10
277.0440742264556
 20
118.6808862384477
 30
0.0
 10
278.6721995754363
 20
119.4525729338987
 30
0.0
  0
SPLINE
  5
A8
330
1F
100
AcDbEntity
  8
0
  6
Continuous
 62
     7
370
    15
100
AcDbSpline
210
0.0
220
0.0
230
1.0
 70
     8
 71
     3
 72
    10
 73
     6
 74
     0
 42
0.00000001
 43
0.00000001
 12
1.0
 22
0.0
 32
0.0
 13
1.0
 23
0.0
 33
0.0
 40
0.0
 40
0.0
 40
0.0
 40
0.0
 40
0.5
 40
0.5
 40
1.0
 40
1.0
 40
1.0
 40
1.0
 10
228.8133304752884
 20
124.5677407570175
 30
0.0
 10
230.0567595199141
 20
123.5334113663223
 30
0.0
 10
231.3669403792718
 20
122.6058295014215
 30
0.0
 10
234.0877963982041
 20
120.9102459155795
 30
0.0
 10
235.4996280963982
 20
120.1441147290805
 30
0.0
 10
236.9586615788365
 20
119.4525729338987
 30
0.0
  0
SPLINE
  5
A9
330
1F
100
AcDbEntity
  8
0
  6
Continuous
 62
     7
370
    15
100
AcDbSpline
210
0.0
220
0.0
230
1.0
 70
     8
 71
     3
 72
    26
 73
    22
 74
     0
 42
0.00000001
 43
0.00000001
 12
1.0
 22
0.0
 32
0.0
 13
1.0
 23
0.0
 33
0.0
 40
0.0
 40
0.0
 40
0.0
 40
0.0
 40
0.1250000000000002
 40
0.1250000000000002
 40
0.1875000000000002
 40
0.1875000000000002
 40
0.2500000000000002
 40
0.2500000000000002
 40
0.3750000000000001
 40
0.3750000000000001
 40
0.5000000000000001
 40
0.5000000000000001
 40
0.6250000000000001
 40
0.6250000000000001
 40
0.75
 40
0.75
 40
0.8125
 40
0.8125
 40
0.875
 40
0.875
 40
1.0
 40
1.0
 40
1.0
 40
1.0
 10
278.6721995754364
 20
173.2503660793627
 30
0.0
 10
277.0438336379402
 20
174.0221668071617
 30
0.0
 10
275.379019604865
 20
174.6902256587361
 30
0.0
 10
272.8312957976611
 20
175.5492902195828
 30
0.0
 10
271.9735895790735
 20
175.8116682162916
 30
0.0
 10
270.2414814120164
 20
176.2892259669737
 30
0.0
 10
269.365056153464
 20
176.5048104089526
 30
0.0
 10
266.7278237979096
 20
177.0773421510898
 30
0.0
 10
264.9608393552839
 20
177.3606076908505
 30
0.0
 10
261.4099589917828
 20
177.7390414425121
 30
0.0
 10
259.6260595565101
 20
177.8341686249809
 30
0.0
 10
256.0412587770197
 20
177.835455031663
 30
0.0
 10
254.233550398482
 20
177.7402297132033
 30
0.0
 10
250.6662407994361
 20
177.3603640460778
 30
0.0
 10
248.9001240617343
 20
177.076447513979
 30
0.0
 10
246.2775893178876
 20
176.5074990471258
 30
0.0
 10
245.4078642306587
 20
176.2939315512135
 30
0.0
 10
243.6775510017218
 20
175.8176415331805
 30
0.0
 10
242.8154354089292
 20
175.5543900415294
 30
0.0
 10
240.2554518769872
 20
174.6919406217193
 30
0.0
 10
238.5867869278172
 20
174.0220527748134
 30
0.0
 10
236.9586615788365
 20
173.2503660793624
 30
0.0
  0
SPLINE
  5
AA
330
1F
100
AcDbEntity
  8
0
  6
Continuous
 62
     7
370
    15
100
AcDbSpline
210
0.0
220
0.0
230
1.0
 70
     8
 71
     3
 72
    10
 73
     6
 74
     0
 42
0.00000001
 43
0.00000001
 12
1.0
 22
0.0
 32
0.0
 13
1.0
 23
0.0
 33
0.0
 40
0.0
 40
0.0
 40
0.0
 40
0.0
 40
0.5
 40
0.5
 40
1.0
 40
1.0
 40
1.0
 40
1.0
 10
286.8175306789844
 20
168.1351982562436
 30
0.0
 10
285.5741016343587
 20
169.1695276469389
 30
0.0
 10
284.2639207750009
 20
170.0971095118396
 30
0.0
 10
281.5430647560685
 20
171.7926930976816
 30
0.0
 10
280.1312330578745
 20
172.5588242841806
 30
0.0
 10
278.6721995754361
 20
173.2503660793624
 30
0.0
  0
SPLINE
  5
AB
330
1F
100
AcDbEntity
  8
0
  6
Continuous
 62
     7
370
    15
100
AcDbSpline
210
0.0
220
0.0
230
1.0
 70
     8
 71
     3
 72
    10
 73
     6
 74
     0
 42
0.00000001
 43
0.00000001
 12
1.0
 22
0.0
 32
0.0
 13
1.0
 23
0.0
 33
0.0
 40
0.0
 40
0.0
 40
0.0
 40
0.0
 40
0.5
 40
0.5
 40
1.0
 40
1.0
 40
1.0
 40
1.0
 10
236.9586615788363
 20
173.2503660793627
 30
0.0
 10
235.5007145218244
 20
172.5593392199919
 30
0.0
 10
234.0861107228283
 20
171.7917414250266
 30
0.0
 10
231.3651149147275
 20
170.0958729840553
 30
0.0
 10
230.0555218679136
 20
169.168498123103
 30
0.0
 10
228.8133304752904
 20
168.1351982562454
 30
0.0
  0
SPLINE
  5
AC
330
1F
100
AcDbEntity
  8
0
  6
Continuous
 62
     7
370
    15
100
AcDbSpline
210
0.0
220
0.0
230
1.0
 70
     8
 71
     3
 72
    28
 73
    24
 74
     0
 42
0.00000001
 43
0.00000001
 12
1.0
 22
0.0
 32
0.0
 13
1.0
 23
0.0
 33
0.0
 40
0.0
 40
0.0
 40
0.0
 40
0.0
 40
0.1250000000000002
 40
0.1250000000000002
 40
0.1875000000000002
 40
0.1875000000000002
 40
0.2500000000000002
 40
0.2500000000000002
 40
0.3750000000000001
 40
0.3750000000000001
 40
0.4375000000000002
 40
0.4375000000000002
 40
0.5000000000000001
 40
0.5000000000000001
 40
0.6250000000000002
 40
0.6250000000000002
 40
0.7500000000000001
 40
0.7500000000000001
 40
0.8125000000000001
 40
0.8125000000000001
 40
0.8750000000000001
 40
0.8750000000000001
 40
1.0
 40
1.0
 40
1.0
 40
1.0
 10
280.4395160885023
 20
116.5691563654005
 30
0.0
 10
278.7195665717964
 20
115.6039207844885
 30
0.0
 10
276.9365789105052
 20
114.7723042515128
 30
0.0
 10
274.1767478798493
 20
113.7033578343781
 30
0.0
 10
273.2437506297846
 20
113.3777502867633
 30
0.0
 10
271.3688304628797
 20
112.7903179183028
 30
0.0
 10
270.4246386719511
 20
112.5275952765922
 30
0.0
 10
267.5726276474063
 20
111.8285074422869
 30
0.0
 10
265.645477812853
 20
111.4807135001328
 30
0.0
 10
262.7168810753952
 20
111.131498484036
 30
0.0
 10
261.7340320277048
 20
111.0439545443291
 30
0.0
 10
259.7567306484774
 20
110.9274415158589
 30
0.0
 10
258.771219924002
 20
110.8989787211672
 30
0.0
 10
255.8238576522699
 20
110.9005547886789
 30
0.0
 10
253.8711279770769
 20
111.017073179794
 30
0.0
 10
249.989913783491
 20
111.4804663718423
 30
0.0
 10
248.0614192677711
 20
111.8272375604428
 30
0.0
 10
245.1880211316693
 20
112.5323034283922
 30
0.0
 10
244.2339586416239
 20
112.7984313840137
 30
0.0
 10
242.3565558851684
 20
113.3880268095049
 30
0.0
 10
241.4302094158431
 20
113.7121676814428
 30
0.0
 10
238.689121732126
 20
114.7752135081755
 30
0.0
 10
236.9118784881063
 20
115.6035930966796
 30
0.0
 10
235.1913450657706
 20
116.5691563654012
 30
0.0
  0
ARC
  5
AD
330
1F
100
AcDbEntity
  8
0
  6
Continuous
 62
     7
370
    15
100
AcDbCircle
 10
280.4703303028
 20
90.7998990176
 30
0.0
 40
52.09837908666142
100
AcDbArc
 50
146.6348760982
 51
150.3548511837
  0
ARC
  5
AE
330
1F
100
AcDbEntity
  8
0
  6
Continuous
 62
     7
370
    15
100
AcDbCircle
 10
235.1605308515
 20
90.7998990176
 30
0.0
 40
52.09837908666137
100
AcDbArc
 50
29.6451488163
 51
33.3651239018
  0
ARC
  5
AF
330
1F
100
AcDbEntity
  8
0
  6
Continuous
 62
     7
370
    15
100
AcDbCircle
 10
280.4707002066
 20
201.9033032308
 30
0.0
 40
52.09883102590916
100
AcDbArc
 50
209.6451996853
 51
213.3651389951
  0
SPLINE
  5
B0
330
1F
100
AcDbEntity
  8
0
  6
Continuous
 62
     7
370
    15
100
AcDbSpline
210
0.0
220
0.0
230
1.0
 70
     8
 71
     3
 72
    28
 73
    24
 74
     0
 42
0.00000001
 43
0.00000001
 12
1.0
 22
0.0
 32
0.0
 13
1.0
 23
0.0
 33
0.0
 40
0.0
 40
0.0
 40
0.0
 40
0.0
 40
0.1250000000000003
 40
0.1250000000000003
 40
0.1875000000000003
 40
0.1875000000000003
 40
0.2500000000000004
 40
0.2500000000000004
 40
0.3750000000000004
 40
0.3750000000000004
 40
0.4375000000000004
 40
0.4375000000000004
 40
0.5000000000000003
 40
0.5000000000000003
 40
0.6250000000000003
 40
0.6250000000000003
 40
0.7500000000000003
 40
0.7500000000000003
 40
0.8125000000000002
 40
0.8125000000000002
 40
0.8750000000000001
 40
0.8750000000000001
 40
1.0
 40
1.0
 40
1.0
 40
1.0
 10
235.1913450657704
 20
176.1337826478607
 30
0.0
 10
236.9112945824763
 20
177.0990182287727
 30
0.0
 10
238.6942822437675
 20
177.9306347617484
 30
0.0
 10
241.4541132744234
 20
178.999581178883
 30
0.0
 10
242.3871105244882
 20
179.3251887264978
 30
0.0
 10
244.262030691393
 20
179.9126210949583
 30
0.0
 10
245.2062224823217
 20
180.1753437366689
 30
0.0
 10
248.0582335068665
 20
180.8744315709742
 30
0.0
 10
249.9853833414197
 20
181.2222255131283
 30
0.0
 10
252.9139800788776
 20
181.5714405292251
 30
0.0
 10
253.896829126568
 20
181.658984468932
 30
0.0
 10
255.8741305057953
 20
181.7754974974022
 30
0.0
 10
256.8596412302707
 20
181.8039602920939
 30
0.0
 10
259.8070035020028
 20
181.8023842245822
 30
0.0
 10
261.7597331771959
 20
181.6858658334671
 30
0.0
 10
265.6409473707817
 20
181.2224726414189
 30
0.0
 10
267.5694418865016
 20
180.8757014528184
 30
0.0
 10
270.4428400226034
 20
180.1706355848689
 30
0.0
 10
271.3969025126489
 20
179.9045076292474
 30
0.0
 10
273.2743052691043
 20
179.3149122037562
 30
0.0
 10
274.2006517384297
 20
178.9907713318184
 30
0.0
 10
276.9417394221467
 20
177.9277255050857
 30
0.0
 10
278.7189826661665
 20
177.0993459165816
 30
0.0
 10
280.4395160885021
 20
176.1337826478599
 30
0.0
  0
ARC
  5
B1
330
1F
100
AcDbEntity
  8
0
  6
Continuous
 62
     7
370
    15
100
AcDbCircle
 10
235.1601609476
 20
201.9033032308
 30
0.0
 40
52.09883102590916
100
AcDbArc
 50
326.6348610049
 51
330.3548003147
  0
SPLINE
  5
B2
330
1F
100
AcDbEntity
  8
0
  6
Continuous
 62
     7
370
    15
100
AcDbSpline
210
0.0
220
0.0
230
1.0
 70
     8
 71
     3
 72
    12
 73
     8
 74
     0
 42
0.00000001
 43
0.00000001
 12
1.0
 22
0.0
 32
0.0
 13
1.0
 23
0.0
 33
0.0
 40
0.0
 40
0.0
 40
0.0
 40
0.0
 40
0.2500000000000005
 40
0.2500000000000005
 40
0.500000000000001
 40
0.500000000000001
 40
1.0
 40
1.0
 40
1.0
 40
1.0
 10
288.670203514878
 20
122.9937496656163
 30
0.0
 10
288.0811913766289
 20
122.3341472616967
 30
0.0
 10
287.4614061462188
 20
121.7143703903469
 30
0.0
 10
286.1737091600119
 20
120.5365852957214
 30
0.0
 10
285.5055781706134
 20
119.9788659253987
 30
0.0
 10
283.4379206112467
 20
118.3862928734596
 30
0.0
 10
281.9757084963477
 20
117.4312674662081
 30
0.0
 10
280.4395160885017
 20
116.569156365401
 30
0.0
  0
SPLINE
  5
B3
330
1F
100
AcDbEntity
  8
0
  6
Continuous
 62
     7
370
    15
100
AcDbSpline
210
0.0
220
0.0
230
1.0
 70
     8
 71
     3
 72
    10
 73
     6
 74
     0
 42
0.00000001
 43
0.00000001
 12
1.0
 22
0.0
 32
0.0
 13
1.0
 23
0.0
 33
0.0
 40
0.0
 40
0.0
 40
0.0
 40
0.0
 40
0.5
 40
0.5
 40
1.0
 40
1.0
 40
1.0
 40
1.0
 10
306.4158860966832
 20
133.2547130600095
 30
0.0
 10
303.6926169890249
 20
131.1455661972934
 30
0.0
 10
300.8489683690191
 20
129.2458479204184
 30
0.0
 10
294.9329470615498
 20
125.830836081001
 30
0.0
 10
291.8604120122979
 20
124.3159162678818
 30
0.0
 10
288.670203514878
 20
122.9937496656163
 30
0.0
  0
SPLINE
  5
B4
330
1F
100
AcDbEntity
  8
0
  6
Continuous
 62
     7
370
    15
100
AcDbSpline
210
0.0
220
0.0
230
1.0
 70
     8
 71
     3
 72
    34
 73
    30
 74
     0
 42
0.00000001
 43
0.00000001
 12
1.0
 22
0.0
 32
0.0
 13
1.0
 23
0.0
 33
0.0
 40
0.0
 40
0.0
 40
0.0
 40
0.0
 40
0.1249999999999982
 40
0.1249999999999982
 40
0.1874999999999973
 40
0.1874999999999973
 40
0.2499999999999963
 40
0.2499999999999963
 40
0.3749999999999948
 40
0.3749999999999948
 40
0.4062499999999944
 40
0.4062499999999944
 40
0.437499999999994
 40
0.437499999999994
 40
0.4999999999999947
 40
0.4999999999999947
 40
0.5624999999999953
 40
0.5624999999999953
 40
0.6249999999999959
 40
0.6249999999999959
 40
0.6874999999999966
 40
0.6874999999999966
 40
0.7499999999999972
 40
0.7499999999999972
 40
0.8749999999999988
 40
0.8749999999999988
 40
0.9374999999999993
 40
0.9374999999999993
 40
1.0
 40
1.0
 40
1.0
 40
1.0
 10
306.4158860966832
 20
159.4482259532515
 30
0.0
 10
307.4123666252237
 20
158.6764609541118
 30
0.0
 10
308.3144992848676
 20
157.8128233449116
 30
0.0
 10
309.5243625676775
 20
156.3760349255413
 30
0.0
 10
309.903550520906
 20
155.8733431504446
 30
0.0
 10
310.6104959572491
 20
154.8169421054257
 30
0.0
 10
310.9327839432441
 20
154.2710367236747
 30
0.0
 10
311.7993417671969
 20
152.592896560273
 30
0.0
 10
312.2481736010129
 20
151.4156066735126
 30
0.0
 10
312.6340892894399
 20
149.8639150394426
 30
0.0
 10
312.7025719231543
 20
149.5483927448061
 30
0.0
 10
312.8195039526395
 20
148.9177825190672
 30
0.0
 10
312.8681881343915
 20
148.6020435304754
 30
0.0
 10
312.9853376902872
 20
147.6535436389025
 30
0.0
 10
313.0249863346654
 20
147.0195035198363
 30
0.0
 10
313.0275913705108
 20
145.7480168532386
 30
0.0
 10
312.9905551032919
 20
145.1105706249149
 30
0.0
 10
312.8371438238562
 20
143.8321561493349
 30
0.0
 10
312.7216923509213
 20
143.200892266901
 30
0.0
 10
312.4189553498225
 20
141.9651910083315
 30
0.0
 10
312.2314292902962
 20
141.3587937155273
 30
0.0
 10
311.7854017943447
 20
140.1684180536929
 30
0.0
 10
311.5249653453894
 20
139.5810297745311
 30
0.0
 10
310.6525703406235
 20
137.8847327943636
 30
0.0
 10
309.9522529435642
 20
136.8384751129574
 30
0.0
 10
308.7343998911332
 20
135.3871219292019
 30
0.0
 10
308.3003484602389
 20
134.9238756954067
 30
0.0
 10
307.3912768509683
 20
134.0518443494785
 30
0.0
 10
306.9145615483948
 20
133.6409326082478
 30
0.0
 10
306.4158860966832
 20
133.2547130600095
 30
0.0
  0
SPLINE
  5
B5
330
1F
100
AcDbEntity
  8
0
  6
Continuous
 62
     7
370
    15
100
AcDbSpline
210
0.0
220
0.0
230
1.0
 70
     8
 71
     3
 72
    12
 73
     8
 74
     0
 42
0.00000001
 43
0.00000001
 12
1.0
 22
0.0
 32
0.0
 13
1.0
 23
0.0
 33
0.0
 40
0.0
 40
0.0
 40
0.0
 40
0.0
 40
0.2500000000000004
 40
0.2500000000000004
 40
0.5000000000000008
 40
0.5000000000000008
 40
1.0
 40
1.0
 40
1.0
 40
1.0
 10
288.6702035148783
 20
169.7091893476447
 30
0.0
 10
290.2600085630295
 20
169.0503022747532
 30
0.0
 10
291.8243586807968
 20
168.3416959650986
 30
0.0
 10
294.9025528086519
 20
166.824634270354
 30
0.0
 10
296.4185332500751
 20
166.0149318421105
 30
0.0
 10
300.8747215911347
 20
163.4414587686997
 30
0.0
 10
303.7127806100305
 20
161.5417562770567
 30
0.0
 10
306.4158860966832
 20
159.4482259532515
 30
0.0
  0
SPLINE
  5
B6
330
1F
100
AcDbEntity
  8
0
  6
Continuous
 62
     7
370
    15
100
AcDbSpline
210
0.0
220
0.0
230
1.0
 70
     8
 71
     3
 72
    14
 73
    10
 74
     0
 42
0.00000001
 43
0.00000001
 12
1.0
 22
0.0
 32
0.0
 13
1.0
 23
0.0
 33
0.0
 40
0.0
 40
0.0
 40
0.0
 40
0.0
 40
0.25
 40
0.25
 40
0.5
 40
0.5
 40
0.75
 40
0.75
 40
1.0
 40
1.0
 40
1.0
 40
1.0
 10
280.4395160885023
 20
176.1337826478607
 30
0.0
 10
281.206457651649
 20
175.7033750818018
 30
0.0
 10
281.9585312609746
 20
175.2472648777037
 30
0.0
 10
283.4200956604995
 20
174.2874183236594
 30
0.0
 10
284.1309621619018
 20
173.7830086886231
 30
0.0
 10
285.5095948625396
 20
172.7208140374258
 30
0.0
 10
286.1774313647958
 20
172.1631192105099
 30
0.0
 10
287.4638037375174
 20
170.9862048809666
 30
0.0
 10
288.0825564301915
 20
170.3672631029119
 30
0.0
 10
288.6702035148782
 20
169.7091893476447
 30
0.0
  0
SPLINE
  5
B7
330
1F
100
AcDbEntity
  8
0
  6
Continuous
 62
     7
370
    15
100
AcDbSpline
210
0.0
220
0.0
230
1.0
 70
     8
 71
     3
 72
    12
 73
     8
 74
     0
 42
0.00000001
 43
0.00000001
 12
1.0
 22
0.0
 32
0.0
 13
1.0
 23
0.0
 33
0.0
 40
0.0
 40
0.0
 40
0.0
 40
0.0
 40
0.2500000000000004
 40
0.2500000000000004
 40
0.5000000000000008
 40
0.5000000000000008
 40
1.0
 40
1.0
 40
1.0
 40
1.0
 10
226.9606576393946
 20
169.7091893476448
 30
0.0
 10
227.5496697776437
 20
170.3687917515644
 30
0.0
 10
228.1694550080537
 20
170.9885686229141
 30
0.0
 10
229.4571519942608
 20
172.1663537175397
 30
0.0
 10
230.1252829836592
 20
172.7240730878624
 30
0.0
 10
232.192940543026
 20
174.3166461398015
 30
0.0
 10
233.655152657925
 20
175.271671547053
 30
0.0
 10
235.191345065771
 20
176.1337826478601
 30
0.0
  0
SPLINE
  5
B8
330
1F
100
AcDbEntity
  8
0
  6
Continuous
 62
     7
370
    15
100
AcDbSpline
210
0.0
220
0.0
230
1.0
 70
     8
 71
     3
 72
    10
 73
     6
 74
     0
 42
0.00000001
 43
0.00000001
 12
1.0
 22
0.0
 32
0.0
 13
1.0
 23
0.0
 33
0.0
 40
0.0
 40
0.0
 40
0.0
 40
0.0
 40
0.5
 40
0.5
 40
1.0
 40
1.0
 40
1.0
 40
1.0
 10
209.2149750575886
 20
159.4482259532508
 30
0.0
 10
211.938244165247
 20
161.5573728159671
 30
0.0
 10
214.7818927852528
 20
163.4570910928423
 30
0.0
 10
220.6979140927225
 20
166.8721029322599
 30
0.0
 10
223.7704491419746
 20
168.3870227453791
 30
0.0
 10
226.9606576393946
 20
169.7091893476448
 30
0.0
  0
SPLINE
  5
B9
330
1F
100
AcDbEntity
  8
0
  6
Continuous
 62
     7
370
    15
100
AcDbSpline
210
0.0
220
0.0
230
1.0
 70
     8
 71
     3
 72
    34
 73
    30
 74
     0
 42
0.00000001
 43
0.00000001
 12
1.0
 22
0.0
 32
0.0
 13
1.0
 23
0.0
 33
0.0
 40
0.0
 40
0.0
 40
0.0
 40
0.0
 40
0.125000000000004
 40
0.125000000000004
 40
0.1875000000000059
 40
0.1875000000000059
 40
0.2500000000000079
 40
0.2500000000000079
 40
0.3750000000000118
 40
0.3750000000000118
 40
0.406250000000012
 40
0.406250000000012
 40
0.4375000000000122
 40
0.4375000000000122
 40
0.5000000000000109
 40
0.5000000000000109
 40
0.5625000000000097
 40
0.5625000000000097
 40
0.6250000000000084
 40
0.6250000000000084
 40
0.6875000000000072
 40
0.6875000000000072
 40
0.7500000000000059
 40
0.7500000000000059
 40
0.875000000000003
 40
0.875000000000003
 40
0.9375000000000016
 40
0.9375000000000016
 40
1.0
 40
1.0
 40
1.0
 40
1.0
 10
209.2149750575895
 20
133.2547130600096
 30
0.0
 10
208.218494529049
 20
134.0264780591492
 30
0.0
 10
207.3163618694052
 20
134.8901156683494
 30
0.0
 10
206.1064985865954
 20
136.3269040877198
 30
0.0
 10
205.7273106333668
 20
136.8295958628163
 30
0.0
 10
205.0203651970238
 20
137.8859969078352
 30
0.0
 10
204.6980772110287
 20
138.4319022895862
 30
0.0
 10
203.831519387076
 20
140.1100424529878
 30
0.0
 10
203.3826875532599
 20
141.2873323397481
 30
0.0
 10
202.9967718648329
 20
142.839023973818
 30
0.0
 10
202.9282892311184
 20
143.1545462684545
 30
0.0
 10
202.8113572016333
 20
143.7851564941934
 30
0.0
 10
202.7626730198813
 20
144.1008954827851
 30
0.0
 10
202.6455234639855
 20
145.049395374358
 30
0.0
 10
202.6058748196074
 20
145.6834354934242
 30
0.0
 10
202.6032697837619
 20
146.9549221600219
 30
0.0
 10
202.6403060509808
 20
147.5923683883455
 30
0.0
 10
202.7937173304165
 20
148.8707828639254
 30
0.0
 10
202.9091688033512
 20
149.5020467463593
 30
0.0
 10
203.2119058044501
 20
150.7377480049287
 30
0.0
 10
203.3994318639763
 20
151.344145297733
 30
0.0
 10
203.8454593599276
 20
152.5345209595674
 30
0.0
 10
204.1058958088829
 20
153.1219092387292
 30
0.0
 10
204.9782908136487
 20
154.8182062188965
 30
0.0
 10
205.6786082107079
 20
155.8644639003028
 30
0.0
 10
206.8964612631388
 20
157.3158170840582
 30
0.0
 10
207.330512694033
 20
157.7790633178535
 30
0.0
 10
208.2395843033035
 20
158.6510946637817
 30
0.0
 10
208.7162996058771
 20
159.0620064050124
 30
0.0
 10
209.2149750575886
 20
159.4482259532507
 30
0.0
  0
SPLINE
  5
BA
330
1F
100
AcDbEntity
  8
0
  6
Continuous
 62
     7
370
    15
100
AcDbSpline
210
0.0
220
0.0
230
1.0
 70
     8
 71
     3
 72
    12
 73
     8
 74
     0
 42
0.00000001
 43
0.00000001
 12
1.0
 22
0.0
 32
0.0
 13
1.0
 23
0.0
 33
0.0
 40
0.0
 40
0.0
 40
0.0
 40
0.0
 40
0.2500000000000004
 40
0.2500000000000004
 40
0.5000000000000008
 40
0.5000000000000008
 40
1.0
 40
1.0
 40
1.0
 40
1.0
 10
226.9606576393945
 20
122.9937496656163
 30
0.0
 10
225.3708525912433
 20
123.6526367385079
 30
0.0
 10
223.806502473476
 20
124.3612430481624
 30
0.0
 10
220.728308345621
 20
125.8783047429071
 30
0.0
 10
219.2123279041976
 20
126.6880071711506
 30
0.0
 10
214.756139563138
 20
129.2614802445614
 30
0.0
 10
211.9180805442422
 20
131.1611827362044
 30
0.0
 10
209.2149750575895
 20
133.2547130600096
 30
0.0
  0
SPLINE
  5
BB
330
1F
100
AcDbEntity
  8
0
  6
Continuous
 62
     7
370
    15
100
AcDbSpline
210
0.0
220
0.0
230
1.0
 70
     8
 71
     3
 72
    14
 73
    10
 74
     0
 42
0.00000001
 43
0.00000001
 12
1.0
 22
0.0
 32
0.0
 13
1.0
 23
0.0
 33
0.0
 40
0.0
 40
0.0
 40
0.0
 40
0.0
 40
0.25
 40
0.25
 40
0.5
 40
0.5
 40
0.75
 40
0.75
 40
1.0
 40
1.0
 40
1.0
 40
1.0
 10
235.1913450657704
 20
116.5691563654005
 30
0.0
 10
234.4244035026238
 20
116.9995639314593
 30
0.0
 10
233.6723298932981
 20
117.4556741355574
 30
0.0
 10
232.2107654937732
 20
118.4155206896018
 30
0.0
 10
231.4998989923708
 20
118.9199303246382
 30
0.0
 10
230.121266291733
 20
119.9821249758354
 30
0.0
 10
229.4534297894768
 20
120.5398198027513
 30
0.0
 10
228.1670574167553
 20
121.7167341322945
 30
0.0
 10
227.5483047240812
 20
122.3356759103491
 30
0.0
 10
226.9606576393947
 20
122.9937496656163
 30
0.0
  0
LINE
  5
BC
330
1F
100
AcDbEntity
  8
0
  6
Continuous
 62
     7
370
    15
100
AcDbLine
 10
447.4743853167
 20
181.6467936534
 30
0.0
 11
447.4764863804
 21
181.6548402804
 31
0.0
  0
SPLINE
  5
BD
330
1F
100
AcDbEntity
  8
0
  6
Continuous
 62
     7
370
    15
100
AcDbSpline
210
0.0
220
0.0
230
1.0
 70
     8
 71
     3
 72
    12
 73
     8
 74
     0
 42
0.00000001
 43
0.00000001
 12
1.0
 22
0.0
 32
0.0
 13
1.0
 23
0.0
 33
0.0
 40
0.0
 40
0.0
 40
0.0
 40
0.0
 40
0.2500000000000008
 40
0.2500000000000008
 40
0.5000000000000016
 40
0.5000000000000016
 40
1.0
 40
1.0
 40
1.0
 40
1.0
 10
444.9893416517312
 20
169.7091893476448
 30
0.0
 10
445.0864376395156
 20
170.3687917515644
 30
0.0
 10
445.1857339729339
 20
170.9885686229142
 30
0.0
 10
445.3849443524082
 20
172.1663537175398
 30
0.0
 10
445.4849021806288
 20
172.7240730878625
 30
0.0
 10
445.78222920706
 20
174.3166461398015
 30
0.0
 10
445.9769699740628
 20
175.2716715470531
 30
0.0
 10
446.1614970472764
 20
176.1337826478602
 30
0.0
  0
SPLINE
  5
BE
330
1F
100
AcDbEntity
  8
0
  6
Continuous
 62
     7
370
    15
100
AcDbSpline
210
0.0
220
0.0
230
1.0
 70
     8
 71
     3
 72
    10
 73
     6
 74
     0
 42
0.00000001
 43
0.00000001
 12
1.0
 22
0.0
 32
0.0
 13
1.0
 23
0.0
 33
0.0
 40
0.0
 40
0.0
 40
0.0
 40
0.0
 40
0.5
 40
0.5
 40
1.0
 40
1.0
 40
1.0
 40
1.0
 10
441.1841458022051
 20
159.4482259532506
 30
0.0
 10
441.9059271539044
 20
161.5573728159669
 30
0.0
 10
442.5946588369504
 20
163.4570910928422
 30
0.0
 10
443.8733208726226
 20
166.8721029322598
 30
0.0
 10
444.4634502053922
 20
168.3870227453791
 30
0.0
 10
444.9893416517313
 20
169.7091893476448
 30
0.0
  0
SPLINE
  5
BF
330
1F
100
AcDbEntity
  8
0
  6
Continuous
 62
     7
370
    15
100
AcDbSpline
210
0.0
220
0.0
230
1.0
 70
     8
 71
     3
 72
    34
 73
    30
 74
     0
 42
0.00000001
 43
0.00000001
 12
1.0
 22
0.0
 32
0.0
 13
1.0
 23
0.0
 33
0.0
 40
0.0
 40
0.0
 40
0.0
 40
0.0
 40
0.125
 40
0.125
 40
0.1875000000000001
 40
0.1875000000000001
 40
0.2500000000000001
 40
0.2500000000000001
 40
0.3750000000000008
 40
0.3750000000000008
 40
0.4062500000000012
 40
0.4062500000000012
 40
0.4375000000000016
 40
0.4375000000000016
 40
0.5000000000000012
 40
0.5000000000000012
 40
0.5625000000000009
 40
0.5625000000000009
 40
0.6250000000000006
 40
0.6250000000000006
 40
0.6875000000000002
 40
0.6875000000000002
 40
0.7499999999999999
 40
0.7499999999999999
 40
0.875
 40
0.875
 40
0.9375
 40
0.9375
 40
1.0
 40
1.0
 40
1.0
 40
1.0
 10
441.1841458022054
 20
133.2547130600095
 30
0.0
 10
440.9200363681399
 20
134.0264780591492
 30
0.0
 10
440.6723034749297
 20
134.8901156683493
 30
0.0
 10
440.3324210984973
 20
136.3269040877196
 30
0.0
 10
440.2244573332985
 20
136.8295958628163
 30
0.0
 10
440.0211010512367
 20
137.8859969078351
 30
0.0
 10
439.9272846380823
 20
138.4319022895861
 30
0.0
 10
439.6730391756349
 20
140.1100424529876
 30
0.0
 10
439.5384903708373
 20
141.2873323397479
 30
0.0
 10
439.422179227488
 20
142.8390239738179
 30
0.0
 10
439.4014857856018
 20
143.1545462684544
 30
0.0
 10
439.3661002079914
 20
143.7851564941933
 30
0.0
 10
439.3513376332621
 20
144.100895482785
 30
0.0
 10
439.3157832228526
 20
145.0493953743578
 30
0.0
 10
439.3037083112914
 20
145.683435493424
 30
0.0
 10
439.3029158271668
 20
146.9549221600217
 30
0.0
 10
439.3141965767202
 20
147.5923683883453
 30
0.0
 10
439.36076237403
 20
148.8707828639253
 30
0.0
 10
439.3957637986513
 20
149.5020467463591
 30
0.0
 10
439.4870301110383
 20
150.7377480049285
 30
0.0
 10
439.5433679968839
 20
151.3441452977328
 30
0.0
 10
439.6763289626882
 20
152.5345209595672
 30
0.0
 10
439.7535181832025
 20
153.121909238729
 30
0.0
 10
440.0095414828219
 20
154.8182062188965
 30
0.0
 10
440.2121218936752
 20
155.8644639003027
 30
0.0
 10
440.5543874977187
 20
157.3158170840582
 30
0.0
 10
440.6748987864976
 20
157.7790633178533
 30
0.0
 10
440.9234520117731
 20
158.6510946637816
 30
0.0
 10
441.0519757421169
 20
159.0620064050123
 30
0.0
 10
441.1841458022051
 20
159.4482259532506
 30
0.0
  0
SPLINE
  5
C0
330
1F
100
AcDbEntity
  8
0
  6
Continuous
 62
     7
370
    15
100
AcDbSpline
210
0.0
220
0.0
230
1.0
 70
     8
 71
     3
 72
    12
 73
     8
 74
     0
 42
0.00000001
 43
0.00000001
 12
1.0
 22
0.0
 32
0.0
 13
1.0
 23
0.0
 33
0.0
 40
0.0
 40
0.0
 40
0.0
 40
0.0
 40
0.2499999999999998
 40
0.2499999999999998
 40
0.4999999999999996
 40
0.4999999999999996
 40
1.0
 40
1.0
 40
1.0
 40
1.0
 10
444.9893416517313
 20
122.9937496656163
 30
0.0
 10
444.7272694778137
 20
123.6526367385079
 30
0.0
 10
444.4485943987594
 20
124.3612430481624
 30
0.0
 10
443.8613668224986
 20
125.878304742907
 30
0.0
 10
443.5523413044591
 20
126.6880071711505
 30
0.0
 10
442.588874630657
 20
129.2614802445614
 30
0.0
 10
441.900582942573
 20
131.1611827362043
 30
0.0
 10
441.1841458022054
 20
133.2547130600095
 30
0.0
  0
SPLINE
  5
C1
330
1F
100
AcDbEntity
  8
0
  6
Continuous
 62
     7
370
    15
100
AcDbSpline
210
0.0
220
0.0
230
1.0
 70
     8
 71
     3
 72
    12
 73
     8
 74
     0
 42
0.00000001
 43
0.00000001
 12
1.0
 22
0.0
 32
0.0
 13
1.0
 23
0.0
 33
0.0
 40
0.0
 40
0.0
 40
0.0
 40
0.0
 40
0.5
 40
0.5
 40
0.75
 40
0.75
 40
1.0
 40
1.0
 40
1.0
 40
1.0
 10
446.136456448468
 20
116.6864379288067
 30
0.0
 10
445.955124553778
 20
117.5378600939197
 30
0.0
 10
445.764323198416
 20
118.4782575760727
 30
0.0
 10
445.4734858404195
 20
120.0422021107802
 30
0.0
 10
445.3757874437759
 20
120.5892543284374
 30
0.0
 10
445.1811592590104
 20
121.7429936283989
 30
0.0
 10
445.0841895643062
 20
122.3494191163446
 30
0.0
 10
444.9893416517313
 20
122.9937496656162
 30
0.0
  0
LINE
  5
C2
330
1F
100
AcDbEntity
  8
0
  6
Continuous
 62
     7
370
    15
100
AcDbLine
 10
68.1154231385
 20
68.3514695066
 30
0.0
 11
447.5154380158
 21
68.3514695066
 31
0.0
  0
ARC
  5
C3
330
1F
100
AcDbEntity
  8
0
  6
Continuous
 62
     7
370
    15
100
AcDbCircle
 10
323.1472967115
 20
145.2193236677
 30
0.0
 40
20.56920132663256
100
AcDbArc
 50
206.5335256913
 51
215.5685067849
  0
SPLINE
  5
C4
330
1F
100
AcDbEntity
  8
0
  6
Continuous
 62
     7
370
    15
100
AcDbSpline
210
0.0
220
0.0
230
1.0
 70
     8
 71
     3
 72
    14
 73
    10
 74
     0
 42
0.00000001
 43
0.00000001
 12
1.0
 22
0.0
 32
0.0
 13
1.0
 23
0.0
 33
0.0
 40
0.0
 40
0.0
 40
0.0
 40
0.0
 40
0.2500000000000003
 40
0.2500000000000003
 40
0.5000000000000007
 40
0.5000000000000007
 40
0.7500000000000003
 40
0.7500000000000003
 40
1.0
 40
1.0
 40
1.0
 40
1.0
 10
304.6843398583697
 20
135.9867555217027
 30
0.0
 10
303.4217416173126
 20
134.8185770888392
 30
0.0
 10
302.1323837520772
 20
133.6789017421963
 30
0.0
 10
299.5148136613868
 20
131.444913032747
 30
0.0
 10
298.1872190217386
 20
130.3508104979713
 30
0.0
 10
295.5066308240194
 20
128.1947547817324
 30
0.0
 10
294.1540234575825
 20
127.1323096670875
 30
0.0
 10
291.4296115691524
 20
125.03609861167
 30
0.0
 10
290.0582633734969
 20
124.001882781836
 30
0.0
 10
288.6702035148781
 20
122.9937496656162
 30
0.0
  0
SPLINE
  5
C5
330
1F
100
AcDbEntity
  8
0
  6
Continuous
 62
     7
370
    15
100
AcDbSpline
210
0.0
220
0.0
230
1.0
 70
     8
 71
     3
 72
     8
 73
     4
 74
     0
 42
0.00000001
 43
0.00000001
 12
1.0
 22
0.0
 32
0.0
 13
1.0
 23
0.0
 33
0.0
 40
0.0
 40
0.0
 40
0.0
 40
0.0
 40
1.0
 40
1.0
 40
1.0
 40
1.0
 10
304.6843398583711
 20
135.9867555217009
 30
0.0
 10
304.7044290079082
 20
136.0013664812069
 30
0.0
 10
304.7245108336969
 20
136.0159881167565
 30
0.0
 10
304.7445853321532
 20
136.0306204373347
 30
0.0
  0
ARC
  5
C6
330
1F
100
AcDbEntity
  8
0
  6
Continuous
 62
     7
370
    15
100
AcDbCircle
 10
252.2989319009
 20
210.6426993588
 30
0.0
 40
54.7578446529255
100
AcDbArc
 50
309.0786339503
 51
311.6225359377
  0
ARC
  5
C7
330
1F
100
AcDbEntity
  8
0
  6
Continuous
 62
     7
370
    15
100
AcDbCircle
 10
252.3044829348
 20
82.066672409
 30
0.0
 40
54.74934844366152
100
AcDbArc
 50
48.3773348183
 51
50.921629118
  0
ARC
  5
C8
330
1F
100
AcDbEntity
  8
0
  6
Continuous
 62
     7
370
    15
100
AcDbCircle
 10
263.3319292534
 20
210.6426993588
 30
0.0
 40
54.75784465292553
100
AcDbArc
 50
228.3774640623
 51
230.9213660497
  0
ARC
  5
C9
330
1F
100
AcDbEntity
  8
0
  6
Continuous
 62
     7
370
    15
100
AcDbCircle
 10
263.3263782195
 20
82.066672409
 30
0.0
 40
54.7493484436616
100
AcDbArc
 50
129.078370882
 51
131.6226651817
  0
ARC
  5
CA
330
1F
100
AcDbEntity
  8
0
  6
Continuous
 62
     7
370
    15
100
AcDbCircle
 10
192.483026901
 20
147.4832949247
 30
0.0
 40
20.56982682753065
100
AcDbArc
 50
26.5336633475
 51
35.5683691287
  0
SPLINE
  5
CB
330
1F
100
AcDbEntity
  8
0
  6
Continuous
 62
     7
370
    15
100
AcDbSpline
210
0.0
220
0.0
230
1.0
 70
     8
 71
     3
 72
    14
 73
    10
 74
     0
 42
0.00000001
 43
0.00000001
 12
1.0
 22
0.0
 32
0.0
 13
1.0
 23
0.0
 33
0.0
 40
0.0
 40
0.0
 40
0.0
 40
0.0
 40
0.25
 40
0.25
 40
0.5
 40
0.5
 40
0.75
 40
0.75
 40
1.0
 40
1.0
 40
1.0
 40
1.0
 10
210.9465212959025
 20
156.7161834915578
 30
0.0
 10
212.2091801889999
 20
157.8844180407719
 30
0.0
 10
213.4974998272931
 20
159.0231673914461
 30
0.0
 10
216.113457722863
 20
161.2558512291008
 30
0.0
 10
217.4409789561188
 20
162.3499576212066
 30
0.0
 10
220.1225395408238
 20
164.506853088862
 30
0.0
 10
221.4761588922899
 20
165.5701044929228
 30
0.0
 10
224.2014735395076
 20
167.6670152847079
 30
0.0
 10
225.5729935350229
 20
168.7013436635239
 30
0.0
 10
226.9606576393946
 20
169.7091893476448
 30
0.0
  0
SPLINE
  5
CC
330
1F
100
AcDbEntity
  8
0
  6
Continuous
 62
     7
370
    15
100
AcDbSpline
210
0.0
220
0.0
230
1.0
 70
     8
 71
     3
 72
     8
 73
     4
 74
     0
 42
0.00000001
 43
0.00000001
 12
1.0
 22
0.0
 32
0.0
 13
1.0
 23
0.0
 33
0.0
 40
0.0
 40
0.0
 40
0.0
 40
0.0
 40
1.0
 40
1.0
 40
1.0
 40
1.0
 10
210.9465212959011
 20
156.7161834915598
 30
0.0
 10
210.926432146364
 20
156.7015725320539
 30
0.0
 10
210.9063503205745
 20
156.6869508965036
 30
0.0
 10
210.8862758221184
 20
156.6723185759255
 30
0.0
  0
ARC
  5
CD
330
1F
100
AcDbEntity
  8
0
  6
Continuous
 62
     7
370
    15
100
AcDbCircle
 10
323.1478342532
 20
147.4832949247
 30
0.0
 40
20.56982682753063
100
AcDbArc
 50
144.4316308713
 51
153.4663366525
  0
SPLINE
  5
CE
330
1F
100
AcDbEntity
  8
0
  6
Continuous
 62
     7
370
    15
100
AcDbSpline
210
0.0
220
0.0
230
1.0
 70
     8
 71
     3
 72
     8
 73
     4
 74
     0
 42
0.00000001
 43
0.00000001
 12
1.0
 22
0.0
 32
0.0
 13
1.0
 23
0.0
 33
0.0
 40
0.0
 40
0.0
 40
0.0
 40
0.0
 40
1.0
 40
1.0
 40
1.0
 40
1.0
 10
304.7445853321532
 20
156.6723185759263
 30
0.0
 10
304.7245108336962
 20
156.686950896505
 30
0.0
 10
304.7044290079069
 20
156.7015725320553
 30
0.0
 10
304.684339858369
 20
156.7161834915617
 30
0.0
  0
SPLINE
  5
CF
330
1F
100
AcDbEntity
  8
0
  6
Continuous
 62
     7
370
    15
100
AcDbSpline
210
0.0
220
0.0
230
1.0
 70
     8
 71
     3
 72
    14
 73
    10
 74
     0
 42
0.00000001
 43
0.00000001
 12
1.0
 22
0.0
 32
0.0
 13
1.0
 23
0.0
 33
0.0
 40
0.0
 40
0.0
 40
0.0
 40
0.0
 40
0.25
 40
0.25
 40
0.5
 40
0.5
 40
0.75
 40
0.75
 40
1.0
 40
1.0
 40
1.0
 40
1.0
 10
288.6702035148789
 20
169.7091893476453
 30
0.0
 10
290.0577932052632
 20
168.701397709613
 30
0.0
 10
291.4294577246007
 20
167.6669649574852
 30
0.0
 10
294.1552725022011
 20
165.5696621213461
 30
0.0
 10
295.5087530749252
 20
164.5065078945046
 30
0.0
 10
298.1897300916341
 20
162.3500781180662
 30
0.0
 10
299.5170688997204
 20
161.2561293922817
 30
0.0
 10
302.1329576408652
 20
159.0235192848625
 30
0.0
 10
303.4213918165256
 20
157.8846855663548
 30
0.0
 10
304.6843398583686
 20
156.7161834915593
 30
0.0
  0
ARC
  5
D0
330
1F
100
AcDbEntity
  8
0
  6
Continuous
 62
     7
370
    15
100
AcDbCircle
 10
192.4835644428
 20
145.2193236677
 30
0.0
 40
20.56920132663258
100
AcDbArc
 50
324.4314932151
 51
333.4664743087
  0
SPLINE
  5
D1
330
1F
100
AcDbEntity
  8
0
  6
Continuous
 62
     7
370
    15
100
AcDbSpline
210
0.0
220
0.0
230
1.0
 70
     8
 71
     3
 72
     8
 73
     4
 74
     0
 42
0.00000001
 43
0.00000001
 12
1.0
 22
0.0
 32
0.0
 13
1.0
 23
0.0
 33
0.0
 40
0.0
 40
0.0
 40
0.0
 40
0.0
 40
1.0
 40
1.0
 40
1.0
 40
1.0
 10
210.8862758221195
 20
136.0306204373348
 30
0.0
 10
210.9063503205765
 20
136.0159881167561
 30
0.0
 10
210.9264321463659
 20
136.0013664812058
 30
0.0
 10
210.9465212959038
 20
135.9867555216993
 30
0.0
  0
SPLINE
  5
D2
330
1F
100
AcDbEntity
  8
0
  6
Continuous
 62
     7
370
    15
100
AcDbSpline
210
0.0
220
0.0
230
1.0
 70
     8
 71
     3
 72
    14
 73
    10
 74
     0
 42
0.00000001
 43
0.00000001
 12
1.0
 22
0.0
 32
0.0
 13
1.0
 23
0.0
 33
0.0
 40
0.0
 40
0.0
 40
0.0
 40
0.0
 40
0.25
 40
0.25
 40
0.5
 40
0.5
 40
0.75
 40
0.75
 40
1.0
 40
1.0
 40
1.0
 40
1.0
 10
226.9606576393939
 20
122.9937496656157
 30
0.0
 10
225.5730080605559
 20
124.001584799996
 30
0.0
 10
224.2014718206713
 20
125.0359246800096
 30
0.0
 10
221.4760949140189
 20
127.1328841175398
 30
0.0
 10
220.1224367670762
 20
128.1961679033846
 30
0.0
 10
217.440978037493
 20
130.3529828173675
 30
0.0
 10
216.1134906058319
 20
131.4470605822742
 30
0.0
 10
213.4975535984768
 20
133.6797248656104
 30
0.0
 10
212.2092208543048
 20
134.8184833482231
 30
0.0
 10
210.9465212959042
 20
135.9867555217018
 30
0.0
  0
ARC
  5
D3
330
1F
100
AcDbEntity
  8
0
  6
Continuous
 62
     7
370
    15
100
AcDbCircle
 10
292.8154305771
 20
146.3514695066
 30
0.0
 40
15.75735931288071
100
AcDbArc
 50
319.1343426412
 51
40.8656573588
  0
CIRCLE
  5
D4
330
1F
100
AcDbEntity
  8
0
  6
Continuous
 62
     7
370
    15
100
AcDbCircle
 10
257.8154305771
 20
146.3514695066
 30
0.0
 40
13.5
  0
ARC
  5
D5
330
1F
100
AcDbEntity
  8
0
  6
Continuous
 62
     7
370
    15
100
AcDbCircle
 10
257.8154305771
 20
176.6327195066
 30
0.0
 40
62.03860931288526
100
AcDbArc
 50
319.0673016196
 51
319.1343426412
  0
ARC
  5
D6
330
1F
100
AcDbEntity
  8
0
  6
Continuous
 62
     7
370
    15
100
AcDbCircle
 10
257.8154305771
 20
116.0702195066
 30
0.0
 40
62.03860931288465
100
AcDbArc
 50
40.8656573588
 51
40.9326983804
  0
ARC
  5
D7
330
1F
100
AcDbEntity
  8
0
  6
Continuous
 62
     7
370
    15
100
AcDbCircle
 10
257.8154305771
 20
176.6327195066
 30
0.0
 40
62.03860931288464
100
AcDbArc
 50
220.8656573588
 51
220.9326983804
  0
ARC
  5
D8
330
1F
100
AcDbEntity
  8
0
  6
Continuous
 62
     7
370
    15
100
AcDbCircle
 10
257.8154305771
 20
116.0702195066
 30
0.0
 40
62.03860931288536
100
AcDbArc
 50
139.0673016196
 51
139.1343426412
  0
ARC
  5
D9
330
1F
100
AcDbEntity
  8
0
  6
Continuous
 62
     7
370
    15
100
AcDbCircle
 10
222.8154305771
 20
146.3514695066
 30
0.0
 40
15.75735931288069
100
AcDbArc
 50
139.1343426412
 51
220.8656573588
  0
SPLINE
  5
DA
330
1F
100
AcDbEntity
  8
0
  6
Continuous
 62
     7
370
    15
100
AcDbSpline
210
0.0
220
0.0
230
1.0
 70
     8
 71
     3
 72
    34
 73
    30
 74
     0
 42
0.00000001
 43
0.00000001
 12
1.0
 22
0.0
 32
0.0
 13
1.0
 23
0.0
 33
0.0
 40
0.0
 40
0.0
 40
0.0
 40
0.0
 40
0.0625000000000006
 40
0.0625000000000006
 40
0.1250000000000012
 40
0.1250000000000012
 40
0.2500000000000024
 40
0.2500000000000024
 40
0.3125000000000031
 40
0.3125000000000031
 40
0.3750000000000037
 40
0.3750000000000037
 40
0.4375000000000043
 40
0.4375000000000043
 40
0.5000000000000049
 40
0.5000000000000049
 40
0.5625000000000056
 40
0.5625000000000056
 40
0.5937500000000058
 40
0.5937500000000058
 40
0.6250000000000061
 40
0.6250000000000061
 40
0.7500000000000048
 40
0.7500000000000048
 40
0.8125000000000039
 40
0.8125000000000039
 40
0.875000000000003
 40
0.875000000000003
 40
1.0
 40
1.0
 40
1.0
 40
1.0
 10
304.7445853321532
 20
136.0306204373347
 30
0.0
 10
305.167033432686
 20
136.3128527348044
 30
0.0
 10
305.5731868457405
 20
136.6166233994058
 30
0.0
 10
306.3520862949172
 20
137.2686403048231
 30
0.0
 10
306.7264294747798
 20
137.618629619915
 30
0.0
 10
307.7827466128161
 20
138.7260799378407
 30
0.0
 10
308.3978057384098
 20
139.5369514512468
 30
0.0
 10
309.1728006101449
 20
140.8746729722711
 30
0.0
 10
309.4061789209945
 20
141.3422544556232
 30
0.0
 10
309.8067529696863
 20
142.2935962181172
 30
0.0
 10
309.9759844191404
 20
142.7804633635457
 30
0.0
 10
310.2503652857459
 20
143.7773628788077
 30
0.0
 10
310.3557533849329
 20
144.2890277864881
 30
0.0
 10
310.4965034382799
 20
145.3304786113607
 30
0.0
 10
310.5306074272407
 20
145.8493721670808
 30
0.0
 10
310.5292535420177
 20
146.8836442097566
 30
0.0
 10
310.4937854942117
 20
147.3990221913226
 30
0.0
 10
310.3883306569529
 20
148.1694502129777
 30
0.0
 10
310.3444474439946
 20
148.4258186052177
 30
0.0
 10
310.238922347426
 20
148.9376591737308
 30
0.0
 10
310.1770509270392
 20
149.193669258301
 30
0.0
 10
309.8290234069452
 20
150.4491642854868
 30
0.0
 10
309.4257695456172
 20
151.3933151788275
 30
0.0
 10
308.6510005273544
 20
152.7280842814406
 30
0.0
 10
308.3626237940196
 20
153.1607394368391
 30
0.0
 10
307.7417590950245
 20
153.9813403740032
 30
0.0
 10
307.4109218344987
 20
154.3680056819852
 30
0.0
 10
306.3622560119312
 20
155.4633656015932
 30
0.0
 10
305.5889540671299
 20
156.1082063744904
 30
0.0
 10
304.7445853321532
 20
156.6723185759263
 30
0.0
  0
LINE
  5
DB
330
1F
100
AcDbEntity
  8
0
  6
Continuous
 62
     7
370
    15
100
AcDbLine
 10
304.7445851222
 20
136.0306213993
 30
0.0
 11
304.7318669811
 21
136.0416259068
 31
0.0
  0
LINE
  5
DC
330
1F
100
AcDbEntity
  8
0
  6
Continuous
 62
     7
370
    15
100
AcDbLine
 10
304.7445851222
 20
156.6723208326
 30
0.0
 11
304.7318669811
 21
156.6613163251
 31
0.0
  0
SPLINE
  5
DD
330
1F
100
AcDbEntity
  8
0
  6
Continuous
 62
     7
370
    15
100
AcDbSpline
210
0.0
220
0.0
230
1.0
 70
     8
 71
     3
 72
    34
 73
    30
 74
     0
 42
0.00000001
 43
0.00000001
 12
1.0
 22
0.0
 32
0.0
 13
1.0
 23
0.0
 33
0.0
 40
0.0
 40
0.0
 40
0.0
 40
0.0
 40
0.0625000000000011
 40
0.0625000000000011
 40
0.1250000000000022
 40
0.1250000000000022
 40
0.2500000000000038
 40
0.2500000000000038
 40
0.3125000000000042
 40
0.3125000000000042
 40
0.3750000000000044
 40
0.3750000000000044
 40
0.4375000000000048
 40
0.4375000000000048
 40
0.5000000000000051
 40
0.5000000000000051
 40
0.5625000000000054
 40
0.5625000000000054
 40
0.5937500000000049
 40
0.5937500000000049
 40
0.6250000000000043
 40
0.6250000000000043
 40
0.7500000000000012
 40
0.7500000000000012
 40
0.8125000000000009
 40
0.8125000000000009
 40
0.8750000000000006
 40
0.8750000000000006
 40
1.0
 40
1.0
 40
1.0
 40
1.0
 10
210.8862758221184
 20
156.6723185759255
 30
0.0
 10
210.4638277215856
 20
156.3900862784559
 30
0.0
 10
210.0576743085302
 20
156.0863156138537
 30
0.0
 10
209.2787748593537
 20
155.4342987084363
 30
0.0
 10
208.9044316794912
 20
155.0843093933444
 30
0.0
 10
207.8481145414552
 20
153.9768590754187
 30
0.0
 10
207.2330554158617
 20
153.1659875620125
 30
0.0
 10
206.4580605441269
 20
151.8282660409883
 30
0.0
 10
206.2246822332774
 20
151.3606845576361
 30
0.0
 10
205.8241081845858
 20
150.4093427951422
 30
0.0
 10
205.6548767351318
 20
149.9224756497137
 30
0.0
 10
205.3804958685265
 20
148.9255761344518
 30
0.0
 10
205.2751077693395
 20
148.4139112267714
 30
0.0
 10
205.1343577159927
 20
147.3724604018989
 30
0.0
 10
205.1002537270319
 20
146.8535668461788
 30
0.0
 10
205.1016076122551
 20
145.8192948035032
 30
0.0
 10
205.1370756600612
 20
145.3039168219372
 30
0.0
 10
205.24253049732
 20
144.5334888002823
 30
0.0
 10
205.2864137102783
 20
144.2771204080423
 30
0.0
 10
205.391938806847
 20
143.7652798395292
 30
0.0
 10
205.4538102272338
 20
143.5092697549591
 30
0.0
 10
205.8018377473279
 20
142.2537747277735
 30
0.0
 10
206.2050916086559
 20
141.3096238344328
 30
0.0
 10
206.9798606269186
 20
139.97485473182
 30
0.0
 10
207.2682373602535
 20
139.5421995764216
 30
0.0
 10
207.8891020592484
 20
138.7215986392576
 30
0.0
 10
208.2199393197743
 20
138.3349333312756
 30
0.0
 10
209.2686051423417
 20
137.2395734116677
 30
0.0
 10
210.0419070871429
 20
136.5947326387706
 30
0.0
 10
210.8862758221196
 20
136.0306204373348
 30
0.0
  0
LINE
  5
DE
330
1F
100
AcDbEntity
  8
0
  6
Continuous
 62
     7
370
    15
100
AcDbLine
 10
210.8862760321
 20
156.6723208326
 30
0.0
 11
210.8989941731
 21
156.6613163251
 31
0.0
  0
LINE
  5
DF
330
1F
100
AcDbEntity
  8
0
  6
Continuous
 62
     7
370
    15
100
AcDbLine
 10
210.8862760321
 20
136.0306213993
 30
0.0
 11
210.8989941731
 21
136.0416259068
 31
0.0
  0
SPLINE
  5
E0
330
1F
100
AcDbEntity
  8
0
  6
Continuous
 62
     7
370
    15
100
AcDbSpline
210
0.0
220
0.0
230
1.0
 70
     8
 71
     3
 72
    34
 73
    30
 74
     0
 42
0.00000001
 43
0.00000001
 12
1.0
 22
0.0
 32
0.0
 13
1.0
 23
0.0
 33
0.0
 40
0.0
 40
0.0
 40
0.0
 40
0.0
 40
0.0625000000000009
 40
0.0625000000000009
 40
0.1250000000000018
 40
0.1250000000000018
 40
0.2500000000000036
 40
0.2500000000000036
 40
0.3125000000000042
 40
0.3125000000000042
 40
0.3750000000000048
 40
0.3750000000000048
 40
0.4375000000000054
 40
0.4375000000000054
 40
0.500000000000006
 40
0.500000000000006
 40
0.5625000000000067
 40
0.5625000000000067
 40
0.5937500000000069
 40
0.5937500000000069
 40
0.6250000000000071
 40
0.6250000000000071
 40
0.7500000000000034
 40
0.7500000000000034
 40
0.8125000000000027
 40
0.8125000000000027
 40
0.8750000000000018
 40
0.8750000000000018
 40
1.0
 40
1.0
 40
1.0
 40
1.0
 10
442.7412536198324
 20
156.6723185759255
 30
0.0
 10
442.6064401314133
 20
156.3900862784559
 30
0.0
 10
442.4753014084973
 20
156.0863156138537
 30
0.0
 10
442.2213517649696
 20
155.4342987084363
 30
0.0
 10
442.098006190383
 20
155.0843093933445
 30
0.0
 10
441.7469816894865
 20
153.9768590754187
 30
0.0
 10
441.5384721143602
 20
153.1659875620125
 30
0.0
 10
441.2730085796675
 20
151.8282660409883
 30
0.0
 10
441.1925093183567
 20
151.3606845576361
 30
0.0
 10
441.0537637845702
 20
150.4093427951422
 30
0.0
 10
440.9948223033982
 20
149.9224756497137
 30
0.0
 10
440.899017932435
 20
148.9255761344518
 30
0.0
 10
440.8620713430828
 20
148.4139112267714
 30
0.0
 10
440.8126832726885
 20
147.3724604018989
 30
0.0
 10
440.8006863649651
 20
146.8535668461788
 30
0.0
 10
440.8011622072714
 20
145.8192948035031
 30
0.0
 10
440.8136379840294
 20
145.3039168219372
 30
0.0
 10
440.8506397061441
 20
144.5334888002822
 30
0.0
 10
440.8660277899994
 20
144.2771204080423
 30
0.0
 10
440.9029774627984
 20
143.7652798395292
 30
0.0
 10
440.9246188978534
 20
143.5092697549591
 30
0.0
 10
441.0461271447082
 20
142.2537747277734
 30
0.0
 10
441.1863724977575
 20
141.3096238344328
 30
0.0
 10
441.4517362817419
 20
139.9748547318199
 30
0.0
 10
441.5499464366807
 20
139.5421995764214
 30
0.0
 10
441.7596408108731
 20
138.7215986392575
 30
0.0
 10
441.8705754772712
 20
138.3349333312756
 30
0.0
 10
442.2189565471452
 20
137.2395734116677
 30
0.0
 10
442.4717949702835
 20
136.5947326387706
 30
0.0
 10
442.7412536198327
 20
136.0306204373347
 30
0.0
  0
ARC
  5
E1
330
1F
100
AcDbEntity
  8
0
  6
Continuous
 62
     7
370
    15
100
AcDbCircle
 10
446.3866805048
 20
132.1610887968
 30
0.0
 40
5.316240195071215
100
AcDbArc
 50
133.2918620205
 51
168.128700328
  0
ARC
  5
E2
330
1F
100
AcDbEntity
  8
0
  6
Continuous
 62
     7
370
    15
100
AcDbCircle
 10
446.3866599118
 20
160.5418418837
 30
0.0
 40
5.316217666265814
100
AcDbArc
 50
191.8712234957
 51
226.7082141558
  0
LINE
  5
E3
330
1F
100
AcDbEntity
  8
0
  6
Continuous
 62
     7
370
    15
100
AcDbLine
 10
442.7412549809
 20
156.6723208326
 30
0.0
 11
442.7580783919
 21
156.6613163251
 31
0.0
  0
LINE
  5
E4
330
1F
100
AcDbEntity
  8
0
  6
Continuous
 62
     7
370
    15
100
AcDbLine
 10
442.7580783919
 20
136.0416259068
 30
0.0
 11
442.7580783919
 21
156.6613163251
 31
0.0
  0
LINE
  5
E5
330
1F
100
AcDbEntity
  8
0
  6
Continuous
 62
     7
370
    15
100
AcDbLine
 10
442.7412549809
 20
136.0306213993
 30
0.0
 11
442.7580783919
 21
136.0416259068
 31
0.0
  0
ARC
  5
E6
330
1F
100
AcDbEntity
  8
0
  6
Continuous
 62
     7
370
    15
100
AcDbCircle
 10
441.086379818
 20
153.6587874677
 30
0.0
 40
3.436532505467944
100
AcDbArc
 50
3.7811007925
 51
60.8925346112
  0
LINE
  5
E7
330
1F
100
AcDbEntity
  8
0
  6
Continuous
 62
     7
370
    15
100
AcDbLine
 10
444.5154319361
 20
153.8854088086
 30
0.0
 11
444.5154319361
 21
138.8175334233
 31
0.0
  0
ARC
  5
E8
330
1F
100
AcDbEntity
  8
0
  6
Continuous
 62
     7
370
    15
100
AcDbCircle
 10
441.086385588
 20
139.0441511113
 30
0.0
 40
3.43652650708722
100
AcDbArc
 50
299.1074109626
 51
356.2189536337
  0
SPLINE
  5
E9
330
1F
100
AcDbEntity
  8
0
  6
Continuous
 62
     7
370
    15
100
AcDbSpline
210
0.0
220
0.0
230
1.0
 70
     8
 71
     3
 72
    14
 73
    10
 74
     0
 42
0.00000001
 43
0.00000001
 12
1.0
 22
0.0
 32
0.0
 13
1.0
 23
0.0
 33
0.0
 40
0.0
 40
0.0
 40
0.0
 40
0.0
 40
0.25
 40
0.25
 40
0.5
 40
0.5
 40
0.75
 40
0.75
 40
1.0
 40
1.0
 40
1.0
 40
1.0
 10
442.7580712642533
 20
156.7161834915583
 30
0.0
 10
442.9465807108401
 20
157.8843619244219
 30
0.0
 10
443.1305479142122
 20
159.0240372710653
 30
0.0
 10
443.4889300360924
 20
161.2580259805145
 30
0.0
 10
443.6630745833091
 20
162.3521285152902
 30
0.0
 10
444.0116385345717
 20
164.5081842315289
 30
0.0
 10
444.1860360044481
 20
165.5706293461737
 30
0.0
 10
444.5601166955709
 20
167.6668404015911
 30
0.0
 10
444.7605262601214
 20
168.701056231425
 30
0.0
 10
444.9893416517313
 20
169.7091893476448
 30
0.0
  0
SPLINE
  5
EA
330
1F
100
AcDbEntity
  8
0
  6
Continuous
 62
     7
370
    15
100
AcDbSpline
210
0.0
220
0.0
230
1.0
 70
     8
 71
     3
 72
     8
 73
     4
 74
     0
 42
0.00000001
 43
0.00000001
 12
1.0
 22
0.0
 32
0.0
 13
1.0
 23
0.0
 33
0.0
 40
0.0
 40
0.0
 40
0.0
 40
0.0
 40
1.0
 40
1.0
 40
1.0
 40
1.0
 10
442.7580712642507
 20
156.7161834915596
 30
0.0
 10
442.7524670123634
 20
156.7015725320538
 30
0.0
 10
442.7468611280232
 20
156.6869508965035
 30
0.0
 10
442.7412536198324
 20
156.6723185759255
 30
0.0
  0
SPLINE
  5
EB
330
1F
100
AcDbEntity
  8
0
  6
Continuous
 62
     7
370
    15
100
AcDbSpline
210
0.0
220
0.0
230
1.0
 70
     8
 71
     3
 72
     8
 73
     4
 74
     0
 42
0.00000001
 43
0.00000001
 12
1.0
 22
0.0
 32
0.0
 13
1.0
 23
0.0
 33
0.0
 40
0.0
 40
0.0
 40
0.0
 40
0.0
 40
1.0
 40
1.0
 40
1.0
 40
1.0
 10
442.7412536198327
 20
136.0306204373347
 30
0.0
 10
442.746861128024
 20
136.0159881167556
 30
0.0
 10
442.7524670123643
 20
136.001366481205
 30
0.0
 10
442.7580712642521
 20
135.9867555216981
 30
0.0
  0
SPLINE
  5
EC
330
1F
100
AcDbEntity
  8
0
  6
Continuous
 62
     7
370
    15
100
AcDbSpline
210
0.0
220
0.0
230
1.0
 70
     8
 71
     3
 72
    14
 73
    10
 74
     0
 42
0.00000001
 43
0.00000001
 12
1.0
 22
0.0
 32
0.0
 13
1.0
 23
0.0
 33
0.0
 40
0.0
 40
0.0
 40
0.0
 40
0.0
 40
0.25
 40
0.25
 40
0.5
 40
0.5
 40
0.75
 40
0.75
 40
1.0
 40
1.0
 40
1.0
 40
1.0
 10
444.989341651732
 20
122.9937496656157
 30
0.0
 10
444.7606037652291
 20
124.0015413036479
 30
0.0
 10
444.5601346631515
 20
125.0359740557756
 30
0.0
 10
444.1858676595534
 20
127.1332768919144
 30
0.0
 10
444.0113636644816
 20
128.1964311187559
 30
0.0
 10
443.6627469685922
 20
130.3528608951941
 30
0.0
 10
443.4886263677456
 20
131.4468096209785
 30
0.0
 10
443.1304642297831
 20
133.6794197283975
 30
0.0
 10
442.9466329370757
 20
134.8182534469046
 30
0.0
 10
442.7580712642537
 20
135.9867555216999
 30
0.0
  0
LINE
  5
ED
330
1F
100
AcDbEntity
  8
0
  6
Continuous
 62
     7
370
    15
100
AcDbLine
 10
442.7580783919
 20
156.6613163251
 30
0.0
 11
442.7580783919
 21
156.7161824006
 31
0.0
  0
LINE
  5
EE
330
1F
100
AcDbEntity
  8
0
  6
Continuous
 62
     7
370
    15
100
AcDbLine
 10
442.7580783919
 20
135.9867523807
 30
0.0
 11
442.7580783919
 21
136.0416259068
 31
0.0
  0
ARC
  5
EF
330
1F
100
AcDbEntity
  8
0
  6
Continuous
 62
     7
370
    15
100
AcDbCircle
 10
441.0811759119
 20
153.7106665434
 30
0.0
 40
3.441675100145387
100
AcDbArc
 50
3.7627524776
 51
60.8410322061
  0
LINE
  5
F0
330
1F
100
AcDbEntity
  8
0
  6
Continuous
 62
     7
370
    15
100
AcDbLine
 10
444.5154319361
 20
153.9365272421
 30
0.0
 11
444.5154319361
 21
153.8854088086
 31
0.0
  0
LINE
  5
F1
330
1F
100
AcDbEntity
  8
0
  6
Continuous
 62
     7
370
    15
100
AcDbLine
 10
444.5154319361
 20
138.8175334233
 30
0.0
 11
444.5154319361
 21
138.7664149898
 31
0.0
  0
ARC
  5
F2
330
1F
100
AcDbEntity
  8
0
  6
Continuous
 62
     7
370
    15
100
AcDbCircle
 10
441.0811629703
 20
138.9922758144
 30
0.0
 40
3.441688022122034
100
AcDbArc
 50
299.1590944817
 51
356.2372595688
  0
LINE
  5
F3
330
1F
100
AcDbEntity
  8
0
  6
Continuous
 62
     7
370
    15
100
AcDbLine
 10
444.5154915408
 20
154.57261311
 30
0.0
 11
444.5154319361
 21
153.9365272421
 31
0.0
  0
LWPOLYLINE
  5
F4
330
1F
100
AcDbEntity
  8
0
  6
Continuous
 62
     7
370
    15
100
AcDbPolyline
 90
        3
 70
   128
 43
0.0
 10
446.1021820858
 20
175.0336955685
 10
446.0954318598
 20
174.996912052
 10
446.0783402279
 20
174.9107386369
  0
LWPOLYLINE
  5
F5
330
1F
100
AcDbEntity
  8
0
  6
Continuous
 62
     7
370
    15
100
AcDbPolyline
 90
        3
 70
   128
 43
0.0
 10
446.0757474259
 20
117.8045939106
 10
446.0954318598
 20
117.7060264546
 10
446.0977266387
 20
117.6937218207
  0
LWPOLYLINE
  5
F6
330
1F
100
AcDbEntity
  8
0
  6
Continuous
 62
     7
370
    15
100
AcDbPolyline
 90
       28
 70
   128
 43
0.0
 10
103.0861983851
 20
278.7532131571
 10
103.9232264117
 20
277.817688455
 10
104.8901776627
 20
277.180485
 10
105.9349278763
 20
276.8759499687
 10
107.0011506632
 20
276.9205193418
 10
108.0313722447
 20
277.3117791313
 10
108.9700559929
 20
278.028644194
 10
109.7665826634
 20
279.032475819
 10
110.3780220107
 20
280.2691231865
 10
110.7714126662
 20
281.6719483036
 10
110.9255353764
 20
283.1653277773
 10
110.8320901946
 20
284.6687357324
 10
110.4961137131
 20
286.1011247534
 10
109.9357257441
 20
287.3852770227
 10
109.1811160401
 20
288.4519766468
 10
108.2729945735
 20
289.2437051433
 10
107.2602818564
 20
289.7177706856
 10
106.1976055459
 20
289.8486326832
 10
105.1422457055
 20
289.6292279857
 10
104.1510949687
 20
289.0714030165
 10
103.2775888995
 20
288.2051985163
 10
102.5688151673
 20
287.0773296255
 10
102.0629803494
 20
285.748607983
 10
101.7873535708
 20
284.2906485695
 10
101.7568061903
 20
282.7820550102
 10
101.9729773358
 20
281.3041727442
 10
102.4242142991
 20
279.9366484779
 10
103.0861983851
 20
278.7532131571
  0
LWPOLYLINE
  5
F7
330
1F
100
AcDbEntity
  8
0
  6
Continuous
 62
     7
370
    15
100
AcDbPolyline
 90
       16
 70
   128
 43
0.0
 10
108.9674482897
 20
276.3947318691
 10
110.0728313283
 20
276.395834555
 10
111.1528376893
 20
276.7453263897
 10
112.1508131579
 20
277.4260710377
 10
113.0166898325
 20
278.4039299387
 10
113.7070606307
 20
279.6298931736
 10
114.1873101548
 20
281.0424785513
 10
114.4333581284
 20
282.5708310503
 10
114.4328663901
 20
284.1383288998
 10
114.185849841
 20
285.6663833755
 10
113.7047062472
 20
287.0783429045
 10
113.0135605887
 20
288.3034269708
 10
112.1470580653
 20
289.2801980871
 10
111.1486653641
 20
289.9596910375
 10
110.0684354857
 20
290.3078119654
 10
108.9674482897
 20
290.3081993955
  0
LINE
  5
F8
330
1F
100
AcDbEntity
  8
0
  6
Continuous
 62
     7
370
    15
100
AcDbLine
 10
193.8374887064
 20
89.3122530925
 30
0.0
 11
198.5660630122
 21
104.6749311882
 31
0.0
  0
ARC
  5
F9
330
1F
100
AcDbEntity
  8
0
  6
Continuous
 62
     7
370
    15
100
AcDbCircle
 10
200.5221941779
 20
109.8304051034
 30
0.0
 40
5.514105587243128
100
AcDbArc
 50
249.2218522145
 51
262.4856901206
  0
LINE
  5
FA
330
1F
100
AcDbEntity
  8
0
  6
Continuous
 62
     7
370
    15
100
AcDbLine
 10
199.8010936037
 20
104.3636533815
 30
0.0
 11
195.0725192979
 21
89.0009752858
 31
0.0
  0
ARC
  5
FB
330
1F
100
AcDbEntity
  8
0
  6
Continuous
 62
     7
370
    15
100
AcDbCircle
 10
195.7936195181
 20
94.4677256031
 30
0.0
 40
5.514104148377103
100
AcDbArc
 50
249.2218504762
 51
262.4856918589
  0
LINE
  5
FC
330
1F
100
AcDbEntity
  8
0
  6
Continuous
 62
     7
370
    15
100
AcDbLine
 10
191.9220114902
 20
88.8840365607
 30
0.0
 11
193.8374887064
 21
89.3122530925
 31
0.0
  0
LINE
  5
FD
330
1F
100
AcDbEntity
  8
0
  6
Continuous
 62
     7
370
    15
100
AcDbLine
 10
191.4598445252
 20
91.2252399522
 30
0.0
 11
191.9220114902
 21
88.8840365607
 31
0.0
  0
LINE
  5
FE
330
1F
100
AcDbEntity
  8
0
  6
Continuous
 62
     7
370
    15
100
AcDbLine
 10
195.3804070905
 20
103.9627599913
 30
0.0
 11
191.4598445252
 21
91.2252399522
 31
0.0
  0
LINE
  5
FF
330
1F
100
AcDbEntity
  8
0
  6
Continuous
 62
     7
370
    15
100
AcDbLine
 10
186.9749228314
 20
113.9447275001
 30
0.0
 11
195.3804070905
 21
103.9627599913
 31
0.0
  0
LINE
  5
100
330
1F
100
AcDbEntity
  8
0
  6
Continuous
 62
     7
370
    15
100
AcDbLine
 10
186.512763317
 20
116.2859308916
 30
0.0
 11
186.9749228314
 21
113.9447275001
 31
0.0
  0
LINE
  5
101
330
1F
100
AcDbEntity
  8
0
  6
Continuous
 62
     7
370
    15
100
AcDbLine
 10
188.4282405332
 20
116.7141455609
 30
0.0
 11
186.512763317
 21
116.2859308916
 31
0.0
  0
LINE
  5
102
330
1F
100
AcDbEntity
  8
0
  6
Continuous
 62
     7
370
    15
100
AcDbLine
 10
198.5660630122
 20
104.6749311882
 30
0.0
 11
188.4282405332
 21
116.7141455609
 31
0.0
  0
ARC
  5
103
330
1F
100
AcDbEntity
  8
0
  6
Continuous
 62
     7
370
    15
100
AcDbCircle
 10
200.3257687653
 20
103.0746957278
 30
0.0
 40
2.378511691412357
100
AcDbArc
 50
107.5665095437
 51
137.7173460966
  0
ARC
  5
104
330
1F
100
AcDbEntity
  8
0
  6
Continuous
 62
     7
370
    15
100
AcDbCircle
 10
198.8008419084
 20
104.6745840069
 30
0.0
 40
1.047464227400185
100
AcDbArc
 50
342.7320183295
 51
39.6019902166
  0
LINE
  5
105
330
1F
100
AcDbEntity
  8
0
  6
Continuous
 62
     7
370
    15
100
AcDbLine
 10
195.0725192979
 20
89.0009752858
 30
0.0
 11
201.5709007934
 21
89.0009752858
 31
0.0
  0
LINE
  5
106
330
1F
100
AcDbEntity
  8
0
  6
Continuous
 62
     7
370
    15
100
AcDbLine
 10
206.2994750992
 20
104.3636533815
 30
0.0
 11
199.8010936037
 21
104.3636533815
 31
0.0
  0
LINE
  5
107
330
1F
100
AcDbEntity
  8
0
  6
Continuous
 62
     7
370
    15
100
AcDbLine
 10
201.5709007934
 20
89.0009752858
 30
0.0
 11
206.2994750992
 21
104.3636533815
 31
0.0
  0
ARC
  5
108
330
1F
100
AcDbEntity
  8
0
  6
Continuous
 62
     7
370
    15
100
AcDbCircle
 10
190.1879115573
 20
115.1139809817
 30
0.0
 40
2.378438309786695
100
AcDbArc
 50
107.5662857674
 51
137.7180465095
  0
LINE
  5
109
330
1F
100
AcDbEntity
  8
0
  6
Continuous
 62
     7
370
    15
100
AcDbLine
 10
189.4700775698
 20
117.3815089661
 30
0.0
 11
199.6079037741
 21
105.3422908682
 31
0.0
  0
ELLIPSE
  5
10A
330
1F
100
AcDbEntity
  8
0
  6
Continuous
 62
     7
370
    15
100
AcDbEllipse
 10
195.7224276046
 20
103.9627601218
 30
0.0
 11
1.115516390884807
 21
0.2268676615575629
 31
0.0
210
0.0
220
0.0
230
1.0
 40
0.0626557449
 41
1.869649869865985
 42
3.107439395269943
  0
ELLIPSE
  5
10B
330
1F
100
AcDbEntity
  8
0
  6
Continuous
 62
     7
370
    15
100
AcDbEllipse
 10
191.8018665985
 20
91.2252401828
 30
0.0
 11
1.029837078085905
 21
-0.05344264442868507
 31
0.0
210
0.0
220
0.0
230
1.0
 40
0.0182166226
 41
3.137004305393461
 42
4.374793830799167
  0
LINE
  5
10C
330
1F
100
AcDbEntity
  8
0
  6
Continuous
 62
     7
370
    15
100
AcDbLine
 10
199.6079037741
 20
105.3422908682
 30
0.0
 11
206.1062889949
 21
105.3422908682
 31
0.0
  0
ARC
  5
10D
330
1F
100
AcDbEntity
  8
0
  6
Continuous
 62
     7
370
    15
100
AcDbCircle
 10
205.2992183723
 20
104.6745860858
 30
0.0
 40
1.047469649359907
100
AcDbArc
 50
342.7319914387
 51
39.6015972629
  0
LINE
  5
10E
330
1F
100
AcDbEntity
  8
0
  6
Continuous
 62
     7
370
    15
100
AcDbLine
 10
195.9684627906
 20
117.3815089661
 30
0.0
 11
189.4700775698
 21
117.3815089661
 31
0.0
  0
LINE
  5
10F
330
1F
100
AcDbEntity
  8
0
  6
Continuous
 62
     7
370
    15
100
AcDbLine
 10
206.1062889949
 20
105.3422908682
 30
0.0
 11
195.9684627906
 21
117.3815089661
 31
0.0
  0
ELLIPSE
  5
110
330
1F
100
AcDbEntity
  8
0
  6
Continuous
 62
     7
370
    15
100
AcDbEllipse
 10
187.3169439151
 20
113.944728659
 30
0.0
 11
0.9304042641602736
 21
0.4464387949922042
 31
0.0
210
0.0
220
0.0
230
1.0
 40
0.1502412852
 41
1.874238218061062
 42
3.180334260104365
  0
ARC
  5
111
330
1F
100
AcDbEntity
  8
0
  6
Continuous
 62
     7
370
    15
100
AcDbCircle
 10
194.1479772581
 20
89.2698768083
 30
0.0
 40
0.9628530584871896
100
AcDbArc
 50
283.4965039778
 51
343.7830152547
  0
ARC
  5
112
330
1F
100
AcDbEntity
  8
0
  6
Continuous
 62
     7
370
    15
100
AcDbCircle
 10
195.0476222405
 20
89.3383912593
 30
0.0
 40
1.210415785618094
100
AcDbArc
 50
181.2373624625
 51
236.109977205
  0
LINE
  5
113
330
1F
100
AcDbEntity
  8
0
  6
Continuous
 62
     7
370
    15
100
AcDbLine
 10
194.372693713
 20
88.3336137432
 30
0.0
 11
192.4572164968
 21
87.9053972113
 31
0.0
  0
ARC
  5
114
330
1F
100
AcDbEntity
  8
0
  6
Continuous
 62
     7
370
    15
100
AcDbCircle
 10
193.1321338988
 20
88.9101686431
 30
0.0
 40
1.2104045313723
100
AcDbArc
 50
181.2370858919
 51
236.1102537756
  0
LINE
  5
115
330
1F
100
AcDbEntity
  8
0
  6
Continuous
 62
     7
370
    15
100
AcDbLine
 10
200.8710789338
 20
88.3336137432
 30
0.0
 11
194.372693713
 21
88.3336137432
 31
0.0
  0
ARC
  5
116
330
1F
100
AcDbEntity
  8
0
  6
Continuous
 62
     7
370
    15
100
AcDbCircle
 10
200.6463597505
 20
89.2698745085
 30
0.0
 40
0.9628514589998083
100
AcDbArc
 50
283.4966937909
 51
343.7831300939
  0
LINE
  5
117
330
1F
100
AcDbEntity
  8
0
  6
Continuous
 62
     7
370
    15
100
AcDbLine
 10
179.5062969283
 20
85.0101518828
 30
0.0
 11
186.0046784237
 21
85.0101518828
 31
0.0
  0
LINE
  5
118
330
1F
100
AcDbEntity
  8
0
  6
Continuous
 62
     7
370
    15
100
AcDbLine
 10
181.4217815951
 20
85.4383684146
 30
0.0
 11
179.5062969283
 21
85.0101518828
 31
0.0
  0
LINE
  5
119
330
1F
100
AcDbEntity
  8
0
  6
Continuous
 62
     7
370
    15
100
AcDbLine
 10
182.447838302
 20
85.4383684146
 30
0.0
 11
181.4217815951
 21
85.4383684146
 31
0.0
  0
ARC
  5
11A
330
1F
100
AcDbEntity
  8
0
  6
Continuous
 62
     7
370
    15
100
AcDbCircle
 10
181.005841641
 20
102.2356575446
 30
0.0
 40
16.85907104460213
100
AcDbArc
 50
274.9066401371
 51
283.6034957077
  0
LINE
  5
11B
330
1F
100
AcDbEntity
  8
0
  6
Continuous
 62
     7
370
    15
100
AcDbLine
 10
192.3280755833
 20
87.4942257452
 30
0.0
 11
184.9711189822
 21
85.8495398808
 31
0.0
  0
LWPOLYLINE
  5
11C
330
1F
100
AcDbEntity
  8
0
  6
Continuous
 62
     7
370
    15
100
AcDbPolyline
 90
        9
 70
   128
 43
0.0
 10
192.3280755833
 20
87.4942257452
 10
192.6737527207
 20
87.5744424212
 10
192.9798523739
 20
87.6515745568
 10
193.2346249774
 20
87.7226605463
 10
193.4282655672
 20
87.7849678892
 10
193.5533459142
 20
87.8361030865
 10
193.605045493
 20
87.8740991849
 10
193.5813898996
 20
87.8974977332
 10
193.4832806543
 20
87.9053972113
  0
LINE
  5
11D
330
1F
100
AcDbEntity
  8
0
  6
Continuous
 62
     7
370
    15
100
AcDbLine
 10
192.4572164968
 20
87.9053972113
 30
0.0
 11
193.4832806543
 21
87.9053972113
 31
0.0
  0
LINE
  5
11E
330
1F
100
AcDbEntity
  8
0
  6
Continuous
 62
     7
370
    15
100
AcDbLine
 10
186.0046784237
 20
85.0101518828
 30
0.0
 11
200.8710789338
 21
88.3336137432
 31
0.0
  0
ARC
  5
11F
330
1F
100
AcDbEntity
  8
0
  6
Continuous
 62
     7
370
    15
100
AcDbCircle
 10
195.2615071801
 20
116.7966597222
 30
0.0
 40
0.917515598335568
100
AcDbArc
 50
39.6002261597
 51
89.5545166378
  0
LINE
  5
120
330
1F
100
AcDbEntity
  8
0
  6
Continuous
 62
     7
370
    15
100
AcDbLine
 10
183.8702211932
 20
89.6938327152
 30
0.0
 11
184.4359139756
 21
86.8281792301
 31
0.0
  0
LINE
  5
121
330
1F
100
AcDbEntity
  8
0
  6
Continuous
 62
     7
370
    15
100
AcDbLine
 10
175.8527929739
 20
99.2149594623
 30
0.0
 11
183.8702211932
 21
89.6938327152
 31
0.0
  0
LINE
  5
122
330
1F
100
AcDbEntity
  8
0
  6
Continuous
 62
     7
370
    15
100
AcDbLine
 10
179.5923511342
 20
111.364420076
 30
0.0
 11
175.8527929739
 21
99.2149594623
 31
0.0
  0
LINE
  5
123
330
1F
100
AcDbEntity
  8
0
  6
Continuous
 62
     7
370
    15
100
AcDbLine
 10
179.0266583518
 20
114.2300735611
 30
0.0
 11
179.5923511342
 21
111.364420076
 31
0.0
  0
ARC
  5
124
330
1F
100
AcDbEntity
  8
0
  6
Continuous
 62
     7
370
    15
100
AcDbCircle
 10
181.1718248781
 20
86.4066154486
 30
0.0
 40
0.999990339479436
100
AcDbArc
 50
284.4750938277
 51
12.4730360125
  0
ARC
  5
125
330
1F
100
AcDbEntity
  8
0
  6
Continuous
 62
     7
370
    15
100
AcDbCircle
 10
182.0966778927
 20
86.4431375174
 30
0.0
 40
1.210390830462346
100
AcDbArc
 50
181.2369896274
 51
236.1110215943
  0
ARC
  5
126
330
1F
100
AcDbEntity
  8
0
  6
Continuous
 62
     7
370
    15
100
AcDbCircle
 10
182.8692543052
 20
78.2236505252
 30
0.0
 40
8.429836493957204
100
AcDbArc
 50
94.9067563023
 51
103.6033258329
  0
LINE
  5
127
330
1F
100
AcDbEntity
  8
0
  6
Continuous
 62
     7
370
    15
100
AcDbLine
 10
180.8865691379
 20
86.417007764
 30
0.0
 11
180.4244096235
 21
88.7582111555
 31
0.0
  0
ELLIPSE
  5
128
330
1F
100
AcDbEntity
  8
0
  6
Continuous
 62
     7
370
    15
100
AcDbEllipse
 10
180.7664274085
 20
88.7582103543
 30
0.0
 11
0.9304042641602736
 21
0.4464387949922042
 31
0.0
210
0.0
220
0.0
230
1.0
 40
0.1502412852
 41
0.303441891266075
 42
1.874238218061062
  0
LINE
  5
129
330
1F
100
AcDbEntity
  8
0
  6
Continuous
 62
     7
370
    15
100
AcDbLine
 10
181.6342796043
 20
89.2260219354
 30
0.0
 11
182.1482132033
 21
86.622593497
 31
0.0
  0
LINE
  5
12A
330
1F
100
AcDbEntity
  8
0
  6
Continuous
 62
     7
370
    15
100
AcDbLine
 10
180.4244096235
 20
88.7582111555
 30
0.0
 11
172.0189253644
 21
98.7401786643
 31
0.0
  0
ELLIPSE
  5
12B
330
1F
100
AcDbEntity
  8
0
  6
Continuous
 62
     7
370
    15
100
AcDbEllipse
 10
172.360943719
 20
98.7401788914
 30
0.0
 11
1.115516390884807
 21
0.2268676615575487
 31
0.0
210
0.0
220
0.0
230
1.0
 40
0.0626557449
 41
0.2988535430711869
 42
1.869649869866081
  0
LINE
  5
12C
330
1F
100
AcDbEntity
  8
0
  6
Continuous
 62
     7
370
    15
100
AcDbLine
 10
173.4228308157
 20
98.9775690633
 30
0.0
 11
181.6342796043
 21
89.2260219354
 31
0.0
  0
LINE
  5
12D
330
1F
100
AcDbEntity
  8
0
  6
Continuous
 62
     7
370
    15
100
AcDbLine
 10
178.9710919217
 20
85.9887912321
 30
0.0
 11
180.8865691379
 21
86.417007764
 31
0.0
  0
ARC
  5
12E
330
1F
100
AcDbEntity
  8
0
  6
Continuous
 62
     7
370
    15
100
AcDbCircle
 10
180.1812143303
 20
86.0149233145
 30
0.0
 40
1.2104045313723
100
AcDbArc
 50
181.2370858919
 51
236.1102537756
  0
LINE
  5
12F
330
1F
100
AcDbEntity
  8
0
  6
Continuous
 62
     7
370
    15
100
AcDbLine
 10
173.5618437484
 20
113.3906874257
 30
0.0
 11
168.8332657174
 21
98.02800933
 31
0.0
  0
LINE
  5
130
330
1F
100
AcDbEntity
  8
0
  6
Continuous
 62
     7
370
    15
100
AcDbLine
 10
175.4773209647
 20
113.818902095
 30
0.0
 11
173.5618437484
 21
113.3906874257
 31
0.0
  0
LINE
  5
131
330
1F
100
AcDbEntity
  8
0
  6
Continuous
 62
     7
370
    15
100
AcDbLine
 10
175.9394879297
 20
111.4776987034
 30
0.0
 11
175.4773209647
 21
113.818902095
 31
0.0
  0
LINE
  5
132
330
1F
100
AcDbEntity
  8
0
  6
Continuous
 62
     7
370
    15
100
AcDbLine
 10
172.0189253644
 20
98.7401786643
 30
0.0
 11
175.9394879297
 21
111.4776987034
 31
0.0
  0
LINE
  5
133
330
1F
100
AcDbEntity
  8
0
  6
Continuous
 62
     7
370
    15
100
AcDbLine
 10
168.8332657174
 20
98.02800933
 30
0.0
 11
178.9710919217
 21
85.9887912321
 31
0.0
  0
LINE
  5
134
330
1F
100
AcDbEntity
  8
0
  6
Continuous
 62
     7
370
    15
100
AcDbLine
 10
182.1482132033
 20
86.622593497
 30
0.0
 11
183.1742699102
 21
86.622593497
 31
0.0
  0
ARC
  5
135
330
1F
100
AcDbEntity
  8
0
  6
Continuous
 62
     7
370
    15
100
AcDbCircle
 10
182.1978873878
 20
86.406611889
 30
0.0
 40
0.9999854424610822
100
AcDbArc
 50
284.4748228814
 51
12.4733069588
  0
LINE
  5
136
330
1F
100
AcDbEntity
  8
0
  6
Continuous
 62
     7
370
    15
100
AcDbLine
 10
182.6603437618
 20
89.2260219354
 30
0.0
 11
181.6342796043
 21
89.2260219354
 31
0.0
  0
LINE
  5
137
330
1F
100
AcDbEntity
  8
0
  6
Continuous
 62
     7
370
    15
100
AcDbLine
 10
183.1742699102
 20
86.622593497
 30
0.0
 11
182.6603437618
 21
89.2260219354
 31
0.0
  0
ELLIPSE
  5
138
330
1F
100
AcDbEntity
  8
0
  6
Continuous
 62
     7
370
    15
100
AcDbEllipse
 10
176.281504725
 20
111.4776988305
 30
0.0
 11
1.029837078085905
 21
-0.05344264442869928
 31
0.0
210
0.0
220
0.0
230
1.0
 40
0.0182166226
 41
4.37479383079925
 42
5.945590157592867
  0
LINE
  5
139
330
1F
100
AcDbEntity
  8
0
  6
Continuous
 62
     7
370
    15
100
AcDbLine
 10
177.2528911785
 20
111.4210593897
 30
0.0
 11
173.4228308157
 21
98.9775690633
 31
0.0
  0
LINE
  5
13A
330
1F
100
AcDbEntity
  8
0
  6
Continuous
 62
     7
370
    15
100
AcDbLine
 10
174.4488875226
 20
98.9775690633
 30
0.0
 11
173.4228308157
 21
98.9775690633
 31
0.0
  0
LINE
  5
13B
330
1F
100
AcDbEntity
  8
0
  6
Continuous
 62
     7
370
    15
100
AcDbLine
 10
182.6603437618
 20
89.2260219354
 30
0.0
 11
174.4488875226
 21
98.9775690633
 31
0.0
  0
ARC
  5
13C
330
1F
100
AcDbEntity
  8
0
  6
Continuous
 62
     7
370
    15
100
AcDbCircle
 10
185.6460363842
 20
86.8543113125
 30
0.0
 40
1.21040453137228
100
AcDbArc
 50
181.2370858919
 51
236.1102537756
  0
ARC
  5
13D
330
1F
100
AcDbEntity
  8
0
  6
Continuous
 62
     7
370
    15
100
AcDbCircle
 10
177.4598459046
 20
105.6264520556
 30
0.0
 40
8.42891705884745
100
AcDbArc
 50
94.9061996937
 51
103.6037176387
  0
LINE
  5
13E
330
1F
100
AcDbEntity
  8
0
  6
Continuous
 62
     7
370
    15
100
AcDbLine
 10
176.7389650301
 20
114.0244859654
 30
0.0
 11
177.2528911785
 21
111.4210593897
 31
0.0
  0
LWPOLYLINE
  5
13F
330
1F
100
AcDbEntity
  8
0
  6
Continuous
 62
     7
370
    15
100
AcDbPolyline
 90
        3
 70
   128
 43
0.0
 10
186.0046784237
 20
85.0101518828
 10
185.8829955414
 20
84.9916912067
 10
185.8114923194
 20
84.9887910682
  0
LINE
  5
140
330
1F
100
AcDbEntity
  8
0
  6
Continuous
 62
     7
370
    15
100
AcDbLine
 10
178.2789478854
 20
111.4210593897
 30
0.0
 11
177.2528911785
 21
111.4210593897
 31
0.0
  0
LINE
  5
141
330
1F
100
AcDbEntity
  8
0
  6
Continuous
 62
     7
370
    15
100
AcDbLine
 10
174.4488875226
 20
98.9775690633
 30
0.0
 11
178.2789478854
 21
111.4210593897
 31
0.0
  0
LINE
  5
142
330
1F
100
AcDbEntity
  8
0
  6
Continuous
 62
     7
370
    15
100
AcDbLine
 10
177.765021737
 20
114.0244859654
 30
0.0
 11
176.7389650301
 21
114.0244859654
 31
0.0
  0
LINE
  5
143
330
1F
100
AcDbEntity
  8
0
  6
Continuous
 62
     7
370
    15
100
AcDbLine
 10
178.2789478854
 20
111.4210593897
 30
0.0
 11
177.765021737
 21
114.0244859654
 31
0.0
  0
ARC
  5
144
330
1F
100
AcDbEntity
  8
0
  6
Continuous
 62
     7
370
    15
100
AcDbCircle
 10
182.4533041952
 20
95.0210738324
 30
0.0
 40
8.429369104815486
100
AcDbArc
 50
274.9065147359
 51
283.6035673993
  0
ELLIPSE
  5
145
330
1F
100
AcDbEntity
  8
0
  6
Continuous
 62
     7
370
    15
100
AcDbEllipse
 10
183.5281988465
 20
89.6938331008
 30
0.0
 11
0.9304042641603019
 21
0.4464387949922041
 31
0.0
210
0.0
220
0.0
230
1.0
 40
0.1502412852
 41
3.445034544856061
 42
5.015830871650844
  0
ELLIPSE
  5
146
330
1F
100
AcDbEntity
  8
0
  6
Continuous
 62
     7
370
    15
100
AcDbEllipse
 10
175.5107754113
 20
99.2149590033
 30
0.0
 11
1.115516390884807
 21
0.2268676615575487
 31
0.0
210
0.0
220
0.0
230
1.0
 40
0.0626557449
 41
3.44044619666097
 42
5.011242523455839
  0
ELLIPSE
  5
147
330
1F
100
AcDbEntity
  8
0
  6
Continuous
 62
     7
370
    15
100
AcDbEllipse
 10
179.250333877
 20
111.3644193602
 30
0.0
 11
1.029837078085905
 21
-0.05344264442868507
 31
0.0
210
0.0
220
0.0
230
1.0
 40
0.0182166226
 41
1.233201177209288
 42
2.803997504003862
  0
ARC
  5
148
330
1F
100
AcDbEntity
  8
0
  6
Continuous
 62
     7
370
    15
100
AcDbCircle
 10
177.0439955456
 20
122.4231913491
 30
0.0
 40
8.429598501220806
100
AcDbArc
 50
274.9067934548
 51
283.6035609036
  0
ARC
  5
149
330
1F
100
AcDbEntity
  8
0
  6
Continuous
 62
     7
370
    15
100
AcDbCircle
 10
175.2101253964
 20
131.5953451495
 30
0.0
 40
16.85959378930702
100
AcDbArc
 50
274.9068146092
 51
283.6033749455
  0
LINE
  5
14A
330
1F
100
AcDbEntity
  8
0
  6
Continuous
 62
     7
370
    15
100
AcDbLine
 10
450.340683277
 20
156.3963662285
 30
0.0
 11
450.340683277
 21
137.0382304686
 31
0.0
  0
SPLINE
  5
14B
330
1F
100
AcDbEntity
  8
0
  6
Continuous
 62
     7
370
    15
100
AcDbSpline
210
0.0
220
0.0
230
1.0
 70
     8
 71
     3
 72
    13
 73
     9
 74
     0
 42
0.00000001
 43
0.00000001
 12
1.0
 22
0.0
 32
0.0
 13
1.0
 23
0.0
 33
0.0
 40
0.0
 40
0.0
 40
0.0
 40
0.0
 40
0.0146100153837
 40
0.1417737688513991
 40
0.3564613083955568
 40
0.5710120216018421
 40
0.7855011420853445
 40
0.9999999999999999
 40
0.9999999999999999
 40
0.9999999999999999
 40
0.9999999999999999
 10
450.3406832769883
 20
137.0382304686399
 30
0.0
 10
450.3406296574026
 20
137.032016380168
 30
0.0
 10
450.3401093396229
 20
136.9717156399223
 30
0.0
 10
450.3169101144639
 20
136.8203177971856
 30
0.0
 10
450.2046506094705
 20
136.5967428714003
 30
0.0
 10
449.9770298425331
 20
136.3900180879839
 30
0.0
 10
449.677868558112
 20
136.2495943480985
 30
0.0
 10
449.4530787204633
 20
136.2315886578491
 30
0.0
 10
449.3406812504304
 20
136.2225856083723
 30
0.0
  0
LINE
  5
14C
330
1F
100
AcDbEntity
  8
0
  6
Continuous
 62
     7
370
    15
100
AcDbLine
 10
449.3406812504
 20
136.2225856084
 30
0.0
 11
449.3406812504
 21
157.2218160528
 31
0.0
  0
SPLINE
  5
14D
330
1F
100
AcDbEntity
  8
0
  6
Continuous
 62
     7
370
    15
100
AcDbSpline
210
0.0
220
0.0
230
1.0
 70
     8
 71
     3
 72
    13
 73
     9
 74
     0
 42
0.00000001
 43
0.00000001
 12
1.0
 22
0.0
 32
0.0
 13
1.0
 23
0.0
 33
0.0
 40
0.0
 40
0.0
 40
0.0
 40
0.0
 40
0.0146062392303192
 40
0.1417764140872149
 40
0.3564610014946736
 40
0.5710121028086443
 40
0.7855011779591972
 40
1.0
 40
1.0
 40
1.0
 40
1.0
 10
450.3406832769883
 20
156.3963662284704
 30
0.0
 10
450.3406296353722
 20
156.4026522806775
 30
0.0
 10
450.3401089595254
 20
156.4636682565652
 30
0.0
 10
450.3169128054114
 20
156.6169029085226
 30
0.0
 10
450.2046485284058
 20
156.8431557146723
 30
0.0
 10
449.9770304010049
 20
157.0523712738459
 30
0.0
 10
449.6778684606888
 20
157.1944833379644
 30
0.0
 10
449.4530786896409
 20
157.2127050098543
 30
0.0
 10
449.3406812504304
 20
157.2218160528036
 30
0.0
  0
LINE
  5
14E
330
1F
100
AcDbEntity
  8
0
  6
Continuous
 62
     7
370
    15
100
AcDbLine
 10
449.3406812504
 20
157.2218160528
 30
0.0
 11
446.1406866864
 21
157.2218160528
 31
0.0
  0
LINE
  5
14F
330
1F
100
AcDbEntity
  8
0
  6
Continuous
 62
     7
370
    15
100
AcDbLine
 10
449.3406812504
 20
136.2225856084
 30
0.0
 11
446.1406866864
 21
136.2225856084
 31
0.0
  0
LINE
  5
150
330
1F
100
AcDbEntity
  8
0
  6
Continuous
 62
     7
370
    15
100
AcDbLine
 10
446.1406866864
 20
136.2225856084
 30
0.0
 11
446.1406866864
 21
157.2218160528
 31
0.0
  0
LINE
  5
151
330
1F
100
AcDbEntity
  8
0
  6
Continuous
 62
     7
370
    15
100
AcDbLine
 10
449.3406812504
 20
134.3774269718
 30
0.0
 11
449.3406812504
 21
136.2225856084
 31
0.0
  0
LINE
  5
152
330
1F
100
AcDbEntity
  8
0
  6
Continuous
 62
     7
370
    15
100
AcDbLine
 10
446.1406866864
 20
121.349751522
 30
0.0
 11
446.1406866864
 21
136.2225856084
 31
0.0
  0
ARC
  5
153
330
1F
100
AcDbEntity
  8
0
  6
Continuous
 62
     7
370
    15
100
AcDbCircle
 10
449.4231275408
 20
135.2968015349
 30
0.0
 40
0.9230639079460813
100
AcDbArc
 50
264.8756223928
 51
353.7375873542
  0
LINE
  5
154
330
1F
100
AcDbEntity
  8
0
  6
Continuous
 62
     7
370
    15
100
AcDbLine
 10
450.340683277
 20
137.0382304686
 30
0.0
 11
450.340683277
 21
135.196111669
 31
0.0
  0
LINE
  5
155
330
1F
100
AcDbEntity
  8
0
  6
Continuous
 62
     7
370
    15
100
AcDbLine
 10
449.3406812504
 20
157.2218160528
 30
0.0
 11
449.3406812504
 21
159.0236570138
 31
0.0
  0
ARC
  5
156
330
1F
100
AcDbEntity
  8
0
  6
Continuous
 62
     7
370
    15
100
AcDbCircle
 10
449.4191425558
 20
158.1005950589
 30
0.0
 40
0.9263906028075407
100
AcDbArc
 50
5.8653749679
 51
94.8585269622
  0
LINE
  5
157
330
1F
100
AcDbEntity
  8
0
  6
Continuous
 62
     7
370
    15
100
AcDbLine
 10
450.340683277
 20
158.1952642101
 30
0.0
 11
450.340683277
 21
156.3963662285
 31
0.0
  0
LINE
  5
158
330
1F
100
AcDbEntity
  8
0
  6
Continuous
 62
     7
370
    15
100
AcDbLine
 10
446.1406866864
 20
157.2218160528
 30
0.0
 11
446.1406866864
 21
171.35319071
 31
0.0
  0
LINE
  5
159
330
1F
100
AcDbEntity
  8
0
  6
Continuous
 62
     7
370
    15
100
AcDbLine
 10
450.340683277
 20
135.196111669
 30
0.0
 11
450.340683277
 21
122.3497498232
 31
0.0
  0
LINE
  5
15A
330
1F
100
AcDbEntity
  8
0
  6
Continuous
 62
     7
370
    15
100
AcDbLine
 10
450.340683277
 20
170.3531886834
 30
0.0
 11
450.340683277
 21
158.1952642101
 31
0.0
  0
LINE
  5
15B
330
1F
100
AcDbEntity
  8
0
  6
Continuous
 62
     7
370
    15
100
AcDbLine
 10
445.7406948164
 20
151.3514663476
 30
0.0
 11
445.7406948164
 21
170.3514675993
 31
0.0
  0
LINE
  5
15C
330
1F
100
AcDbEntity
  8
0
  6
Continuous
 62
     7
370
    15
100
AcDbLine
 10
445.7406948164
 20
122.3514709073
 30
0.0
 11
445.7406948164
 21
141.3514684337
 31
0.0
  0
LINE
  5
15D
330
1F
100
AcDbEntity
  8
0
  6
Continuous
 62
     7
370
    15
100
AcDbLine
 10
111.9428972558
 20
269.8513190645
 30
0.0
 11
107.7881256894
 21
269.8513190645
 31
0.0
  0
LINE
  5
15E
330
1F
100
AcDbEntity
  8
0
  6
Continuous
 62
     7
370
    15
100
AcDbLine
 10
104.8749933795
 20
269.8513190645
 30
0.0
 11
48.7154374674
 21
269.8513190645
 31
0.0
  0
LINE
  5
15F
330
1F
100
AcDbEntity
  8
0
  6
Continuous
 62
     7
370
    15
100
AcDbLine
 10
258.2476511849
 20
263.8513218063
 30
0.0
 11
48.8201628283
 21
263.8513218063
 31
0.0
  0
LINE
  5
160
330
1F
100
AcDbEntity
  8
0
  6
Continuous
 62
     7
370
    15
100
AcDbLine
 10
466.810698326
 20
263.8513218063
 30
0.0
 11
258.2476511849
 21
263.8513218063
 31
0.0
  0
SPLINE
  5
161
330
1F
100
AcDbEntity
  8
0
  6
Continuous
 62
     7
370
    15
100
AcDbSpline
210
0.0
220
0.0
230
1.0
 70
    11
 71
     3
 72
    27
 73
    23
 74
     0
 42
0.00000001
 43
0.00000001
 12
1.0
 22
0.0
 32
0.0
 13
1.0
 23
0.0
 33
0.0
 40
0.0
 40
0.0
 40
0.0
 40
0.0
 40
0.018114572637706
 40
0.0363078252573899
 40
0.0560411754014674
 40
0.0860899517512534
 40
0.141785833879824
 40
0.2522550653396313
 40
0.3733498777621821
 40
0.4412785856243425
 40
0.4704181087573751
 40
0.4998417252167656
 40
0.5168865280534096
 40
0.5339978377210285
 40
0.5501587654546258
 40
0.5764773396499737
 40
0.6225186629363161
 40
0.7138120393000927
 40
0.8587982405197319
 40
0.9135174455392578
 40
0.9686229465863936
 40
0.9999999999999999
 40
0.9999999999999999
 40
0.9999999999999999
 40
0.9999999999999999
 10
69.81659930501111
 20
219.1400449174734
 30
0.0
 10
69.8070339290105
 20
219.1120031098138
 30
0.0
 10
69.78786163014944
 20
219.0557976959313
 30
0.0
 10
69.69153469432926
 20
219.0869063006288
 30
0.0
 10
69.53387419873016
 20
219.2278714843484
 30
0.0
 10
69.25361684473599
 20
219.573727133141
 30
0.0
 10
68.72560457050517
 20
220.3669256932731
 30
0.0
 10
68.00392272508162
 20
221.6382002944002
 30
0.0
 10
67.34662590102874
 20
222.9724472412305
 30
0.0
 10
66.97349184101009
 20
223.8916806410624
 30
0.0
 10
66.83660390016851
 20
224.3504267494782
 30
0.0
 10
66.80719168715422
 20
224.5674685694042
 30
0.0
 10
66.84943457680681
 20
224.651841300225
 30
0.0
 10
66.92870507620685
 20
224.6371223128316
 30
0.0
 10
67.06040729576976
 20
224.5332182851304
 30
0.0
 10
67.29154954893201
 20
224.2704605788339
 30
0.0
 10
67.73779790119852
 20
223.6386764677171
 30
0.0
 10
68.4680425113642
 20
222.4144937423651
 30
0.0
 10
69.1401195831384
 20
221.0950531309305
 30
0.0
 10
69.59288471691022
 20
220.0197173035605
 30
0.0
 10
69.79996845549877
 20
219.438628159158
 30
0.0
 10
69.81217177413023
 20
219.2195349352303
 30
0.0
 10
69.81659930501111
 20
219.1400449174734
 30
0.0
  0
SPLINE
  5
162
330
1F
100
AcDbEntity
  8
0
  6
Continuous
 62
     7
370
    15
100
AcDbSpline
210
0.0
220
0.0
230
1.0
 70
    11
 71
     3
 72
    28
 73
    24
 74
     0
 42
0.00000001
 43
0.00000001
 12
1.0
 22
0.0
 32
0.0
 13
1.0
 23
0.0
 33
0.0
 40
0.0
 40
0.0
 40
0.0
 40
0.0
 40
0.0174790109474383
 40
0.0396369620988629
 40
0.0756855553011125
 40
0.1456234826753529
 40
0.2769409050691776
 40
0.3785333987845044
 40
0.4163094715871139
 40
0.454315002432647
 40
0.4744359850807924
 40
0.4947454414846764
 40
0.5123830643294265
 40
0.5324755221116763
 40
0.5631183860754263
 40
0.619762699086433
 40
0.7312036584020231
 40
0.8530395411478465
 40
0.9205644898521672
 40
0.9478361506037621
 40
0.9753462501032782
 40
0.9922985346551492
 40
1.0
 40
1.0
 40
1.0
 40
1.0
 10
99.66912370476847
 20
219.0729598897787
 30
0.0
 10
99.61216393391086
 20
219.0853894812544
 30
0.0
 10
99.4829968840456
 20
219.1135759300017
 30
0.0
 10
99.20848510367769
 20
219.3119003425644
 30
0.0
 10
98.77854276387794
 20
219.7653238032646
 30
0.0
 10
98.09926526301793
 20
220.7669285600855
 30
0.0
 10
97.44340629864004
 20
222.1202838198018
 30
0.0
 10
97.06227883088522
 20
223.3155458010077
 30
0.0
 10
96.96459028771118
 20
224.0321774160618
 30
0.0
 10
96.9842983047903
 20
224.3787989401689
 30
0.0
 10
97.08512308247452
 20
224.5835190066183
 30
0.0
 10
97.22220692291464
 20
224.6577104424126
 30
0.0
 10
97.41114125263314
 20
224.6247417668494
 30
0.0
 10
97.6564398362217
 20
224.479713167305
 30
0.0
 10
98.0306373778131
 20
224.1262875190625
 30
0.0
 10
98.63637089296923
 20
223.3209981888883
 30
0.0
 10
99.32896117996337
 20
222.0374516753618
 30
0.0
 10
99.82867200150292
 20
220.6968877188471
 30
0.0
 10
99.9927053771488
 20
219.7864249431021
 30
0.0
 10
99.96688185104213
 20
219.3473960940437
 30
0.0
 10
99.8842940284021
 20
219.1456808820046
 30
0.0
 10
99.7648659803605
 20
219.0734850781297
 30
0.0
 10
99.69191310091385
 20
219.0730848996065
 30
0.0
 10
99.6691237047685
 20
219.0729598897787
 30
0.0
  0
SPLINE
  5
163
330
1F
100
AcDbEntity
  8
0
  6
Continuous
 62
     7
370
    15
100
AcDbSpline
210
0.0
220
0.0
230
1.0
 70
    11
 71
     3
 72
    27
 73
    23
 74
     0
 42
0.00000001
 43
0.00000001
 12
1.0
 22
0.0
 32
0.0
 13
1.0
 23
0.0
 33
0.0
 40
0.0
 40
0.0
 40
0.0
 40
0.0
 40
0.0638558809464047
 40
0.1826065487543257
 40
0.3111615834305003
 40
0.3740998579029478
 40
0.3961242242924159
 40
0.4183181624127284
 40
0.4347620513627278
 40
0.4512204658423991
 40
0.4723617332886529
 40
0.5056592770906833
 40
0.5685992706124198
 40
0.690127488768496
 40
0.820605210599302
 40
0.8816545604122816
 40
0.9021681318916174
 40
0.922846506031702
 40
0.9388951852155829
 40
0.954927775468033
 40
0.9776573610258559
 40
1.0
 40
1.0
 40
1.0
 40
1.0
 10
196.8606288388742
 20
219.5227365392538
 30
0.0
 10
196.6727992615815
 20
219.772251874321
 30
0.0
 10
196.1356692376109
 20
220.4857826176544
 30
0.0
 10
195.7540127176623
 20
221.8920342307552
 30
0.0
 10
195.7033526385968
 20
223.2650883193662
 30
0.0
 10
196.0069302110174
 20
224.1357176315848
 30
0.0
 10
196.3078599826494
 20
224.4781429913606
 30
0.0
 10
196.5408146210803
 20
224.6156852734721
 30
0.0
 10
196.7991343526369
 20
224.6554111125748
 30
0.0
 10
197.0651735695708
 20
224.6083176147987
 30
0.0
 10
197.387781200595
 20
224.4436811149183
 30
0.0
 10
197.8208755346514
 20
224.0408492354544
 30
0.0
 10
198.3755278868207
 20
223.1412939778237
 30
0.0
 10
198.7753006556624
 20
221.7404609089086
 30
0.0
 10
198.7844305429449
 20
220.3479333953817
 30
0.0
 10
198.4425600281027
 20
219.4957443716236
 30
0.0
 10
198.1271274428019
 20
219.1900718964789
 30
0.0
 10
197.8924262821864
 20
219.0793615267673
 30
0.0
 10
197.638328504159
 20
219.0634355361017
 30
0.0
 10
197.3716212014141
 20
219.1317855629627
 30
0.0
 10
197.1008893731679
 20
219.2893694900409
 30
0.0
 10
196.940256002652
 20
219.4453940148037
 30
0.0
 10
196.8606288388742
 20
219.5227365392538
 30
0.0
  0
SPLINE
  5
164
330
1F
100
AcDbEntity
  8
0
  6
Continuous
 62
     7
370
    15
100
AcDbSpline
210
0.0
220
0.0
230
1.0
 70
    11
 71
     3
 72
    28
 73
    24
 74
     0
 42
0.00000001
 43
0.00000001
 12
1.0
 22
0.0
 32
0.0
 13
1.0
 23
0.0
 33
0.0
 40
0.0
 40
0.0
 40
0.0
 40
0.0
 40
0.0509029729164956
 40
0.1382732514776778
 40
0.2827128641496944
 40
0.3380874452477517
 40
0.3937812091758151
 40
0.4164016210346448
 40
0.439205084257707
 40
0.4556592534101391
 40
0.4721293951904544
 40
0.4931969121010596
 40
0.526311432996053
 40
0.5888217732634038
 40
0.7097082760513824
 40
0.839658884872891
 40
0.9012010775167265
 40
0.9219512892657024
 40
0.9428671466495042
 40
0.9589449181343896
 40
0.9750131145973598
 40
0.9972827324542997
 40
1.0
 40
1.0
 40
1.0
 40
1.0
 10
278.0896953151
 20
219.3121533292623
 30
0.0
 10
277.9423323957111
 20
219.4911271704871
 30
0.0
 10
277.5420345576146
 20
219.977293174901
 30
0.0
 10
277.2850134015417
 20
221.227771838426
 30
0.0
 10
277.3558227279707
 20
222.5132358761816
 30
0.0
 10
277.745873509389
 20
223.6072892609344
 30
0.0
 10
278.0798838890778
 20
224.1450938846971
 30
0.0
 10
278.4475611463066
 20
224.4716825637268
 30
0.0
 10
278.7273447654459
 20
224.6142812231383
 30
0.0
 10
279.0095435159913
 20
224.6554564925256
 30
0.0
 10
279.2766371185975
 20
224.609327601066
 30
0.0
 10
279.5751847095296
 20
224.4461187781842
 30
0.0
 10
279.9337204157203
 20
224.04661170248
 30
0.0
 10
280.3058534807121
 20
223.1531840366915
 30
0.0
 10
280.4043018189254
 20
221.7596003760931
 30
0.0
 10
280.1001270448806
 20
220.3698695950602
 30
0.0
 10
279.5561270789391
 20
219.5135216933107
 30
0.0
 10
279.1581507408611
 20
219.1997727023597
 30
0.0
 10
278.8876563038694
 20
219.0833472522789
 30
0.0
 10
278.6172163057294
 20
219.0620482824908
 30
0.0
 10
278.3539625241062
 20
219.1250622888272
 30
0.0
 10
278.186647298272
 20
219.2291436916894
 30
0.0
 10
278.0992045203753
 20
219.3040116114997
 30
0.0
 10
278.0896953151
 20
219.3121533292623
 30
0.0
  0
SPLINE
  5
165
330
1F
100
AcDbEntity
  8
0
  6
Continuous
 62
     7
370
    15
100
AcDbSpline
210
0.0
220
0.0
230
1.0
 70
    11
 71
     3
 72
    28
 73
    24
 74
     0
 42
0.00000001
 43
0.00000001
 12
1.0
 22
0.0
 32
0.0
 13
1.0
 23
0.0
 33
0.0
 40
0.0
 40
0.0
 40
0.0
 40
0.0
 40
0.0188490919647416
 40
0.0378511464719917
 40
0.0552395962825483
 40
0.0749955061513814
 40
0.1051013181474167
 40
0.1609386175236278
 40
0.2716526481977767
 40
0.3929647372142985
 40
0.4607593981375898
 40
0.4895813854079303
 40
0.5186783626219045
 40
0.5357182616298458
 40
0.552824382737021
 40
0.5689845816249263
 40
0.5953242075437898
 40
0.641420771844633
 40
0.7328295130598212
 40
0.8778067572697176
 40
0.9422734293765332
 40
0.98843235259584
 40
1.0
 40
1.0
 40
1.0
 40
1.0
 10
61.95438903126841
 20
219.2785810130926
 30
0.0
 10
61.98168131260012
 20
219.227832119989
 30
0.0
 10
62.03648735525585
 20
219.1259225006952
 30
0.0
 10
62.0730042903532
 20
219.0586730279012
 30
0.0
 10
62.05795039269887
 20
219.0879285334187
 30
0.0
 10
61.98310729153775
 20
219.2291199072286
 30
0.0
 10
61.79862177914999
 20
219.5754920611633
 30
0.0
 10
61.37324484273876
 20
220.3714635874002
 30
0.0
 10
60.68942073996195
 20
221.6455996761791
 30
0.0
 10
59.96848632687743
 20
222.9815471365904
 30
0.0
 10
59.47107187514978
 20
223.8991899790366
 30
0.0
 10
59.22379655395518
 20
224.3539287985645
 30
0.0
 10
59.10693416161642
 20
224.5682178779269
 30
0.0
 10
59.06086949383477
 20
224.6519195533069
 30
0.0
 10
59.06844384666201
 20
224.6369767870648
 30
0.0
 10
59.12436597253734
 20
224.5328378166442
 30
0.0
 10
59.26647165610643
 20
224.2696117452584
 30
0.0
 10
59.60848126029811
 20
223.6368438341457
 30
0.0
 10
60.27077285578675
 20
222.4105734731672
 30
0.0
 10
61.0025151186224
 20
221.0513928233392
 30
0.0
 10
61.58491420785428
 20
219.966814851704
 30
0.0
 10
61.84140875893626
 20
219.4888743124311
 30
0.0
 10
61.93552864159721
 20
219.3136863769663
 30
0.0
 10
61.95438903126843
 20
219.2785810130926
 30
0.0
  0
SPLINE
  5
166
330
1F
100
AcDbEntity
  8
0
  6
Continuous
 62
     7
370
    15
100
AcDbSpline
210
0.0
220
0.0
230
1.0
 70
    11
 71
     3
 72
    27
 73
    23
 74
     0
 42
0.00000001
 43
0.00000001
 12
1.0
 22
0.0
 32
0.0
 13
1.0
 23
0.0
 33
0.0
 40
0.0
 40
0.0
 40
0.0
 40
0.0
 40
0.0241692999125964
 40
0.0610035469102194
 40
0.1324745235773818
 40
0.2655401498451977
 40
0.3628340310142807
 40
0.402599036086251
 40
0.442676181287536
 40
0.4619318761089725
 40
0.4813543006426518
 40
0.4983898311417228
 40
0.5192669949703509
 40
0.5519111737516552
 40
0.6133116862036884
 40
0.7325130097668493
 40
0.8610715520924308
 40
0.9238769973307155
 40
0.945348428516849
 40
0.9669849111615703
 40
0.9831867466098204
 40
1.0
 40
1.0
 40
1.0
 40
1.0
 10
318.9555096283925
 20
219.1184233325811
 30
0.0
 10
319.0660793588905
 20
219.1705088034626
 30
0.0
 10
319.3451584288541
 20
219.3019730360945
 30
0.0
 10
319.8043993122006
 20
219.7933618393495
 30
0.0
 10
320.3706661688365
 20
220.8022838447956
 30
0.0
 10
320.6925554194353
 20
222.1583151067003
 30
0.0
 10
320.6570784860357
 20
223.3465637009635
 30
0.0
 10
320.4259657811478
 20
224.060433469762
 30
0.0
 10
320.189956916172
 20
224.4142272937731
 30
0.0
 10
319.9007770265709
 20
224.603275205592
 30
0.0
 10
319.6435355578539
 20
224.6584370830477
 30
0.0
 10
319.3608444767302
 20
224.6130953380589
 30
0.0
 10
319.0382109657425
 20
224.4524881286305
 30
0.0
 10
318.6095152272642
 20
224.0616654158599
 30
0.0
 10
318.0557671449747
 20
223.1844210977631
 30
0.0
 10
317.6457835136472
 20
221.8103018059678
 30
0.0
 10
317.6147921617983
 20
220.4280050736469
 30
0.0
 10
317.9231159567817
 20
219.5616877760312
 30
0.0
 10
318.226132882011
 20
219.2260332136714
 30
0.0
 10
318.456026358517
 20
219.0959454122186
 30
0.0
 10
318.7143731523311
 20
219.0566042403064
 30
0.0
 10
318.8741445158421
 20
219.0975641184014
 30
0.0
 10
318.9555096283925
 20
219.1184233325811
 30
0.0
  0
SPLINE
  5
167
330
1F
100
AcDbEntity
  8
0
  6
Continuous
 62
     7
370
    15
100
AcDbSpline
210
0.0
220
0.0
230
1.0
 70
    11
 71
     3
 72
    28
 73
    24
 74
     0
 42
0.00000001
 43
0.00000001
 12
1.0
 22
0.0
 32
0.0
 13
1.0
 23
0.0
 33
0.0
 40
0.0
 40
0.0
 40
0.0
 40
0.0
 40
0.0196626189270218
 40
0.0467240366952984
 40
0.0948600278033332
 40
0.1911060893719533
 40
0.335971261889112
 40
0.405195913440594
 40
0.4363428485306979
 40
0.4678225727411563
 40
0.484898293829687
 40
0.502044138289246
 40
0.5181937164420324
 40
0.5442913976778403
 40
0.5897973486567805
 40
0.6799794461863308
 40
0.8248186205594259
 40
0.8752829274910893
 40
0.9385139680321909
 40
0.9591658288591217
 40
0.9799856304335811
 40
0.996033447234871
 40
1.0
 40
1.0
 40
1.0
 40
1.0
 10
373.3153591707719
 20
219.083897342095
 30
0.0
 10
373.4004830307815
 20
219.1110004215444
 30
0.0
 10
373.6027618001301
 20
219.1754051319978
 30
0.0
 10
373.9825638221016
 20
219.4753546243453
 30
0.0
 10
374.5390645067399
 20
220.139907581832
 30
0.0
 10
375.2003849730365
 20
221.4072435563338
 30
0.0
 10
375.5908798198476
 20
222.801368923911
 30
0.0
 10
375.5978702099989
 20
223.8400481978254
 30
0.0
 10
375.4552473958597
 20
224.3264825537998
 30
0.0
 10
375.2776346712348
 20
224.5616787561089
 30
0.0
 10
375.0477078019869
 20
224.6512159677291
 30
0.0
 10
374.8349225321164
 20
224.6383735688255
 30
0.0
 10
374.5768346219774
 20
224.5364724872378
 30
0.0
 10
374.220989187788
 20
224.2777733380221
 30
0.0
 10
373.6815496910041
 20
223.6553870424765
 30
0.0
 10
373.0149308031994
 20
222.4399752415255
 30
0.0
 10
372.6319600891752
 20
221.1490595098902
 30
0.0
 10
372.5644887517578
 20
220.0481128303046
 30
0.0
 10
372.6497696729335
 20
219.5040847595764
 30
0.0
 10
372.8681356543677
 20
219.1902040255551
 30
0.0
 10
373.0489097149593
 20
219.0794519077354
 30
0.0
 10
373.2139195415124
 20
219.0663434046574
 30
0.0
 10
373.2985805983563
 20
219.0809938416324
 30
0.0
 10
373.3153591707719
 20
219.083897342095
 30
0.0
  0
SPLINE
  5
168
330
1F
100
AcDbEntity
  8
0
  6
Continuous
 62
     7
370
    15
100
AcDbSpline
210
0.0
220
0.0
230
1.0
 70
    11
 71
     3
 72
    28
 73
    24
 74
     0
 42
0.00000001
 43
0.00000001
 12
1.0
 22
0.0
 32
0.0
 13
1.0
 23
0.0
 33
0.0
 40
0.0
 40
0.0
 40
0.0
 40
0.0
 40
0.0160310539581736
 40
0.0320321795209665
 40
0.0557199956159786
 40
0.0957407205252378
 40
0.1747211081371538
 40
0.314594949218373
 40
0.3908938435326316
 40
0.4415986261718572
 40
0.46922068121465
 40
0.4904325893732642
 40
0.5071579716663146
 40
0.5239202710568535
 40
0.5441239182762716
 40
0.5750492258729796
 40
0.6323705749650796
 40
0.7449672554202339
 40
0.8678311666527339
 40
0.9118332966981177
 40
0.9560685129356974
 40
0.9793016485875528
 40
1.0
 40
1.0
 40
1.0
 40
1.0
 10
416.3432965830339
 20
219.083897342095
 30
0.0
 10
416.3878832238636
 20
219.0772500425696
 30
0.0
 10
416.4769732666658
 20
219.063967853371
 30
0.0
 10
416.671739346848
 20
219.1467613482537
 30
0.0
 10
416.9549052001454
 20
219.3623705392061
 30
0.0
 10
417.4254552097708
 20
219.8931352363014
 30
0.0
 10
418.1363135802314
 20
220.9994861302177
 30
0.0
 10
418.7426389740635
 20
222.3285264853812
 30
0.0
 10
419.0792378373384
 20
223.4868906757627
 30
0.0
 10
419.1526527561405
 20
224.1095774810503
 30
0.0
 10
419.1048739901175
 20
224.4440071881779
 30
0.0
 10
419.0082003789236
 20
224.6014844547242
 30
0.0
 10
418.8717578603516
 20
224.655476620237
 30
0.0
 10
418.6969967929662
 20
224.6214216314903
 30
0.0
 10
418.4540743627234
 20
224.4758157854484
 30
0.0
 10
418.077481082856
 20
224.1169791533118
 30
0.0
 10
417.467493812723
 20
223.300944941931
 30
0.0
 10
416.7714670450738
 20
222.0048759859752
 30
0.0
 10
416.3085749224708
 20
220.7551859057203
 30
0.0
 10
416.134831271509
 20
219.8714770371542
 30
0.0
 10
416.1239324948874
 20
219.4471517369132
 30
0.0
 10
416.1999342465995
 20
219.174389701298
 30
0.0
 10
416.2973833626272
 20
219.1128784241318
 30
0.0
 10
416.3432965830339
 20
219.083897342095
 30
0.0
  0
SPLINE
  5
169
330
1F
100
AcDbEntity
  8
0
  6
Continuous
 62
     7
370
    15
100
AcDbSpline
210
0.0
220
0.0
230
1.0
 70
    11
 71
     3
 72
    27
 73
    23
 74
     0
 42
0.00000001
 43
0.00000001
 12
1.0
 22
0.0
 32
0.0
 13
1.0
 23
0.0
 33
0.0
 40
0.0
 40
0.0
 40
0.0
 40
0.0
 40
0.0184112633220404
 40
0.0368582438762805
 40
0.0584114629267112
 40
0.0931504505337461
 40
0.160019471610551
 40
0.2875870418218311
 40
0.3979411109093707
 40
0.4530270775023898
 40
0.4784092490200511
 40
0.5040662872911635
 40
0.5204306286391542
 40
0.5368008817083272
 40
0.5584016139322461
 40
0.5928592072703655
 40
0.6585201326715459
 40
0.7839103954986709
 40
0.9174401096888215
 40
0.9544431035990789
 40
0.9847611348664842
 40
1.0
 40
1.0
 40
1.0
 40
1.0
 10
444.0497408464921
 20
219.1184233325811
 30
0.0
 10
444.0661786438594
 20
219.096281883703
 30
0.0
 10
444.0990861273684
 20
219.0519560322799
 30
0.0
 10
444.2199123395528
 20
219.1105811806938
 30
0.0
 10
444.4101451638708
 20
219.2911740187533
 30
0.0
 10
444.7511928026425
 20
219.7248828192687
 30
0.0
 10
445.3688853842204
 20
220.6817858657564
 30
0.0
 10
446.1091523484303
 20
222.0434218672514
 30
0.0
 10
446.7026166022587
 20
223.3377341373113
 30
0.0
 10
446.972385975783
 20
224.1098543376972
 30
0.0
 10
447.0446067429562
 20
224.4621024923576
 30
0.0
 10
447.0341811181231
 20
224.6195439599125
 30
0.0
 10
446.9613897020697
 20
224.6547576815662
 30
0.0
 10
446.8507068390741
 20
224.6017293908842
 30
0.0
 10
446.6648346703657
 20
224.4278191539265
 30
0.0
 10
446.3262782375226
 20
224.0034489564008
 30
0.0
 10
445.7128473052999
 20
223.0644208255698
 30
0.0
 10
444.9257707883446
 20
221.6233866812885
 30
0.0
 10
444.3230719488969
 20
220.2918423103777
 30
0.0
 10
444.0790339612202
 20
219.5148936178196
 30
0.0
 10
444.02579671154
 20
219.2374896906369
 30
0.0
 10
444.0437390885724
 20
219.1482681133118
 30
0.0
 10
444.0497408464922
 20
219.1184233325812
 30
0.0
  0
SPLINE
  5
16A
330
1F
100
AcDbEntity
  8
0
  6
Continuous
 62
     7
370
    15
100
AcDbSpline
210
0.0
220
0.0
230
1.0
 70
     8
 71
     3
 72
    15
 73
    11
 74
     0
 42
0.00000001
 43
0.00000001
 12
1.0
 22
0.0
 32
0.0
 13
1.0
 23
0.0
 33
0.0
 40
0.0
 40
0.0
 40
0.0
 40
0.0
 40
0.0330357224650126
 40
0.1176320504038641
 40
0.2815344534858788
 40
0.5837717882444481
 40
0.7988912801990824
 40
0.8895774430083397
 40
0.98104080632531
 40
1.0
 40
1.0
 40
1.0
 40
1.0
 10
456.5013001516832
 20
224.5234172242971
 30
0.0
 10
456.4831413451651
 20
224.4897071500233
 30
0.0
 10
456.4184823189889
 20
224.3696738993416
 30
0.0
 10
456.1646361684359
 20
223.9000445722066
 30
0.0
 10
455.6160350829859
 20
222.8847384009304
 30
0.0
 10
454.8860910187394
 20
221.5307512496011
 30
0.0
 10
454.2479389783208
 20
220.3430090756629
 30
0.0
 10
453.8729178926043
 20
219.644459122116
 30
0.0
 10
453.6923316108587
 20
219.3078666539211
 30
0.0
 10
453.6366118695686
 20
219.2045066364411
 30
0.0
 10
453.6270449713243
 20
219.1867600578161
 30
0.0
  0
SPLINE
  5
16B
330
1F
100
AcDbEntity
  8
0
  6
Continuous
 62
     7
370
    15
100
AcDbSpline
210
0.0
220
0.0
230
1.0
 70
    11
 71
     3
 72
    28
 73
    24
 74
     0
 42
0.00000001
 43
0.00000001
 12
1.0
 22
0.0
 32
0.0
 13
1.0
 23
0.0
 33
0.0
 40
0.0
 40
0.0
 40
0.0
 40
0.0
 40
0.0506203568298267
 40
0.1464069012124971
 40
0.2913027376431714
 40
0.3605708185539947
 40
0.3919479721172083
 40
0.4236654781156983
 40
0.4407343418186408
 40
0.4578724788312517
 40
0.4740227368902697
 40
0.5001362069216043
 40
0.545680454738529
 40
0.6359429675492213
 40
0.7807947075082217
 40
0.8311111252264355
 40
0.8943924291699181
 40
0.9150287428558487
 40
0.9358338794763201
 40
0.9518762546958872
 40
0.9679011322407935
 40
0.9906937768963475
 40
1.0
 40
1.0
 40
1.0
 40
1.0
 10
237.0493399754537
 20
219.3901311057897
 30
0.0
 10
236.8949752193844
 20
219.5758487330712
 30
0.0
 10
236.4485132225144
 20
220.1129911795819
 30
0.0
 10
236.0881206121797
 20
221.4099304638007
 30
0.0
 10
236.0606940891546
 20
222.7940792140185
 30
0.0
 10
236.4029146489385
 20
223.8356219663255
 30
0.0
 10
236.7427415299337
 20
224.3245957120212
 30
0.0
 10
237.0425015165796
 20
224.5616413131485
 30
0.0
 10
237.3570606563761
 20
224.651246474804
 30
0.0
 10
237.6146876697348
 20
224.6382720028254
 30
0.0
 10
237.8980078950648
 20
224.536221558891
 30
0.0
 10
238.2488360753013
 20
224.2772539636103
 30
0.0
 10
238.7029436070396
 20
223.6541716121822
 30
0.0
 10
239.1138329730231
 20
222.4380960302243
 30
0.0
 10
239.1516962655929
 20
221.1473576438129
 30
0.0
 10
238.8662612465283
 20
220.0469536744232
 30
0.0
 10
238.5797024601951
 20
219.5032388899758
 30
0.0
 10
238.2058412483041
 20
219.1897992096181
 30
0.0
 10
237.9461142537602
 20
219.0788589133579
 30
0.0
 10
237.6779654606717
 20
219.0636700840474
 30
0.0
 10
237.4070057586604
 20
219.1327349935867
 30
0.0
 10
237.1992039287542
 20
219.2575274174639
 30
0.0
 10
237.0830234514598
 20
219.3603270531428
 30
0.0
 10
237.0493399754537
 20
219.3901311057897
 30
0.0
  0
SPLINE
  5
16C
330
1F
100
AcDbEntity
  8
0
  6
Continuous
 62
     7
370
    15
100
AcDbSpline
210
0.0
220
0.0
230
1.0
 70
    11
 71
     3
 72
    28
 73
    24
 74
     0
 42
0.00000001
 43
0.00000001
 12
1.0
 22
0.0
 32
0.0
 13
1.0
 23
0.0
 33
0.0
 40
0.0
 40
0.0
 40
0.0
 40
0.0
 40
0.0166292341961576
 40
0.0331798565437182
 40
0.0615986248974133
 40
0.113153229116349
 40
0.2160750352792139
 40
0.3585386093533989
 40
0.4263731259326022
 40
0.452926474175801
 40
0.4797001016024085
 40
0.4967530149943478
 40
0.5138713878868841
 40
0.5300431525864739
 40
0.5564852162866833
 40
0.6028231353280312
 40
0.6947269310379262
 40
0.8397965208849084
 40
0.8873230632077689
 40
0.9514385786214629
 40
0.9731001957475705
 40
0.9949867021747949
 40
1.0
 40
1.0
 40
1.0
 40
1.0
 10
143.1104640320314
 20
219.0729598897787
 30
0.0
 10
143.0408725382849
 20
219.0774341911796
 30
0.0
 10
142.9020185326263
 20
219.0863616424902
 30
0.0
 10
142.6343361170117
 20
219.2143034015861
 30
0.0
 10
142.2552182823221
 20
219.5165228663744
 30
0.0
 10
141.6772842829628
 20
220.2457769569901
 30
0.0
 10
141.0320738227008
 20
221.5494722904356
 30
0.0
 10
140.6733589214237
 20
222.9557315773987
 30
0.0
 10
140.7084354843451
 20
223.9476639996792
 30
0.0
 10
140.8703716835635
 20
224.3768353393821
 30
0.0
 10
141.0389814340225
 20
224.5722976801437
 30
0.0
 10
141.2550596396721
 20
224.6521610913103
 30
0.0
 10
141.4690435305691
 20
224.6364957870524
 30
0.0
 10
141.7288360364174
 20
224.53147436086
 30
0.0
 10
142.0885289008768
 20
224.2665478544519
 30
0.0
 10
142.6335031055398
 20
223.6298517918337
 30
0.0
 10
143.2970591387582
 20
222.4002215012987
 30
0.0
 10
143.668226013337
 20
221.1131975976087
 30
0.0
 10
143.7238192843455
 20
220.0232574230259
 30
0.0
 10
143.634579729183
 20
219.4828975669842
 30
0.0
 10
143.3987051668425
 20
219.1691749994124
 30
0.0
 10
143.2364321961007
 20
219.0841604220577
 30
0.0
 10
143.1302526417829
 20
219.0747194054779
 30
0.0
 10
143.1104640320314
 20
219.0729598897787
 30
0.0
  0
SPLINE
  5
16D
330
1F
100
AcDbEntity
  8
0
  6
Continuous
 62
     7
370
    15
100
AcDbSpline
210
0.0
220
0.0
230
1.0
 70
    11
 71
     3
 72
    28
 73
    24
 74
     0
 42
0.00000001
 43
0.00000001
 12
1.0
 22
0.0
 32
0.0
 13
1.0
 23
0.0
 33
0.0
 40
0.0
 40
0.0
 40
0.0
 40
0.0
 40
0.0180232705169155
 40
0.0361410358127661
 40
0.052127530765082
 40
0.0784613144300256
 40
0.1249539466542883
 40
0.2178477300159158
 40
0.3629548209918359
 40
0.4096411692634956
 40
0.4733492729083844
 40
0.4938944656670305
 40
0.5146106604974201
 40
0.5308149544867924
 40
0.5469930492883641
 40
0.5705987654484721
 40
0.610037889158334
 40
0.6871015144501437
 40
0.8251326753346042
 40
0.9070948085225289
 40
0.9507345424151131
 40
0.9829582672097983
 40
1.0
 40
1.0
 40
1.0
 40
1.0
 10
80.68932097706922
 20
219.152159561524
 30
0.0
 10
80.66831616268774
 20
219.1213882835408
 30
0.0
 10
80.62619640711463
 20
219.0596843958611
 30
0.0
 10
80.50294808017577
 20
219.0770778345032
 30
0.0
 10
80.33183428024107
 20
219.1835074717173
 30
0.0
 10
80.05880681569755
 20
219.4499358322608
 30
0.0
 10
79.56704223288259
 20
220.09280336198
 30
0.0
 10
78.82190900046285
 20
221.3301299063134
 30
0.0
 10
78.21098835555601
 20
222.6180794234298
 30
0.0
 10
77.83112833797193
 20
223.7010910780125
 30
0.0
 10
77.7056100033982
 20
224.2295662348271
 30
0.0
 10
77.72538942393872
 20
224.5360808278898
 30
0.0
 10
77.78897217016804
 20
224.6404901903794
 30
0.0
 10
77.90034683300729
 20
224.6486948996283
 30
0.0
 10
78.05329907616412
 20
224.5727192941988
 30
0.0
 10
78.29559435701606
 20
224.3598797210407
 30
0.0
 10
78.72150632465203
 20
223.8443723132976
 30
0.0
 10
79.42034290551328
 20
222.7600779417768
 30
0.0
 10
80.09324394695325
 20
221.4264047187155
 30
0.0
 10
80.53469354173909
 20
220.2741006591448
 30
0.0
 10
80.69614274339024
 20
219.6417224287742
 30
0.0
 10
80.73346844413226
 20
219.309156938385
 30
0.0
 10
80.7006673986684
 20
219.1925097457211
 30
0.0
 10
80.68932097706922
 20
219.152159561524
 30
0.0
  0
LINE
  5
16E
330
1F
100
AcDbEntity
  8
0
  6
Continuous
 62
     7
370
    15
100
AcDbLine
 10
451.7720143155
 20
216.8513308662
 30
0.0
 11
63.8588468388
 21
216.8513308662
 31
0.0
  0
CIRCLE
  5
16F
330
1F
100
AcDbEntity
  8
0
  6
Continuous
 62
     7
370
    15
100
AcDbCircle
 10
257.8154305771
 20
146.3514695066
 30
0.0
 40
20.50000000000005
  0
CIRCLE
  5
170
330
1F
100
AcDbEntity
  8
0
  6
Continuous
 62
     7
370
    15
100
AcDbCircle
 10
257.8154305771
 20
146.3514695066
 30
0.0
 40
18.00000000000009
  0
CIRCLE
  5
171
330
1F
100
AcDbEntity
  8
0
  6
Continuous
 62
     7
370
    15
100
AcDbCircle
 10
257.8154305771
 20
146.3514695066
 30
0.0
 40
21.5
  0
CIRCLE
  5
172
330
1F
100
AcDbEntity
  8
0
  6
Continuous
 62
     7
370
    15
100
AcDbCircle
 10
257.8154305771
 20
146.3514695066
 30
0.0
 40
15.00000000000001
  0
LWPOLYLINE
  5
173
330
1F
100
AcDbEntity
  8
0
  6
Continuous
 62
     7
370
    15
100
AcDbPolyline
 90
        9
 70
   128
 43
0.0
 10
277.6114276454
 20
135.6571461457
 10
277.6384509012
 20
135.4639376897
 10
277.6644366637
 20
135.2781574625
 10
277.6883846924
 20
135.1069356698
 10
277.7093748406
 20
134.9568586248
 10
277.7266005829
 20
134.833693077
 10
277.739402543
 20
134.7421775955
 10
277.7472852573
 20
134.6858214039
 10
277.7499451146
 20
134.6667851704
  0
SPLINE
  5
174
330
1F
100
AcDbEntity
  8
0
  6
Continuous
 62
     7
370
    15
100
AcDbSpline
210
0.0
220
0.0
230
1.0
 70
     8
 71
     3
 72
    11
 73
     7
 74
     0
 42
0.00000001
 43
0.00000001
 12
1.0
 22
0.0
 32
0.0
 13
1.0
 23
0.0
 33
0.0
 40
0.0
 40
0.0
 40
0.0
 40
0.0
 40
0.0033250068428278
 40
0.5081639598497392
 40
0.8195609645191193
 40
1.0
 40
1.0
 40
1.0
 40
1.0
 10
274.5506304160131
 20
132.8539471525045
 30
0.0
 10
274.5534885423617
 20
132.8574890062283
 30
0.0
 10
274.9902987120075
 20
133.3987938812369
 30
0.0
 10
275.7414630400451
 20
134.232881584311
 30
0.0
 10
276.7805864060942
 20
135.1665534656765
 30
0.0
 10
277.388429356037
 20
135.5254707747083
 30
0.0
 10
277.6114276454223
 20
135.6571461457106
 30
0.0
  0
SPLINE
  5
175
330
1F
100
AcDbEntity
  8
0
  6
Continuous
 62
     7
370
    15
100
AcDbSpline
210
0.0
220
0.0
230
1.0
 70
     8
 71
     3
 72
    11
 73
     7
 74
     0
 42
0.00000001
 43
0.00000001
 12
1.0
 22
0.0
 32
0.0
 13
1.0
 23
0.0
 33
0.0
 40
0.0
 40
0.0
 40
0.0
 40
0.0
 40
0.1964758596566624
 40
0.5093183802531561
 40
0.9971807841902763
 40
0.9999999999999999
 40
0.9999999999999999
 40
0.9999999999999999
 40
0.9999999999999999
 10
277.74994511459
 20
134.6667851704451
 30
0.0
 10
277.4716780688601
 20
134.6127080659152
 30
0.0
 10
276.7503348908398
 20
134.4725256367045
 30
0.0
 10
275.5905097174429
 20
133.9026513531731
 30
0.0
 10
274.9012166247582
 20
133.2879245788181
 30
0.0
 10
274.5526332052916
 20
132.8564263297079
 30
0.0
 10
274.5506304160131
 20
132.8539471525045
 30
0.0
  0
LWPOLYLINE
  5
176
330
1F
100
AcDbEntity
  8
0
  6
Continuous
 62
     7
370
    15
100
AcDbPolyline
 90
        9
 70
   128
 43
0.0
 10
236.9828919724
 20
137.851155867
 10
236.9352194325
 20
137.6619781751
 10
236.8893797353
 20
137.4800722498
 10
236.8471312181
 20
137.3124267358
 10
236.8101018325
 20
137.1654863852
 10
236.7797127769
 20
137.0448912877
 10
236.7571300671
 20
136.9552831549
 10
236.743225421
 20
136.900104155
 10
236.7385296926
 20
136.8814702529
  0
SPLINE
  5
177
330
1F
100
AcDbEntity
  8
0
  6
Continuous
 62
     7
370
    15
100
AcDbSpline
210
0.0
220
0.0
230
1.0
 70
     8
 71
     3
 72
    11
 73
     7
 74
     0
 42
0.00000001
 43
0.00000001
 12
1.0
 22
0.0
 32
0.0
 13
1.0
 23
0.0
 33
0.0
 40
0.0
 40
0.0
 40
0.0
 40
0.0
 40
0.1804395076363217
 40
0.4918368261805601
 40
0.99667451336524
 40
1.0
 40
1.0
 40
1.0
 40
1.0
 10
236.9828919724
 20
137.8511558669897
 30
0.0
 10
237.1904143315209
 20
137.6962310956483
 30
0.0
 10
237.7560728162316
 20
137.2739416046633
 30
0.0
 10
238.6885856533549
 20
136.2337768985911
 30
0.0
 10
239.3456309898479
 20
135.3237090508381
 30
0.0
 10
239.721556348381
 20
134.7384675055748
 30
0.0
 10
239.7240164533628
 20
134.7346376079412
 30
0.0
  0
SPLINE
  5
178
330
1F
100
AcDbEntity
  8
0
  6
Continuous
 62
     7
370
    15
100
AcDbSpline
210
0.0
220
0.0
230
1.0
 70
     8
 71
     3
 72
    11
 73
     7
 74
     0
 42
0.00000001
 43
0.00000001
 12
1.0
 22
0.0
 32
0.0
 13
1.0
 23
0.0
 33
0.0
 40
0.0
 40
0.0
 40
0.0
 40
0.0
 40
0.002820206288892
 40
0.4906819052530968
 40
0.8035239993551633
 40
1.0
 40
1.0
 40
1.0
 40
1.0
 10
239.7240164533628
 20
134.7346376079412
 30
0.0
 10
239.7222925052581
 20
134.737320350073
 30
0.0
 10
239.4223463119925
 20
135.2040851487025
 30
0.0
 10
238.8030748126255
 20
135.8891601678734
 30
0.0
 10
237.711411106613
 20
136.5806967270491
 30
0.0
 10
237.009356341036
 20
136.7977421800035
 30
0.0
 10
236.7385296926273
 20
136.8814702528807
 30
0.0
  0
LWPOLYLINE
  5
179
330
1F
100
AcDbEntity
  8
0
  6
Continuous
 62
     7
370
    15
100
AcDbPolyline
 90
        9
 70
   128
 43
0.0
 10
278.6479691819
 20
154.8517863649
 10
278.6956417218
 20
155.0409640569
 10
278.7414814189
 20
155.2228699821
 10
278.7837299362
 20
155.3905154961
 10
278.8207593218
 20
155.5374558467
 10
278.8511483774
 20
155.6580509442
 10
278.8737310872
 20
155.7476590771
 10
278.8876357332
 20
155.802838077
 10
278.8923314616
 20
155.821471979
  0
SPLINE
  5
17A
330
1F
100
AcDbEntity
  8
0
  6
Continuous
 62
     7
370
    15
100
AcDbSpline
210
0.0
220
0.0
230
1.0
 70
     8
 71
     3
 72
    11
 73
     7
 74
     0
 42
0.00000001
 43
0.00000001
 12
1.0
 22
0.0
 32
0.0
 13
1.0
 23
0.0
 33
0.0
 40
0.0
 40
0.0
 40
0.0
 40
0.0
 40
0.1804397372583862
 40
0.4918362291626357
 40
0.9966758990921643
 40
1.0
 40
1.0
 40
1.0
 40
1.0
 10
278.6479691818727
 20
154.8517863649221
 30
0.0
 10
278.4404482344722
 20
155.0067123831708
 30
0.0
 10
277.8747950042442
 20
155.4290042229416
 30
0.0
 10
276.9422255589118
 20
156.4691191600096
 30
0.0
 10
276.2853880049114
 20
157.3793637964173
 30
0.0
 10
275.9093048103475
 20
157.9644697630423
 30
0.0
 10
275.9068447009099
 20
157.96829717339
 30
0.0
  0
SPLINE
  5
17B
330
1F
100
AcDbEntity
  8
0
  6
Continuous
 62
     7
370
    15
100
AcDbSpline
210
0.0
220
0.0
230
1.0
 70
     8
 71
     3
 72
    11
 73
     7
 74
     0
 42
0.00000001
 43
0.00000001
 12
1.0
 22
0.0
 32
0.0
 13
1.0
 23
0.0
 33
0.0
 40
0.0
 40
0.0
 40
0.0
 40
0.0
 40
0.0028190702670357
 40
0.4906813250202329
 40
0.803523775522879
 40
1.0
 40
1.0
 40
1.0
 40
1.0
 10
275.9068447009099
 20
157.96829717339
 30
0.0
 10
275.9085686520938
 20
157.9656169200084
 30
0.0
 10
276.2086358980515
 20
157.4990977643648
 30
0.0
 10
276.8277508460747
 20
156.8137106898389
 30
0.0
 10
277.9194541872847
 20
156.122253828786
 30
0.0
 10
278.6215059656082
 20
155.9052023690872
 30
0.0
 10
278.8923314616454
 20
155.8214719790312
 30
0.0
  0
LWPOLYLINE
  5
17C
330
1F
100
AcDbEntity
  8
0
  6
Continuous
 62
     7
370
    15
100
AcDbPolyline
 90
        9
 70
   128
 43
0.0
 10
238.0194335089
 20
157.0457886356
 10
237.992410253
 20
157.2389970917
 10
237.9664244905
 20
157.4247847694
 10
237.9424764619
 20
157.5960065621
 10
237.9214863137
 20
157.7460836071
 10
237.9042605713
 20
157.8692417044
 10
237.8914586112
 20
157.9607646364
 10
237.883575897
 20
158.017120828
 10
237.8809160397
 20
158.0361496109
  0
SPLINE
  5
17D
330
1F
100
AcDbEntity
  8
0
  6
Continuous
 62
     7
370
    15
100
AcDbSpline
210
0.0
220
0.0
230
1.0
 70
     8
 71
     3
 72
    11
 73
     7
 74
     0
 42
0.00000001
 43
0.00000001
 12
1.0
 22
0.0
 32
0.0
 13
1.0
 23
0.0
 33
0.0
 40
0.0
 40
0.0
 40
0.0
 40
0.0
 40
0.1964763410850535
 40
0.5093190304654738
 40
0.997180782669261
 40
1.0
 40
1.0
 40
1.0
 40
1.0
 10
237.8809160396827
 20
158.0361496108862
 30
0.0
 10
238.159183018274
 20
158.0902296169552
 30
0.0
 10
238.8805251756248
 20
158.2304194031988
 30
0.0
 10
240.0403501108376
 20
158.800290170169
 30
0.0
 10
240.7296451830139
 20
159.4150110007199
 30
0.0
 10
241.0782279490013
 20
159.8465084515869
 30
0.0
 10
241.0802307382596
 20
159.8489876288267
 30
0.0
  0
SPLINE
  5
17E
330
1F
100
AcDbEntity
  8
0
  6
Continuous
 62
     7
370
    15
100
AcDbSpline
210
0.0
220
0.0
230
1.0
 70
     8
 71
     3
 72
    11
 73
     7
 74
     0
 42
0.00000001
 43
0.00000001
 12
1.0
 22
0.0
 32
0.0
 13
1.0
 23
0.0
 33
0.0
 40
0.0
 40
0.0
 40
0.0
 40
0.0
 40
0.0033250072978879
 40
0.50816280202929
 40
0.8195609398242495
 40
1.0
 40
1.0
 40
1.0
 40
1.0
 10
241.0802307382596
 20
159.8489876288267
 30
0.0
 10
241.0773726119727
 20
159.8454457750321
 30
0.0
 10
240.6405635067954
 20
159.3041421965962
 30
0.0
 10
239.8893924502272
 20
158.4700625367861
 30
0.0
 10
238.8502767641011
 20
157.5363812593698
 30
0.0
 10
238.2424319775813
 20
157.1774637779238
 30
0.0
 10
238.0194335088504
 20
157.0457886356207
 30
0.0
  0
ARC
  5
17F
330
1F
100
AcDbEntity
  8
0
  6
Continuous
 62
     7
370
    15
100
AcDbCircle
 10
257.8154305771
 20
146.3514695066
 30
0.0
 40
22.50000000000004
100
AcDbArc
 50
331.6209102465
 51
22.1969698915
  0
ARC
  5
180
330
1F
100
AcDbEntity
  8
0
  6
Continuous
 62
     7
370
    15
100
AcDbCircle
 10
257.8154305771
 20
146.3514695066
 30
0.0
 40
22.49999999999998
100
AcDbArc
 50
151.6209102465
 51
202.1969698915
  0
SPLINE
  5
181
330
1F
100
AcDbEntity
  8
0
  6
Continuous
 62
     7
370
    15
100
AcDbSpline
210
0.0
220
0.0
230
1.0
 70
     8
 71
     3
 72
    14
 73
    10
 74
     0
 42
0.00000001
 43
0.00000001
 12
1.0
 22
0.0
 32
0.0
 13
1.0
 23
0.0
 33
0.0
 40
0.0
 40
0.0
 40
0.0
 40
0.0
 40
0.1347083230690637
 40
0.412623949582033
 40
0.4810538197744575
 40
0.6220024392189352
 40
0.7787654895130702
 40
0.8917945215217518
 40
1.0
 40
1.0
 40
1.0
 40
1.0
 10
298.2156860486043
 20
134.6559520262571
 30
0.0
 10
298.3712919827998
 20
134.5956159293573
 30
0.0
 10
298.8479272320799
 20
134.4108009302691
 30
0.0
 10
299.3968253376196
 20
134.198394017249
 30
0.0
 10
299.8949034256787
 20
134.0084368087585
 30
0.0
 10
300.238404779725
 20
133.878610293908
 30
0.0
 10
300.5369861235893
 20
133.7672462156094
 30
0.0
 10
300.7104560773863
 20
133.7030857941511
 30
0.0
 10
300.729992592728
 20
133.6958885831351
 30
0.0
 10
300.7395478740705
 20
133.692368437657
 30
0.0
  0
ARC
  5
182
330
1F
100
AcDbEntity
  8
0
  6
Continuous
 62
     7
370
    15
100
AcDbCircle
 10
294.2623265915
 20
144.3832797505
 30
0.0
 40
10.50000000000002
100
AcDbArc
 50
292.1177053657
 51
61.7001747722
  0
SPLINE
  5
183
330
1F
100
AcDbEntity
  8
0
  6
Continuous
 62
     7
370
    15
100
AcDbSpline
210
0.0
220
0.0
230
1.0
 70
     8
 71
     3
 72
    13
 73
     9
 74
     0
 42
0.00000001
 43
0.00000001
 12
1.0
 22
0.0
 32
0.0
 13
1.0
 23
0.0
 33
0.0
 40
0.0
 40
0.0
 40
0.0
 40
0.0
 40
0.1243211405558857
 40
0.2400947945658381
 40
0.4026953460667423
 40
0.6485848123373364
 40
0.9523811408186281
 40
1.0
 40
1.0
 40
1.0
 40
1.0
 10
301.8531749800218
 20
154.3144951957556
 30
0.0
 10
301.840184223555
 20
154.3112459554005
 30
0.0
 10
301.8150958677757
 20
154.3049708706318
 30
0.0
 10
301.6063362220851
 20
154.2524205311724
 30
0.0
 10
301.1923814687597
 20
154.146879537029
 30
0.0
 10
300.4331360150244
 20
153.9485960609315
 30
0.0
 10
299.717268588853
 20
153.7560453653213
 30
0.0
 10
299.2971512487084
 20
153.6435482105032
 30
0.0
 10
299.2402228370679
 20
153.6283041733595
 30
0.0
  0
ARC
  5
184
330
1F
100
AcDbEntity
  8
0
  6
Continuous
 62
     7
370
    15
100
AcDbCircle
 10
294.2623265915
 20
144.3832797505
 30
0.0
 40
12.49999999999999
100
AcDbArc
 50
301.2100928257
 51
52.6077873122
  0
LWPOLYLINE
  5
185
330
1F
100
AcDbEntity
  8
0
  6
Continuous
 62
     7
370
    15
100
AcDbPolyline
 90
        9
 70
   128
 43
0.0
 10
299.2402228371
 20
153.6283041734
 10
299.2507430569
 20
153.8231145042
 10
299.2608609453
 20
154.0104370016
 10
299.2701816216
 20
154.183066954
 10
299.2783549086
 20
154.3343882459
 10
299.2850604311
 20
154.4585670728
 10
299.2900411442
 20
154.5508425135
 10
299.2931107834
 20
154.6076680917
 10
299.2941464141
 20
154.6268533367
  0
SPLINE
  5
186
330
1F
100
AcDbEntity
  8
0
  6
Continuous
 62
     7
370
    15
100
AcDbSpline
210
0.0
220
0.0
230
1.0
 70
     8
 71
     3
 72
    12
 73
     8
 74
     0
 42
0.00000001
 43
0.00000001
 12
1.0
 22
0.0
 32
0.0
 13
1.0
 23
0.0
 33
0.0
 40
0.0
 40
0.0
 40
0.0
 40
0.0
 40
0.4090167282437955
 40
0.6622105549260596
 40
0.809557027423042
 40
0.9044120207692319
 40
1.0
 40
1.0
 40
1.0
 40
1.0
 10
299.2941464141381
 20
154.626853336701
 30
0.0
 10
299.6275272690988
 20
154.6088501766497
 30
0.0
 10
300.1672810388607
 20
154.5797025115671
 30
0.0
 10
300.7948216503066
 20
154.545812904648
 30
0.0
 10
301.1124491439941
 20
154.5286671325373
 30
0.0
 10
301.27048466073
 20
154.5201253775064
 30
0.0
 10
301.290024175348
 20
154.5190726408187
 30
0.0
 10
301.2998315349591
 20
154.5185442465635
 30
0.0
  0
ARC
  5
187
330
1F
100
AcDbEntity
  8
0
  6
Continuous
 62
     7
370
    15
100
AcDbCircle
 10
301.2459070029
 20
153.5199971391
 30
0.0
 40
0.9999999999999799
100
AcDbArc
 50
52.6077873122
 51
86.908940069
  0
SPLINE
  5
188
330
1F
100
AcDbEntity
  8
0
  6
Continuous
 62
     7
370
    15
100
AcDbSpline
210
0.0
220
0.0
230
1.0
 70
     8
 71
     3
 72
    13
 73
     9
 74
     0
 42
0.00000001
 43
0.00000001
 12
1.0
 22
0.0
 32
0.0
 13
1.0
 23
0.0
 33
0.0
 40
0.0
 40
0.0
 40
0.0
 40
0.0
 40
0.1243212050561687
 40
0.2400949191317979
 40
0.4026955549931057
 40
0.6485851488360507
 40
0.9523816349329262
 40
1.0
 40
1.0
 40
1.0
 40
1.0
 10
213.7776861742509
 20
138.3884470361563
 30
0.0
 10
213.7906769283923
 20
138.391696285201
 30
0.0
 10
213.8157652796805
 20
138.3979713867518
 30
0.0
 10
214.0245249614798
 20
138.4505215912801
 30
0.0
 10
214.4384794885912
 20
138.5560634307421
 30
0.0
 10
215.1977264066153
 20
138.7543414350725
 30
0.0
 10
215.9135882030588
 20
138.946910677088
 30
0.0
 10
216.3337098572002
 20
139.0593892344525
 30
0.0
 10
216.3906383172048
 20
139.0746306079718
 30
0.0
  0
ARC
  5
189
330
1F
100
AcDbEntity
  8
0
  6
Continuous
 62
     7
370
    15
100
AcDbCircle
 10
221.3685345627
 20
148.3196592628
 30
0.0
 40
12.50000000000009
100
AcDbArc
 50
121.2100928257
 51
232.6077873122
  0
SPLINE
  5
18A
330
1F
100
AcDbEntity
  8
0
  6
Continuous
 62
     7
370
    15
100
AcDbSpline
210
0.0
220
0.0
230
1.0
 70
     8
 71
     3
 72
    14
 73
    10
 74
     0
 42
0.00000001
 43
0.00000001
 12
1.0
 22
0.0
 32
0.0
 13
1.0
 23
0.0
 33
0.0
 40
0.0
 40
0.0
 40
0.0
 40
0.0
 40
0.1347083634390888
 40
0.4126233796326028
 40
0.4810532703324133
 40
0.6220024966319219
 40
0.7787655939055466
 40
0.891794400339314
 40
1.0
 40
1.0
 40
1.0
 40
1.0
 10
217.4151751056684
 20
158.0469902056547
 30
0.0
 10
217.2595692623235
 20
158.1073265520098
 30
0.0
 10
216.7829350925336
 20
158.2921420045333
 30
0.0
 10
216.2340351101464
 20
158.5045413212588
 30
0.0
 10
215.7359569776779
 20
158.6944974081357
 30
0.0
 10
215.3924574604525
 20
158.8243335173061
 30
0.0
 10
215.0938752245895
 20
158.9356999705837
 30
0.0
 10
214.9204049090676
 20
158.9998447950779
 30
0.0
 10
214.9008685166382
 20
159.0070498209383
 30
0.0
 10
214.8913132802022
 20
159.0105737942549
 30
0.0
  0
ARC
  5
18B
330
1F
100
AcDbEntity
  8
0
  6
Continuous
 62
     7
370
    15
100
AcDbCircle
 10
221.3685345627
 20
148.3196592628
 30
0.0
 40
10.50000000000012
100
AcDbArc
 50
112.1177053657
 51
241.7001747722
  0
LWPOLYLINE
  5
18C
330
1F
100
AcDbEntity
  8
0
  6
Continuous
 62
     7
370
    15
100
AcDbPolyline
 90
        9
 70
   128
 43
0.0
 10
216.3906383172
 20
139.074630608
 10
216.3801180974
 20
138.8798277277
 10
216.370000209
 20
138.6925052303
 10
216.3606795326
 20
138.5198678273
 10
216.3525062457
 20
138.368553986
 10
216.3458007232
 20
138.2443751592
 10
216.34082001
 20
138.1520997185
 10
216.3377503708
 20
138.0952741402
 10
216.3367147401
 20
138.0760888952
  0
SPLINE
  5
18D
330
1F
100
AcDbEntity
  8
0
  6
Continuous
 62
     7
370
    15
100
AcDbSpline
210
0.0
220
0.0
230
1.0
 70
     8
 71
     3
 72
    12
 73
     8
 74
     0
 42
0.00000001
 43
0.00000001
 12
1.0
 22
0.0
 32
0.0
 13
1.0
 23
0.0
 33
0.0
 40
0.0
 40
0.0
 40
0.0
 40
0.0
 40
0.4090167282437955
 40
0.6622105549260596
 40
0.809557027423042
 40
0.9044120207692319
 40
1.0
 40
1.0
 40
1.0
 40
1.0
 10
216.3367147401345
 20
138.0760888952108
 30
0.0
 10
216.0033338851738
 20
138.0940920552622
 30
0.0
 10
215.463580115412
 20
138.1232397203448
 30
0.0
 10
214.8360395039661
 20
138.1571293272639
 30
0.0
 10
214.5184120102786
 20
138.1742750993746
 30
0.0
 10
214.3603764935427
 20
138.1828168544054
 30
0.0
 10
214.3408369789247
 20
138.1838695910932
 30
0.0
 10
214.3310296193135
 20
138.1843979853483
 30
0.0
  0
ARC
  5
18E
330
1F
100
AcDbEntity
  8
0
  6
Continuous
 62
     7
370
    15
100
AcDbCircle
 10
214.3849541514
 20
139.1829418742
 30
0.0
 40
1.000000000000007
100
AcDbArc
 50
232.6077873122
 51
266.908940069
  0
ARC
  5
18F
330
1F
100
AcDbEntity
  8
0
  6
Continuous
 62
     7
370
    15
100
AcDbCircle
 10
300.2213698696
 20
134.5476403096
 30
0.0
 40
1.00000000000002
100
AcDbArc
 50
266.908940069
 51
301.2100928257
  0
SPLINE
  5
190
330
1F
100
AcDbEntity
  8
0
  6
Continuous
 62
     7
370
    15
100
AcDbSpline
210
0.0
220
0.0
230
1.0
 70
     8
 71
     3
 72
    13
 73
     9
 74
     0
 42
0.00000001
 43
0.00000001
 12
1.0
 22
0.0
 32
0.0
 13
1.0
 23
0.0
 33
0.0
 40
0.0
 40
0.0
 40
0.0
 40
0.0
 40
0.083063066259319
 40
0.1746738695118346
 40
0.3146472348849532
 40
0.45373644368542
 40
0.835189638000218
 40
1.0
 40
1.0
 40
1.0
 40
1.0
 10
300.1674475923551
 20
133.5490937727781
 30
0.0
 10
300.1600771754385
 20
133.5494927836347
 30
0.0
 10
300.1445778771258
 20
133.5503318661949
 30
0.0
 10
300.0084157888332
 20
133.557679713317
 30
0.0
 10
299.7788039083006
 20
133.5700852666277
 30
0.0
 10
299.2973046682558
 20
133.5960882546573
 30
0.0
 10
298.7386738565942
 20
133.6262457184081
 30
0.0
 10
298.295479946968
 20
133.6501813629661
 30
0.0
 10
298.1617661968244
 20
133.6574028629156
 30
0.0
  0
LWPOLYLINE
  5
191
330
1F
100
AcDbEntity
  8
0
  6
Continuous
 62
     7
370
    15
100
AcDbPolyline
 90
        9
 70
   128
 43
0.0
 10
298.2156860486
 20
134.6559520263
 10
298.2051658288
 20
134.4611416954
 10
298.1950516656
 20
134.2738266486
 10
298.1857309893
 20
134.1011892456
 10
298.1775577024
 20
133.9498754042
 10
298.1708521799
 20
133.8256891269
 10
298.1658677414
 20
133.7334136862
 10
298.1628018275
 20
133.6765955585
 10
298.1617661968
 20
133.6574028629
  0
ARC
  5
192
330
1F
100
AcDbEntity
  8
0
  6
Continuous
 62
     7
370
    15
100
AcDbCircle
 10
215.4094912847
 20
158.1552987036
 30
0.0
 40
1.000000000000037
100
AcDbArc
 50
86.908940069
 51
121.2100928257
  0
SPLINE
  5
193
330
1F
100
AcDbEntity
  8
0
  6
Continuous
 62
     7
370
    15
100
AcDbSpline
210
0.0
220
0.0
230
1.0
 70
     8
 71
     3
 72
    13
 73
     9
 74
     0
 42
0.00000001
 43
0.00000001
 12
1.0
 22
0.0
 32
0.0
 13
1.0
 23
0.0
 33
0.0
 40
0.0
 40
0.0
 40
0.0
 40
0.0
 40
0.0830630297269717
 40
0.1746739051980305
 40
0.3146471362714944
 40
0.4537363324659874
 40
0.8351896529373587
 40
1.0
 40
1.0
 40
1.0
 40
1.0
 10
215.4634135619176
 20
159.1538410085531
 30
0.0
 10
215.4707839965163
 20
159.1534458940976
 30
0.0
 10
215.4862833419963
 20
159.1526150047698
 30
0.0
 10
215.6224451616388
 20
159.1452481481772
 30
0.0
 10
215.8520574172082
 20
159.1328611461163
 30
0.0
 10
216.333556582364
 20
159.106851418622
 30
0.0
 10
216.8921871202262
 20
159.0766884298343
 30
0.0
 10
217.3353811963996
 20
159.0527532699975
 30
0.0
 10
217.4690949574483
 20
159.0455319184156
 30
0.0
  0
LWPOLYLINE
  5
194
330
1F
100
AcDbEntity
  8
0
  6
Continuous
 62
     7
370
    15
100
AcDbPolyline
 90
        9
 70
   128
 43
0.0
 10
217.4151751057
 20
158.0469902057
 10
217.4256953255
 20
158.2417930859
 10
217.4358094886
 20
158.4291155833
 10
217.445130165
 20
158.6017529863
 10
217.4533034519
 20
158.7530668277
 10
217.4600089744
 20
158.8772456545
 10
217.4649934128
 20
158.9695210952
 10
217.4680593267
 20
159.0263466734
 10
217.4690949574
 20
159.0455319184
  0
LINE
  5
195
330
1F
100
AcDbEntity
  8
0
  6
Continuous
 62
     7
370
    15
100
AcDbLine
 10
278.7660757855
 20
135.706260373
 30
0.0
 11
298.2156860486
 21
134.6559520263
 31
0.0
  0
ARC
  5
196
330
1F
100
AcDbEntity
  8
0
  6
Continuous
 62
     7
370
    15
100
AcDbCircle
 10
278.4425372586
 20
129.7149894116
 30
0.0
 40
5.999999999999997
100
AcDbArc
 50
86.908940069
 51
97.9621133402
  0
ARC
  5
197
330
1F
100
AcDbEntity
  8
0
  6
Continuous
 62
     7
370
    15
100
AcDbCircle
 10
280.1141504761
 20
160.6698873964
 30
0.0
 40
5.999999999999987
100
AcDbArc
 50
255.8557667977
 51
266.908940069
  0
LWPOLYLINE
  5
198
330
1F
100
AcDbEntity
  8
0
  6
Continuous
 62
     7
370
    15
100
AcDbPolyline
 90
        3
 70
   128
 43
0.0
 10
288.4819327698
 20
138.6717926163
 10
289.3730874017
 20
138.3269871968
 10
290.9161920503
 20
138.0545045632
  0
LINE
  5
199
330
1F
100
AcDbEntity
  8
0
  6
Continuous
 62
     7
370
    15
100
AcDbLine
 10
290.9161920503
 20
138.0545045632
 30
0.0
 11
290.9687931493
 21
138.051665892
 31
0.0
  0
ARC
  5
19A
330
1F
100
AcDbEntity
  8
0
  6
Continuous
 62
     7
370
    15
100
AcDbCircle
 10
294.2623265915
 20
144.3832797505
 30
0.0
 40
6.500000000000064
100
AcDbArc
 50
295.5886558032
 51
336.4076461526
  0
LINE
  5
19B
330
1F
100
AcDbEntity
  8
0
  6
Continuous
 62
     7
370
    15
100
AcDbLine
 10
298.1617661968
 20
133.6574028629
 30
0.0
 11
278.7121522084
 21
134.7077112097
 31
0.0
  0
LWPOLYLINE
  5
19C
330
1F
100
AcDbEntity
  8
0
  6
Continuous
 62
     7
370
    15
100
AcDbPolyline
 90
        9
 70
   128
 43
0.0
 10
278.7660757855
 20
135.706260373
 10
278.7555555657
 20
135.5114500421
 10
278.7454395399
 20
135.3241349954
 10
278.7361170009
 20
135.1514975923
 10
278.7279455766
 20
135.000183751
 10
278.7212400541
 20
134.8759974736
 10
278.7162574783
 20
134.7837220329
 10
278.7131878391
 20
134.7269039053
 10
278.7121522084
 20
134.7077112097
  0
LWPOLYLINE
  5
19D
330
1F
100
AcDbEntity
  8
0
  6
Continuous
 62
     7
370
    15
100
AcDbPolyline
 90
        9
 70
   128
 43
0.0
 10
279.790612574
 20
154.6786199707
 10
279.8011327938
 20
154.873422851
 10
279.8112469569
 20
155.0607453483
 10
279.8205713585
 20
155.2333753008
 10
279.8287409202
 20
155.3846965927
 10
279.8354483053
 20
155.5088754195
 10
279.8404308811
 20
155.6011508602
 10
279.8434986577
 20
155.6579764384
 10
279.844536151
 20
155.6771616834
  0
LINE
  5
19E
330
1F
100
AcDbEntity
  8
0
  6
Continuous
 62
     7
370
    15
100
AcDbLine
 10
279.844536151
 20
155.6771616834
 30
0.0
 11
289.5013454214
 21
155.1556806463
 31
0.0
  0
LINE
  5
19F
330
1F
100
AcDbEntity
  8
0
  6
Continuous
 62
     7
370
    15
100
AcDbLine
 10
293.5066769675
 20
154.939382841
 30
0.0
 11
299.2941464141
 21
154.6268533367
 31
0.0
  0
ARC
  5
1A0
330
1F
100
AcDbEntity
  8
0
  6
Continuous
 62
     7
370
    15
100
AcDbCircle
 10
278.4425372586
 20
129.7149894116
 30
0.0
 40
5.000000000000034
100
AcDbArc
 50
86.908940069
 51
97.9621133402
  0
ARC
  5
1A1
330
1F
100
AcDbEntity
  8
0
  6
Continuous
 62
     7
370
    15
100
AcDbCircle
 10
280.1141504761
 20
160.6698873964
 30
0.0
 40
4.999999999999996
100
AcDbArc
 50
255.8557667977
 51
266.908940069
  0
ARC
  5
1A2
330
1F
100
AcDbEntity
  8
0
  6
Continuous
 62
     7
370
    15
100
AcDbCircle
 10
235.5167106782
 20
132.0330516168
 30
0.0
 40
6.00000000000002
100
AcDbArc
 50
75.8557667977
 51
86.908940069
  0
LINE
  5
1A3
330
1F
100
AcDbEntity
  8
0
  6
Continuous
 62
     7
370
    15
100
AcDbLine
 10
236.8647853688
 20
156.9966818589
 30
0.0
 11
217.4151751057
 21
158.0469902057
 31
0.0
  0
ARC
  5
1A4
330
1F
100
AcDbEntity
  8
0
  6
Continuous
 62
     7
370
    15
100
AcDbCircle
 10
237.1883238957
 20
162.9879496017
 30
0.0
 40
5.999999999999981
100
AcDbArc
 50
266.908940069
 51
277.9621133402
  0
ARC
  5
1A5
330
1F
100
AcDbEntity
  8
0
  6
Continuous
 62
     7
370
    15
100
AcDbCircle
 10
224.3641698516
 20
148.1578902417
 30
0.0
 40
6.500000000000021
100
AcDbArc
 50
50.3496259224
 51
83.4465941609
  0
ARC
  5
1A6
330
1F
100
AcDbEntity
  8
0
  6
Continuous
 62
     7
370
    15
100
AcDbCircle
 10
221.3685345627
 20
148.3196592628
 30
0.0
 40
6.500000000000005
100
AcDbArc
 50
105.6303934693
 51
148.1658266139
  0
LWPOLYLINE
  5
1A7
330
1F
100
AcDbEntity
  8
0
  6
Continuous
 62
     7
370
    15
100
AcDbPolyline
 90
        9
 70
   128
 43
0.0
 10
235.8402485803
 20
138.0243222612
 10
235.8297283605
 20
137.8295193809
 10
235.8196141974
 20
137.6421968836
 10
235.8102897957
 20
137.4695594806
 10
235.8021202341
 20
137.3182456392
 10
235.7954128489
 20
137.1940593618
 10
235.7904302732
 20
137.1017839211
 10
235.7873624966
 20
137.0449657935
 10
235.7863250032
 20
137.0257805485
  0
LINE
  5
1A8
330
1F
100
AcDbEntity
  8
0
  6
Continuous
 62
     7
370
    15
100
AcDbLine
 10
235.7863250032
 20
137.0257805485
 30
0.0
 11
225.3051834956
 21
137.5917788047
 31
0.0
  0
LINE
  5
1A9
330
1F
100
AcDbEntity
  8
0
  6
Continuous
 62
     7
370
    15
100
AcDbLine
 10
221.1625750021
 20
137.8154824871
 30
0.0
 11
216.3367147401
 21
138.0760888952
 31
0.0
  0
ARC
  5
1AA
330
1F
100
AcDbEntity
  8
0
  6
Continuous
 62
     7
370
    15
100
AcDbCircle
 10
235.5167106782
 20
132.0330516168
 30
0.0
 40
5.000000000000004
100
AcDbArc
 50
75.8557667977
 51
86.908940069
  0
LWPOLYLINE
  5
1AB
330
1F
100
AcDbEntity
  8
0
  6
Continuous
 62
     7
370
    15
100
AcDbPolyline
 90
        9
 70
   128
 43
0.0
 10
236.8647853688
 20
156.9966818589
 10
236.8753055886
 20
157.1914847392
 10
236.8854216144
 20
157.3788072366
 10
236.8947441534
 20
157.5514446396
 10
236.9029155776
 20
157.7027584809
 10
236.9096211002
 20
157.8269373077
 10
236.9146036759
 20
157.9192127484
 10
236.9176733151
 20
157.9760383266
 10
236.9187089458
 20
157.9952235717
  0
ARC
  5
1AC
330
1F
100
AcDbEntity
  8
0
  6
Continuous
 62
     7
370
    15
100
AcDbCircle
 10
237.1883238957
 20
162.9879496017
 30
0.0
 40
5.000000000000012
100
AcDbArc
 50
266.908940069
 51
277.9621133402
  0
LINE
  5
1AD
330
1F
100
AcDbEntity
  8
0
  6
Continuous
 62
     7
370
    15
100
AcDbLine
 10
217.4690949574
 20
159.0455319184
 30
0.0
 11
236.9187089458
 21
157.9952235717
 31
0.0
  0
SPLINE
  5
1AE
330
1F
100
AcDbEntity
  8
0
  6
Continuous
 62
     7
370
    15
100
AcDbSpline
210
0.0
220
0.0
230
1.0
 70
     8
 71
     3
 72
    11
 73
     7
 74
     0
 42
0.00000001
 43
0.00000001
 12
1.0
 22
0.0
 32
0.0
 13
1.0
 23
0.0
 33
0.0
 40
0.0
 40
0.0
 40
0.0
 40
0.0
 40
0.2298977353782355
 40
0.4617060750509849
 40
0.8918659553246063
 40
1.0
 40
1.0
 40
1.0
 40
1.0
 10
301.2998315349591
 20
154.5185442465635
 30
0.0
 10
301.2956398810267
 20
154.5202344661165
 30
0.0
 10
301.2872217377077
 20
154.5236289520801
 30
0.0
 10
301.2122616703145
 20
154.5536040937555
 30
0.0
 10
301.1201714544409
 20
154.5897435600734
 30
0.0
 10
301.0483235304583
 20
154.6172270946626
 30
0.0
 10
301.0338905111325
 20
154.6227480667921
 30
0.0
  0
SPLINE
  5
1AF
330
1F
100
AcDbEntity
  8
0
  6
Continuous
 62
     7
370
    15
100
AcDbSpline
210
0.0
220
0.0
230
1.0
 70
     8
 71
     3
 72
    10
 73
     6
 74
     0
 42
0.00000001
 43
0.00000001
 12
1.0
 22
0.0
 32
0.0
 13
1.0
 23
0.0
 33
0.0
 40
0.0
 40
0.0
 40
0.0
 40
0.0
 40
0.4959502195665209
 40
0.9680263345665562
 40
1.0
 40
1.0
 40
1.0
 40
1.0
 10
301.5821377590669
 20
154.5159216421934
 30
0.0
 10
301.5019443650876
 20
154.5595955819484
 30
0.0
 10
301.3454179352816
 20
154.6448410806883
 30
0.0
 10
301.1419112580834
 20
154.6423704125768
 30
0.0
 10
301.040333921863
 20
154.6239185348453
 30
0.0
 10
301.0338905111325
 20
154.6227480667921
 30
0.0
  0
LWPOLYLINE
  5
1B0
330
1F
100
AcDbEntity
  8
0
  6
Continuous
 62
     7
370
    15
100
AcDbPolyline
 90
        9
 70
   128
 43
0.0
 10
279.8984578655
 20
156.6757033962
 10
279.8879395083
 20
156.4809005159
 10
279.8778234825
 20
156.2935780186
 10
279.8685009435
 20
156.1209480661
 10
279.8603295192
 20
155.9696267742
 10
279.8536239967
 20
155.8454479474
 10
279.8486395583
 20
155.7531725067
 10
279.8455717817
 20
155.6963469285
 10
279.844536151
 20
155.6771616834
  0
SPLINE
  5
1B1
330
1F
100
AcDbEntity
  8
0
  6
Continuous
 62
     7
370
    15
100
AcDbSpline
210
0.0
220
0.0
230
1.0
 70
     8
 71
     3
 72
    10
 73
     6
 74
     0
 42
0.00000001
 43
0.00000001
 12
1.0
 22
0.0
 32
0.0
 13
1.0
 23
0.0
 33
0.0
 40
0.0
 40
0.0
 40
0.0
 40
0.0
 40
0.1693497833011784
 40
0.3942918259868034
 40
1.0
 40
1.0
 40
1.0
 40
1.0
 10
301.0338905111325
 20
154.6227480667921
 30
0.0
 10
300.9108496970591
 20
154.6767807737164
 30
0.0
 10
300.6243776018119
 20
154.802583442376
 30
0.0
 10
299.7954759481925
 20
155.1606248706765
 30
0.0
 10
299.0831443565408
 20
155.4538977268518
 30
0.0
 10
298.5637138441575
 20
155.6677516001554
 30
0.0
  0
LINE
  5
1B2
330
1F
100
AcDbEntity
  8
0
  6
Continuous
 62
     7
370
    15
100
AcDbLine
 10
297.3234827474
 20
132.7012177008
 30
0.0
 11
278.6582286314
 21
133.7091694969
 31
0.0
  0
LWPOLYLINE
  5
1B3
330
1F
100
AcDbEntity
  8
0
  6
Continuous
 62
     7
370
    15
100
AcDbPolyline
 90
        9
 70
   128
 43
0.0
 10
278.7121522084
 20
134.7077112097
 10
278.7111165777
 20
134.6885259646
 10
278.7080469385
 20
134.631707837
 10
278.7030643627
 20
134.5394323963
 10
278.6963588402
 20
134.4152461189
 10
278.6881874159
 20
134.2639322776
 10
278.678864877
 20
134.0912948746
 10
278.6687488512
 20
133.9039798278
 10
278.6582286314
 20
133.7091694969
  0
SPLINE
  5
1B4
330
1F
100
AcDbEntity
  8
0
  6
Continuous
 62
     7
370
    15
100
AcDbSpline
210
0.0
220
0.0
230
1.0
 70
     8
 71
     3
 72
    10
 73
     6
 74
     0
 42
0.00000001
 43
0.00000001
 12
1.0
 22
0.0
 32
0.0
 13
1.0
 23
0.0
 33
0.0
 40
0.0
 40
0.0
 40
0.0
 40
0.0
 40
0.537755373913182
 40
0.7874256834160708
 40
1.0
 40
1.0
 40
1.0
 40
1.0
 10
299.8918319896234
 20
133.4741334813925
 30
0.0
 10
299.9642375017477
 20
133.4934666294419
 30
0.0
 10
300.0702596126058
 20
133.5217758162097
 30
0.0
 10
300.1555376076743
 20
133.5457464807982
 30
0.0
 10
300.1636958351148
 20
133.5480393443084
 30
0.0
 10
300.1674475923551
 20
133.5490937727781
 30
0.0
  0
SPLINE
  5
1B5
330
1F
100
AcDbEntity
  8
0
  6
Continuous
 62
     7
370
    15
100
AcDbSpline
210
0.0
220
0.0
230
1.0
 70
     8
 71
     3
 72
    11
 73
     7
 74
     0
 42
0.00000001
 43
0.00000001
 12
1.0
 22
0.0
 32
0.0
 13
1.0
 23
0.0
 33
0.0
 40
0.0
 40
0.0
 40
0.0
 40
0.0
 40
0.3572477202983643
 40
0.7425236603038877
 40
0.9554231579423446
 40
1.0
 40
1.0
 40
1.0
 40
1.0
 10
297.323482747413
 20
132.7012177008482
 30
0.0
 10
297.6418976590311
 20
132.7930486470522
 30
0.0
 10
298.3037090359453
 20
132.9839152262639
 30
0.0
 10
299.1389073237713
 20
133.2377070860033
 30
0.0
 10
299.6752894634536
 20
133.4055087037572
 30
0.0
 10
299.8598747629794
 20
133.4640058745382
 30
0.0
 10
299.8918319896234
 20
133.4741334813925
 30
0.0
  0
SPLINE
  5
1B6
330
1F
100
AcDbEntity
  8
0
  6
Continuous
 62
     7
370
    15
100
AcDbSpline
210
0.0
220
0.0
230
1.0
 70
     8
 71
     3
 72
    10
 73
     6
 74
     0
 42
0.00000001
 43
0.00000001
 12
1.0
 22
0.0
 32
0.0
 13
1.0
 23
0.0
 33
0.0
 40
0.0
 40
0.0
 40
0.0
 40
0.0
 40
0.5447759228357648
 40
0.9680202642369967
 40
1.0
 40
1.0
 40
1.0
 40
1.0
 10
300.4483940855039
 20
133.5213031071516
 30
0.0
 10
300.3549482720126
 20
133.4840361281941
 30
0.0
 10
300.1889030463045
 20
133.4178158910185
 30
0.0
 10
299.9874994091832
 20
133.4458295245011
 30
0.0
 10
299.8981115357137
 20
133.4722756283987
 30
0.0
 10
299.8918319896234
 20
133.4741334813925
 30
0.0
  0
ARC
  5
1B7
330
1F
100
AcDbEntity
  8
0
  6
Continuous
 62
     7
370
    15
100
AcDbCircle
 10
280.1141504761
 20
160.6698873964
 30
0.0
 40
4.000000000000006
100
AcDbArc
 50
212.7052656988
 51
266.908940069
  0
LWPOLYLINE
  5
1B8
330
1F
100
AcDbEntity
  8
0
  6
Continuous
 62
     7
370
    15
100
AcDbPolyline
 90
        9
 70
   128
 43
0.0
 10
276.7483058229
 20
158.5086132783
 10
276.584145318
 20
158.403202464
 10
276.4262935922
 20
158.3018447656
 10
276.2808154181
 20
158.208429386
 10
276.1533024565
 20
158.1265549558
 10
276.0486571893
 20
158.0593581694
 10
275.9708973423
 20
158.0094318289
 10
275.9230124608
 20
157.9786832827
 10
275.9068447009
 20
157.9682971734
  0
ARC
  5
1B9
330
1F
100
AcDbEntity
  8
0
  6
Continuous
 62
     7
370
    15
100
AcDbCircle
 10
278.4425372586
 20
129.7149894116
 30
0.0
 40
4.000000000000004
100
AcDbArc
 50
86.908940069
 51
141.1126144391
  0
LWPOLYLINE
  5
1BA
330
1F
100
AcDbEntity
  8
0
  6
Continuous
 62
     7
370
    15
100
AcDbPolyline
 90
        9
 70
   128
 43
0.0
 10
274.550630416
 20
132.8539471525
 10
274.5655874566
 20
132.8418846625
 10
274.6098811582
 20
132.8061591286
 10
274.6818109259
 20
132.748148908
 10
274.7786125943
 20
132.670074274
 10
274.8965664611
 20
132.5749378103
 10
275.0311388478
 20
132.4664052028
 10
275.177157189
 20
132.3486338753
 10
275.3290111974
 20
132.2261537808
  0
ARC
  5
1BB
330
1F
100
AcDbEntity
  8
0
  6
Continuous
 62
     7
370
    15
100
AcDbCircle
 10
257.8154305771
 20
146.3514695066
 30
0.0
 40
22.50000000000004
100
AcDbArc
 50
212.7052656988
 51
321.1126144391
  0
LWPOLYLINE
  5
1BC
330
1F
100
AcDbEntity
  8
0
  6
Continuous
 62
     7
370
    15
100
AcDbPolyline
 90
        9
 70
   128
 43
0.0
 10
239.7240164534
 20
134.7346376079
 10
239.7078486935
 20
134.7242589492
 10
239.659963812
 20
134.693510403
 10
239.5822039649
 20
134.6435766119
 10
239.4775586978
 20
134.5763872761
 10
239.3500457362
 20
134.4945053953
 10
239.2045675621
 20
134.4010900158
 10
239.0467158363
 20
134.2997323173
 10
238.8825553313
 20
134.1943215031
  0
ARC
  5
1BD
330
1F
100
AcDbEntity
  8
0
  6
Continuous
 62
     7
370
    15
100
AcDbCircle
 10
257.8154305771
 20
146.3514695066
 30
0.0
 40
22.5
100
AcDbArc
 50
32.7052656988
 51
141.1126144391
  0
LWPOLYLINE
  5
1BE
330
1F
100
AcDbEntity
  8
0
  6
Continuous
 62
     7
370
    15
100
AcDbPolyline
 90
        9
 70
   128
 43
0.0
 10
240.3018499568
 20
160.4767810005
 10
240.4537039653
 20
160.3543083567
 10
240.5997223065
 20
160.2365370292
 10
240.7342946932
 20
160.127996971
 10
240.8522485599
 20
160.032867958
 10
240.9490502283
 20
159.9547933239
 10
241.0209799961
 20
159.8967756528
 10
241.0652736977
 20
159.8610575694
 10
241.0802307383
 20
159.8489876288
  0
ARC
  5
1BF
330
1F
100
AcDbEntity
  8
0
  6
Continuous
 62
     7
370
    15
100
AcDbCircle
 10
237.1883238957
 20
162.9879496017
 30
0.0
 40
4.00000000000003
100
AcDbArc
 50
266.908940069
 51
321.1126144391
  0
LWPOLYLINE
  5
1C0
330
1F
100
AcDbEntity
  8
0
  6
Continuous
 62
     7
370
    15
100
AcDbPolyline
 90
        9
 70
   128
 43
0.0
 10
236.9726325229
 20
158.993772735
 10
236.9621123031
 20
158.7989624041
 10
236.9519962773
 20
158.6116399068
 10
236.9426737383
 20
158.4390099543
 10
236.9345023141
 20
158.2876886624
 10
236.9277967915
 20
158.1635098356
 10
236.9228142158
 20
158.0712343949
 10
236.9197445766
 20
158.0144088167
 10
236.9187089458
 20
157.9952235717
  0
ARC
  5
1C1
330
1F
100
AcDbEntity
  8
0
  6
Continuous
 62
     7
370
    15
100
AcDbCircle
 10
235.5167106782
 20
132.0330516168
 30
0.0
 40
3.999999999999991
100
AcDbArc
 50
32.7052656988
 51
86.908940069
  0
LWPOLYLINE
  5
1C2
330
1F
100
AcDbEntity
  8
0
  6
Continuous
 62
     7
370
    15
100
AcDbPolyline
 90
        9
 70
   128
 43
0.0
 10
235.7863250032
 20
137.0257805485
 10
235.7852893725
 20
137.0065878528
 10
235.782221596
 20
136.9497697252
 10
235.7772371576
 20
136.8574942845
 10
235.770531635
 20
136.7333080071
 10
235.7623602108
 20
136.5819941658
 10
235.7530376718
 20
136.4093567628
 10
235.742921646
 20
136.222041716
 10
235.7324032888
 20
136.0272313851
  0
SPLINE
  5
1C3
330
1F
100
AcDbEntity
  8
0
  6
Continuous
 62
     7
370
    15
100
AcDbSpline
210
0.0
220
0.0
230
1.0
 70
     8
 71
     3
 72
    10
 73
     6
 74
     0
 42
0.00000001
 43
0.00000001
 12
1.0
 22
0.0
 32
0.0
 13
1.0
 23
0.0
 33
0.0
 40
0.0
 40
0.0
 40
0.0
 40
0.0
 40
0.169349611622172
 40
0.3942924400258382
 40
1.0
 40
1.0
 40
1.0
 40
1.0
 10
214.5969706431401
 20
138.0801941651197
 30
0.0
 10
214.7200116209057
 20
138.0261618623228
 30
0.0
 10
215.006484833815
 20
137.9003598111345
 30
0.0
 10
215.8353818060103
 20
137.5423036377591
 30
0.0
 10
216.5477157305373
 20
137.2490342582854
 30
0.0
 10
217.0671473101152
 20
137.0351831811758
 30
0.0
  0
SPLINE
  5
1C4
330
1F
100
AcDbEntity
  8
0
  6
Continuous
 62
     7
370
    15
100
AcDbSpline
210
0.0
220
0.0
230
1.0
 70
     8
 71
     3
 72
    11
 73
     7
 74
     0
 42
0.00000001
 43
0.00000001
 12
1.0
 22
0.0
 32
0.0
 13
1.0
 23
0.0
 33
0.0
 40
0.0
 40
0.0
 40
0.0
 40
0.0
 40
0.2298978415728221
 40
0.4617062883227063
 40
0.8918700752086373
 40
1.0
 40
1.0
 40
1.0
 40
1.0
 10
214.3310296193135
 20
138.1843979853483
 30
0.0
 10
214.3352212298481
 20
138.1827075731801
 30
0.0
 10
214.3436392860107
 20
138.1793127003853
 30
0.0
 10
214.4186005110387
 20
138.1493411888956
 30
0.0
 10
214.510686553082
 20
138.1131827267214
 30
0.0
 10
214.5825375505948
 20
138.0857122967036
 30
0.0
 10
214.5969706431401
 20
138.0801941651197
 30
0.0
  0
LINE
  5
1C5
330
1F
100
AcDbEntity
  8
0
  6
Continuous
 62
     7
370
    15
100
AcDbLine
 10
218.3073784069
 20
160.0017245311
 30
0.0
 11
236.9726325229
 21
158.993772735
 31
0.0
  0
SPLINE
  5
1C6
330
1F
100
AcDbEntity
  8
0
  6
Continuous
 62
     7
370
    15
100
AcDbSpline
210
0.0
220
0.0
230
1.0
 70
     8
 71
     3
 72
    10
 73
     6
 74
     0
 42
0.00000001
 43
0.00000001
 12
1.0
 22
0.0
 32
0.0
 13
1.0
 23
0.0
 33
0.0
 40
0.0
 40
0.0
 40
0.0
 40
0.0
 40
0.5377559904352537
 40
0.7874247911019878
 40
1.0
 40
1.0
 40
1.0
 40
1.0
 10
215.7390291646493
 20
159.2288012999388
 30
0.0
 10
215.6666237707018
 20
159.2094651563362
 30
0.0
 10
215.5606020745833
 20
159.1811516477788
 30
0.0
 10
215.4753233191389
 20
159.1571998830524
 30
0.0
 10
215.467165261721
 20
159.1548990896344
 30
0.0
 10
215.4634135619176
 20
159.1538410085531
 30
0.0
  0
SPLINE
  5
1C7
330
1F
100
AcDbEntity
  8
0
  6
Continuous
 62
     7
370
    15
100
AcDbSpline
210
0.0
220
0.0
230
1.0
 70
     8
 71
     3
 72
    11
 73
     7
 74
     0
 42
0.00000001
 43
0.00000001
 12
1.0
 22
0.0
 32
0.0
 13
1.0
 23
0.0
 33
0.0
 40
0.0
 40
0.0
 40
0.0
 40
0.0
 40
0.3572474723195609
 40
0.7425239057934055
 40
0.955422526274478
 40
1.0
 40
1.0
 40
1.0
 40
1.0
 10
218.3073784068597
 20
160.0017245310636
 30
0.0
 10
217.9889630081629
 20
159.9098955512934
 30
0.0
 10
217.3271499406835
 20
159.7190328636407
 30
0.0
 10
216.4919584618965
 20
159.4652134541357
 30
0.0
 10
215.9555684262747
 20
159.2974438984722
 30
0.0
 10
215.7709863214932
 20
159.2389316673882
 30
0.0
 10
215.7390291646493
 20
159.2288012999388
 30
0.0
  0
SPLINE
  5
1C8
330
1F
100
AcDbEntity
  8
0
  6
Continuous
 62
     7
370
    15
100
AcDbSpline
210
0.0
220
0.0
230
1.0
 70
     8
 71
     3
 72
    10
 73
     6
 74
     0
 42
0.00000001
 43
0.00000001
 12
1.0
 22
0.0
 32
0.0
 13
1.0
 23
0.0
 33
0.0
 40
0.0
 40
0.0
 40
0.0
 40
0.0
 40
0.495951086306467
 40
0.9680248367005434
 40
1.0
 40
1.0
 40
1.0
 40
1.0
 10
214.0487233952058
 20
138.1870205897184
 30
0.0
 10
214.1289158898836
 20
138.1433485314461
 30
0.0
 10
214.2854400486334
 20
138.0581069859699
 30
0.0
 10
214.4889550369473
 20
138.0605296086101
 30
0.0
 10
214.590527244802
 20
138.0790211256378
 30
0.0
 10
214.5969706431401
 20
138.0801941651197
 30
0.0
  0
SPLINE
  5
1C9
330
1F
100
AcDbEntity
  8
0
  6
Continuous
 62
     7
370
    15
100
AcDbSpline
210
0.0
220
0.0
230
1.0
 70
     8
 71
     3
 72
    10
 73
     6
 74
     0
 42
0.00000001
 43
0.00000001
 12
1.0
 22
0.0
 32
0.0
 13
1.0
 23
0.0
 33
0.0
 40
0.0
 40
0.0
 40
0.0
 40
0.0
 40
0.5447744782850663
 40
0.9680176973938409
 40
1.0
 40
1.0
 40
1.0
 40
1.0
 10
215.1824670687688
 20
159.1816391247602
 30
0.0
 10
215.2759115916489
 20
159.2189003307663
 30
0.0
 10
215.4419545240514
 20
159.2851103099005
 30
0.0
 10
215.6433689550773
 20
159.2571424948378
 30
0.0
 10
215.7327496395326
 20
159.230661731209
 30
0.0
 10
215.7390291646493
 20
159.2288012999388
 30
0.0
  0
SPLINE
  5
1CA
330
1F
100
AcDbEntity
  8
0
  6
Continuous
 62
     7
370
    15
100
AcDbSpline
210
0.0
220
0.0
230
1.0
 70
     8
 71
     3
 72
    10
 73
     6
 74
     0
 42
0.00000001
 43
0.00000001
 12
1.0
 22
0.0
 32
0.0
 13
1.0
 23
0.0
 33
0.0
 40
0.0
 40
0.0
 40
0.0
 40
0.0
 40
0.5860409546508607
 40
0.8207075445983065
 40
1.0
 40
1.0
 40
1.0
 40
1.0
 10
299.1745124414933
 20
156.4595397013517
 30
0.0
 10
299.7006523872677
 20
156.0469696140605
 30
0.0
 10
300.4374729449177
 20
155.4691953465311
 30
0.0
 10
301.2359405201119
 20
154.8089567018769
 30
0.0
 10
301.4906579700447
 20
154.5949635672484
 30
0.0
 10
301.6009802773965
 20
154.5022796291204
 30
0.0
  0
LWPOLYLINE
  5
1CB
330
1F
100
AcDbEntity
  8
0
  6
Continuous
 62
     7
370
    15
100
AcDbPolyline
 90
        9
 70
   128
 43
0.0
 10
299.1745124415
 20
156.4595397014
 10
299.1627777771
 20
156.4443256158
 10
299.1280208186
 20
156.3992645043
 10
299.07157522
 20
156.3260998029
 10
298.9956128255
 20
156.2276254791
 10
298.9030542627
 20
156.1076487798
 10
298.7974571839
 20
155.9707592625
 10
298.6828747049
 20
155.8222244877
 10
298.5637138442
 20
155.6677516002
  0
SPLINE
  5
1CC
330
1F
100
AcDbEntity
  8
0
  6
Continuous
 62
     7
370
    15
100
AcDbSpline
210
0.0
220
0.0
230
1.0
 70
     8
 71
     3
 72
    10
 73
     6
 74
     0
 42
0.00000001
 43
0.00000001
 12
1.0
 22
0.0
 32
0.0
 13
1.0
 23
0.0
 33
0.0
 40
0.0
 40
0.0
 40
0.0
 40
0.0
 40
0.5860409546508607
 40
0.8207075445983065
 40
1.0
 40
1.0
 40
1.0
 40
1.0
 10
216.4563487127793
 20
136.2434025305601
 30
0.0
 10
215.930208767005
 20
136.6559726178515
 30
0.0
 10
215.193388209355
 20
137.2337468853808
 30
0.0
 10
214.3949206341608
 20
137.893985530035
 30
0.0
 10
214.1402031842281
 20
138.1079786646634
 30
0.0
 10
214.0298808768762
 20
138.2006626027914
 30
0.0
  0
LWPOLYLINE
  5
1CD
330
1F
100
AcDbEntity
  8
0
  6
Continuous
 62
     7
370
    15
100
AcDbPolyline
 90
        9
 70
   128
 43
0.0
 10
216.4563487128
 20
136.2434025306
 10
216.4680833772
 20
136.2586166161
 10
216.5028403357
 20
136.303670277
 10
216.5592859343
 20
136.3768424291
 10
216.6352483288
 20
136.4753093022
 10
216.7278068915
 20
136.5952934522
 10
216.8334039703
 20
136.7321829695
 10
216.9479864493
 20
136.8807177442
 10
217.0671473101
 20
137.0351831812
  0
SPLINE
  5
1CE
330
1F
100
AcDbEntity
  8
0
  6
Continuous
 62
     7
370
    15
100
AcDbSpline
210
0.0
220
0.0
230
1.0
 70
     8
 71
     3
 72
    11
 73
     7
 74
     0
 42
0.00000001
 43
0.00000001
 12
1.0
 22
0.0
 32
0.0
 13
1.0
 23
0.0
 33
0.0
 40
0.0
 40
0.0
 40
0.0
 40
0.0
 40
0.0369876701694062
 40
0.2730356492840187
 40
0.6578732627344288
 40
0.9999999999999999
 40
0.9999999999999999
 40
0.9999999999999999
 40
0.9999999999999999
 10
300.4685963347924
 20
133.532829155335
 30
0.0
 10
300.4459336549955
 20
133.517582302588
 30
0.0
 10
300.27864224506
 20
133.4050330579273
 30
0.0
 10
299.7617902205845
 20
133.0606710598207
 30
0.0
 10
298.878203959763
 20
132.4869968775346
 30
0.0
 10
298.1759596132734
 20
132.0526665359653
 30
0.0
 10
297.8454666987432
 20
131.8482603329512
 30
0.0
  0
LWPOLYLINE
  5
1CF
330
1F
100
AcDbEntity
  8
0
  6
Continuous
 62
     7
370
    15
100
AcDbPolyline
 90
        9
 70
   128
 43
0.0
 10
297.8454666987
 20
131.848260333
 10
297.8354382173
 20
131.8646516103
 10
297.8057327524
 20
131.9131921429
 10
297.7574976936
 20
131.992011835
 10
297.6925807849
 20
132.0980857509
 10
297.613481696
 20
132.2273384231
 10
297.5232365385
 20
132.3748077649
 10
297.425317283
 20
132.5348164338
 10
297.3234827474
 20
132.7012177008
  0
SPLINE
  5
1D0
330
1F
100
AcDbEntity
  8
0
  6
Continuous
 62
     7
370
    15
100
AcDbSpline
210
0.0
220
0.0
230
1.0
 70
     8
 71
     3
 72
    11
 73
     7
 74
     0
 42
0.00000001
 43
0.00000001
 12
1.0
 22
0.0
 32
0.0
 13
1.0
 23
0.0
 33
0.0
 40
0.0
 40
0.0
 40
0.0
 40
0.0
 40
0.0369884814712136
 40
0.2730355324349827
 40
0.6578732077424896
 40
1.0
 40
1.0
 40
1.0
 40
1.0
 10
215.1622648194802
 20
159.1701056259962
 30
0.0
 10
215.1849274391103
 20
159.1853551419796
 30
0.0
 10
215.3522146639686
 20
159.297921528873
 30
0.0
 10
215.8690753923215
 20
159.642250895064
 30
0.0
 10
216.752656264543
 20
160.2159413927665
 30
0.0
 10
217.4549012433946
 20
160.6502693618937
 30
0.0
 10
217.7853944555295
 20
160.8546744483801
 30
0.0
  0
LWPOLYLINE
  5
1D1
330
1F
100
AcDbEntity
  8
0
  6
Continuous
 62
     7
370
    15
100
AcDbPolyline
 90
        9
 70
   128
 43
0.0
 10
217.7853944555
 20
160.8546744484
 10
217.795422937
 20
160.8382906216
 10
217.8251284019
 20
160.7897500891
 10
217.8733634606
 20
160.7109303969
 10
217.9382803694
 20
160.604856481
 10
218.0173794583
 20
160.4755963582
 10
218.1076246158
 20
160.328134467
 10
218.2055438713
 20
160.1681257981
 10
218.3073784069
 20
160.0017245311
  0
ARC
  5
1D2
330
1F
100
AcDbEntity
  8
0
  6
Continuous
 62
     7
370
    15
100
AcDbCircle
 10
260.3416492444
 20
193.1319330205
 30
0.0
 40
70.84862375062595
100
AcDbArc
 50
232.3524651943
 51
301.4654149436
  0
ARC
  5
1D3
330
1F
100
AcDbEntity
  8
0
  6
Continuous
 62
     7
370
    15
100
AcDbCircle
 10
255.2892119099
 20
99.5710059928
 30
0.0
 40
70.84862375062596
100
AcDbArc
 50
52.3524651943
 51
121.4654149436
  0
ARC
  5
1D4
330
1F
100
AcDbEntity
  8
0
  6
Continuous
 62
     7
370
    15
100
AcDbCircle
 10
260.3416492444
 20
193.1319330205
 30
0.0
 40
71.84862375062593
100
AcDbArc
 50
232.3524651943
 51
301.4654149436
  0
ARC
  5
1D5
330
1F
100
AcDbEntity
  8
0
  6
Continuous
 62
     7
370
    15
100
AcDbCircle
 10
255.2892119099
 20
99.5710059928
 30
0.0
 40
71.84862375062598
100
AcDbArc
 50
52.3524651943
 51
121.4654149436
  0
LINE
  5
1D6
330
1F
100
AcDbEntity
  8
0
  6
Continuous
 62
     7
370
    15
100
AcDbLine
 10
114.9193445996
 20
269.6061502594
 30
0.0
 11
115.1170383051
 21
285.606152882
 31
0.0
  0
SPLINE
  5
1D7
330
1F
100
AcDbEntity
  8
0
  6
Continuous
 62
     7
370
    15
100
AcDbSpline
210
0.0
220
0.0
230
1.0
 70
     8
 71
     3
 72
    11
 73
     7
 74
     0
 42
0.00000001
 43
0.00000001
 12
1.0
 22
0.0
 32
0.0
 13
1.0
 23
0.0
 33
0.0
 40
0.0
 40
0.0
 40
0.0
 40
0.0
 40
0.2744669110970716
 40
0.5489584874245014
 40
0.82347162886969
 40
1.0
 40
1.0
 40
1.0
 40
1.0
 10
115.1170383051408
 20
285.6061528819891
 30
0.0
 10
115.0703487215234
 20
286.3934229079804
 30
0.0
 10
114.9769653584845
 20
287.9680337087336
 30
0.0
 10
114.1227739583871
 20
290.0536190010639
 30
0.0
 10
113.0146140870555
 20
291.4872141987481
 30
0.0
 10
112.1708589809143
 20
291.9985525861277
 30
0.0
 10
111.8406305864824
 20
292.1986799138876
 30
0.0
  0
LINE
  5
1D8
330
1F
100
AcDbEntity
  8
0
  6
Continuous
 62
     7
370
    15
100
AcDbLine
 10
466.9215927676
 20
269.6061502594
 30
0.0
 11
114.9193445996
 21
269.6061502594
 31
0.0
  0
ARC
  5
1D9
330
1F
100
AcDbEntity
  8
0
  6
Continuous
 62
     7
370
    15
100
AcDbCircle
 10
52.3573693309
 20
292.1822569935
 30
0.0
 40
1.005245946894405
100
AcDbArc
 50
135.3806288093
 51
179.0639048165
  0
SPLINE
  5
1DA
330
1F
100
AcDbEntity
  8
0
  6
Continuous
 62
     7
370
    15
100
AcDbSpline
210
0.0
220
0.0
230
1.0
 70
     8
 71
     3
 72
     9
 73
     5
 74
     0
 42
0.00000001
 43
0.00000001
 12
1.0
 22
0.0
 32
0.0
 13
1.0
 23
0.0
 33
0.0
 40
0.0
 40
0.0
 40
0.0
 40
0.0
 40
0.8454956692154374
 40
0.9999999999999999
 40
0.9999999999999999
 40
0.9999999999999999
 40
0.9999999999999999
 10
111.8406305864823
 20
292.1986799138876
 30
0.0
 10
111.4085417374436
 20
292.4133610595352
 30
0.0
 10
110.8974937631355
 20
292.6672726447321
 30
0.0
 10
110.3169487763723
 20
292.5764110630219
 30
0.0
 10
110.2272520617021
 20
292.5623725551458
 30
0.0
  0
LINE
  5
1DB
330
1F
100
AcDbEntity
  8
0
  6
Continuous
 62
     7
370
    15
100
AcDbLine
 10
53.0863354758
 20
294.3169544834
 30
0.0
 11
51.641846712
 21
292.8883354563
 31
0.0
  0
SPLINE
  5
1DC
330
1F
100
AcDbEntity
  8
0
  6
Continuous
 62
     7
370
    15
100
AcDbSpline
210
0.0
220
0.0
230
1.0
 70
     8
 71
     3
 72
    10
 73
     6
 74
     0
 42
0.00000001
 43
0.00000001
 12
1.0
 22
0.0
 32
0.0
 13
1.0
 23
0.0
 33
0.0
 40
0.0
 40
0.0
 40
0.0
 40
0.0
 40
0.4325748230683729
 40
0.8681428448653682
 40
1.0
 40
1.0
 40
1.0
 40
1.0
 10
53.38885885033734
 20
295.0066100257727
 30
0.0
 10
53.37548148210161
 20
294.8952939938305
 30
0.0
 10
53.34863418101602
 20
294.6718916793733
 30
0.0
 10
53.21063654551378
 20
294.445244904229
 30
0.0
 10
53.10977377056253
 20
294.3411450129548
 30
0.0
 10
53.08633547577982
 20
294.316954483399
 30
0.0
  0
SPLINE
  5
1DD
330
1F
100
AcDbEntity
  8
0
  6
Continuous
 62
     7
370
    15
100
AcDbSpline
210
0.0
220
0.0
230
1.0
 70
     8
 71
     3
 72
    17
 73
    13
 74
     0
 42
0.00000001
 43
0.00000001
 12
1.0
 22
0.0
 32
0.0
 13
1.0
 23
0.0
 33
0.0
 40
0.0
 40
0.0
 40
0.0
 40
0.0
 40
0.0705324625676311
 40
0.1789838952458241
 40
0.2905441687174675
 40
0.3990553672417841
 40
0.5106705184843316
 40
0.6195211830080856
 40
0.7315404312399926
 40
0.8401214297809335
 40
0.9519148874058347
 40
1.0
 40
1.0
 40
1.0
 40
1.0
 10
52.03665297780164
 20
347.0375459092947
 30
0.0
 10
52.036030491079
 20
347.0396587668383
 30
0.0
 10
52.03445086243275
 20
347.0450203756564
 30
0.0
 10
52.1186977439094
 20
346.2394851546056
 30
0.0
 10
52.26702865598204
 20
344.7505180721017
 30
0.0
 10
52.46611114711086
 20
342.5644063762514
 30
0.0
 10
52.68378197994422
 20
339.8146121962534
 30
0.0
 10
52.89598431554199
 20
336.5148309349398
 30
0.0
 10
53.07037353641264
 20
332.8188083605096
 30
0.0
 10
53.18258599178913
 20
328.7675852654509
 30
0.0
 10
53.21074223343242
 20
325.3253135738004
 30
0.0
 10
53.19026171840427
 20
323.248288975938
 30
0.0
 10
53.18410199437268
 20
322.6236026185842
 30
0.0
  0
LWPOLYLINE
  5
1DE
330
1F
100
AcDbEntity
  8
0
  6
Continuous
 62
     7
370
    15
100
AcDbPolyline
 90
        4
 70
   128
 43
0.0
 10
53.87636524
 20
322.6236026186
 10
53.8410643891
 20
320.6238965887
 10
53.6998758868
 20
312.6251618761
 10
53.3888588503
 20
295.0066100258
  0
LINE
  5
1DF
330
1F
100
AcDbEntity
  8
0
  6
Continuous
 62
     7
370
    15
100
AcDbLine
 10
53.1841019944
 20
322.6236026186
 30
0.0
 11
53.87636524
 21
322.6236026186
 31
0.0
  0
LINE
  5
1E0
330
1F
100
AcDbEntity
  8
0
  6
Continuous
 62
     7
370
    15
100
AcDbLine
 10
463.5600696162
 20
349.6061484712
 30
0.0
 11
52.0707617358
 21
349.6061484712
 31
0.0
  0
LINE
  5
1E1
330
1F
100
AcDbEntity
  8
0
  6
Continuous
 62
     7
370
    15
100
AcDbLine
 10
109.9096040085
 20
269.8513190645
 30
0.0
 11
109.9914113835
 21
276.4750342268
 31
0.0
  0
LINE
  5
1E2
330
1F
100
AcDbEntity
  8
0
  6
Continuous
 62
     7
370
    15
100
AcDbLine
 10
454.3887178257
 20
524.6061603922
 30
0.0
 11
61.2421284274
 21
524.6061603922
 31
0.0
  0
LINE
  5
1E3
330
1F
100
AcDbEntity
  8
0
  6
Continuous
 62
     7
370
    15
100
AcDbLine
 10
249.8154301972
 20
604.5848350424
 30
0.0
 11
265.8154300258
 21
604.5848350424
 31
0.0
  0
LINE
  5
1E4
330
1F
100
AcDbEntity
  8
0
  6
Continuous
 62
     7
370
    15
100
AcDbLine
 10
115.1170383051
 20
285.606152882
 30
0.0
 11
114.7700647667
 21
285.606152882
 31
0.0
  0
LWPOLYLINE
  5
1E5
330
1F
100
AcDbEntity
  8
0
  6
Continuous
 62
     7
370
    15
100
AcDbPolyline
 90
       13
 70
   128
 43
0.0
 10
114.7700647667
 20
285.606152882
 10
114.6460125998
 20
287.1637861627
 10
114.2800996855
 20
288.6433373588
 10
113.6906693533
 20
289.9705688852
 10
112.9072557047
 20
291.0789619583
 10
111.9691829041
 20
291.9129352468
 10
110.9234492138
 20
292.4306462902
 10
109.8225216225
 20
292.6061521667
 10
108.7215940312
 20
292.4306462902
 10
107.6758752421
 20
291.9129352468
 10
106.7377875403
 20
291.0789619583
 10
105.9543887928
 20
289.9705688852
 10
105.8712701157
 20
289.8188750643
  0
LINE
  5
1E6
330
1F
100
AcDbEntity
  8
0
  6
Continuous
 62
     7
370
    15
100
AcDbLine
 10
114.7700647667
 20
269.6061502594
 30
0.0
 11
114.7700647667
 21
285.606152882
 31
0.0
  0
LINE
  5
1E7
330
1F
100
AcDbEntity
  8
0
  6
Continuous
 62
     7
370
    15
100
AcDbLine
 10
114.9193445996
 20
269.6061502594
 30
0.0
 11
114.7700647667
 21
269.6061502594
 31
0.0
  0
LINE
  5
1E8
330
1F
100
AcDbEntity
  8
0
  6
Continuous
 62
     7
370
    15
100
AcDbLine
 10
111.9428972558
 20
277.2509376901
 30
0.0
 11
111.9428972558
 21
269.6061502594
 31
0.0
  0
LINE
  5
1E9
330
1F
100
AcDbEntity
  8
0
  6
Continuous
 62
     7
370
    15
100
AcDbLine
 10
107.7021608904
 20
269.6061502594
 30
0.0
 11
107.7021608904
 21
276.5947054523
 31
0.0
  0
LINE
  5
1EA
330
1F
100
AcDbEntity
  8
0
  6
Continuous
 62
     7
370
    15
100
AcDbLine
 10
104.8749933795
 20
269.6061502594
 30
0.0
 11
107.7021608904
 21
269.6061502594
 31
0.0
  0
LINE
  5
1EB
330
1F
100
AcDbEntity
  8
0
  6
Continuous
 62
     7
370
    15
100
AcDbLine
 10
104.8749933795
 20
277.1876226562
 30
0.0
 11
104.8749933795
 21
269.6061502594
 31
0.0
  0
LINE
  5
1EC
330
1F
100
AcDbEntity
  8
0
  6
Continuous
 62
     7
370
    15
100
AcDbLine
 10
111.9428972558
 20
269.6061502594
 30
0.0
 11
114.7700647667
 21
269.6061502594
 31
0.0
  0
LINE
  5
1ED
330
1F
100
AcDbEntity
  8
0
  6
Continuous
 62
     7
370
    15
100
AcDbLine
 10
104.8749933795
 20
269.6061502594
 30
0.0
 11
50.9535471753
 21
269.6061502594
 31
0.0
  0
LWPOLYLINE
  5
1EE
330
1F
100
AcDbEntity
  8
0
  6
Continuous
 62
     7
370
    15
100
AcDbPolyline
 90
        4
 70
   128
 43
0.0
 10
51.3522575453
 20
292.1986799139
 10
51.3169566945
 20
290.1989887852
 10
51.1757979945
 20
282.2002391714
 10
50.9535471753
 20
269.6061502594
  0
LINE
  5
1EF
330
1F
100
AcDbEntity
  8
0
  6
Continuous
 62
     7
370
    15
100
AcDbLine
 10
107.7911506251
 20
269.6061502594
 30
0.0
 11
107.7021608904
 21
269.6061502594
 31
0.0
  0
SPLINE
  5
1F0
330
1F
100
AcDbEntity
  8
0
  6
Continuous
 62
     7
370
    15
100
AcDbSpline
210
0.0
220
0.0
230
1.0
 70
     8
 71
     3
 72
     9
 73
     5
 74
     0
 42
0.00000001
 43
0.00000001
 12
1.0
 22
0.0
 32
0.0
 13
1.0
 23
0.0
 33
0.0
 40
0.0
 40
0.0
 40
0.0
 40
0.0
 40
0.0306074246921669
 40
1.0
 40
1.0
 40
1.0
 40
1.0
 10
53.87636523995526
 20
322.6236026185842
 30
0.0
 10
53.87611757280391
 20
322.6221123739575
 30
0.0
 10
53.86802583840344
 20
322.5734233829095
 30
0.0
 10
53.8736449892975
 20
322.5251459166314
 30
0.0
 10
53.87909215245371
 20
322.4783460992667
 30
0.0
  0
SPLINE
  5
1F1
330
1F
100
AcDbEntity
  8
0
  6
Continuous
 62
     7
370
    15
100
AcDbSpline
210
0.0
220
0.0
230
1.0
 70
     8
 71
     3
 72
    13
 73
     9
 74
     0
 42
0.00000001
 43
0.00000001
 12
1.0
 22
0.0
 32
0.0
 13
1.0
 23
0.0
 33
0.0
 40
0.0
 40
0.0
 40
0.0
 40
0.0
 40
0.0036840003921193
 40
0.295391427217143
 40
0.5898562479827766
 40
0.8033237905204543
 40
0.9560671350270429
 40
1.0
 40
1.0
 40
1.0
 40
1.0
 10
53.18410199437265
 20
322.6236026185843
 30
0.0
 10
53.18389719687158
 20
322.6220827114713
 30
0.0
 10
53.16747607317743
 20
322.5002131448118
 30
0.0
 10
53.17891163931629
 20
322.2564199788556
 30
0.0
 10
53.32023739368807
 20
321.9460089705793
 30
0.0
 10
53.55057955092643
 20
321.7443625214486
 30
0.0
 10
53.74059485465857
 20
321.6454382716241
 30
0.0
 10
53.85079535208556
 20
321.6333979681019
 30
0.0
 10
53.87541156563886
 20
321.6307084459158
 30
0.0
  0
LINE
  5
1F2
330
1F
100
AcDbEntity
  8
0
  6
Continuous
 62
     7
370
    15
100
AcDbLine
 10
50.9535471753
 20
269.6061502594
 30
0.0
 11
50.9567658261
 21
269.6061502594
 31
0.0
  0
LINE
  5
1F3
330
1F
100
AcDbEntity
  8
0
  6
Continuous
 62
     7
370
    15
100
AcDbLine
 10
452.4076680497
 20
151.4347340363
 30
0.0
 11
452.4076680497
 21
156.3994433183
 31
0.0
  0
LINE
  5
1F4
330
1F
100
AcDbEntity
  8
0
  6
Continuous
 62
     7
370
    15
100
AcDbLine
 10
452.4076680497
 20
136.3994474906
 30
0.0
 11
452.4076680497
 21
151.4347340363
 31
0.0
  0
LINE
  5
1F5
330
1F
100
AcDbEntity
  8
0
  6
Continuous
 62
     7
370
    15
100
AcDbLine
 10
450.4076639966
 20
151.4347340363
 30
0.0
 11
450.4076639966
 21
156.3994433183
 31
0.0
  0
LINE
  5
1F6
330
1F
100
AcDbEntity
  8
0
  6
Continuous
 62
     7
370
    15
100
AcDbLine
 10
450.4076639966
 20
136.3994474906
 30
0.0
 11
450.4076639966
 21
151.4347340363
 31
0.0
  0
LINE
  5
1F7
330
1F
100
AcDbEntity
  8
0
  6
Continuous
 62
     7
370
    15
100
AcDbLine
 10
459.4076673344
 20
146.3915105361
 30
0.0
 11
452.4076680497
 21
146.3915105361
 31
0.0
  0
LINE
  5
1F8
330
1F
100
AcDbEntity
  8
0
  6
Continuous
 62
     7
370
    15
100
AcDbLine
 10
459.4076673344
 20
146.3915105361
 30
0.0
 11
459.4076673344
 21
137.8715630072
 31
0.0
  0
LINE
  5
1F9
330
1F
100
AcDbEntity
  8
0
  6
Continuous
 62
     7
370
    15
100
AcDbLine
 10
459.4076673344
 20
137.8715630072
 30
0.0
 11
452.4076680497
 21
137.8715630072
 31
0.0
  0
LINE
  5
1FA
330
1F
100
AcDbEntity
  8
0
  6
Continuous
 62
     7
370
    15
100
AcDbLine
 10
459.4076673344
 20
154.8714186448
 30
0.0
 11
452.4076680497
 21
154.8714186448
 31
0.0
  0
LINE
  5
1FB
330
1F
100
AcDbEntity
  8
0
  6
Continuous
 62
     7
370
    15
100
AcDbLine
 10
459.4076673344
 20
154.8714186448
 30
0.0
 11
459.4076673344
 21
146.3915105361
 31
0.0
  0
LINE
  5
1FC
330
1F
100
AcDbEntity
  8
0
  6
Continuous
 62
     7
370
    15
100
AcDbLine
 10
459.4076673344
 20
137.8315161365
 30
0.0
 11
452.4076680497
 21
137.8315161365
 31
0.0
  0
LINE
  5
1FD
330
1F
100
AcDbEntity
  8
0
  6
Continuous
 62
     7
370
    15
100
AcDbLine
 10
459.4076673344
 20
137.8715630072
 30
0.0
 11
459.4076673344
 21
137.8315161365
 31
0.0
  0
LINE
  5
1FE
330
1F
100
AcDbEntity
  8
0
  6
Continuous
 62
     7
370
    15
100
AcDbLine
 10
213.787550743
 20
150.2025346655
 30
0.0
 11
214.9663667038
 21
140.4586281079
 31
0.0
  0
LINE
  5
1FF
330
1F
100
AcDbEntity
  8
0
  6
Continuous
 62
     7
370
    15
100
AcDbLine
 10
221.6366144672
 20
156.0953776735
 30
0.0
 11
213.787550743
 21
150.2025346655
 31
0.0
  0
LINE
  5
200
330
1F
100
AcDbEntity
  8
0
  6
Continuous
 62
     7
370
    15
100
AcDbLine
 10
231.8433101133
 20
142.5004001159
 30
0.0
 11
230.6644941524
 21
152.2443066734
 31
0.0
  0
LINE
  5
201
330
1F
100
AcDbEntity
  8
0
  6
Continuous
 62
     7
370
    15
100
AcDbLine
 10
223.994246389
 20
136.6075645584
 30
0.0
 11
231.8433101133
 21
142.5004001159
 31
0.0
  0
LINE
  5
202
330
1F
100
AcDbEntity
  8
0
  6
Continuous
 62
     7
370
    15
100
AcDbLine
 10
214.9663667038
 20
140.4586281079
 30
0.0
 11
223.994246389
 21
136.6075645584
 31
0.0
  0
LINE
  5
203
330
1F
100
AcDbEntity
  8
0
  6
Continuous
 62
     7
370
    15
100
AcDbLine
 10
230.6644941524
 20
152.2443066734
 30
0.0
 11
221.6366144672
 21
156.0953776735
 31
0.0
  0
ARC
  5
204
330
1F
100
AcDbEntity
  8
0
  6
Continuous
 62
     7
370
    15
100
AcDbCircle
 10
222.7975797476
 20
146.3981322378
 30
0.0
 40
10.00000000000004
100
AcDbArc
 50
245.0860348303
 51
288.7318453076
  0
LINE
  5
205
330
1F
100
AcDbEntity
  8
0
  6
Continuous
 62
     7
370
    15
100
AcDbLine
 10
452.7368048981
 20
154.8714186448
 30
0.0
 11
452.7368048981
 21
156.3994209665
 31
0.0
  0
LINE
  5
206
330
1F
100
AcDbEntity
  8
0
  6
Continuous
 62
     7
370
    15
100
AcDbLine
 10
452.7368048981
 20
136.3994176883
 30
0.0
 11
452.7368048981
 21
137.8315161365
 31
0.0
  0
LINE
  5
207
330
1F
100
AcDbEntity
  8
0
  6
Continuous
 62
     7
370
    15
100
AcDbLine
 10
459.7368041829
 20
156.1587299603
 30
0.0
 11
452.7368048981
 21
156.1587299603
 31
0.0
  0
LINE
  5
208
330
1F
100
AcDbEntity
  8
0
  6
Continuous
 62
     7
370
    15
100
AcDbLine
 10
459.7368041829
 20
156.1587299603
 30
0.0
 11
459.7368041829
 21
150.9186695713
 31
0.0
  0
LINE
  5
209
330
1F
100
AcDbEntity
  8
0
  6
Continuous
 62
     7
370
    15
100
AcDbLine
 10
459.7368041829
 20
150.9186695713
 30
0.0
 11
459.4076673344
 21
150.9186695713
 31
0.0
  0
LINE
  5
20A
330
1F
100
AcDbEntity
  8
0
  6
Continuous
 62
     7
370
    15
100
AcDbLine
 10
459.7368041829
 20
141.1114032763
 30
0.0
 11
459.4076673344
 21
141.1114032763
 31
0.0
  0
LINE
  5
20B
330
1F
100
AcDbEntity
  8
0
  6
Continuous
 62
     7
370
    15
100
AcDbLine
 10
459.7368041829
 20
150.9186695713
 30
0.0
 11
459.7368041829
 21
141.1114032763
 31
0.0
  0
LINE
  5
20C
330
1F
100
AcDbEntity
  8
0
  6
Continuous
 62
     7
370
    15
100
AcDbLine
 10
459.7368041829
 20
136.544204821
 30
0.0
 11
452.7368048981
 21
136.544204821
 31
0.0
  0
LINE
  5
20D
330
1F
100
AcDbEntity
  8
0
  6
Continuous
 62
     7
370
    15
100
AcDbLine
 10
459.7368041829
 20
141.1114032763
 30
0.0
 11
459.7368041829
 21
136.544204821
 31
0.0
  0
LINE
  5
20E
330
1F
100
AcDbEntity
  8
0
  6
Continuous
 62
     7
370
    15
100
AcDbLine
 10
285.997162278
 20
139.2914052504
 30
0.0
 11
295.520494397
 21
136.9166444439
 31
0.0
  0
LINE
  5
20F
330
1F
100
AcDbEntity
  8
0
  6
Continuous
 62
     7
370
    15
100
AcDbLine
 10
283.2920986072
 20
148.7262319225
 30
0.0
 11
285.997162278
 21
139.2914052504
 31
0.0
  0
LINE
  5
210
330
1F
100
AcDbEntity
  8
0
  6
Continuous
 62
     7
370
    15
100
AcDbLine
 10
290.1103670553
 20
155.786297788
 30
0.0
 11
283.2920986072
 21
148.7262319225
 31
0.0
  0
LINE
  5
211
330
1F
100
AcDbEntity
  8
0
  6
Continuous
 62
     7
370
    15
100
AcDbLine
 10
299.6336991743
 20
153.4115369815
 30
0.0
 11
290.1103670553
 21
155.786297788
 31
0.0
  0
LINE
  5
212
330
1F
100
AcDbEntity
  8
0
  6
Continuous
 62
     7
370
    15
100
AcDbLine
 10
295.520494397
 20
136.9166444439
 30
0.0
 11
302.3387628451
 21
143.9767103094
 31
0.0
  0
LINE
  5
213
330
1F
100
AcDbEntity
  8
0
  6
Continuous
 62
     7
370
    15
100
AcDbLine
 10
302.3387628451
 20
143.9767103094
 30
0.0
 11
299.6336991743
 21
153.4115369815
 31
0.0
  0
ARC
  5
214
330
1F
100
AcDbEntity
  8
0
  6
Continuous
 62
     7
370
    15
100
AcDbCircle
 10
292.7654699757
 20
146.3514395155
 30
0.0
 40
10.00000000000004
100
AcDbArc
 50
64.4339458887
 51
109.3839342492
  0
LINE
  5
215
330
1F
100
AcDbEntity
  8
0
  6
Continuous
 62
     7
370
    15
100
AcDbLine
 10
87.8172169283
 20
63.9988687272
 30
0.0
 11
88.2505128935
 21
63.9988687272
 31
0.0
  0
SPLINE
  5
216
330
1F
100
AcDbEntity
  8
0
  6
Continuous
 62
     7
370
    15
100
AcDbSpline
210
0.0
220
0.0
230
1.0
 70
     8
 71
     3
 72
     9
 73
     5
 74
     0
 42
0.00000001
 43
0.00000001
 12
1.0
 22
0.0
 32
0.0
 13
1.0
 23
0.0
 33
0.0
 40
0.0
 40
0.0
 40
0.0
 40
0.0
 40
0.6022793984069942
 40
1.0
 40
1.0
 40
1.0
 40
1.0
 10
88.25051289353497
 20
63.99886872724614
 30
0.0
 10
88.43622884779806
 20
64.1039264150221
 30
0.0
 10
88.74458399784018
 20
64.27835988901076
 30
0.0
 10
89.08816226279956
 20
64.29953382244385
 30
0.0
 10
89.22481041703351
 20
64.30795513198694
 30
0.0
  0
LINE
  5
217
330
1F
100
AcDbEntity
  8
0
  6
Continuous
 62
     7
370
    15
100
AcDbLine
 10
89.224810417
 20
64.307955132
 30
0.0
 11
92.1663741425
 21
64.307955132
 31
0.0
  0
SPLINE
  5
218
330
1F
100
AcDbEntity
  8
0
  6
Continuous
 62
     7
370
    15
100
AcDbSpline
210
0.0
220
0.0
230
1.0
 70
     8
 71
     3
 72
     9
 73
     5
 74
     0
 42
0.00000001
 43
0.00000001
 12
1.0
 22
0.0
 32
0.0
 13
1.0
 23
0.0
 33
0.0
 40
0.0
 40
0.0
 40
0.0
 40
0.0
 40
0.6147251587091375
 40
1.0
 40
1.0
 40
1.0
 40
1.0
 10
92.166374142505
 20
64.30795513198694
 30
0.0
 10
92.26831645170586
 20
64.28744388893287
 30
0.0
 10
92.43415041466737
 20
64.25407736283017
 30
0.0
 10
92.57897859087107
 20
64.06984775872776
 30
0.0
 10
92.63477724347239
 20
63.99886872724614
 30
0.0
  0
LINE
  5
219
330
1F
100
AcDbEntity
  8
0
  6
Continuous
 62
     7
370
    15
100
AcDbLine
 10
92.6347772435
 20
63.9988687272
 30
0.0
 11
93.5360292748
 21
63.9988687272
 31
0.0
  0
SPLINE
  5
21A
330
1F
100
AcDbEntity
  8
0
  6
Continuous
 62
     7
370
    15
100
AcDbSpline
210
0.0
220
0.0
230
1.0
 70
     8
 71
     3
 72
     9
 73
     5
 74
     0
 42
0.00000001
 43
0.00000001
 12
1.0
 22
0.0
 32
0.0
 13
1.0
 23
0.0
 33
0.0
 40
0.0
 40
0.0
 40
0.0
 40
0.0
 40
0.6022806271655268
 40
1.0
 40
1.0
 40
1.0
 40
1.0
 10
93.53602927479871
 20
63.99886872724614
 30
0.0
 10
93.4467413523352
 20
64.10392641422568
 30
0.0
 10
93.29849165205215
 20
64.27835953101713
 30
0.0
 10
93.1333186690429
 20
64.29953373919156
 30
0.0
 10
93.06762617383127
 20
64.30795513198694
 30
0.0
  0
LINE
  5
21B
330
1F
100
AcDbEntity
  8
0
  6
Continuous
 62
     7
370
    15
100
AcDbLine
 10
93.0676261738
 20
64.307955132
 30
0.0
 11
94.1952864483
 21
64.307955132
 31
0.0
  0
LINE
  5
21C
330
1F
100
AcDbEntity
  8
0
  6
Continuous
 62
     7
370
    15
100
AcDbLine
 10
88.6952827528
 20
64.307955132
 30
0.0
 11
88.7915144518
 21
64.307955132
 31
0.0
  0
SPLINE
  5
21D
330
1F
100
AcDbEntity
  8
0
  6
Continuous
 62
     7
370
    15
100
AcDbSpline
210
0.0
220
0.0
230
1.0
 70
     8
 71
     3
 72
     9
 73
     5
 74
     0
 42
0.00000001
 43
0.00000001
 12
1.0
 22
0.0
 32
0.0
 13
1.0
 23
0.0
 33
0.0
 40
0.0
 40
0.0
 40
0.0
 40
0.0
 40
0.6147301849089668
 40
1.0
 40
1.0
 40
1.0
 40
1.0
 10
88.79151445183881
 20
64.30795513198694
 30
0.0
 10
88.57947232278748
 20
64.28744470535408
 30
0.0
 10
88.23453704181905
 20
64.25407978016185
 30
0.0
 10
87.93328156874622
 20
64.06984776258994
 30
0.0
 10
87.81721692834027
 20
63.99886872724614
 30
0.0
  0
LINE
  5
21E
330
1F
100
AcDbEntity
  8
0
  6
Continuous
 62
     7
370
    15
100
AcDbLine
 10
87.164352353
 20
60.607954898
 30
0.0
 11
86.6952936009
 21
60.607954898
 31
0.0
  0
LINE
  5
21F
330
1F
100
AcDbEntity
  8
0
  6
Continuous
 62
     7
370
    15
100
AcDbLine
 10
96.1952905015
 20
60.607954898
 30
0.0
 11
87.164352353
 21
60.607954898
 31
0.0
  0
LINE
  5
220
330
1F
100
AcDbEntity
  8
0
  6
Continuous
 62
     7
370
    15
100
AcDbLine
 10
93.0676261738
 20
64.307955132
 30
0.0
 11
92.1663741425
 21
64.307955132
 31
0.0
  0
LINE
  5
221
330
1F
100
AcDbEntity
  8
0
  6
Continuous
 62
     7
370
    15
100
AcDbLine
 10
89.224810417
 20
64.307955132
 30
0.0
 11
88.7915144518
 21
64.307955132
 31
0.0
  0
LINE
  5
222
330
1F
100
AcDbEntity
  8
0
  6
Continuous
 62
     7
370
    15
100
AcDbLine
 10
402.8593699292
 20
63.1861351813
 30
0.0
 11
433.1029604033
 21
63.1861351813
 31
0.0
  0
LINE
  5
223
330
1F
100
AcDbEntity
  8
0
  6
Continuous
 62
     7
370
    15
100
AcDbLine
 10
402.8593699292
 20
40.8514696556
 30
0.0
 11
402.8593699292
 21
63.1861351813
 31
0.0
  0
LINE
  5
224
330
1F
100
AcDbEntity
  8
0
  6
Continuous
 62
     7
370
    15
100
AcDbLine
 10
322.815428193
 20
40.8514696556
 30
0.0
 11
402.8593699292
 21
40.8514696556
 31
0.0
  0
LINE
  5
225
330
1F
100
AcDbEntity
  8
0
  6
Continuous
 62
     7
370
    15
100
AcDbLine
 10
322.815428193
 20
50.8514694321
 30
0.0
 11
322.815428193
 21
40.8514696556
 31
0.0
  0
SPLINE
  5
226
330
1F
100
AcDbEntity
  8
0
  6
Continuous
 62
     7
370
    15
100
AcDbSpline
210
0.0
220
0.0
230
1.0
 70
     8
 71
     3
 72
    16
 73
    12
 74
     0
 42
0.00000001
 43
0.00000001
 12
1.0
 22
0.0
 32
0.0
 13
1.0
 23
0.0
 33
0.0
 40
0.0
 40
0.0
 40
0.0
 40
0.0
 40
0.1127390386957904
 40
0.2254857486586866
 40
0.3382290860138474
 40
0.450959860218192
 40
0.5633684344779297
 40
0.675743292101721
 40
0.7835251718822831
 40
0.8912780294312318
 40
1.0
 40
1.0
 40
1.0
 40
1.0
 10
305.3154299810899
 20
68.35146950663051
 30
0.0
 10
306.3364151689784
 20
68.29866128685252
 30
0.0
 10
308.3784550171422
 20
68.19304125398983
 30
0.0
 10
311.3392107880886
 20
67.37194076933872
 30
0.0
 10
314.1154548328518
 20
66.07898140177294
 30
0.0
 10
316.6354305483229
 20
64.31685426949224
 30
0.0
 10
318.8129732728542
 20
62.12583203920652
 30
0.0
 10
320.5731469314124
 20
59.60888384608037
 30
0.0
 10
321.8416964504106
 20
56.83631023941022
 30
0.0
 10
322.6619545968216
 20
53.90158865958888
 30
0.0
 10
322.7641178729572
 20
51.87120570941595
 30
0.0
 10
322.8154281929505
 20
50.85146943212471
 30
0.0
  0
SPLINE
  5
227
330
1F
100
AcDbEntity
  8
0
  6
Continuous
 62
     7
370
    15
100
AcDbSpline
210
0.0
220
0.0
230
1.0
 70
     8
 71
     3
 72
    17
 73
    13
 74
     0
 42
0.00000001
 43
0.00000001
 12
1.0
 22
0.0
 32
0.0
 13
1.0
 23
0.0
 33
0.0
 40
0.0
 40
0.0
 40
0.0
 40
0.0
 40
0.0257618877383366
 40
0.1247710084798691
 40
0.2237941696960476
 40
0.3232343251670114
 40
0.4226981653238003
 40
0.5267388889361149
 40
0.6307988461374658
 40
0.7405189795428443
 40
0.850243373608206
 40
1.0
 40
1.0
 40
1.0
 40
1.0
 10
192.8154329613221
 20
50.85146943212471
 30
0.0
 10
192.8185324624414
 20
51.09273255667202
 30
0.0
 10
192.8335440906405
 20
52.26122780300363
 30
0.0
 10
193.099013353628
 20
54.35031090073023
 30
0.0
 10
193.8610998355079
 20
57.02755492508549
 30
0.0
 10
195.0413789095639
 20
59.53429061128962
 30
0.0
 10
196.6062571327916
 20
61.8505690561712
 30
0.0
 10
198.541127411411
 20
63.89791579996679
 30
0.0
 10
200.836267089333
 20
65.66088347140258
 30
0.0
 10
203.431528214328
 20
67.02216800286087
 30
0.0
 10
206.6052551934726
 20
68.10665392805399
 30
0.0
 10
208.9577275446934
 20
68.26188157302259
 30
0.0
 10
210.3154311731828
 20
68.35146950663051
 30
0.0
  0
LINE
  5
228
330
1F
100
AcDbEntity
  8
0
  6
Continuous
 62
     7
370
    15
100
AcDbLine
 10
192.8154329613
 20
40.8514696556
 30
0.0
 11
192.8154329613
 21
50.8514694321
 31
0.0
  0
LINE
  5
229
330
1F
100
AcDbEntity
  8
0
  6
Continuous
 62
     7
370
    15
100
AcDbLine
 10
112.7714912251
 20
40.8514696556
 30
0.0
 11
192.8154329613
 21
40.8514696556
 31
0.0
  0
LINE
  5
22A
330
1F
100
AcDbEntity
  8
0
  6
Continuous
 62
     7
370
    15
100
AcDbLine
 10
112.7714912251
 20
63.1861351813
 30
0.0
 11
112.7714912251
 21
40.8514696556
 31
0.0
  0
SPLINE
  5
22B
330
1F
100
AcDbEntity
  8
0
  6
Continuous
 62
     7
370
    15
100
AcDbSpline
210
0.0
220
0.0
230
1.0
 70
     8
 71
     3
 72
     9
 73
     5
 74
     0
 42
0.00000001
 43
0.00000001
 12
1.0
 22
0.0
 32
0.0
 13
1.0
 23
0.0
 33
0.0
 40
0.0
 40
0.0
 40
0.0
 40
0.0
 40
0.9945326367497587
 40
1.0
 40
1.0
 40
1.0
 40
1.0
 10
84.75259941372998
 20
61.21571738378129
 30
0.0
 10
84.96447432788126
 20
61.89048165991684
 30
0.0
 10
85.17751400734694
 20
62.56895539843666
 30
0.0
 10
85.42104533285166
 20
63.18277918374082
 30
0.0
 10
85.42237680707105
 20
63.18613518134675
 30
0.0
  0
LINE
  5
22C
330
1F
100
AcDbEntity
  8
0
  6
Continuous
 62
     7
370
    15
100
AcDbLine
 10
322.815428193
 20
40.8514696556
 30
0.0
 11
282.2251978174
 21
40.8514696556
 31
0.0
  0
LINE
  5
22D
330
1F
100
AcDbEntity
  8
0
  6
Continuous
 62
     7
370
    15
100
AcDbLine
 10
282.2251978174
 20
40.8514696556
 30
0.0
 11
282.2251978174
 21
51.1628068435
 31
0.0
  0
SPLINE
  5
22E
330
1F
100
AcDbEntity
  8
0
  6
Continuous
 62
     7
370
    15
100
AcDbSpline
210
0.0
220
0.0
230
1.0
 70
     8
 71
     3
 72
    12
 73
     8
 74
     0
 42
0.00000001
 43
0.00000001
 12
1.0
 22
0.0
 32
0.0
 13
1.0
 23
0.0
 33
0.0
 40
0.0
 40
0.0
 40
0.0
 40
0.0
 40
0.2219591942544229
 40
0.4440155933189773
 40
0.6631668814666323
 40
0.8765288187805272
 40
1.0
 40
1.0
 40
1.0
 40
1.0
 10
277.1647448495401
 20
56.12752357603035
 30
0.0
 10
277.7460691222753
 20
56.07055405543587
 30
0.0
 10
278.9089722528993
 20
55.95659006501486
 30
0.0
 10
280.4517864392103
 20
55.06504152502734
 30
0.0
 10
281.5930149001605
 20
53.75970823219767
 30
0.0
 10
282.1533962706363
 20
52.37109685078772
 30
0.0
 10
282.2059379021883
 20
51.48691633920788
 30
0.0
 10
282.2251978174222
 20
51.16280684352837
 30
0.0
  0
LINE
  5
22F
330
1F
100
AcDbEntity
  8
0
  6
Continuous
 62
     7
370
    15
100
AcDbLine
 10
277.1647448495
 20
56.127523576
 30
0.0
 11
238.4661163047
 21
56.127523576
 31
0.0
  0
SPLINE
  5
230
330
1F
100
AcDbEntity
  8
0
  6
Continuous
 62
     7
370
    15
100
AcDbSpline
210
0.0
220
0.0
230
1.0
 70
     8
 71
     3
 72
    12
 73
     8
 74
     0
 42
0.00000001
 43
0.00000001
 12
1.0
 22
0.0
 32
0.0
 13
1.0
 23
0.0
 33
0.0
 40
0.0
 40
0.0
 40
0.0
 40
0.0
 40
0.2079001831363343
 40
0.4157411834607678
 40
0.62549146375615
 40
0.8405005251620465
 40
1.0
 40
1.0
 40
1.0
 40
1.0
 10
233.4056633368505
 20
51.16280684352837
 30
0.0
 10
233.4593209810567
 20
51.7106333922091
 30
0.0
 10
233.5666209947821
 20
52.80613054013811
 30
0.0
 10
234.4035570313595
 20
54.26914506006936
 30
0.0
 10
235.6419738453496
 20
55.39103429587649
 30
0.0
 10
237.0708684389263
 20
56.02807437969559
 30
0.0
 10
238.0493785456603
 20
56.09781972466615
 30
0.0
 10
238.4661163047326
 20
56.12752357603035
 30
0.0
  0
LINE
  5
231
330
1F
100
AcDbEntity
  8
0
  6
Continuous
 62
     7
370
    15
100
AcDbLine
 10
233.4056633369
 20
51.1628068435
 30
0.0
 11
233.4056633369
 21
40.8514696556
 31
0.0
  0
LINE
  5
232
330
1F
100
AcDbEntity
  8
0
  6
Continuous
 62
     7
370
    15
100
AcDbLine
 10
233.4056633369
 20
40.8514696556
 30
0.0
 11
192.8154329613
 21
40.8514696556
 31
0.0
  0
SPLINE
  5
233
330
1F
100
AcDbEntity
  8
0
  6
Continuous
 62
     7
370
    15
100
AcDbSpline
210
0.0
220
0.0
230
1.0
 70
     8
 71
     3
 72
    12
 73
     8
 74
     0
 42
0.00000001
 43
0.00000001
 12
1.0
 22
0.0
 32
0.0
 13
1.0
 23
0.0
 33
0.0
 40
0.0
 40
0.0
 40
0.0
 40
0.0
 40
0.2418804841559477
 40
0.4837344046621574
 40
0.7256118848609594
 40
0.9675798503321321
 40
1.0
 40
1.0
 40
1.0
 40
1.0
 10
446.7360625818742
 20
52.16814907372913
 30
0.0
 10
446.1617550545671
 20
52.16924787224397
 30
0.0
 10
445.013203071201
 20
52.17144534860213
 30
0.0
 10
442.5346102172941
 20
52.18861245688034
 30
0.0
 10
439.8387024545464
 20
52.21394312870703
 30
0.0
 10
437.9195781136536
 20
52.23660948789654
 30
0.0
 10
436.984536147899
 20
52.24914578311191
 30
0.0
 10
436.8740568712724
 20
52.25062700093708
 30
0.0
  0
LWPOLYLINE
  5
234
330
1F
100
AcDbEntity
  8
0
  6
Continuous
 62
     7
370
    15
100
AcDbPolyline
 90
        9
 70
   128
 43
0.0
 10
436.8740568713
 20
52.2506270009
 10
436.9417677477
 20
53.2216509256
 10
437.0835671977
 20
54.1556603658
 10
437.2940610007
 20
55.017048997
 10
437.5652472332
 20
55.7729830417
 10
437.8867546872
 20
56.3946436542
 10
438.2463495091
 20
56.8583351943
 10
438.6303077296
 20
57.1463811594
 10
439.0240113095
 20
57.2478012565
  0
SPLINE
  5
235
330
1F
100
AcDbEntity
  8
0
  6
Continuous
 62
     7
370
    15
100
AcDbSpline
210
0.0
220
0.0
230
1.0
 70
     8
 71
     3
 72
    12
 73
     8
 74
     0
 42
0.00000001
 43
0.00000001
 12
1.0
 22
0.0
 32
0.0
 13
1.0
 23
0.0
 33
0.0
 40
0.0
 40
0.0
 40
0.0
 40
0.0
 40
0.0324140069266394
 40
0.2743569868531746
 40
0.5162276064804782
 40
0.758093407512448
 40
1.0
 40
1.0
 40
1.0
 40
1.0
 10
439.0240113094819
 20
57.24780125648699
 30
0.0
 10
439.0654421252131
 20
57.24632002722885
 30
0.0
 10
439.4161187259984
 20
57.23378268196861
 30
0.0
 10
440.1359582294936
 20
57.21111820696356
 30
0.0
 10
441.1472126760674
 20
57.18578533346119
 30
0.0
 10
442.0770460272309
 20
57.16861948705698
 30
0.0
 10
442.5080182953378
 20
57.16642211029893
 30
0.0
 10
442.7235225990785
 20
57.16532332927904
 30
0.0
  0
ARC
  5
236
330
1F
100
AcDbEntity
  8
0
  6
Continuous
 62
     7
370
    15
100
AcDbCircle
 10
442.0795411165
 20
52.5386855353
 30
0.0
 40
4.671240673209287
100
AcDbArc
 50
355.4503516331
 51
82.0759149165
  0
LINE
  5
237
330
1F
100
AcDbEntity
  8
0
  6
Continuous
 62
     7
370
    15
100
AcDbLine
 10
436.8740568713
 20
40.8514696556
 30
0.0
 11
436.8740568713
 21
52.2506270009
 31
0.0
  0
LINE
  5
238
330
1F
100
AcDbEntity
  8
0
  6
Continuous
 62
     7
370
    15
100
AcDbLine
 10
446.7360625819
 20
52.1681490737
 30
0.0
 11
446.7360625819
 21
40.8514696556
 31
0.0
  0
LINE
  5
239
330
1F
100
AcDbEntity
  8
0
  6
Continuous
 62
     7
370
    15
100
AcDbLine
 10
446.7360625819
 20
40.8514696556
 30
0.0
 11
436.8740568713
 21
40.8514696556
 31
0.0
  0
SPLINE
  5
23A
330
1F
100
AcDbEntity
  8
0
  6
Continuous
 62
     7
370
    15
100
AcDbSpline
210
0.0
220
0.0
230
1.0
 70
     8
 71
     3
 72
    12
 73
     8
 74
     0
 42
0.00000001
 43
0.00000001
 12
1.0
 22
0.0
 32
0.0
 13
1.0
 23
0.0
 33
0.0
 40
0.0
 40
0.0
 40
0.0
 40
0.0
 40
0.2420731624135059
 40
0.484182973380739
 40
0.7262466282100539
 40
0.9682068535000521
 40
1.0
 40
1.0
 40
1.0
 40
1.0
 10
78.7568042830003
 20
52.25062700093708
 30
0.0
 10
77.8974605194615
 20
52.2396943435165
 30
0.0
 10
76.17864289243472
 20
52.21782737353065
 30
0.0
 10
73.42961697889352
 20
52.19139106428605
 30
0.0
 10
70.94987565464008
 20
52.17356062638617
 30
0.0
 10
69.53775250151418
 20
52.1683474910431
 30
0.0
 10
68.96170009880281
 20
52.16816971972032
 30
0.0
 10
68.8947985723985
 20
52.16814907372913
 30
0.0
  0
ARC
  5
23B
330
1F
100
AcDbEntity
  8
0
  6
Continuous
 62
     7
370
    15
100
AcDbCircle
 10
73.5513200378
 20
52.5386855353
 30
0.0
 40
4.671240673209287
100
AcDbArc
 50
97.9240850835
 51
184.5496483669
  0
SPLINE
  5
23C
330
1F
100
AcDbEntity
  8
0
  6
Continuous
 62
     7
370
    15
100
AcDbSpline
210
0.0
220
0.0
230
1.0
 70
     8
 71
     3
 72
    12
 73
     8
 74
     0
 42
0.00000001
 43
0.00000001
 12
1.0
 22
0.0
 32
0.0
 13
1.0
 23
0.0
 33
0.0
 40
0.0
 40
0.0
 40
0.0
 40
0.0
 40
0.0317956867794626
 40
0.2737824077515374
 40
0.5158559939008137
 40
0.7579563641959326
 40
1.0
 40
1.0
 40
1.0
 40
1.0
 10
72.90733855519422
 20
57.16532332927904
 30
0.0
 10
72.93244267964927
 20
57.16534397666017
 30
0.0
 10
73.14860620162241
 20
57.16552176460249
 30
0.0
 10
73.67845179734242
 20
57.17073444489795
 30
0.0
 10
74.60869770150136
 20
57.18856446013348
 30
0.0
 10
75.63987477641463
 20
57.215000233863
 30
0.0
 10
76.28455000412124
 20
57.23686843648856
 30
0.0
 10
76.60684984479077
 20
57.24780125648699
 30
0.0
  0
LWPOLYLINE
  5
23D
330
1F
100
AcDbEntity
  8
0
  6
Continuous
 62
     7
370
    15
100
AcDbPolyline
 90
        9
 70
   128
 43
0.0
 10
78.756804283
 20
52.2506270009
 10
78.6890934065
 20
53.2216509256
 10
78.5472939566
 20
54.1556603658
 10
78.3368001536
 20
55.017048997
 10
78.065613921
 20
55.7729830417
 10
77.7441064671
 20
56.3946436542
 10
77.3845116452
 20
56.8583351943
 10
77.0005534247
 20
57.1463811594
 10
76.6068498448
 20
57.2478012565
  0
LINE
  5
23E
330
1F
100
AcDbEntity
  8
0
  6
Continuous
 62
     7
370
    15
100
AcDbLine
 10
68.8947985724
 20
40.8514696556
 30
0.0
 11
68.8947985724
 21
52.1681490737
 31
0.0
  0
LINE
  5
23F
330
1F
100
AcDbEntity
  8
0
  6
Continuous
 62
     7
370
    15
100
AcDbLine
 10
78.756804283
 20
52.2506270009
 30
0.0
 11
78.756804283
 21
40.8514696556
 31
0.0
  0
LINE
  5
240
330
1F
100
AcDbEntity
  8
0
  6
Continuous
 62
     7
370
    15
100
AcDbLine
 10
78.756804283
 20
40.8514696556
 30
0.0
 11
68.8947985724
 21
40.8514696556
 31
0.0
  0
LINE
  5
241
330
1F
100
AcDbEntity
  8
0
  6
Continuous
 62
     7
370
    15
100
AcDbLine
 10
436.8740568713
 20
52.2506270009
 30
0.0
 11
410.7131312445
 21
53.1917862046
 31
0.0
  0
LWPOLYLINE
  5
242
330
1F
100
AcDbEntity
  8
0
  6
Continuous
 62
     7
370
    15
100
AcDbPolyline
 90
        9
 70
   128
 43
0.0
 10
410.7131312445
 20
53.1917862046
 10
410.7806037024
 20
54.1622485417
 10
410.9220902279
 20
55.095761587
 10
411.1322264031
 20
55.9567804831
 10
411.4029954031
 20
56.7125226754
 10
411.7240856246
 20
57.3342121589
 10
412.0832781151
 20
57.7981793705
 10
412.4668936089
 20
58.0867580521
 10
412.8603438691
 20
58.1889604601
  0
LWPOLYLINE
  5
243
330
1F
100
AcDbEntity
  8
0
  6
Continuous
 62
     7
370
    15
100
AcDbPolyline
 90
        3
 70
   128
 43
0.0
 10
412.8603438691
 20
58.1889604601
 10
422.0110575512
 20
57.8604289714
 10
439.0240113095
 20
57.2478012565
  0
LWPOLYLINE
  5
244
330
1F
100
AcDbEntity
  8
0
  6
Continuous
 62
     7
370
    15
100
AcDbPolyline
 90
        9
 70
   128
 43
0.0
 10
104.9177299098
 20
53.1917862046
 10
104.8502574519
 20
54.1622485417
 10
104.7087709263
 20
55.095761587
 10
104.4986347512
 20
55.9567804831
 10
104.2278657511
 20
56.7125226754
 10
103.9067755297
 20
57.3342121589
 10
103.5475830391
 20
57.7981793705
 10
103.1639675454
 20
58.0867580521
 10
102.7705172852
 20
58.1889604601
  0
LINE
  5
245
330
1F
100
AcDbEntity
  8
0
  6
Continuous
 62
     7
370
    15
100
AcDbLine
 10
104.9177299098
 20
53.1917862046
 30
0.0
 11
78.756804283
 21
52.2506270009
 31
0.0
  0
LWPOLYLINE
  5
246
330
1F
100
AcDbEntity
  8
0
  6
Continuous
 62
     7
370
    15
100
AcDbPolyline
 90
        3
 70
   128
 43
0.0
 10
76.6068498448
 20
57.2478012565
 10
85.7574145154
 20
57.5775779235
 10
90.3616051034
 20
57.7432741794
  0
SPLINE
  5
247
330
1F
100
AcDbEntity
  8
0
  6
Continuous
 62
     7
370
    15
100
AcDbSpline
210
0.0
220
0.0
230
1.0
 70
     8
 71
     3
 72
    13
 73
     9
 74
     0
 42
0.00000001
 43
0.00000001
 12
1.0
 22
0.0
 32
0.0
 13
1.0
 23
0.0
 33
0.0
 40
0.0
 40
0.0
 40
0.0
 40
0.0
 40
0.194754170379757
 40
0.3893481775027028
 40
0.5855977306153428
 40
0.7783218458498318
 40
0.9725478514674945
 40
1.0
 40
1.0
 40
1.0
 40
1.0
 10
93.83753937039502
 20
57.86825487495384
 30
0.0
 10
93.73001818966542
 20
57.8523555195144
 30
0.0
 10
93.51506425220474
 20
57.82056988405532
 30
0.0
 10
92.89096119056889
 20
57.73786465926
 30
0.0
 10
92.12266639638061
 20
57.70724207165573
 30
0.0
 10
91.276185112937
 20
57.72726395530148
 30
0.0
 10
90.68540098870074
 20
57.7476755733326
 30
0.0
 10
90.39728479643975
 20
57.74375917749336
 30
0.0
 10
90.36160510335093
 20
57.74327417940817
 30
0.0
  0
LINE
  5
248
330
1F
100
AcDbEntity
  8
0
  6
Continuous
 62
     7
370
    15
100
AcDbLine
 10
93.8375393704
 20
57.868254875
 30
0.0
 11
102.7705172852
 21
58.1889604601
 31
0.0
  0
LINE
  5
249
330
1F
100
AcDbEntity
  8
0
  6
Continuous
 62
     7
370
    15
100
AcDbLine
 10
408.740917857
 20
53.4880380529
 30
0.0
 11
408.740917857
 21
40.8514696556
 31
0.0
  0
LINE
  5
24A
330
1F
100
AcDbEntity
  8
0
  6
Continuous
 62
     7
370
    15
100
AcDbLine
 10
410.7131312445
 20
53.1917862046
 30
0.0
 11
408.740917857
 21
53.4880380529
 31
0.0
  0
LINE
  5
24B
330
1F
100
AcDbEntity
  8
0
  6
Continuous
 62
     7
370
    15
100
AcDbLine
 10
436.8740568713
 20
40.8514696556
 30
0.0
 11
408.740917857
 21
40.8514696556
 31
0.0
  0
LINE
  5
24C
330
1F
100
AcDbEntity
  8
0
  6
Continuous
 62
     7
370
    15
100
AcDbLine
 10
106.8899432972
 20
53.4880380529
 30
0.0
 11
104.9177299098
 21
53.1917862046
 31
0.0
  0
LINE
  5
24D
330
1F
100
AcDbEntity
  8
0
  6
Continuous
 62
     7
370
    15
100
AcDbLine
 10
106.8899432972
 20
40.8514696556
 30
0.0
 11
106.8899432972
 21
53.4880380529
 31
0.0
  0
LINE
  5
24E
330
1F
100
AcDbEntity
  8
0
  6
Continuous
 62
     7
370
    15
100
AcDbLine
 10
106.8899432972
 20
40.8514696556
 30
0.0
 11
78.756804283
 21
40.8514696556
 31
0.0
  0
LINE
  5
24F
330
1F
100
AcDbEntity
  8
0
  6
Continuous
 62
     7
370
    15
100
AcDbLine
 10
442.7235225991
 20
57.1653233293
 30
0.0
 11
444.371397312
 21
57.1653233293
 31
0.0
  0
LINE
  5
250
330
1F
100
AcDbEntity
  8
0
  6
Continuous
 62
     7
370
    15
100
AcDbLine
 10
444.371397312
 20
57.1653233293
 30
0.0
 11
445.7443605021
 21
56.8514694843
 31
0.0
  0
LINE
  5
251
330
1F
100
AcDbEntity
  8
0
  6
Continuous
 62
     7
370
    15
100
AcDbLine
 10
445.7443605021
 20
56.8514694843
 30
0.0
 11
457.7443699196
 21
56.8514694843
 31
0.0
  0
LINE
  5
252
330
1F
100
AcDbEntity
  8
0
  6
Continuous
 62
     7
370
    15
100
AcDbLine
 10
457.7443699196
 20
56.8514694843
 30
0.0
 11
456.3713918284
 21
57.1653233293
 31
0.0
  0
LINE
  5
253
330
1F
100
AcDbEntity
  8
0
  6
Continuous
 62
     7
370
    15
100
AcDbLine
 10
456.3713918284
 20
57.1653233293
 30
0.0
 11
457.7057312087
 21
57.1653233293
 31
0.0
  0
ARC
  5
254
330
1F
100
AcDbEntity
  8
0
  6
Continuous
 62
     7
370
    15
100
AcDbCircle
 10
457.2630335725
 20
52.3998774931
 30
0.0
 40
4.785964397555736
100
AcDbArc
 50
357.2247487766
 51
84.6926022672
  0
LINE
  5
255
330
1F
100
AcDbEntity
  8
0
  6
Continuous
 62
     7
370
    15
100
AcDbLine
 10
462.0433847264
 20
52.1681490737
 30
0.0
 11
446.7360625819
 21
52.1681490737
 31
0.0
  0
LINE
  5
256
330
1F
100
AcDbEntity
  8
0
  6
Continuous
 62
     7
370
    15
100
AcDbLine
 10
462.0433847264
 20
40.8514696556
 30
0.0
 11
462.0433847264
 21
52.1681490737
 31
0.0
  0
LINE
  5
257
330
1F
100
AcDbEntity
  8
0
  6
Continuous
 62
     7
370
    15
100
AcDbLine
 10
462.0433847264
 20
40.8514696556
 30
0.0
 11
446.7360625819
 21
40.8514696556
 31
0.0
  0
LINE
  5
258
330
1F
100
AcDbEntity
  8
0
  6
Continuous
 62
     7
370
    15
100
AcDbLine
 10
59.2594693259
 20
57.1653233293
 30
0.0
 11
57.8864912346
 21
56.8514694843
 31
0.0
  0
LINE
  5
259
330
1F
100
AcDbEntity
  8
0
  6
Continuous
 62
     7
370
    15
100
AcDbLine
 10
57.8864912346
 20
56.8514694843
 30
0.0
 11
69.8865006522
 21
56.8514694843
 31
0.0
  0
LINE
  5
25A
330
1F
100
AcDbEntity
  8
0
  6
Continuous
 62
     7
370
    15
100
AcDbLine
 10
69.8865006522
 20
56.8514694843
 30
0.0
 11
71.2594638423
 21
57.1653233293
 31
0.0
  0
LINE
  5
25B
330
1F
100
AcDbEntity
  8
0
  6
Continuous
 62
     7
370
    15
100
AcDbLine
 10
71.2594638423
 20
57.1653233293
 30
0.0
 11
72.9073385552
 21
57.1653233293
 31
0.0
  0
LINE
  5
25C
330
1F
100
AcDbEntity
  8
0
  6
Continuous
 62
     7
370
    15
100
AcDbLine
 10
68.8947985724
 20
52.1681490737
 30
0.0
 11
53.5874764279
 21
52.1681490737
 31
0.0
  0
ARC
  5
25D
330
1F
100
AcDbEntity
  8
0
  6
Continuous
 62
     7
370
    15
100
AcDbCircle
 10
58.3678275818
 20
52.3998774931
 30
0.0
 40
4.785964397555742
100
AcDbArc
 50
95.3073977328
 51
182.7752512234
  0
LINE
  5
25E
330
1F
100
AcDbEntity
  8
0
  6
Continuous
 62
     7
370
    15
100
AcDbLine
 10
57.9251299456
 20
57.1653233293
 30
0.0
 11
59.2594693259
 21
57.1653233293
 31
0.0
  0
LINE
  5
25F
330
1F
100
AcDbEntity
  8
0
  6
Continuous
 62
     7
370
    15
100
AcDbLine
 10
53.5874764279
 20
52.1681490737
 30
0.0
 11
53.5874764279
 21
40.8514696556
 31
0.0
  0
LINE
  5
260
330
1F
100
AcDbEntity
  8
0
  6
Continuous
 62
     7
370
    15
100
AcDbLine
 10
68.8947985724
 20
40.8514696556
 30
0.0
 11
53.5874764279
 21
40.8514696556
 31
0.0
  0
LINE
  5
261
330
1F
100
AcDbEntity
  8
0
  6
Continuous
 62
     7
370
    15
100
AcDbLine
 10
456.3713918284
 20
57.1653233293
 30
0.0
 11
443.5156981305
 21
57.6638006988
 31
0.0
  0
SPLINE
  5
262
330
1F
100
AcDbEntity
  8
0
  6
Continuous
 62
     7
370
    15
100
AcDbSpline
210
0.0
220
0.0
230
1.0
 70
     8
 71
     3
 72
    13
 73
     9
 74
     0
 42
0.00000001
 43
0.00000001
 12
1.0
 22
0.0
 32
0.0
 13
1.0
 23
0.0
 33
0.0
 40
0.0
 40
0.0
 40
0.0
 40
0.0
 40
0.1667694135109309
 40
0.3335495126063749
 40
0.500291298778839
 40
0.6669403442124452
 40
0.8334940953400624
 40
1.0
 40
1.0
 40
1.0
 40
1.0
 10
443.5156981304658
 20
57.66380069882593
 30
0.0
 10
442.2801518681603
 20
57.7093930648559
 30
0.0
 10
439.8089801771498
 20
57.80058071820149
 30
0.0
 10
435.6635973602822
 20
57.92499665707052
 30
0.0
 10
431.7690685757005
 20
58.02121963840268
 30
0.0
 10
428.536771232188
 20
58.07611755314412
 30
0.0
 10
426.2245011149786
 20
58.086224769968
 30
0.0
 10
425.7715098413491
 20
58.05264873954962
 30
0.0
 10
425.5450467422975
 20
58.03586313606224
 30
0.0
  0
SPLINE
  5
263
330
1F
100
AcDbEntity
  8
0
  6
Continuous
 62
     7
370
    15
100
AcDbSpline
210
0.0
220
0.0
230
1.0
 70
     8
 71
     3
 72
    11
 73
     7
 74
     0
 42
0.00000001
 43
0.00000001
 12
1.0
 22
0.0
 32
0.0
 13
1.0
 23
0.0
 33
0.0
 40
0.0
 40
0.0
 40
0.0
 40
0.0
 40
0.2552013574090909
 40
0.5770035871474142
 40
0.898997531042217
 40
0.9999999999999999
 40
0.9999999999999999
 40
0.9999999999999999
 40
0.9999999999999999
 10
425.6269435242189
 20
58.01877802343092
 30
0.0
 10
425.6649272098155
 20
57.99862846589132
 30
0.0
 10
425.7508073284201
 20
57.95307084387152
 30
0.0
 10
427.4823177552669
 20
57.84086424979634
 30
0.0
 10
429.656737199966
 20
57.73737203418505
 30
0.0
 10
431.1573818617877
 20
57.67798181022471
 30
0.0
 10
431.5157036140932
 20
57.66380069882593
 30
0.0
  0
LINE
  5
264
330
1F
100
AcDbEntity
  8
0
  6
Continuous
 62
     7
370
    15
100
AcDbLine
 10
431.5157036141
 20
57.6638006988
 30
0.0
 11
444.371397312
 21
57.1653233293
 31
0.0
  0
LINE
  5
265
330
1F
100
AcDbEntity
  8
0
  6
Continuous
 62
     7
370
    15
100
AcDbLine
 10
433.7535600022
 20
58.1889604601
 30
0.0
 11
412.8603438691
 21
58.1889604601
 31
0.0
  0
LWPOLYLINE
  5
266
330
1F
100
AcDbEntity
  8
0
  6
Continuous
 62
     7
370
    15
100
AcDbPolyline
 90
        3
 70
   128
 43
0.0
 10
456.7886243418
 20
57.2478012565
 10
448.7321327284
 20
57.5775779235
 10
433.7535600022
 20
58.1889604601
  0
SPLINE
  5
267
330
1F
100
AcDbEntity
  8
0
  6
Continuous
 62
     7
370
    15
100
AcDbSpline
210
0.0
220
0.0
230
1.0
 70
     8
 71
     3
 72
    12
 73
     8
 74
     0
 42
0.00000001
 43
0.00000001
 12
1.0
 22
0.0
 32
0.0
 13
1.0
 23
0.0
 33
0.0
 40
0.0
 40
0.0
 40
0.0
 40
0.0
 40
0.0317949818155703
 40
0.2737813310843136
 40
0.5158557206460411
 40
0.7579558193504896
 40
1.0
 40
1.0
 40
1.0
 40
1.0
 10
457.7057312086595
 20
57.16532332927904
 30
0.0
 10
457.724617179671
 20
57.16534397705214
 30
0.0
 10
457.8872411532386
 20
57.16552177161221
 30
0.0
 10
458.0619865668426
 20
57.17073449577692
 30
0.0
 10
457.9636071645945
 20
57.18856438808861
 30
0.0
 10
457.5457541896682
 20
57.21500030036558
 30
0.0
 10
457.0409815242356
 20
57.23686844636094
 30
0.0
 10
456.788624341823
 20
57.24780125648699
 30
0.0
  0
LINE
  5
268
330
1F
100
AcDbEntity
  8
0
  6
Continuous
 62
     7
370
    15
100
AcDbLine
 10
71.2594638423
 20
57.1653233293
 30
0.0
 11
84.1151575402
 21
57.6638006988
 31
0.0
  0
SPLINE
  5
269
330
1F
100
AcDbEntity
  8
0
  6
Continuous
 62
     7
370
    15
100
AcDbSpline
210
0.0
220
0.0
230
1.0
 70
     8
 71
     3
 72
     9
 73
     5
 74
     0
 42
0.00000001
 43
0.00000001
 12
1.0
 22
0.0
 32
0.0
 13
1.0
 23
0.0
 33
0.0
 40
0.0
 40
0.0
 40
0.0
 40
0.0
 40
0.5457877730408182
 40
1.0
 40
1.0
 40
1.0
 40
1.0
 10
84.11515754017957
 20
57.66380069882593
 30
0.0
 10
85.24279080276018
 20
57.70988114402692
 30
0.0
 10
87.3088562558173
 20
57.79431038095223
 30
0.0
 10
88.4341550588694
 20
57.86689189526939
 30
0.0
 10
88.94527953419812
 20
57.89985930652342
 30
0.0
  0
SPLINE
  5
26A
330
1F
100
AcDbEntity
  8
0
  6
Continuous
 62
     7
370
    15
100
AcDbSpline
210
0.0
220
0.0
230
1.0
 70
     8
 71
     3
 72
    13
 73
     9
 74
     0
 42
0.00000001
 43
0.00000001
 12
1.0
 22
0.0
 32
0.0
 13
1.0
 23
0.0
 33
0.0
 40
0.0
 40
0.0
 40
0.0
 40
0.0
 40
0.132494951397995
 40
0.3334873844660775
 40
0.5345073047790099
 40
0.7356274569107842
 40
0.9368672944267238
 40
1.0
 40
1.0
 40
1.0
 40
1.0
 10
88.9452795341981
 20
58.07121241570434
 30
0.0
 10
88.58641861064181
 20
58.07467819883306
 30
0.0
 10
87.68317218863767
 20
58.08340151197472
 30
0.0
 10
84.92519815103641
 20
58.04190061370318
 30
0.0
 10
81.22272329877359
 20
57.95883313238759
 30
0.0
 10
77.1304618972928
 20
57.84157111665927
 30
0.0
 10
74.04379685681187
 20
57.73733044973084
 30
0.0
 10
72.4869429340069
 20
57.67797492086885
 30
0.0
 10
72.11516302380689
 20
57.66380069882593
 30
0.0
  0
LINE
  5
26B
330
1F
100
AcDbEntity
  8
0
  6
Continuous
 62
     7
370
    15
100
AcDbLine
 10
72.1151630238
 20
57.6638006988
 30
0.0
 11
59.2594693259
 21
57.1653233293
 31
0.0
  0
SPLINE
  5
26C
330
1F
100
AcDbEntity
  8
0
  6
Continuous
 62
     7
370
    15
100
AcDbSpline
210
0.0
220
0.0
230
1.0
 70
     8
 71
     3
 72
    12
 73
     8
 74
     0
 42
0.00000001
 43
0.00000001
 12
1.0
 22
0.0
 32
0.0
 13
1.0
 23
0.0
 33
0.0
 40
0.0
 40
0.0
 40
0.0
 40
0.0
 40
0.0324161242349592
 40
0.2743569539920051
 40
0.5162272276348487
 40
0.7580946739512963
 40
1.0
 40
1.0
 40
1.0
 40
1.0
 10
58.84223681244977
 20
57.24780125648699
 30
0.0
 10
58.80636822486562
 20
57.24632003438268
 30
0.0
 10
58.50279101858868
 20
57.23378357006709
 30
0.0
 10
58.01854890659436
 20
57.21111775276499
 30
0.0
 10
57.63636744601358
 20
57.18578533127877
 30
0.0
 10
57.56835919650457
 20
57.16861954767172
 30
0.0
 10
57.80620015487478
 20
57.16642212609646
 30
0.0
 10
57.92512994561319
 20
57.16532332927904
 30
0.0
  0
LWPOLYLINE
  5
26D
330
1F
100
AcDbEntity
  8
0
  6
Continuous
 62
     7
370
    15
100
AcDbPolyline
 90
        3
 70
   128
 43
0.0
 10
81.8773011521
 20
58.1889604601
 10
73.8209436492
 20
57.8604289714
 10
58.8422368124
 20
57.2478012565
  0
LINE
  5
26E
330
1F
100
AcDbEntity
  8
0
  6
Continuous
 62
     7
370
    15
100
AcDbLine
 10
102.7705172852
 20
58.1889604601
 30
0.0
 11
93.945289667
 21
58.1889604601
 31
0.0
  0
LINE
  5
26F
330
1F
100
AcDbEntity
  8
0
  6
Continuous
 62
     7
370
    15
100
AcDbLine
 10
88.9452795342
 20
58.1889604601
 30
0.0
 11
81.8773011521
 21
58.1889604601
 31
0.0
  0
SPLINE
  5
270
330
1F
100
AcDbEntity
  8
0
  6
Continuous
 62
     7
370
    15
100
AcDbSpline
210
0.0
220
0.0
230
1.0
 70
     8
 71
     3
 72
     9
 73
     5
 74
     0
 42
0.00000001
 43
0.00000001
 12
1.0
 22
0.0
 32
0.0
 13
1.0
 23
0.0
 33
0.0
 40
0.0
 40
0.0
 40
0.0
 40
0.0
 40
0.6654114586095139
 40
1.0
 40
1.0
 40
1.0
 40
1.0
 10
93.83753937039502
 20
57.86825487495384
 30
0.0
 10
93.88373746410375
 20
57.87262952126216
 30
0.0
 10
93.9531653242811
 20
57.87920386898598
 30
0.0
 10
93.92526837800094
 20
57.88321056334355
 30
0.0
 10
93.91593437943583
 20
57.88455115736446
 30
0.0
  0
SPLINE
  5
271
330
1F
100
AcDbEntity
  8
0
  6
Continuous
 62
     7
370
    15
100
AcDbSpline
210
0.0
220
0.0
230
1.0
 70
     8
 71
     3
 72
    12
 73
     8
 74
     0
 42
0.00000001
 43
0.00000001
 12
1.0
 22
0.0
 32
0.0
 13
1.0
 23
0.0
 33
0.0
 40
0.0
 40
0.0
 40
0.0
 40
0.0
 40
0.0055814634688306
 40
0.30610725356706
 40
0.6064782110268666
 40
0.906765566028233
 40
1.0
 40
1.0
 40
1.0
 40
1.0
 10
88.94785743508466
 20
57.74785442383013
 30
0.0
 10
88.94700345602244
 20
57.7477329727668
 30
0.0
 10
88.90016821526467
 20
57.74107216567903
 30
0.0
 10
89.06744332929418
 20
57.73465335453615
 30
0.0
 10
89.46028205570269
 20
57.73119258149645
 30
0.0
 10
89.95986292684651
 20
57.7363446046093
 30
0.0
 10
90.2846544601679
 20
57.74194687232181
 30
0.0
 10
90.36160510335095
 20
57.74327417940817
 30
0.0
  0
SPLINE
  5
272
330
1F
100
AcDbEntity
  8
0
  6
Continuous
 62
     7
370
    15
100
AcDbSpline
210
0.0
220
0.0
230
1.0
 70
     8
 71
     3
 72
    13
 73
     9
 74
     0
 42
0.00000001
 43
0.00000001
 12
1.0
 22
0.0
 32
0.0
 13
1.0
 23
0.0
 33
0.0
 40
0.0
 40
0.0
 40
0.0
 40
0.0
 40
0.1313973759761345
 40
0.1594481649998334
 40
0.3879875565717428
 40
0.7427930979985277
 40
0.9982890531877388
 40
1.0
 40
1.0
 40
1.0
 40
1.0
 10
408.7409178570283
 20
53.48803805292568
 30
0.0
 10
408.3262718397688
 20
53.76968568718882
 30
0.0
 10
407.8231069471263
 20
54.11145962389175
 30
0.0
 10
406.7646547785872
 20
55.20647886450558
 30
0.0
 10
405.3431923023239
 20
57.18238017446647
 30
0.0
 10
403.9190895939481
 20
60.10542543946818
 30
0.0
 10
403.1418933640847
 20
62.27032547519418
 30
0.0
 10
402.8612368633078
 20
63.18008344831804
 30
0.0
 10
402.8593699291719
 20
63.18613518134675
 30
0.0
  0
SPLINE
  5
273
330
1F
100
AcDbEntity
  8
0
  6
Continuous
 62
     7
370
    15
100
AcDbSpline
210
0.0
220
0.0
230
1.0
 70
     8
 71
     3
 72
    13
 73
     9
 74
     0
 42
0.00000001
 43
0.00000001
 12
1.0
 22
0.0
 32
0.0
 13
1.0
 23
0.0
 33
0.0
 40
0.0
 40
0.0
 40
0.0
 40
0.0
 40
0.0017180721559436
 40
0.2592120769326025
 40
0.6152473000872943
 40
0.8425011497179957
 40
0.870561677824481
 40
1.0
 40
1.0
 40
1.0
 40
1.0
 10
402.8593699291719
 20
63.18613518134675
 30
0.0
 10
402.8631889590889
 20
63.18312079795368
 30
0.0
 10
403.4393805196245
 20
62.72832931711492
 30
0.0
 10
404.9098149633015
 20
61.64929982223794
 30
0.0
 10
407.2407508516234
 20
60.19124011303478
 30
0.0
 10
409.263671500831
 20
59.19753686951834
 30
0.0
 10
410.643930589292
 20
58.64871292935159
 30
0.0
 10
411.2423940938249
 20
58.47766216537514
 30
0.0
 10
411.734233315326
 20
58.33708638430557
 30
0.0
  0
LWPOLYLINE
  5
274
330
1F
100
AcDbEntity
  8
0
  6
Continuous
 62
     7
370
    15
100
AcDbPolyline
 90
        9
 70
   128
 43
0.0
 10
408.740917857
 20
53.4880380529
 10
408.9826295928
 20
54.4035477015
 10
409.2878202752
 20
55.2862217102
 10
409.6455375508
 20
56.1044016305
 10
410.042966421
 20
56.8287442821
 10
410.4658464745
 20
57.4332685593
 10
410.8990083292
 20
57.8962923411
 10
411.3269249753
 20
58.2012110773
 10
411.7342333153
 20
58.3370863843
  0
LINE
  5
275
330
1F
100
AcDbEntity
  8
0
  6
Continuous
 62
     7
370
    15
100
AcDbLine
 10
408.740917857
 20
40.8514696556
 30
0.0
 11
402.8593699292
 21
40.8514696556
 31
0.0
  0
LWPOLYLINE
  5
276
330
1F
100
AcDbEntity
  8
0
  6
Continuous
 62
     7
370
    15
100
AcDbPolyline
 90
        9
 70
   128
 43
0.0
 10
106.8899432972
 20
53.4880380529
 10
106.6482315615
 20
54.4035477015
 10
106.3430408791
 20
55.2862217102
 10
105.9853236035
 20
56.1044016305
 10
105.5878947333
 20
56.8287442821
 10
105.1650146798
 20
57.4332685593
 10
104.731852825
 20
57.8962923411
 10
104.303936179
 20
58.2012110773
 10
103.8966278389
 20
58.3370863843
  0
SPLINE
  5
277
330
1F
100
AcDbEntity
  8
0
  6
Continuous
 62
     7
370
    15
100
AcDbSpline
210
0.0
220
0.0
230
1.0
 70
     8
 71
     3
 72
    13
 73
     9
 74
     0
 42
0.00000001
 43
0.00000001
 12
1.0
 22
0.0
 32
0.0
 13
1.0
 23
0.0
 33
0.0
 40
0.0
 40
0.0
 40
0.0
 40
0.0
 40
0.129438322175519
 40
0.1574988502820044
 40
0.3847526999127058
 40
0.7407879230673976
 40
0.9982819278440564
 40
1.0
 40
1.0
 40
1.0
 40
1.0
 10
103.8966278389467
 20
58.33708638430557
 30
0.0
 10
104.3884670604477
 20
58.47766216537514
 30
0.0
 10
104.9869305649806
 20
58.64871292935159
 30
0.0
 10
106.3671896534417
 20
59.19753686951834
 30
0.0
 10
108.3901103026492
 20
60.19124011303478
 30
0.0
 10
110.7210461909719
 20
61.64929982223794
 30
0.0
 10
112.1914806346472
 20
62.72832931711492
 30
0.0
 10
112.7676721951838
 20
63.18312079795368
 30
0.0
 10
112.7714912251008
 20
63.18613518134675
 30
0.0
  0
SPLINE
  5
278
330
1F
100
AcDbEntity
  8
0
  6
Continuous
 62
     7
370
    15
100
AcDbSpline
210
0.0
220
0.0
230
1.0
 70
     8
 71
     3
 72
    13
 73
     9
 74
     0
 42
0.00000001
 43
0.00000001
 12
1.0
 22
0.0
 32
0.0
 13
1.0
 23
0.0
 33
0.0
 40
0.0
 40
0.0
 40
0.0
 40
0.0
 40
0.0017109468122613
 40
0.2572069020014724
 40
0.6120124434282572
 40
0.8405518350001667
 40
0.8686026240238656
 40
1.0
 40
1.0
 40
1.0
 40
1.0
 10
112.7714912251008
 20
63.18613518134675
 30
0.0
 10
112.7696242909649
 20
63.18008344831804
 30
0.0
 10
112.4889677901892
 20
62.27032547519423
 30
0.0
 10
111.7117715603239
 20
60.10542543946818
 30
0.0
 10
110.287668851949
 20
57.18238017446647
 30
0.0
 10
108.8662063756856
 20
55.20647886450558
 30
0.0
 10
107.8077542071463
 20
54.11145962389175
 30
0.0
 10
107.304589314504
 20
53.76968568718882
 30
0.0
 10
106.8899432972444
 20
53.48803805292568
 30
0.0
  0
LINE
  5
279
330
1F
100
AcDbEntity
  8
0
  6
Continuous
 62
     7
370
    15
100
AcDbLine
 10
112.7714912251
 20
40.8514696556
 30
0.0
 11
106.8899432972
 21
40.8514696556
 31
0.0
  0
LINE
  5
27A
330
1F
100
AcDbEntity
  8
0
  6
Continuous
 62
     7
370
    15
100
AcDbLine
 10
411.7342333153
 20
58.3370863843
 30
0.0
 11
412.8603438691
 21
58.1889604601
 31
0.0
  0
SPLINE
  5
27B
330
1F
100
AcDbEntity
  8
0
  6
Continuous
 62
     7
370
    15
100
AcDbSpline
210
0.0
220
0.0
230
1.0
 70
     8
 71
     3
 72
    13
 73
     9
 74
     0
 42
0.00000001
 43
0.00000001
 12
1.0
 22
0.0
 32
0.0
 13
1.0
 23
0.0
 33
0.0
 40
0.0
 40
0.0
 40
0.0
 40
0.0
 40
0.1294381833776114
 40
0.1574984809385925
 40
0.3847528084204113
 40
0.7407877691279771
 40
0.9982812493925083
 40
1.0
 40
1.0
 40
1.0
 40
1.0
 10
432.9801897362245
 20
58.33708638430557
 30
0.0
 10
432.6999216897624
 20
58.47766163374762
 30
0.0
 10
432.3588956461211
 20
58.64871153314321
 30
0.0
 10
431.9175391125664
 20
59.19754023814783
 30
0.0
 10
431.6947154347617
 20
60.19125856227242
 30
0.0
 10
432.1403222235776
 20
61.64918175267697
 30
0.0
 10
432.7793481395304
 20
62.72850924950419
 30
0.0
 10
433.1008287715113
 20
63.1831208024336
 30
0.0
 10
433.1029604033006
 20
63.18613518134675
 30
0.0
  0
LINE
  5
27C
330
1F
100
AcDbEntity
  8
0
  6
Continuous
 62
     7
370
    15
100
AcDbLine
 10
433.7535600022
 20
58.1889604601
 30
0.0
 11
432.9801897362
 21
58.3370863843
 31
0.0
  0
LINE
  5
27D
330
1F
100
AcDbEntity
  8
0
  6
Continuous
 62
     7
370
    15
100
AcDbLine
 10
102.7705172852
 20
58.1889604601
 30
0.0
 11
103.8966278389
 21
58.3370863843
 31
0.0
  0
SPLINE
  5
27E
330
1F
100
AcDbEntity
  8
0
  6
Continuous
 62
     7
370
    15
100
AcDbSpline
210
0.0
220
0.0
230
1.0
 70
     8
 71
     3
 72
    13
 73
     9
 74
     0
 42
0.00000001
 43
0.00000001
 12
1.0
 22
0.0
 32
0.0
 13
1.0
 23
0.0
 33
0.0
 40
0.0
 40
0.0
 40
0.0
 40
0.0
 40
0.0003701532649866
 40
0.2049446123552227
 40
0.4127816630538239
 40
0.6288656855529188
 40
0.854359528991872
 40
1.0
 40
1.0
 40
1.0
 40
1.0
 10
85.42237680707105
 20
63.18613518134675
 30
0.0
 10
85.42237688132803
 20
63.18514379355194
 30
0.0
 10
85.42241799554614
 20
62.63623714725597
 30
0.0
 10
85.28495346562462
 20
61.52125633843381
 30
0.0
 10
84.6996117988828
 20
60.05124462310607
 30
0.0
 10
83.79758139923055
 20
58.92478675009821
 30
0.0
 10
82.80617912135074
 20
58.31205236685366
 30
0.0
 10
82.13908293548744
 20
58.22365093609583
 30
0.0
 10
81.87730115208753
 20
58.18896046013555
 30
0.0
  0
LINE
  5
27F
330
1F
100
AcDbEntity
  8
0
  6
Continuous
 62
     7
370
    15
100
AcDbLine
 10
462.861741598
 20
40.8514696556
 30
0.0
 11
462.0433847264
 21
40.8514696556
 31
0.0
  0
LINE
  5
280
330
1F
100
AcDbEntity
  8
0
  6
Continuous
 62
     7
370
    15
100
AcDbLine
 10
53.5874764279
 20
40.8514696556
 30
0.0
 11
52.7691195563
 21
40.8514696556
 31
0.0
  0
LWPOLYLINE
  5
281
330
1F
100
AcDbEntity
  8
0
  6
Continuous
 62
     7
370
    15
100
AcDbPolyline
 90
        3
 70
   128
 43
0.0
 10
273.2280573652
 20
54.9413771752
 10
274.3220521912
 20
55.2718504715
 10
277.1647448495
 20
56.127523576
  0
LINE
  5
282
330
1F
100
AcDbEntity
  8
0
  6
Continuous
 62
     7
370
    15
100
AcDbLine
 10
282.2251978174
 20
51.1628068435
 30
0.0
 11
278.1863349334
 21
49.9442029196
 31
0.0
  0
ARC
  5
283
330
1F
100
AcDbEntity
  8
0
  6
Continuous
 62
     7
370
    15
100
AcDbCircle
 10
273.1812287562
 20
49.9364841188
 30
0.0
 40
5.005112129083286
100
AcDbArc
 50
0.0883606353
 51
89.463923938
  0
LWPOLYLINE
  5
284
330
1F
100
AcDbEntity
  8
0
  6
Continuous
 62
     7
370
    15
100
AcDbPolyline
 90
        3
 70
   128
 43
0.0
 10
238.4661163047
 20
56.127523576
 10
239.5605078742
 20
55.7986912701
 10
242.4028037891
 20
54.9413771752
  0
ARC
  5
285
330
1F
100
AcDbEntity
  8
0
  6
Continuous
 62
     7
370
    15
100
AcDbCircle
 10
242.4496323981
 20
49.9364841188
 30
0.0
 40
5.005112129083286
100
AcDbArc
 50
90.536076062
 51
179.9116393647
  0
LINE
  5
286
330
1F
100
AcDbEntity
  8
0
  6
Continuous
 62
     7
370
    15
100
AcDbLine
 10
237.4445262209
 20
49.9442029196
 30
0.0
 11
233.4056633369
 21
51.1628068435
 31
0.0
  0
LINE
  5
287
330
1F
100
AcDbEntity
  8
0
  6
Continuous
 62
     7
370
    15
100
AcDbLine
 10
278.1863349334
 20
49.9442029196
 30
0.0
 11
278.1863349334
 21
40.8514696556
 31
0.0
  0
LINE
  5
288
330
1F
100
AcDbEntity
  8
0
  6
Continuous
 62
     7
370
    15
100
AcDbLine
 10
278.1863349334
 20
40.8514696556
 30
0.0
 11
282.2251978174
 21
40.8514696556
 31
0.0
  0
LINE
  5
289
330
1F
100
AcDbEntity
  8
0
  6
Continuous
 62
     7
370
    15
100
AcDbLine
 10
237.4445262209
 20
40.8514696556
 30
0.0
 11
237.4445262209
 21
49.9442029196
 31
0.0
  0
LINE
  5
28A
330
1F
100
AcDbEntity
  8
0
  6
Continuous
 62
     7
370
    15
100
AcDbLine
 10
233.4056633369
 20
40.8514696556
 30
0.0
 11
237.4445262209
 21
40.8514696556
 31
0.0
  0
SPLINE
  5
28B
330
1F
100
AcDbEntity
  8
0
  6
Continuous
 62
     7
370
    15
100
AcDbSpline
210
0.0
220
0.0
230
1.0
 70
     8
 71
     3
 72
    26
 73
    22
 74
     0
 42
0.00000001
 43
0.00000001
 12
1.0
 22
0.0
 32
0.0
 13
1.0
 23
0.0
 33
0.0
 40
0.0
 40
0.0
 40
0.0
 40
0.0
 40
0.0537295445837377
 40
0.1074590730278505
 40
0.1611915709251547
 40
0.2149239214764111
 40
0.2686445160660295
 40
0.3223648375760415
 40
0.3760551399995817
 40
0.429745362847154
 40
0.4834043450133733
 40
0.5370632943277359
 40
0.5907059843699903
 40
0.6443487417146241
 40
0.6979988641817589
 40
0.751649198376588
 40
0.8053267273182654
 40
0.8590044250784649
 40
0.9127145776934744
 40
0.9664246814741693
 40
1.0
 40
1.0
 40
1.0
 40
1.0
 10
272.1154304996503
 20
55.3576075854989
 30
0.0
 10
272.0753386232446
 20
55.38468663884139
 30
0.0
 10
271.9951548824762
 20
55.43884473739224
 30
0.0
 10
271.3691652044868
 20
55.5189840076365
 30
0.0
 10
270.379846813815
 20
55.59525741555621
 30
0.0
 10
269.0328136643826
 20
55.6655891020455
 30
0.0
 10
267.3625418874457
 20
55.72745671489754
 30
0.0
 10
265.4262758511429
 20
55.77921501160399
 30
0.0
 10
263.2697056590844
 20
55.81866761264254
 30
0.0
 10
260.9620859314814
 20
55.84501267682418
 30
0.0
 10
258.5636829802309
 20
55.85674047995648
 30
0.0
 10
256.1451660653351
 20
55.85408926803581
 30
0.0
 10
253.7753151765185
 20
55.83651341441187
 30
0.0
 10
251.5178992708069
 20
55.80525734887948
 30
0.0
 10
249.442789239376
 20
55.76082238446445
 30
0.0
 10
247.599814578341
 20
55.70521869591888
 30
0.0
 10
246.0527644105163
 20
55.63985617272604
 30
0.0
 10
244.8305519440499
 20
55.56715221470721
 30
0.0
 10
243.9900723970852
 20
55.48916845106832
 30
0.0
 10
243.5718765125818
 20
55.4183957533746
 30
0.0
 10
243.5311114095756
 20
55.37449464150212
 30
0.0
 10
243.5154306546224
 20
55.3576075854989
 30
0.0
  0
LINE
  5
28C
330
1F
100
AcDbEntity
  8
0
  6
Continuous
 62
     7
370
    15
100
AcDbLine
 10
242.4028037891
 20
54.9413771752
 30
0.0
 11
243.5154306546
 21
54.9413771752
 31
0.0
  0
LINE
  5
28D
330
1F
100
AcDbEntity
  8
0
  6
Continuous
 62
     7
370
    15
100
AcDbLine
 10
272.1154304997
 20
54.9413771752
 30
0.0
 11
273.2280573652
 21
54.9413771752
 31
0.0
  0
LINE
  5
28E
330
1F
100
AcDbEntity
  8
0
  6
Continuous
 62
     7
370
    15
100
AcDbLine
 10
243.5154306546
 20
54.5514696661
 30
0.0
 11
272.1154304997
 21
54.5514696661
 31
0.0
  0
LINE
  5
28F
330
1F
100
AcDbEntity
  8
0
  6
Continuous
 62
     7
370
    15
100
AcDbLine
 10
243.5154306546
 20
54.5514696661
 30
0.0
 11
243.5154306546
 21
55.3576075855
 31
0.0
  0
LINE
  5
290
330
1F
100
AcDbEntity
  8
0
  6
Continuous
 62
     7
370
    15
100
AcDbLine
 10
272.1154304997
 20
54.5514696661
 30
0.0
 11
272.1154304997
 21
55.3576075855
 31
0.0
  0
LINE
  5
291
330
1F
100
AcDbEntity
  8
0
  6
Continuous
 62
     7
370
    15
100
AcDbLine
 10
278.1863349334
 20
49.9442029196
 30
0.0
 11
273.5660045252
 21
49.9442029196
 31
0.0
  0
ARC
  5
292
330
1F
100
AcDbEntity
  8
0
  6
Continuous
 62
     7
370
    15
100
AcDbCircle
 10
254.0159570655
 20
51.1320935336
 30
0.0
 40
19.58610323128245
100
AcDbArc
 50
356.5228962128
 51
11.2148799425
  0
ARC
  5
293
330
1F
100
AcDbEntity
  8
0
  6
Continuous
 62
     7
370
    15
100
AcDbCircle
 10
261.6149040888
 20
51.1320935336
 30
0.0
 40
19.58610323128248
100
AcDbArc
 50
168.7851200575
 51
183.4771037872
  0
LINE
  5
294
330
1F
100
AcDbEntity
  8
0
  6
Continuous
 62
     7
370
    15
100
AcDbLine
 10
273.5660045252
 20
49.9442029196
 30
0.0
 11
242.0648566291
 21
49.9442029196
 31
0.0
  0
LINE
  5
295
330
1F
100
AcDbEntity
  8
0
  6
Continuous
 62
     7
370
    15
100
AcDbLine
 10
242.0648566291
 20
49.9442029196
 30
0.0
 11
237.4445262209
 21
49.9442029196
 31
0.0
  0
LINE
  5
296
330
1F
100
AcDbEntity
  8
0
  6
Continuous
 62
     7
370
    15
100
AcDbLine
 10
273.5660045252
 20
40.8514696556
 30
0.0
 11
273.5660045252
 21
49.9442029196
 31
0.0
  0
LINE
  5
297
330
1F
100
AcDbEntity
  8
0
  6
Continuous
 62
     7
370
    15
100
AcDbLine
 10
278.1863349334
 20
40.8514696556
 30
0.0
 11
273.5660045252
 21
40.8514696556
 31
0.0
  0
LINE
  5
298
330
1F
100
AcDbEntity
  8
0
  6
Continuous
 62
     7
370
    15
100
AcDbLine
 10
242.0648566291
 20
49.9442029196
 30
0.0
 11
242.0648566291
 21
40.8514696556
 31
0.0
  0
LINE
  5
299
330
1F
100
AcDbEntity
  8
0
  6
Continuous
 62
     7
370
    15
100
AcDbLine
 10
242.0648566291
 20
40.8514696556
 30
0.0
 11
237.4445262209
 21
40.8514696556
 31
0.0
  0
LINE
  5
29A
330
1F
100
AcDbEntity
  8
0
  6
Continuous
 62
     7
370
    15
100
AcDbLine
 10
242.0648566291
 20
40.8514696556
 30
0.0
 11
273.5660045252
 21
40.8514696556
 31
0.0
  0
LINE
  5
29B
330
1F
100
AcDbEntity
  8
0
  6
Continuous
 62
     7
370
    15
100
AcDbLine
 10
286.8175308064
 20
124.5677392382
 30
0.0
 11
291.0630839721
 21
128.3227461773
 31
0.0
  0
SPLINE
  5
29C
330
1F
100
AcDbEntity
  8
0
  6
Continuous
 62
     7
370
    15
100
AcDbSpline
210
0.0
220
0.0
230
1.0
 70
     8
 71
     3
 72
    10
 73
     6
 74
     0
 42
0.00000001
 43
0.00000001
 12
1.0
 22
0.0
 32
0.0
 13
1.0
 23
0.0
 33
0.0
 40
0.0
 40
0.0
 40
0.0
 40
0.0
 40
0.1982446801884966
 40
0.5327643289283934
 40
1.0
 40
1.0
 40
1.0
 40
1.0
 10
215.8018971637262
 20
136.9758244055601
 30
0.0
 10
216.6006878584993
 20
136.0945722518617
 30
0.0
 10
218.7473643193778
 20
133.7262882109713
 30
0.0
 10
223.0669947516055
 20
129.5547220927058
 30
0.0
 10
226.6975604268776
 20
126.4039195557511
 30
0.0
 10
228.813330347873
 20
124.5677392381521
 30
0.0
  0
ARC
  5
29D
330
1F
100
AcDbEntity
  8
0
  6
Continuous
 62
     7
370
    15
100
AcDbCircle
 10
257.8154305771
 20
176.6327195066
 30
0.0
 40
57.79596862576151
100
AcDbArc
 50
223.5157058174
 51
298.1785384912
  0
SPLINE
  5
29E
330
1F
100
AcDbEntity
  8
0
  6
Continuous
 62
     7
370
    15
100
AcDbSpline
210
0.0
220
0.0
230
1.0
 70
     8
 71
     3
 72
    10
 73
     6
 74
     0
 42
0.00000001
 43
0.00000001
 12
1.0
 22
0.0
 32
0.0
 13
1.0
 23
0.0
 33
0.0
 40
0.0
 40
0.0
 40
0.0
 40
0.0
 40
0.2592290080812266
 40
0.6551746090993406
 40
1.0
 40
1.0
 40
1.0
 40
1.0
 10
299.8208801105989
 20
155.7177375453802
 30
0.0
 10
298.7724200376167
 20
156.8667997579435
 30
0.0
 10
296.1225452278613
 20
159.7709361102731
 30
0.0
 10
291.7489351826257
 20
163.8890482967761
 30
0.0
 10
288.3839264472041
 20
166.7864628030607
 30
0.0
 10
286.8175308063996
 20
168.1351955431791
 30
0.0
  0
ARC
  5
29F
330
1F
100
AcDbEntity
  8
0
  6
Continuous
 62
     7
370
    15
100
AcDbCircle
 10
257.8154305771
 20
116.0702195066
 30
0.0
 40
57.79596862576146
100
AcDbArc
 50
43.5157058174
 51
118.1785384911
  0
LINE
  5
2A0
330
1F
100
AcDbEntity
  8
0
  6
Continuous
 62
     7
370
    15
100
AcDbLine
 10
228.8133303479
 20
168.1351955432
 30
0.0
 11
224.5950574831
 21
164.3943782348
 31
0.0
  0
SPLINE
  5
2A1
330
1F
100
AcDbEntity
  8
0
  6
Continuous
 62
     7
370
    15
100
AcDbSpline
210
0.0
220
0.0
230
1.0
 70
     8
 71
     3
 72
    11
 73
     7
 74
     0
 42
0.00000001
 43
0.00000001
 12
1.0
 22
0.0
 32
0.0
 13
1.0
 23
0.0
 33
0.0
 40
0.0
 40
0.0
 40
0.0
 40
0.0
 40
0.2333308618878431
 40
0.470541878127123
 40
0.8035608442446123
 40
1.0
 40
1.0
 40
1.0
 40
1.0
 10
446.1615036085618
 20
176.1337812441679
 30
0.0
 10
446.3427397398996
 20
176.9524734833903
 30
0.0
 10
446.7082258523419
 20
178.6034723299852
 30
0.0
 10
447.1719043096314
 20
180.4794328032131
 30
0.0
 10
447.4824531264209
 20
181.6792815537749
 30
0.0
 10
447.4765685921894
 20
181.6555853873092
 30
0.0
 10
447.474385316707
 20
181.6467936533781
 30
0.0
  0
SPLINE
  5
2A2
330
1F
100
AcDbEntity
  8
0
  6
Continuous
 62
     7
370
    15
100
AcDbSpline
210
0.0
220
0.0
230
1.0
 70
     8
 71
     3
 72
    11
 73
     7
 74
     0
 42
0.00000001
 43
0.00000001
 12
1.0
 22
0.0
 32
0.0
 13
1.0
 23
0.0
 33
0.0
 40
0.0
 40
0.0
 40
0.0
 40
0.0
 40
0.1249743688974363
 40
0.4142242280202243
 40
0.7099550842647536
 40
1.0
 40
1.0
 40
1.0
 40
1.0
 10
447.4764863804353
 20
111.0480982261988
 30
0.0
 10
447.4868871293398
 20
111.0082069826157
 30
0.0
 10
447.5213601354754
 20
110.8759885147512
 30
0.0
 10
447.285578202138
 20
111.7829328236411
 30
0.0
 10
446.8339916181947
 20
113.5521531779501
 30
0.0
 10
446.3674575441322
 20
115.6484583512651
 30
0.0
 10
446.136454756595
 20
116.6864368516298
 30
0.0
  0
LWPOLYLINE
  5
2A3
330
1F
100
AcDbEntity
  8
0
  6
Continuous
 62
     7
370
    15
100
AcDbPolyline
 90
        3
 70
   128
 43
0.0
 10
304.0163504735
 20
136.5660573739
 10
304.3547372178
 20
136.2725939053
 10
304.6843397275
 20
135.9867523807
  0
LWPOLYLINE
  5
2A4
330
1F
100
AcDbEntity
  8
0
  6
Continuous
 62
     7
370
    15
100
AcDbPolyline
 90
        9
 70
   128
 43
0.0
 10
301.8629687682
 20
154.2694117326
 10
301.9234116033
 20
154.3218340176
 10
302.3634317175
 20
154.7034304041
 10
302.7949358181
 20
155.0776432651
 10
303.2137702063
 20
155.4408665198
 10
303.6158966676
 20
155.7895983952
 10
303.9974446252
 20
156.1204861301
 10
304.3547372178
 20
156.430340876
 10
304.6843397275
 20
156.7161824006
  0
LWPOLYLINE
  5
2A5
330
1F
100
AcDbEntity
  8
0
  6
Continuous
 62
     7
370
    15
100
AcDbPolyline
 90
        9
 70
   128
 43
0.0
 10
210.9465214268
 20
135.9867523807
 10
211.2761239365
 20
136.2725939053
 10
211.633416529
 20
136.5824486512
 10
212.0149644867
 20
136.9133363861
 10
212.417090948
 20
137.2620757121
 10
212.8359253362
 20
137.6252989668
 10
213.2674294368
 20
137.9995118278
 10
213.707449551
 20
138.3811082143
 10
213.7687007741
 20
138.4342234033
  0
LWPOLYLINE
  5
2A6
330
1F
100
AcDbEntity
  8
0
  6
Continuous
 62
     7
370
    15
100
AcDbPolyline
 90
        3
 70
   128
 43
0.0
 10
210.9465214268
 20
156.7161824006
 10
211.2761239365
 20
156.430340876
 10
211.6145106808
 20
156.136884858
  0
LWPOLYLINE
  5
2A7
330
1F
100
AcDbEntity
  8
0
  6
Continuous
 62
     7
370
    15
100
AcDbPolyline
 90
        9
 70
   128
 43
0.0
 10
301.8646116212
 20
154.1806231636
 10
301.9681374386
 20
154.2701940435
 10
302.4086045877
 20
154.6512763399
 10
302.8405482725
 20
155.0249825615
 10
303.2598036185
 20
155.3877215284
 10
303.6623398617
 20
155.7359840173
 10
304.0442752496
 20
156.0664247173
 10
304.4019329206
 20
156.3758622307
 10
304.7318669811
 20
156.6613163251
  0
LWPOLYLINE
  5
2A8
330
1F
100
AcDbEntity
  8
0
  6
Continuous
 62
     7
370
    15
100
AcDbPolyline
 90
        3
 70
   128
 43
0.0
 10
304.060975726
 20
136.6220633882
 10
304.4019329206
 20
136.3270800012
 10
304.7318669811
 20
136.0416259068
  0
LWPOLYLINE
  5
2A9
330
1F
100
AcDbEntity
  8
0
  6
Continuous
 62
     7
370
    15
100
AcDbPolyline
 90
        9
 70
   128
 43
0.0
 10
210.8989941731
 20
136.0416259068
 10
211.2289282337
 20
136.3270800012
 10
211.5865859047
 20
136.6365175146
 10
211.9685212925
 20
136.9669582146
 10
212.3710575357
 20
137.3152207035
 10
212.7903128818
 20
137.6779522199
 10
213.2222565666
 20
138.0516584414
 10
213.6627237156
 20
138.4327407378
 10
213.7669685141
 20
138.5229300159
  0
LWPOLYLINE
  5
2AA
330
1F
100
AcDbEntity
  8
0
  6
Continuous
 62
     7
370
    15
100
AcDbPolyline
 90
        3
 70
   128
 43
0.0
 10
210.8989941731
 20
156.6613163251
 10
211.2289282337
 20
156.3758622307
 10
211.5698854283
 20
156.0808713931
  0
ARC
  5
2AB
330
1F
100
AcDbEntity
  8
0
  6
Continuous
 62
     7
370
    15
100
AcDbCircle
 10
442.4333672325
 20
169.2256588818
 30
0.0
 40
2.601315571229892
100
AcDbArc
 50
352.0558023176
 51
10.7124174974
  0
ARC
  5
2AC
330
1F
100
AcDbEntity
  8
0
  6
Continuous
 62
     7
370
    15
100
AcDbCircle
 10
442.4340716193
 20
123.4772337932
 30
0.0
 40
2.600614942370213
100
AcDbArc
 50
349.2856900253
 51
8.0379583761
  0
ARC
  5
2AD
330
1F
100
AcDbEntity
  8
0
  6
Continuous
 62
     7
370
    15
100
AcDbCircle
 10
441.6844547642
 20
175.8235613937
 30
0.0
 40
4.487783719174308
100
AcDbArc
 50
349.8629367327
 51
3.9637547167
  0
ARC
  5
2AE
330
1F
100
AcDbEntity
  8
0
  6
Continuous
 62
     7
370
    15
100
AcDbCircle
 10
441.701841885
 20
117.0021297423
 30
0.0
 40
4.445835503255345
100
AcDbArc
 50
355.928075751
 51
11.6069814899
  0
ARC
  5
2AF
330
1F
100
AcDbEntity
  8
0
  6
Continuous
 62
     7
370
    15
100
AcDbCircle
 10
192.2318640906
 20
86.7104137624
 30
0.0
 40
2.195596662203371
100
AcDbArc
 50
98.1129245736
 51
115.6063016832
  0
LWPOLYLINE
  5
2B0
330
1F
100
AcDbEntity
  8
0
  6
Continuous
 62
     7
370
    15
100
AcDbPolyline
 90
        3
 70
   128
 43
0.0
 10
192.2640303925
 20
87.8840363968
 10
192.2740961269
 20
87.8840941388
 10
192.4572164968
 20
87.9053972113
  0
LWPOLYLINE
  5
2B1
330
1F
100
AcDbEntity
  8
0
  6
Continuous
 62
     7
370
    15
100
AcDbPolyline
 90
        3
 70
   128
 43
0.0
 10
193.4832806543
 20
87.9053972113
 10
193.3001602844
 20
87.8840941388
 10
193.2900870994
 20
87.8840363968
  0
LWPOLYLINE
  5
2B2
330
1F
100
AcDbEntity
  8
0
  6
Continuous
 62
     7
370
    15
100
AcDbPolyline
 90
        9
 70
   128
 43
0.0
 10
188.4282405332
 20
116.7141455609
 10
188.3971194581
 20
116.905070414
 10
188.3803482011
 20
117.0886564452
 10
188.3785526112
 20
117.2578516799
 10
188.3918146447
 20
117.4061480361
 10
188.4196127609
 20
117.5278569955
 10
188.460896428
 20
117.6182921428
 10
188.5140637711
 20
117.6739815074
 10
188.5520915345
 20
117.6900561351
  0
ARC
  5
2B3
330
1F
100
AcDbEntity
  8
0
  6
Continuous
 62
     7
370
    15
100
AcDbCircle
 10
188.7654592006
 20
116.8015769816
 30
0.0
 40
0.9125832306513806
100
AcDbArc
 50
39.4558864364
 51
89.6986198522
  0
LWPOLYLINE
  5
2B4
330
1F
100
AcDbEntity
  8
0
  6
Continuous
 62
     7
370
    15
100
AcDbPolyline
 90
        9
 70
   128
 43
0.0
 10
186.512763317
 20
116.2859308916
 10
186.4816422418
 20
116.4768557447
 10
186.4648635343
 20
116.6604417759
 10
186.463075395
 20
116.8296332854
 10
186.4763299778
 20
116.9779333669
 10
186.5041355446
 20
117.099638601
 10
186.5454117611
 20
117.1900774735
 10
186.5985791043
 20
117.2457668382
 10
186.6366143182
 20
117.2618414658
  0
ARC
  5
2B5
330
1F
100
AcDbEntity
  8
0
  6
Continuous
 62
     7
370
    15
100
AcDbCircle
 10
186.8225917165
 20
114.11238795
 30
0.0
 40
2.195514189533985
100
AcDbArc
 50
98.112593435
 51
115.6066328218
  0
LINE
  5
2B6
330
1F
100
AcDbEntity
  8
0
  6
Continuous
 62
     7
370
    15
100
AcDbLine
 10
184.4359139756
 20
86.8281792301
 30
0.0
 11
191.3977215842
 21
88.3845272857
 31
0.0
  0
LINE
  5
2B7
330
1F
100
AcDbEntity
  8
0
  6
Continuous
 62
     7
370
    15
100
AcDbLine
 10
185.936386402
 20
115.7747800845
 30
0.0
 11
179.0266583518
 21
114.2300735611
 31
0.0
  0
ARC
  5
2B8
330
1F
100
AcDbEntity
  8
0
  6
Continuous
 62
     7
370
    15
100
AcDbCircle
 10
192.626567589
 20
88.1240982854
 30
0.0
 40
0.6970200100204136
100
AcDbArc
 50
195.9520705526
 51
244.6440678781
  0
ARC
  5
2B9
330
1F
100
AcDbEntity
  8
0
  6
Continuous
 62
     7
370
    15
100
AcDbCircle
 10
179.5215590253
 20
85.166475433
 30
0.0
 40
0.9895540943096103
100
AcDbArc
 50
123.7987806342
 51
169.6256213557
  0
LWPOLYLINE
  5
2BA
330
1F
100
AcDbEntity
  8
0
  6
Continuous
 62
     7
370
    15
100
AcDbPolyline
 90
        3
 70
   128
 43
0.0
 10
179.313110824
 20
84.9887910682
 10
179.384614046
 20
84.9916912067
 10
179.5062969283
 20
85.0101518828
  0
ARC
  5
2BB
330
1F
100
AcDbEntity
  8
0
  6
Continuous
 62
     7
370
    15
100
AcDbCircle
 10
169.3837843448
 20
97.2056714769
 30
0.0
 40
0.9896010832129548
100
AcDbArc
 50
123.800549295
 51
169.6249309444
  0
ARC
  5
2BC
330
1F
100
AcDbEntity
  8
0
  6
Continuous
 62
     7
370
    15
100
AcDbCircle
 10
175.7931219903
 20
113.8590575815
 30
0.0
 40
0.9602008154830212
100
AcDbArc
 50
9.9207117291
 51
88.4353685446
  0
LWPOLYLINE
  5
2BD
330
1F
100
AcDbEntity
  8
0
  6
Continuous
 62
     7
370
    15
100
AcDbPolyline
 90
        9
 70
   128
 43
0.0
 10
175.6011719659
 20
114.7948126692
 10
175.5631442026
 20
114.7787380415
 10
175.5099768594
 20
114.7230449516
 10
175.4686931923
 20
114.6326098043
 10
175.4408950761
 20
114.5109045702
 10
175.4276330427
 20
114.3626044887
 10
175.4294286326
 20
114.193409254
 10
175.4462073401
 20
114.0098232228
 10
175.4773209647
 20
113.818902095
  0
ARC
  5
2BE
330
1F
100
AcDbEntity
  8
0
  6
Continuous
 62
     7
370
    15
100
AcDbCircle
 10
173.9022217239
 20
114.8881152649
 30
0.0
 40
1.535626028562281
100
AcDbArc
 50
231.5875537603
 51
257.1937886504
  0
ARC
  5
2BF
330
1F
100
AcDbEntity
  8
0
  6
Continuous
 62
     7
370
    15
100
AcDbCircle
 10
169.1735994761
 20
99.5253131389
 30
0.0
 40
1.535495282767916
100
AcDbArc
 50
231.5861457002
 51
257.1943716831
  0
LWPOLYLINE
  5
2C0
330
1F
100
AcDbEntity
  8
0
  6
Continuous
 62
     7
370
    15
100
AcDbPolyline
 90
        9
 70
   128
 43
0.0
 10
173.6856947497
 20
114.3665979999
 10
173.6476595357
 20
114.350519647
 10
173.5944921926
 20
114.2948302823
 10
173.5532159761
 20
114.2043951351
 10
173.5254104093
 20
114.082689901
 10
173.5121558264
 20
113.9343898195
 10
173.5139439658
 20
113.7651945847
 10
173.5307226733
 20
113.5816085535
 10
173.5618437484
 20
113.3906874257
  0
ARC
  5
2C1
330
1F
100
AcDbEntity
  8
0
  6
Continuous
 62
     7
370
    15
100
AcDbCircle
 10
176.8191974752
 20
113.8590795649
 30
0.0
 40
0.9601785310495372
100
AcDbArc
 50
9.9196125996
 51
88.4360084034
  0
LWPOLYLINE
  5
2C2
330
1F
100
AcDbEntity
  8
0
  6
Continuous
 62
     7
370
    15
100
AcDbPolyline
 90
        9
 70
   128
 43
0.0
 10
179.150509353
 20
115.2059841353
 10
179.1124815897
 20
115.1899095076
 10
179.0593142465
 20
115.1342164177
 10
179.01803803
 20
115.0437812704
 10
178.9902324632
 20
114.9220760363
 10
178.9769704298
 20
114.7737759549
 10
178.9787660197
 20
114.6045807201
 10
178.9955447272
 20
114.4209946889
 10
179.0266583518
 20
114.2300735611
  0
LINE
  5
2C3
330
1F
100
AcDbEntity
  8
0
  6
Continuous
 62
     7
370
    15
100
AcDbLine
 10
449.3406812504
 20
121.349751522
 30
0.0
 11
449.3406812504
 21
134.3774269718
 31
0.0
  0
LINE
  5
2C4
330
1F
100
AcDbEntity
  8
0
  6
Continuous
 62
     7
370
    15
100
AcDbLine
 10
449.3406812504
 20
159.0236570138
 30
0.0
 11
449.3406812504
 21
171.35319071
 31
0.0
  0
LINE
  5
2C5
330
1F
100
AcDbEntity
  8
0
  6
Continuous
 62
     7
370
    15
100
AcDbLine
 10
462.6353780583
 20
246.7441331047
 30
0.0
 11
52.995483096
 21
246.7441331047
 31
0.0
  0
LINE
  5
2C6
330
1F
100
AcDbEntity
  8
0
  6
Continuous
 62
     7
370
    15
100
AcDbLine
 10
111.9428972558
 20
276.8687825102
 30
0.0
 11
111.3832990483
 21
276.8687825102
 31
0.0
  0
LINE
  5
2C7
330
1F
100
AcDbEntity
  8
0
  6
Continuous
 62
     7
370
    15
100
AcDbLine
 10
258.2386560058
 20
236.764065494
 30
0.0
 11
462.4611834839
 21
236.764065494
 31
0.0
  0
LINE
  5
2C8
330
1F
100
AcDbEntity
  8
0
  6
Continuous
 62
     7
370
    15
100
AcDbLine
 10
53.1696776703
 20
236.764065494
 30
0.0
 11
258.2386560058
 21
236.764065494
 31
0.0
  0
LINE
  5
2C9
330
1F
100
AcDbEntity
  8
0
  6
Continuous
 62
     7
370
    15
100
AcDbLine
 10
461.8640641526
 20
234.4803880352
 30
0.0
 11
53.7667970017
 21
234.4803880352
 31
0.0
  0
LINE
  5
2CA
330
1F
100
AcDbEntity
  8
0
  6
Continuous
 62
     7
370
    15
100
AcDbLine
 10
62.9784266308
 20
217.3771332401
 30
0.0
 11
452.6524345234
 21
217.3771332401
 31
0.0
  0
LINE
  5
2CB
330
1F
100
AcDbEntity
  8
0
  6
Continuous
 62
     7
370
    15
100
AcDbLine
 10
299.2402228371
 20
153.6283041734
 30
0.0
 11
298.6328738585
 21
153.6611016291
 31
0.0
  0
LINE
  5
2CC
330
1F
100
AcDbEntity
  8
0
  6
Continuous
 62
     7
370
    15
100
AcDbLine
 10
288.5821281776
 20
154.2038615245
 30
0.0
 11
279.790612574
 21
154.6786199707
 31
0.0
  0
LINE
  5
2CD
330
1F
100
AcDbEntity
  8
0
  6
Continuous
 62
     7
370
    15
100
AcDbLine
 10
290.916739668
 20
138.0646448034
 30
0.0
 11
290.9161920503
 21
138.0545045632
 31
0.0
  0
LINE
  5
2CE
330
1F
100
AcDbEntity
  8
0
  6
Continuous
 62
     7
370
    15
100
AcDbLine
 10
216.3906383172
 20
139.074630608
 30
0.0
 11
218.4746327654
 21
138.9620895881
 31
0.0
  0
LINE
  5
2CF
330
1F
100
AcDbEntity
  8
0
  6
Continuous
 62
     7
370
    15
100
AcDbLine
 10
226.5495831922
 20
138.5260294575
 30
0.0
 11
235.8402485803
 21
138.0243222612
 31
0.0
  0
LINE
  5
2D0
330
1F
100
AcDbEntity
  8
0
  6
Continuous
 62
     7
370
    15
100
AcDbLine
 10
279.8984578655
 20
156.6757033962
 30
0.0
 11
290.5413756922
 21
156.1009730595
 31
0.0
  0
LINE
  5
2D1
330
1F
100
AcDbEntity
  8
0
  6
Continuous
 62
     7
370
    15
100
AcDbLine
 10
296.026549007
 20
155.8047677773
 30
0.0
 11
298.5637138442
 21
155.6677516002
 31
0.0
  0
LINE
  5
2D2
330
1F
100
AcDbEntity
  8
0
  6
Continuous
 62
     7
370
    15
100
AcDbLine
 10
235.7324032888
 20
136.0272313851
 30
0.0
 11
224.8646679178
 21
136.6141061682
 31
0.0
  0
LINE
  5
2D3
330
1F
100
AcDbEntity
  8
0
  6
Continuous
 62
     7
370
    15
100
AcDbLine
 10
219.6888799623
 20
136.8936072487
 30
0.0
 11
217.0671473101
 21
137.0351831812
 31
0.0
  0
LINE
  5
2D4
330
1F
100
AcDbEntity
  8
0
  6
Continuous
 62
     7
370
    15
100
AcDbLine
 10
466.5272335366
 20
292.1986799139
 30
0.0
 11
111.8406305865
 21
292.1986799139
 31
0.0
  0
LINE
  5
2D5
330
1F
100
AcDbEntity
  8
0
  6
Continuous
 62
     7
370
    15
100
AcDbLine
 10
108.1591646031
 20
292.1986799139
 30
0.0
 11
51.3522575453
 21
292.1986799139
 31
0.0
  0
LINE
  5
2D6
330
1F
100
AcDbEntity
  8
0
  6
Continuous
 62
     7
370
    15
100
AcDbLine
 10
51.641846712
 20
292.8883354563
 30
0.0
 11
466.2345002249
 21
292.8883354563
 31
0.0
  0
LINE
  5
2D7
330
1F
100
AcDbEntity
  8
0
  6
Continuous
 62
     7
370
    15
100
AcDbLine
 10
464.8058811978
 20
294.3169544834
 30
0.0
 11
53.0863354758
 21
294.3169544834
 31
0.0
  0
LINE
  5
2D8
330
1F
100
AcDbEntity
  8
0
  6
Continuous
 62
     7
370
    15
100
AcDbLine
 10
53.3888588503
 20
295.0066100258
 30
0.0
 11
464.513132985
 21
295.0066100258
 31
0.0
  0
LINE
  5
2D9
330
1F
100
AcDbEntity
  8
0
  6
Continuous
 62
     7
370
    15
100
AcDbLine
 10
453.4420321539
 20
578.8415293592
 30
0.0
 11
62.1888140992
 21
578.8415293592
 31
0.0
  0
LINE
  5
2DA
330
1F
100
AcDbEntity
  8
0
  6
Continuous
 62
     7
370
    15
100
AcDbLine
 10
440.2688543156
 20
593.4683899778
 30
0.0
 11
75.3619919375
 21
593.4683899778
 31
0.0
  0
LINE
  5
2DB
330
1F
100
AcDbEntity
  8
0
  6
Continuous
 62
     7
370
    15
100
AcDbLine
 10
53.3888588503
 20
295.0066100258
 30
0.0
 11
53.3778766945
 21
295.0068037409
 31
0.0
  0
LINE
  5
2DC
330
1F
100
AcDbEntity
  8
0
  6
Continuous
 62
     7
370
    15
100
AcDbLine
 10
51.3414840058
 20
292.198873629
 30
0.0
 11
51.3522575453
 21
292.1986799139
 31
0.0
  0
LINE
  5
2DD
330
1F
100
AcDbEntity
  8
0
  6
Continuous
 62
     7
370
    15
100
AcDbLine
 10
53.0825207785
 20
294.3208436865
 30
0.0
 11
53.0863354758
 21
294.3169544834
 31
0.0
  0
LINE
  5
2DE
330
1F
100
AcDbEntity
  8
0
  6
Continuous
 62
     7
370
    15
100
AcDbLine
 10
51.6380916193
 20
292.8921799558
 30
0.0
 11
51.641846712
 21
292.8883354563
 31
0.0
  0
LINE
  5
2DF
330
1F
100
AcDbEntity
  8
0
  6
Continuous
 62
     7
370
    15
100
AcDbLine
 10
87.164352353
 20
62.3079552698
 30
0.0
 11
86.6952936009
 21
62.3079552698
 31
0.0
  0
LINE
  5
2E0
330
1F
100
AcDbEntity
  8
0
  6
Continuous
 62
     7
370
    15
100
AcDbLine
 10
96.1952905015
 20
62.3079552698
 30
0.0
 11
87.164352353
 21
62.3079552698
 31
0.0
  0
LINE
  5
2E1
330
1F
100
AcDbEntity
  8
0
  6
Continuous
 62
     7
370
    15
100
AcDbLine
 10
433.1029604033
 20
63.1861351813
 30
0.0
 11
433.1029604033
 21
58.369230983
 31
0.0
  0
LINE
  5
2E2
330
1F
100
AcDbEntity
  8
0
  6
Continuous
 62
     7
370
    15
100
AcDbLine
 10
85.4223768071
 20
63.1861351813
 30
0.0
 11
86.898396428
 21
63.1861351813
 31
0.0
  0
LINE
  5
2E3
330
1F
100
AcDbEntity
  8
0
  6
Continuous
 62
     7
370
    15
100
AcDbLine
 10
95.9921727732
 20
63.1861351813
 30
0.0
 11
112.7714912251
 21
63.1861351813
 31
0.0
  0
LINE
  5
2E4
330
1F
100
AcDbEntity
  8
0
  6
Continuous
 62
     7
370
    15
100
AcDbLine
 10
72.1151630238
 20
57.6638006988
 30
0.0
 11
72.1151630238
 21
57.1985035586
 31
0.0
  0
LINE
  5
2E5
330
1F
100
AcDbEntity
  8
0
  6
Continuous
 62
     7
370
    15
100
AcDbLine
 10
443.5156981305
 20
57.6638006988
 30
0.0
 11
443.5156981305
 21
57.1985035586
 31
0.0
  0
SPLINE
  5
2E6
330
1F
100
AcDbEntity
  8
0
  6
Continuous
 62
     7
370
    15
100
AcDbSpline
210
0.0
220
0.0
230
1.0
 70
     8
 71
     3
 72
    10
 73
     6
 74
     0
 42
0.00000001
 43
0.00000001
 12
1.0
 22
0.0
 32
0.0
 13
1.0
 23
0.0
 33
0.0
 40
0.0
 40
0.0
 40
0.0
 40
0.0
 40
0.1635884949421304
 40
0.9028614650433509
 40
0.9999999999999999
 40
0.9999999999999999
 40
0.9999999999999999
 40
0.9999999999999999
 10
462.7836297110093
 20
52.17918152094803
 30
0.0
 10
462.8078048428874
 20
52.17782765673296
 30
0.0
 10
462.941229843177
 20
52.17035554306671
 30
0.0
 10
462.5223833669301
 20
52.16839826796294
 30
0.0
 10
462.0932258963195
 20
52.1681750030974
 30
0.0
 10
462.0433847263826
 20
52.16814907372913
 30
0.0
  0
SPLINE
  5
2E7
330
1F
100
AcDbEntity
  8
0
  6
Continuous
 62
     7
370
    15
100
AcDbSpline
210
0.0
220
0.0
230
1.0
 70
     8
 71
     3
 72
     9
 73
     5
 74
     0
 42
0.00000001
 43
0.00000001
 12
1.0
 22
0.0
 32
0.0
 13
1.0
 23
0.0
 33
0.0
 40
0.0
 40
0.0
 40
0.0
 40
0.0
 40
0.7395921949635521
 40
1.0
 40
1.0
 40
1.0
 40
1.0
 10
53.58747642789014
 20
52.16814907372913
 30
0.0
 10
53.22326734852592
 20
52.16871120813266
 30
0.0
 10
52.73082153603028
 20
52.16947126807825
 30
0.0
 10
52.84327869528957
 20
52.17740142967963
 30
0.0
 10
52.87256341729291
 20
52.17946650565586
 30
0.0
  0
LINE
  5
2E8
330
1F
100
AcDbEntity
  8
0
  6
Continuous
 62
     7
370
    15
100
AcDbLine
 10
433.3101163462
 20
58.2740349147
 30
0.0
 11
432.9801897362
 21
58.3370863843
 31
0.0
  0
SPLINE
  5
2E9
330
1F
100
AcDbEntity
  8
0
  6
Continuous
 62
     7
370
    15
100
AcDbSpline
210
0.0
220
0.0
230
1.0
 70
     8
 71
     3
 72
    10
 73
     6
 74
     0
 42
0.00000001
 43
0.00000001
 12
1.0
 22
0.0
 32
0.0
 13
1.0
 23
0.0
 33
0.0
 40
0.0
 40
0.0
 40
0.0
 40
0.0
 40
0.0050166821467015
 40
0.7541357760708495
 40
1.0
 40
1.0
 40
1.0
 40
1.0
 10
433.1029604033006
 20
63.18613518134675
 30
0.0
 10
433.1019223496831
 20
63.18008362530087
 30
0.0
 10
432.9458763121661
 20
62.27037980479794
 30
0.0
 10
432.7335071955544
 20
61.04808794632272
 30
0.0
 10
432.830369641617
 20
59.88378168856456
 30
0.0
 10
432.8543047264589
 20
59.59607711167059
 30
0.0
  0
LINE
  5
2EA
330
1F
100
AcDbEntity
  8
0
  6
Continuous
 62
     7
370
    15
100
AcDbLine
 10
131.71256025
 20
1117.4794121738
 30
0.0
 11
126.5719427602
 21
1122.4986448045
 31
0.0
  0
LINE
  5
2EB
330
1F
100
AcDbEntity
  8
0
  6
Continuous
 62
     7
370
    15
100
AcDbLine
 10
119.8652877347
 20
1115.6298204418
 30
0.0
 11
124.5626999872
 21
1111.0433175321
 31
0.0
  0
LINE
  5
2EC
330
1F
100
AcDbEntity
  8
0
  6
Continuous
 62
     7
370
    15
100
AcDbLine
 10
422.1869452731
 20
1103.4277661796
 30
0.0
 11
425.0169589059
 21
1106.9620384927
 31
0.0
  0
LINE
  5
2ED
330
1F
100
AcDbEntity
  8
0
  6
Continuous
 62
     7
370
    15
100
AcDbLine
 10
415.8286793964
 20
1116.1585434433
 30
0.0
 11
412.291888787
 21
1113.3316888567
 31
0.0
  0
ARC
  5
2EE
330
1F
100
AcDbEntity
  8
0
  6
Continuous
 62
     7
370
    15
100
AcDbCircle
 10
405.8322217627
 20
1096.9827356316
 30
0.0
 40
21.62500000000007
100
AcDbArc
 50
27.4820418186
 51
62.4666908688
  0
LINE
  5
2EF
330
1F
100
AcDbEntity
  8
0
  6
Continuous
 62
     7
370
    15
100
AcDbLine
 10
413.3520766036
 20
1112.2705622669
 30
0.0
 11
412.9983528392
 21
1111.917166328
 31
0.0
  0
LINE
  5
2F0
330
1F
100
AcDbEntity
  8
0
  6
Continuous
 62
     7
370
    15
100
AcDbLine
 10
420.7730485933
 20
1104.1355117317
 30
0.0
 11
421.1267723577
 21
1104.4889076706
 31
0.0
  0
LINE
  5
2F1
330
1F
100
AcDbEntity
  8
0
  6
Continuous
 62
     7
370
    15
100
AcDbLine
 10
115.6944080131
 20
816.8079837318
 30
0.0
 11
112.8643943803
 21
813.2737114187
 31
0.0
  0
LINE
  5
2F2
330
1F
100
AcDbEntity
  8
0
  6
Continuous
 62
     7
370
    15
100
AcDbLine
 10
122.0526738899
 20
804.0772064682
 30
0.0
 11
125.5894644992
 21
806.9040610548
 31
0.0
  0
ARC
  5
2F3
330
1F
100
AcDbEntity
  8
0
  6
Continuous
 62
     7
370
    15
100
AcDbCircle
 10
132.0491315233
 20
823.2530142801
 30
0.0
 40
21.62500000000007
100
AcDbArc
 50
207.4820418186
 51
242.4666908688
  0
LINE
  5
2F4
330
1F
100
AcDbEntity
  8
0
  6
Continuous
 62
     7
370
    15
100
AcDbLine
 10
124.5292766826
 20
807.9651876445
 30
0.0
 11
124.883000447
 21
808.3185835834
 31
0.0
  0
LINE
  5
2F5
330
1F
100
AcDbEntity
  8
0
  6
Continuous
 62
     7
370
    15
100
AcDbLine
 10
117.108304693
 20
816.1002381797
 30
0.0
 11
116.7545809286
 21
815.7468422409
 31
0.0
  0
SPLINE
  5
2F6
330
1F
100
AcDbEntity
  8
0
  6
Continuous
 62
     7
370
    15
100
AcDbSpline
210
0.0
220
0.0
230
1.0
 70
     8
 71
     3
 72
    12
 73
     8
 74
     0
 42
0.00000001
 43
0.00000001
 12
1.0
 22
0.0
 32
0.0
 13
1.0
 23
0.0
 33
0.0
 40
0.0
 40
0.0
 40
0.0
 40
0.0
 40
0.1307378122192931
 40
0.3833052561704827
 40
0.6345276968681076
 40
0.8748813137125464
 40
0.9999999999999999
 40
0.9999999999999999
 40
0.9999999999999999
 40
0.9999999999999999
 10
197.5088684694638
 20
760.8304902072578
 30
0.0
 10
197.5673733703416
 20
760.8049375569043
 30
0.0
 10
197.7389016806101
 20
760.7300207059697
 30
0.0
 10
197.9714128035914
 20
760.5043152028733
 30
0.0
 10
198.1275394320321
 20
760.1494480415461
 30
0.0
 10
198.1415941465247
 20
759.8140452610776
 30
0.0
 10
198.0855738485548
 20
759.6273124556266
 30
0.0
 10
198.0663954155316
 20
759.5633848663001
 30
0.0
  0
LINE
  5
2F7
330
1F
100
AcDbEntity
  8
0
  6
Continuous
 62
     7
370
    15
100
AcDbLine
 10
198.0663954155
 20
759.5633848663
 30
0.0
 11
197.040331258
 21
756.7443086858
 31
0.0
  0
ARC
  5
2F8
330
1F
100
AcDbEntity
  8
0
  6
Continuous
 62
     7
370
    15
100
AcDbCircle
 10
197.9800266435
 20
756.4022938367
 30
0.0
 40
1.000000000000058
100
AcDbArc
 50
160.0
 51
250.0
  0
LINE
  5
2F9
330
1F
100
AcDbEntity
  8
0
  6
Continuous
 62
     7
370
    15
100
AcDbLine
 10
210.9730250077
 20
751.6732349153
 30
0.0
 11
213.4600101845
 21
758.5061623808
 31
0.0
  0
ARC
  5
2FA
330
1F
100
AcDbEntity
  8
0
  6
Continuous
 62
     7
370
    15
100
AcDbCircle
 10
210.0333305641
 20
752.0152499851
 30
0.0
 40
1.000000000000077
100
AcDbArc
 50
250.0
 51
340.0
  0
ARC
  5
2FB
330
1F
100
AcDbEntity
  8
0
  6
Continuous
 62
     7
370
    15
100
AcDbCircle
 10
180.3005328915
 20
762.8371033193
 30
0.0
 40
1.000000000000077
100
AcDbArc
 50
160.0
 51
250.0
  0
LINE
  5
2FC
330
1F
100
AcDbEntity
  8
0
  6
Continuous
 62
     7
370
    15
100
AcDbLine
 10
181.8478225605
 20
770.0120641943
 30
0.0
 11
179.360841109
 21
763.1791218277
 31
0.0
  0
SPLINE
  5
2FD
330
1F
100
AcDbEntity
  8
0
  6
Continuous
 62
     7
370
    15
100
AcDbSpline
210
0.0
220
0.0
230
1.0
 70
     8
 71
     3
 72
    12
 73
     8
 74
     0
 42
0.00000001
 43
0.00000001
 12
1.0
 22
0.0
 32
0.0
 13
1.0
 23
0.0
 33
0.0
 40
0.0
 40
0.0
 40
0.0
 40
0.0
 40
0.1305444391930317
 40
0.3548749953392359
 40
0.5855422608075239
 40
0.8241690182229001
 40
1.0
 40
1.0
 40
1.0
 40
1.0
 10
194.3195878403058
 20
760.9271242375999
 30
0.0
 10
194.347302491071
 20
760.9910775619059
 30
0.0
 10
194.4226426328797
 20
761.164929744391
 30
0.0
 10
194.6360380785675
 20
761.4004561105596
 30
0.0
 10
194.9544118012705
 20
761.5708020971877
 30
0.0
 10
195.282096169013
 20
761.6155096011701
 30
0.0
 10
195.4780344913906
 20
761.5620696143504
 30
0.0
 10
195.5611600415578
 20
761.5393980498939
 30
0.0
  0
LINE
  5
2FE
330
1F
100
AcDbEntity
  8
0
  6
Continuous
 62
     7
370
    15
100
AcDbLine
 10
193.2935311334
 20
758.108033156
 30
0.0
 11
194.3195878403
 21
760.9271242376
 31
0.0
  0
ARC
  5
2FF
330
1F
100
AcDbEntity
  8
0
  6
Continuous
 62
     7
370
    15
100
AcDbCircle
 10
192.353836812
 20
758.4500594677
 30
0.0
 40
0.99999999999999
100
AcDbArc
 50
250.0
 51
340.0
  0
ARC
  5
300
330
1F
100
AcDbEntity
  8
0
  6
Continuous
 62
     7
370
    15
100
AcDbCircle
 10
175.7021517827
 20
1066.0719499457
 30
0.0
 40
74.65747058948182
100
AcDbArc
 50
134.722960337
 51
138.4094217742
  0
ARC
  5
301
330
1F
100
AcDbEntity
  8
0
  6
Continuous
 62
     7
370
    15
100
AcDbCircle
 10
177.3318389697
 20
1067.9816202354
 30
0.0
 40
74.48941556397904
100
AcDbArc
 50
132.9560926047
 51
136.6475934248
  0
LWPOLYLINE
  5
302
330
1F
100
AcDbEntity
  8
0
  6
Continuous
 62
     7
370
    15
100
AcDbPolyline
 90
       12
 70
   128
 43
0.0
 10
417.1757294671
 20
1114.8102863784
 10
418.0127574937
 20
1113.9725132938
 10
418.9797087448
 20
1113.0046828743
 10
420.0244589584
 20
1111.9589938875
 10
421.0906966464
 20
1110.8918174263
 10
422.1209182279
 20
1109.8606719728
 10
423.0596019761
 20
1108.9211537595
 10
423.8561286466
 20
1108.1239118333
 10
424.4675679939
 20
1107.5119211431
 10
424.8609437482
 20
1107.1181877609
 10
425.0150813596
 20
1106.9639160391
 10
425.0169589059
 20
1106.9620384927
  0
LWPOLYLINE
  5
303
330
1F
100
AcDbEntity
  8
0
  6
Continuous
 62
     7
370
    15
100
AcDbPolyline
 90
        5
 70
   128
 43
0.0
 10
415.8286793964
 20
1116.1585434433
 10
415.8463521736
 20
1116.1408557649
 10
416.062523319
 20
1115.9244909044
 10
416.5137602823
 20
1115.4728516098
 10
417.1757294671
 20
1114.8102863784
  0
LWPOLYLINE
  5
304
330
1F
100
AcDbEntity
  8
0
  6
Continuous
 62
     7
370
    15
100
AcDbPolyline
 90
       12
 70
   128
 43
0.0
 10
413.7425466316
 20
1111.8797346111
 10
414.609049155
 20
1111.0124572273
 10
415.6074418561
 20
1110.0131704565
 10
416.6876717346
 20
1108.9319720026
 10
417.7955730693
 20
1107.8230871912
 10
418.8755794303
 20
1106.7421122547
 10
419.8735399978
 20
1105.7432576175
 10
420.7394166725
 20
1104.8765911813
 10
421.4297874706
 20
1104.1856094356
 10
421.9100369947
 20
1103.7049277778
 10
422.1560849683
 20
1103.4586562868
 10
422.1869452731
 20
1103.4277661796
  0
LWPOLYLINE
  5
305
330
1F
100
AcDbEntity
  8
0
  6
Continuous
 62
     7
370
    15
100
AcDbPolyline
 90
        5
 70
   128
 43
0.0
 10
412.291888787
 20
1113.3316888567
 10
412.3232408302
 20
1113.3003070112
 10
412.5702573793
 20
1113.0530669447
 10
413.0514009731
 20
1112.5714912172
 10
413.7425466316
 20
1111.8797346111
  0
LWPOLYLINE
  5
306
330
1F
100
AcDbEntity
  8
0
  6
Continuous
 62
     7
370
    15
100
AcDbPolyline
 90
       15
 70
   128
 43
0.0
 10
122.0526738899
 20
804.0772064682
 10
121.9573362605
 20
804.1726335045
 10
121.6213597791
 20
804.5089080091
 10
121.0609718101
 20
805.0698026176
 10
120.3063621061
 20
805.8250828739
 10
119.3982406394
 20
806.7340239044
 10
118.3855279224
 20
807.7476306911
 10
117.3228516118
 20
808.811260676
 10
116.2674917714
 20
809.8675592895
 10
115.2763410346
 20
810.859604096
 10
114.4028349655
 20
811.7338999267
 10
113.6940612333
 20
812.4433144088
 10
113.1882264154
 20
812.9495962616
 10
112.9125996368
 20
813.2254614587
 10
112.8643943803
 20
813.2737114187
  0
LWPOLYLINE
  5
307
330
1F
100
AcDbEntity
  8
0
  6
Continuous
 62
     7
370
    15
100
AcDbPolyline
 90
       16
 70
   128
 43
0.0
 10
125.5894644992
 20
806.9040610548
 10
125.5581124561
 20
806.9354429002
 10
125.311095907
 20
807.1826829668
 10
124.8299523132
 20
807.6642586942
 10
124.1388066547
 20
808.3560153003
 10
123.2723041313
 20
809.2232926841
 10
122.2739114301
 20
810.222579455
 10
121.1936815517
 20
811.3037779089
 10
120.0857802169
 20
812.4126627203
 10
119.0057738559
 20
813.4936376568
 10
118.0078132884
 20
814.4924922939
 10
117.1419366138
 20
815.3591587301
 10
116.4515658157
 20
816.0501404758
 10
115.9713162916
 20
816.5308221336
 10
115.7252683179
 20
816.7770936247
 10
115.6944080131
 20
816.8079837318
  0
LINE
  5
308
330
1F
100
AcDbEntity
  8
0
  6
Continuous
 62
     7
370
    15
100
AcDbLine
 10
200.5953236358
 20
755.4503961559
 30
0.0
 11
210.7331498401
 21
751.7605408188
 31
0.0
  0
LINE
  5
309
330
1F
100
AcDbEntity
  8
0
  6
Continuous
 62
     7
370
    15
100
AcDbLine
 10
209.6913090782
 20
751.075564241
 30
0.0
 11
199.5534865992
 21
754.7654195781
 31
0.0
  0
ARC
  5
30A
330
1F
100
AcDbEntity
  8
0
  6
Continuous
 62
     7
370
    15
100
AcDbCircle
 10
199.7169236215
 20
755.6516307833
 30
0.0
 40
0.9011559023633864
100
AcDbArc
 50
259.5507949841
 51
347.0966429213
  0
ARC
  5
30B
330
1F
100
AcDbEntity
  8
0
  6
Continuous
 62
     7
370
    15
100
AcDbCircle
 10
209.8547775877
 20
751.9617323318
 30
0.0
 40
0.9011192144975924
100
AcDbArc
 50
259.5483289616
 51
347.0989208546
  0
LWPOLYLINE
  5
30C
330
1F
100
AcDbEntity
  8
0
  6
Continuous
 62
     7
370
    15
100
AcDbPolyline
 90
        9
 70
   128
 43
0.0
 10
200.5953236358
 20
755.4503961559
 10
200.5074812906
 20
755.4823740478
 10
200.4091708796
 20
755.5181517358
 10
200.3020687835
 20
755.5571331735
 10
200.1880078452
 20
755.5986478086
 10
200.0689475672
 20
755.6419952865
 10
199.9469145076
 20
755.6864007469
 10
199.8240097301
 20
755.7311340328
 10
199.7023193972
 20
755.775435185
  0
ARC
  5
30D
330
1F
100
AcDbEntity
  8
0
  6
Continuous
 62
     7
370
    15
100
AcDbCircle
 10
200.9080952101
 20
755.0817821888
 30
0.0
 40
1.391060670939941
100
AcDbArc
 50
150.0892469991
 51
193.1455449494
  0
LINE
  5
30E
330
1F
100
AcDbEntity
  8
0
  6
Continuous
 62
     7
370
    15
100
AcDbLine
 10
197.786842181
 20
756.4726009126
 30
0.0
 11
199.7023193972
 21
755.775435185
 31
0.0
  0
LINE
  5
30F
330
1F
100
AcDbEntity
  8
0
  6
Continuous
 62
     7
370
    15
100
AcDbLine
 10
198.8128988879
 20
759.2916919943
 30
0.0
 11
197.786842181
 21
756.4726009126
 31
0.0
  0
ARC
  5
310
330
1F
100
AcDbEntity
  8
0
  6
Continuous
 62
     7
370
    15
100
AcDbCircle
 10
196.960581954
 20
759.9883590427
 30
0.0
 40
1.978995452246158
100
AcDbArc
 50
339.3884310726
 51
69.3744409907
  0
LINE
  5
311
330
1F
100
AcDbEntity
  8
0
  6
Continuous
 62
     7
370
    15
100
AcDbLine
 10
190.3007372157
 20
764.5182146783
 30
0.0
 11
197.6577012675
 21
761.8405058141
 31
0.0
  0
ARC
  5
312
330
1F
100
AcDbEntity
  8
0
  6
Continuous
 62
     7
370
    15
100
AcDbCircle
 10
189.6442177121
 20
762.651311797
 30
0.0
 40
1.978975549853226
100
AcDbArc
 50
70.6251451076
 51
160.6121322192
  0
LINE
  5
313
330
1F
100
AcDbEntity
  8
0
  6
Continuous
 62
     7
370
    15
100
AcDbLine
 10
186.7513998287
 20
760.4891791101
 30
0.0
 11
187.7774639861
 21
763.3082552906
 31
0.0
  0
LINE
  5
314
330
1F
100
AcDbEntity
  8
0
  6
Continuous
 62
     7
370
    15
100
AcDbLine
 10
184.8359226124
 20
761.1863597389
 30
0.0
 11
186.7513998287
 21
760.4891791101
 31
0.0
  0
ARC
  5
315
330
1F
100
AcDbEntity
  8
0
  6
Continuous
 62
     7
370
    15
100
AcDbCircle
 10
198.9924107699
 20
755.7789831201
 30
0.0
 40
1.390863496068837
100
AcDbArc
 50
150.0862473206
 51
193.148300795
  0
LINE
  5
316
330
1F
100
AcDbEntity
  8
0
  6
Continuous
 62
     7
370
    15
100
AcDbLine
 10
199.5534865992
 20
754.7654195781
 30
0.0
 11
197.638009383
 21
755.4626002069
 31
0.0
  0
ARC
  5
317
330
1F
100
AcDbEntity
  8
0
  6
Continuous
 62
     7
370
    15
100
AcDbCircle
 10
198.8633581615
 20
761.1468703414
 30
0.0
 40
1.390948854232109
100
AcDbArc
 50
150.0874300456
 51
193.1473619028
  0
ARC
  5
318
330
1F
100
AcDbEntity
  8
0
  6
Continuous
 62
     7
370
    15
100
AcDbCircle
 10
191.506488826
 20
763.824569916
 30
0.0
 40
1.391035586185528
100
AcDbArc
 50
150.0890438729
 51
193.1455042427
  0
LINE
  5
319
330
1F
100
AcDbEntity
  8
0
  6
Continuous
 62
     7
370
    15
100
AcDbLine
 10
197.5088684695
 20
760.8304902073
 30
0.0
 11
190.1519044177
 21
763.5082139726
 31
0.0
  0
ARC
  5
31A
330
1F
100
AcDbEntity
  8
0
  6
Continuous
 62
     7
370
    15
100
AcDbCircle
 10
189.8236608549
 20
762.5747328166
 30
0.0
 40
0.9895104370924077
100
AcDbArc
 50
70.6266002256
 51
160.6112273053
  0
LWPOLYLINE
  5
31B
330
1F
100
AcDbEntity
  8
0
  6
Continuous
 62
     7
370
    15
100
AcDbPolyline
 90
        9
 70
   128
 43
0.0
 10
187.7774639861
 20
763.3082552906
 10
187.9605843561
 20
763.2416023966
 10
188.1440921562
 20
763.1748153921
 10
188.3209316866
 20
763.1104572769
 10
188.4843154685
 20
763.0509867426
 10
188.6279552119
 20
762.9986985679
 10
188.746337487
 20
762.9556193109
 10
188.8349099891
 20
762.9233731981
 10
188.8902678029
 20
762.9032268282
  0
LINE
  5
31C
330
1F
100
AcDbEntity
  8
0
  6
Continuous
 62
     7
370
    15
100
AcDbLine
 10
188.8902678029
 20
762.9032268282
 30
0.0
 11
187.864211096
 21
760.0841506477
 31
0.0
  0
LWPOLYLINE
  5
31D
330
1F
100
AcDbEntity
  8
0
  6
Continuous
 62
     7
370
    15
100
AcDbPolyline
 90
        9
 70
   128
 43
0.0
 10
186.7513998287
 20
760.4891791101
 10
186.9345201986
 20
760.4225262161
 10
187.1180279987
 20
760.3557392116
 10
187.2948749797
 20
760.2913661953
 10
187.4582513111
 20
760.2319105621
 10
187.6018910544
 20
760.1796223875
 10
187.7202733295
 20
760.1365431305
 10
187.8088458316
 20
760.1042970176
 10
187.864211096
 20
760.0841506477
  0
ARC
  5
31E
330
1F
100
AcDbEntity
  8
0
  6
Continuous
 62
     7
370
    15
100
AcDbCircle
 10
186.9308344514
 20
760.4126293923
 30
0.0
 40
0.9894898920265671
100
AcDbArc
 50
250.6247174961
 51
340.611745793
  0
ARC
  5
31F
330
1F
100
AcDbEntity
  8
0
  6
Continuous
 62
     7
370
    15
100
AcDbCircle
 10
187.9571514389
 20
759.7955343477
 30
0.0
 40
1.391035586185528
100
AcDbArc
 50
150.0890438729
 51
193.1455042427
  0
LINE
  5
320
330
1F
100
AcDbEntity
  8
0
  6
Continuous
 62
     7
370
    15
100
AcDbLine
 10
186.6025670307
 20
759.4791784044
 30
0.0
 11
184.6870898144
 21
760.176344132
 31
0.0
  0
ARC
  5
321
330
1F
100
AcDbEntity
  8
0
  6
Continuous
 62
     7
370
    15
100
AcDbCircle
 10
186.0415490277
 20
760.4927287574
 30
0.0
 40
1.390920196046372
100
AcDbArc
 50
150.0869643168
 51
193.1478276315
  0
LWPOLYLINE
  5
322
330
1F
100
AcDbEntity
  8
0
  6
Continuous
 62
     7
370
    15
100
AcDbPolyline
 90
        9
 70
   128
 43
0.0
 10
184.8359226124
 20
761.1863597389
 10
184.7175403373
 20
761.2294389959
 10
184.6044852273
 20
761.2705960031
 10
184.498701884
 20
761.3091006036
 10
184.4019933479
 20
761.3442971464
 10
184.3160136478
 20
761.3755895849
 10
184.2422305481
 20
761.4024414774
 10
184.1819180982
 20
761.4243908878
 10
184.1360970275
 20
761.4410652872
  0
ARC
  5
323
330
1F
100
AcDbEntity
  8
0
  6
Continuous
 62
     7
370
    15
100
AcDbCircle
 10
185.0447912593
 20
761.084565867
 30
0.0
 40
0.9761234776153177
100
AcDbArc
 50
158.578902483
 51
248.5030916754
  0
LINE
  5
324
330
1F
100
AcDbEntity
  8
0
  6
Continuous
 62
     7
370
    15
100
AcDbLine
 10
189.4041939514
 20
762.7161725517
 30
0.0
 11
188.8902678029
 21
762.9032268282
 31
0.0
  0
ELLIPSE
  5
325
330
1F
100
AcDbEntity
  8
0
  6
Continuous
 62
     7
370
    15
100
AcDbEllipse
 10
190.375579943
 20
762.3626194012
 30
0.0
 11
0.9713843609760319
 21
-0.353554993426883
 31
0.0
210
0.0
220
0.0
230
1.0
 40
0.967374665
 41
1.570796326794871
 42
3.141592653589599
  0
LINE
  5
326
330
1F
100
AcDbEntity
  8
0
  6
Continuous
 62
     7
370
    15
100
AcDbLine
 10
187.864211096
 20
760.0841506477
 30
0.0
 11
188.3781372445
 21
759.8970963712
 31
0.0
  0
LINE
  5
327
330
1F
100
AcDbEntity
  8
0
  6
Continuous
 62
     7
370
    15
100
AcDbLine
 10
189.4041939514
 20
762.7161725517
 30
0.0
 11
188.3781372445
 21
759.8970963712
 31
0.0
  0
LINE
  5
328
330
1F
100
AcDbEntity
  8
0
  6
Continuous
 62
     7
370
    15
100
AcDbLine
 10
187.0647339957
 20
759.3109591957
 30
0.0
 11
186.6025670307
 21
759.4791784044
 31
0.0
  0
ELLIPSE
  5
329
330
1F
100
AcDbEntity
  8
0
  6
Continuous
 62
     7
370
    15
100
AcDbEllipse
 10
187.406750791
 20
760.2506515257
 30
0.0
 11
0.9713843609760886
 21
-0.3535549934271103
 31
0.0
210
0.0
220
0.0
230
1.0
 40
0.967374665
 41
4.712388980384859
 42
6.283185307179586
  0
LINE
  5
32A
330
1F
100
AcDbEntity
  8
0
  6
Continuous
 62
     7
370
    15
100
AcDbLine
 10
179.407526447
 20
763.1621345039
 30
0.0
 11
184.1360970275
 21
761.4410652872
 31
0.0
  0
LINE
  5
32B
330
1F
100
AcDbEntity
  8
0
  6
Continuous
 62
     7
370
    15
100
AcDbLine
 10
184.6870898144
 20
760.176344132
 30
0.0
 11
179.9585117833
 21
761.8974133487
 31
0.0
  0
ARC
  5
32C
330
1F
100
AcDbEntity
  8
0
  6
Continuous
 62
     7
370
    15
100
AcDbCircle
 10
180.3161866984
 20
762.8056181726
 30
0.0
 40
0.9760980211582082
100
AcDbArc
 50
158.5772499213
 51
248.5041768571
  0
ELLIPSE
  5
32D
330
1F
100
AcDbEntity
  8
0
  6
Continuous
 62
     7
370
    15
100
AcDbEllipse
 10
194.6534449125
 20
760.8056038861
 30
0.0
 11
0.3420201433256694
 21
0.939692620785877
 31
0.0
210
0.0
220
0.0
230
1.0
 40
0.9235525371
 41
0.0
 42
1.570796326795005
  0
ELLIPSE
  5
32E
330
1F
100
AcDbEntity
  8
0
  6
Continuous
 62
     7
370
    15
100
AcDbEllipse
 10
191.8916734745
 20
758.6182731659
 30
0.0
 11
0.3420201433256694
 21
0.939692620785877
 31
0.0
210
0.0
220
0.0
230
1.0
 40
0.9235525371
 41
3.141592653589837
 42
4.712388980384715
  0
LINE
  5
32F
330
1F
100
AcDbEntity
  8
0
  6
Continuous
 62
     7
370
    15
100
AcDbLine
 10
191.5496556895
 20
757.6785816904
 30
0.0
 11
187.0647339957
 21
759.3109591957
 31
0.0
  0
LINE
  5
330
330
1F
100
AcDbEntity
  8
0
  6
Continuous
 62
     7
370
    15
100
AcDbLine
 10
193.7855898278
 20
761.1214800831
 30
0.0
 11
192.7595256703
 21
758.3024039026
 31
0.0
  0
LINE
  5
331
330
1F
100
AcDbEntity
  8
0
  6
Continuous
 62
     7
370
    15
100
AcDbLine
 10
194.2995159762
 20
760.9344258066
 30
0.0
 11
193.7855898278
 21
761.1214800831
 31
0.0
  0
ARC
  5
332
330
1F
100
AcDbEntity
  8
0
  6
Continuous
 62
     7
370
    15
100
AcDbCircle
 10
195.2328926208
 20
760.6059470619
 30
0.0
 40
0.9894898920265541
100
AcDbArc
 50
70.6247174961
 51
160.611745793
  0
LINE
  5
333
330
1F
100
AcDbEntity
  8
0
  6
Continuous
 62
     7
370
    15
100
AcDbLine
 10
192.7595256703
 20
758.3024039026
 30
0.0
 11
193.2734592693
 21
758.1153496261
 31
0.0
  0
LINE
  5
334
330
1F
100
AcDbEntity
  8
0
  6
Continuous
 62
     7
370
    15
100
AcDbLine
 10
193.2734592693
 20
758.1153496261
 30
0.0
 11
194.2995159762
 21
760.9344258066
 31
0.0
  0
ARC
  5
335
330
1F
100
AcDbEntity
  8
0
  6
Continuous
 62
     7
370
    15
100
AcDbCircle
 10
192.3400674322
 20
758.4438370615
 30
0.0
 40
0.9895071079224073
100
AcDbArc
 50
250.6260005591
 51
340.6115631367
  0
LINE
  5
336
330
1F
100
AcDbEntity
  8
0
  6
Continuous
 62
     7
370
    15
100
AcDbLine
 10
192.0118152039
 20
757.5103624817
 30
0.0
 11
191.5496556895
 21
757.6785816904
 31
0.0
  0
ARC
  5
337
330
1F
100
AcDbEntity
  8
0
  6
Continuous
 62
     7
370
    15
100
AcDbCircle
 10
268.9406766431
 20
960.1178749557
 30
0.0
 40
209.1000000000001
100
AcDbArc
 50
46.8928044472
 51
90.1184927997
  0
ARC
  5
338
330
1F
100
AcDbEntity
  8
0
  6
Continuous
 62
     7
370
    15
100
AcDbCircle
 10
268.9406766431
 20
960.1178749557
 30
0.0
 40
209.1000000000001
100
AcDbArc
 50
226.8928044472
 51
43.0559282402
  0
ARC
  5
339
330
1F
100
AcDbEntity
  8
0
  6
Continuous
 62
     7
370
    15
100
AcDbCircle
 10
268.9406766431
 20
960.1178749557
 30
0.0
 40
209.1000000000002
100
AcDbArc
 50
133.7320670287
 51
223.0559282402
  0
ARC
  5
33A
330
1F
100
AcDbEntity
  8
0
  6
Continuous
 62
     7
370
    15
100
AcDbCircle
 10
268.9406766431
 20
960.1178749557
 30
0.0
 40
209.1
100
AcDbArc
 50
90.1184927997
 51
131.097035741
  0
CIRCLE
  5
33B
330
1F
100
AcDbEntity
  8
0
  6
Continuous
 62
     7
370
    15
100
AcDbCircle
 10
268.9406766431
 20
960.1178749557
 30
0.0
 40
182.4534397611631
  0
CIRCLE
  5
33C
330
1F
100
AcDbEntity
  8
0
  6
Continuous
 62
     7
370
    15
100
AcDbCircle
 10
268.9406766431
 20
960.1178749557
 30
0.0
 40
7.999999999999986
  0
CIRCLE
  5
33D
330
1F
100
AcDbEntity
  8
0
  6
Continuous
 62
     7
370
    15
100
AcDbCircle
 10
268.9406766431
 20
960.1178749557
 30
0.0
 40
195.6266207908973
  0
CIRCLE
  5
33E
330
1F
100
AcDbEntity
  8
0
  6
Continuous
 62
     7
370
    15
100
AcDbCircle
 10
268.9406766431
 20
960.1178749557
 30
0.0
 40
196.5733031249446
  0
CIRCLE
  5
33F
330
1F
100
AcDbEntity
  8
0
  6
Continuous
 62
     7
370
    15
100
AcDbCircle
 10
268.9406766431
 20
960.1178749557
 30
0.0
 40
205.7446644994764
  0
SPLINE
  5
340
330
1F
100
AcDbEntity
  8
0
  6
Continuous
 62
     7
370
    15
100
AcDbSpline
210
0.0
220
0.0
230
1.0
 70
     8
 71
     3
 72
    26
 73
    22
 74
     0
 42
0.00000001
 43
0.00000001
 12
1.0
 22
0.0
 32
0.0
 13
1.0
 23
0.0
 33
0.0
 40
0.0
 40
0.0
 40
0.0
 40
0.0
 40
0.0189498362310501
 40
0.0739868130591264
 40
0.1290258141051779
 40
0.1841660907923504
 40
0.2393088903048468
 40
0.2948812495645611
 40
0.350454105187742
 40
0.4262444601630633
 40
0.4816162734202925
 40
0.5369878979629054
 40
0.5923371430923245
 40
0.6476871561426286
 40
0.7030659198672043
 40
0.7584441953365431
 40
0.8140108930185945
 40
0.8695751640837274
 40
0.9250169605466364
 40
0.9804564580360485
 40
0.9999999999999999
 40
0.9999999999999999
 40
0.9999999999999999
 40
0.9999999999999999
 10
64.33479924367566
 20
985.7908844109205
 30
0.0
 10
64.33957548555288
 20
985.760311606859
 30
0.0
 10
64.3582236105597
 20
985.6409446471013
 30
0.0
 10
64.33109276338081
 20
984.9625687783783
 30
0.0
 10
64.22350092802692
 20
983.4586740686394
 30
0.0
 10
64.04932781110284
 20
981.2792369605063
 30
0.0
 10
63.83824084487861
 20
978.5195117498257
 30
0.0
 10
63.61638853901189
 20
975.2272524462716
 30
0.0
 10
63.38790979378564
 20
971.0628385536144
 30
0.0
 10
63.21925505833498
 20
966.4642648900382
 30
0.0
 10
63.14588930130532
 20
961.666993871888
 30
0.0
 10
63.15515413479936
 20
957.3521503805827
 30
0.0
 10
63.24346660450774
 20
953.1207575565685
 30
0.0
 10
63.39412215161863
 20
949.0840379996812
 30
0.0
 10
63.59262278556469
 20
945.3649586786053
 30
0.0
 10
63.81112589914844
 20
942.0485830785049
 30
0.0
 10
64.02177045013613
 20
939.250604976043
 30
0.0
 10
64.19745755958905
 20
937.0283861377501
 30
0.0
 10
64.30685759727436
 20
935.4910537998071
 30
0.0
 10
64.33579734113354
 20
934.7882848418726
 30
0.0
 10
64.31712145930446
 20
934.6646578159853
 30
0.0
 10
64.3122537867894
 20
934.6324357296852
 30
0.0
  0
ARC
  5
341
330
1F
100
AcDbEntity
  8
0
  6
Continuous
 62
     7
370
    15
100
AcDbCircle
 10
268.9406766431
 20
960.1178749557
 30
0.0
 40
206.215646619651
100
AcDbArc
 50
171.4271705737
 51
172.8418943313
  0
LWPOLYLINE
  5
342
330
1F
100
AcDbEntity
  8
0
  6
Continuous
 62
     7
370
    15
100
AcDbPolyline
 90
        4
 70
   128
 43
0.0
 10
64.5415230529
 20
990.8575772401
 10
64.5768239038
 20
990.8575865533
 10
64.7180273073
 20
990.8576238062
 10
65.0290443437
 20
990.8577076252
  0
ARC
  5
343
330
1F
100
AcDbEntity
  8
0
  6
Continuous
 62
     7
370
    15
100
AcDbCircle
 10
268.9406766431
 20
960.1178749557
 30
0.0
 40
206.6977029859156
100
AcDbArc
 50
188.5013822323
 51
171.4473504552
  0
LWPOLYLINE
  5
344
330
1F
100
AcDbEntity
  8
0
  6
Continuous
 62
     7
370
    15
100
AcDbPolyline
 90
        4
 70
   128
 43
0.0
 10
65.0016113059
 20
929.5605107303
 10
64.9663104551
 20
929.5605517085
 10
64.8251219528
 20
929.5607156213
 10
64.5141049163
 20
929.5610769745
  0
ARC
  5
345
330
1F
100
AcDbEntity
  8
0
  6
Continuous
 62
     7
370
    15
100
AcDbCircle
 10
268.9406766431
 20
960.1178749557
 30
0.0
 40
206.215646619651
100
AcDbArc
 50
187.1068383561
 51
188.5215621137
  0
ARC
  5
346
330
1F
100
AcDbEntity
  8
0
  6
Continuous
 62
     7
370
    15
100
AcDbCircle
 10
65.530494535
 20
990.7088839779
 30
0.0
 40
1.000087135470537
100
AcDbArc
 50
171.4495438474
 51
230.36982864
  0
ARC
  5
347
330
1F
100
AcDbEntity
  8
0
  6
Continuous
 62
     7
370
    15
100
AcDbCircle
 10
65.5032028618
 20
929.7088891695
 30
0.0
 40
1.000081592018319
100
AcDbArc
 50
129.5788957822
 51
188.4994626586
  0
SPLINE
  5
348
330
1F
100
AcDbEntity
  8
0
  6
Continuous
 62
     7
370
    15
100
AcDbSpline
210
0.0
220
0.0
230
1.0
 70
     8
 71
     3
 72
    10
 73
     6
 74
     0
 42
0.00000001
 43
0.00000001
 12
1.0
 22
0.0
 32
0.0
 13
1.0
 23
0.0
 33
0.0
 40
0.0
 40
0.0
 40
0.0
 40
0.0
 40
0.4394411653609924
 40
0.8752557828304477
 40
1.0
 40
1.0
 40
1.0
 40
1.0
 10
64.23896987603806
 20
990.8140099700121
 30
0.0
 10
64.31241437966622
 20
990.8245713118405
 30
0.0
 10
64.45869727618286
 20
990.8456068365896
 30
0.0
 10
64.53273794818246
 20
990.8563079755596
 30
0.0
 10
64.53992391949795
 20
990.8573461986103
 30
0.0
 10
64.54152305291794
 20
990.8575772400526
 30
0.0
  0
SPLINE
  5
349
330
1F
100
AcDbEntity
  8
0
  6
Continuous
 62
     7
370
    15
100
AcDbSpline
210
0.0
220
0.0
230
1.0
 70
     8
 71
     3
 72
    10
 73
     6
 74
     0
 42
0.00000001
 43
0.00000001
 12
1.0
 22
0.0
 32
0.0
 13
1.0
 23
0.0
 33
0.0
 40
0.0
 40
0.0
 40
0.0
 40
0.0
 40
0.4325748230683729
 40
0.8681428448653682
 40
1.0
 40
1.0
 40
1.0
 40
1.0
 10
64.51410491632126
 20
929.5610769744543
 30
0.0
 10
64.50072754808554
 20
929.5630222927595
 30
0.0
 10
64.47388024699993
 20
929.5669263899871
 30
0.0
 10
64.3358826114977
 20
929.5869426039685
 30
0.0
 10
64.23501983654644
 20
929.6015270788737
 30
0.0
 10
64.21158154176374
 20
929.6049161906866
 30
0.0
  0
ARC
  5
34A
330
1F
100
AcDbEntity
  8
0
  6
Continuous
 62
     7
370
    15
100
AcDbCircle
 10
268.9406766431
 20
960.1178749557
 30
0.0
 40
206.9904438998855
100
AcDbArc
 50
188.4770010066
 51
171.4717316809
  0
LINE
  5
34B
330
1F
100
AcDbEntity
  8
0
  6
Continuous
 62
     7
370
    15
100
AcDbLine
 10
62.7944662111
 20
990.8139354642
 30
0.0
 11
64.238969876
 21
990.81400997
 31
0.0
  0
ARC
  5
34C
330
1F
100
AcDbEntity
  8
0
  6
Continuous
 62
     7
370
    15
100
AcDbCircle
 10
63.6986619257
 20
990.6130170971
 30
0.0
 40
0.9262494699942887
100
AcDbArc
 50
167.4720385171
 51
257.1979276465
  0
LINE
  5
34D
330
1F
100
AcDbEntity
  8
0
  6
Continuous
 62
     7
370
    15
100
AcDbLine
 10
64.9378045337
 20
989.7091466095
 30
0.0
 11
63.493420078
 21
989.7097929474
 31
0.0
  0
LINE
  5
34E
330
1F
100
AcDbEntity
  8
0
  6
Continuous
 62
     7
370
    15
100
AcDbLine
 10
64.2115815418
 20
929.6049161907
 30
0.0
 11
62.767092778
 21
929.6062815096
 31
0.0
  0
ARC
  5
34F
330
1F
100
AcDbEntity
  8
0
  6
Continuous
 62
     7
370
    15
100
AcDbCircle
 10
63.6714398167
 20
929.8064108651
 30
0.0
 40
0.9262263899414317
100
AcDbArc
 50
102.74961354
 51
192.4782853031
  0
LINE
  5
350
330
1F
100
AcDbEntity
  8
0
  6
Continuous
 62
     7
370
    15
100
AcDbLine
 10
63.4670301216
 20
930.7098000403
 30
0.0
 11
64.9114145772
 21
930.7091537024
 31
0.0
  0
ARC
  5
351
330
1F
100
AcDbEntity
  8
0
  6
Continuous
 62
     7
370
    15
100
AcDbCircle
 10
268.9406766431
 20
960.1178749557
 30
0.0
 40
208.4190645317549
100
AcDbArc
 50
188.4180922074
 51
171.5306404801
  0
ARC
  5
352
330
1F
100
AcDbEntity
  8
0
  6
Continuous
 62
     7
370
    15
100
AcDbCircle
 10
268.9406766431
 20
960.1178749557
 30
0.0
 40
208.7118054457248
100
AcDbArc
 50
188.4180922074
 51
224.3282933274
  0
LWPOLYLINE
  5
353
330
1F
100
AcDbEntity
  8
0
  6
Continuous
 62
     7
370
    15
100
AcDbPolyline
 90
        9
 70
   128
 43
0.0
 10
62.767092778
 20
929.6062815096
 10
62.7032711046
 20
929.5968378987
 10
62.6464678781
 20
929.5884317811
 10
62.5972195403
 20
929.5811451133
 10
62.5559880273
 20
929.5750412251
 10
62.5231309669
 20
929.5701797213
 10
62.4989612834
 20
929.5666034426
 10
62.4837024944
 20
929.564344054
 10
62.4775036113
 20
929.56342577
  0
LWPOLYLINE
  5
354
330
1F
100
AcDbEntity
  8
0
  6
Continuous
 62
     7
370
    15
100
AcDbPolyline
 90
        9
 70
   128
 43
0.0
 10
62.5049217479
 20
990.8570519741
 10
62.5111355321
 20
990.8561262395
 10
62.52637942
 20
990.853855675
 10
62.5505491035
 20
990.8502570446
 10
62.5834061639
 20
990.8453657385
 10
62.6246376769
 20
990.83922646
 10
62.6738711135
 20
990.8318950887
 10
62.7306594388
 20
990.8234386798
 10
62.7944662111
 20
990.8139354642
  0
ARC
  5
355
330
1F
100
AcDbEntity
  8
0
  6
Continuous
 62
     7
370
    15
100
AcDbCircle
 10
268.9406766431
 20
960.1178749557
 30
0.0
 40
208.7118054457249
100
AcDbArc
 50
45.6204393601
 51
171.5306404801
  0
SPLINE
  5
356
330
1F
100
AcDbEntity
  8
0
  6
Continuous
 62
     7
370
    15
100
AcDbSpline
210
0.0
220
0.0
230
1.0
 70
     8
 71
     3
 72
    10
 73
     6
 74
     0
 42
0.00000001
 43
0.00000001
 12
1.0
 22
0.0
 32
0.0
 13
1.0
 23
0.0
 33
0.0
 40
0.0
 40
0.0
 40
0.0
 40
0.0
 40
0.4223758223400197
 40
0.845037089391888
 40
1.0
 40
1.0
 40
1.0
 40
1.0
 10
418.2422055737843
 20
1105.959130739751
 30
0.0
 10
417.7522290336391
 20
1106.395577182046
 30
0.0
 10
416.7719448235705
 20
1107.268765020376
 30
0.0
 10
415.6823592084439
 20
1108.481762010368
 30
0.0
 10
415.0776940107505
 20
1109.118120085338
 30
0.0
 10
414.9154766337742
 20
1109.288839912
 30
0.0
  0
ARC
  5
357
330
1F
100
AcDbEntity
  8
0
  6
Continuous
 62
     7
370
    15
100
AcDbCircle
 10
268.9406766431
 20
960.1178749557
 30
0.0
 40
208.7118054457248
100
AcDbArc
 50
225.6204393601
 51
44.3282933274
  0
SPLINE
  5
358
330
1F
100
AcDbEntity
  8
0
  6
Continuous
 62
     7
370
    15
100
AcDbSpline
210
0.0
220
0.0
230
1.0
 70
     8
 71
     3
 72
    10
 73
     6
 74
     0
 42
0.00000001
 43
0.00000001
 12
1.0
 22
0.0
 32
0.0
 13
1.0
 23
0.0
 33
0.0
 40
0.0
 40
0.0
 40
0.0
 40
0.0
 40
0.4223727619403966
 40
0.8450343622422369
 40
1.0
 40
1.0
 40
1.0
 40
1.0
 10
122.9658766524662
 20
810.9469099994329
 30
0.0
 10
122.5298801086905
 20
811.4372811620414
 30
0.0
 10
121.6575888661948
 20
812.4183588261245
 30
0.0
 10
120.4455362571787
 20
813.5089958977442
 30
0.0
 10
119.8097233749264
 20
814.1142435410552
 30
0.0
 10
119.6391477124562
 20
814.2766191716819
 30
0.0
  0
LINE
  5
359
330
1F
100
AcDbEntity
  8
0
  6
Continuous
 62
     7
370
    15
100
AcDbLine
 10
411.6390689151
 20
1112.5837101694
 30
0.0
 11
411.9860424535
 21
1112.9303856846
 31
0.0
  0
LWPOLYLINE
  5
35A
330
1F
100
AcDbEntity
  8
0
  6
Continuous
 62
     7
370
    15
100
AcDbPolyline
 90
       15
 70
   128
 43
0.0
 10
421.8811138408
 20
1103.0264630075
 10
421.757076575
 20
1103.1506194826
 10
421.3911487596
 20
1103.5168602224
 10
420.8017184274
 20
1104.1068120952
 10
420.01831968
 20
1104.8909260984
 10
419.0802319782
 20
1105.8298482652
 10
418.0345131891
 20
1106.8765058275
 10
416.9335855977
 20
1107.9784168955
 10
415.8326580064
 20
1109.0803279634
 10
414.7869243162
 20
1110.1270004268
 10
413.8488515155
 20
1111.0659076925
 10
413.0654378669
 20
1111.8500216957
 10
412.4760075347
 20
1112.4399735685
 10
412.1100946205
 20
1112.8062292095
 10
411.9860424535
 20
1112.9303856846
  0
LINE
  5
35B
330
1F
100
AcDbEntity
  8
0
  6
Continuous
 62
     7
370
    15
100
AcDbLine
 10
421.5341403024
 20
1102.6797874923
 30
0.0
 11
421.8811138408
 21
1103.0264630075
 31
0.0
  0
SPLINE
  5
35C
330
1F
100
AcDbEntity
  8
0
  6
Continuous
 62
     7
370
    15
100
AcDbSpline
210
0.0
220
0.0
230
1.0
 70
     8
 71
     3
 72
    11
 73
     7
 74
     0
 42
0.00000001
 43
0.00000001
 12
1.0
 22
0.0
 32
0.0
 13
1.0
 23
0.0
 33
0.0
 40
0.0
 40
0.0
 40
0.0
 40
0.0
 40
0.2744671566331474
 40
0.548959473689467
 40
0.8234728732438901
 40
1.0
 40
1.0
 40
1.0
 40
1.0
 10
421.5341403024067
 20
1102.679787492338
 30
0.0
 10
421.4718012835651
 20
1102.72652641353
 30
0.0
 10
421.3471175312595
 20
1102.820008540474
 30
0.0
 10
420.4935118713097
 20
1103.674981062766
 30
0.0
 10
419.4024512782443
 20
1104.784110639632
 30
0.0
 10
418.5685685396552
 20
1105.628611916576
 30
0.0
 10
418.2422055737843
 20
1105.959130739751
 30
0.0
  0
SPLINE
  5
35D
330
1F
100
AcDbEntity
  8
0
  6
Continuous
 62
     7
370
    15
100
AcDbSpline
210
0.0
220
0.0
230
1.0
 70
     8
 71
     3
 72
    11
 73
     7
 74
     0
 42
0.00000001
 43
0.00000001
 12
1.0
 22
0.0
 32
0.0
 13
1.0
 23
0.0
 33
0.0
 40
0.0
 40
0.0
 40
0.0
 40
0.0
 40
0.2745414363867231
 40
0.5491520024774442
 40
0.8237292759556896
 40
1.0
 40
1.0
 40
1.0
 40
1.0
 10
414.9154766337742
 20
1109.288839912
 30
0.0
 10
414.4063780705692
 20
1109.791965137908
 30
0.0
 10
413.3880527528253
 20
1110.798342276968
 30
0.0
 10
412.2794577945363
 20
1111.893271041883
 30
0.0
 10
411.7007037728153
 20
1112.483280568414
 30
0.0
 10
411.6563932599639
 20
1112.555481386105
 30
0.0
 10
411.6390689151158
 20
1112.583710169378
 30
0.0
  0
SPLINE
  5
35E
330
1F
100
AcDbEntity
  8
0
  6
Continuous
 62
     7
370
    15
100
AcDbSpline
210
0.0
220
0.0
230
1.0
 70
     8
 71
     3
 72
    11
 73
     7
 74
     0
 42
0.00000001
 43
0.00000001
 12
1.0
 22
0.0
 32
0.0
 13
1.0
 23
0.0
 33
0.0
 40
0.0
 40
0.0
 40
0.0
 40
0.0
 40
0.2744669110970716
 40
0.5489584874245014
 40
0.82347162886969
 40
1.0
 40
1.0
 40
1.0
 40
1.0
 10
126.2422843711247
 20
807.6520397420554
 30
0.0
 10
126.1955947875073
 20
807.7144171053558
 30
0.0
 10
126.1022114244685
 20
807.8391774375575
 30
0.0
 10
125.248020024371
 20
808.693548002793
 30
0.0
 10
124.1398601530394
 20
809.7855996074039
 30
0.0
 10
123.2961050468982
 20
810.6202464083266
 30
0.0
 10
122.9658766524663
 20
810.946909999433
 30
0.0
  0
LINE
  5
35F
330
1F
100
AcDbEntity
  8
0
  6
Continuous
 62
     7
370
    15
100
AcDbLine
 10
126.2422843711
 20
807.6520397421
 30
0.0
 11
125.8953108327
 21
807.3053642269
 31
0.0
  0
LWPOLYLINE
  5
360
330
1F
100
AcDbEntity
  8
0
  6
Continuous
 62
     7
370
    15
100
AcDbPolyline
 90
       15
 70
   128
 43
0.0
 10
125.8953108327
 20
807.3053642269
 10
125.7712586658
 20
807.4295207019
 10
125.4053457515
 20
807.7957763429
 10
124.8159154193
 20
808.3857282158
 10
124.0325017707
 20
809.1698422189
 10
123.0944289701
 20
810.1087494846
 10
122.0486952798
 20
811.155421948
 10
120.9477676885
 20
812.257333016
 10
119.8468400972
 20
813.3592440839
 10
118.8011213081
 20
814.4059016462
 10
117.8630336063
 20
815.344823813
 10
117.0796348588
 20
816.1289378162
 10
116.4902045266
 20
816.718889689
 10
116.1242767112
 20
817.0851304289
 10
116.0002394454
 20
817.2092869039
  0
LINE
  5
361
330
1F
100
AcDbEntity
  8
0
  6
Continuous
 62
     7
370
    15
100
AcDbLine
 10
116.3472129838
 20
817.5559624191
 30
0.0
 11
116.0002394454
 21
817.2092869039
 31
0.0
  0
SPLINE
  5
362
330
1F
100
AcDbEntity
  8
0
  6
Continuous
 62
     7
370
    15
100
AcDbSpline
210
0.0
220
0.0
230
1.0
 70
     8
 71
     3
 72
    11
 73
     7
 74
     0
 42
0.00000001
 43
0.00000001
 12
1.0
 22
0.0
 32
0.0
 13
1.0
 23
0.0
 33
0.0
 40
0.0
 40
0.0
 40
0.0
 40
0.0
 40
0.2745408006877116
 40
0.549151411467531
 40
0.8237290439093851
 40
1.0
 40
1.0
 40
1.0
 40
1.0
 10
119.6391477124562
 20
814.2766191716819
 30
0.0
 10
119.1364791154182
 20
814.7861640248166
 30
0.0
 10
118.1310141030326
 20
815.8053832978865
 30
0.0
 10
117.0371020923327
 20
816.9149747269515
 30
0.0
 10
116.447584338894
 20
817.494229968337
 30
0.0
 10
116.3754253954422
 20
817.5386106426913
 30
0.0
 10
116.3472129838338
 20
817.5559624190955
 30
0.0
  0
ARC
  5
363
330
1F
100
AcDbEntity
  8
0
  6
Continuous
 62
     7
370
    15
100
AcDbCircle
 10
63.4939635054
 20
990.7097443636
 30
0.0
 40
0.9999515639261458
100
AcDbArc
 50
171.5286559354
 51
269.9688623945
  0
ARC
  5
364
330
1F
100
AcDbEntity
  8
0
  6
Continuous
 62
     7
370
    15
100
AcDbCircle
 10
63.4666663812
 20
929.7098574909
 30
0.0
 40
0.9999426155185368
100
AcDbArc
 50
89.9791580193
 51
188.4206825022
  0
LWPOLYLINE
  5
365
330
1F
100
AcDbEntity
  8
0
  6
Continuous
 62
     7
370
    15
100
AcDbPolyline
 90
        4
 70
   128
 43
0.0
 10
62.1062113778
 20
990.8569513913
 10
62.1414973276
 20
990.8569607045
 10
62.2826560275
 20
990.8569960948
 10
62.5049217479
 20
990.8570519741
  0
LINE
  5
366
330
1F
100
AcDbEntity
  8
0
  6
Continuous
 62
     7
370
    15
100
AcDbLine
 10
63.493420078
 20
989.7097929474
 30
0.0
 11
63.0993886726
 21
989.7099698986
 31
0.0
  0
LWPOLYLINE
  5
367
330
1F
100
AcDbEntity
  8
0
  6
Continuous
 62
     7
370
    15
100
AcDbPolyline
 90
        4
 70
   128
 43
0.0
 10
62.4775036113
 20
929.56342577
 10
62.4422027604
 20
929.5634667482
 10
62.3010440605
 20
929.5636287983
 10
62.0787932412
 20
929.563882118
  0
SPLINE
  5
368
330
1F
100
AcDbEntity
  8
0
  6
Continuous
 62
     7
370
    15
100
AcDbSpline
210
0.0
220
0.0
230
1.0
 70
     8
 71
     3
 72
     9
 73
     5
 74
     0
 42
0.00000001
 43
0.00000001
 12
1.0
 22
0.0
 32
0.0
 13
1.0
 23
0.0
 33
0.0
 40
0.0
 40
0.0
 40
0.0
 40
0.0
 40
0.7933508309301522
 40
1.0
 40
1.0
 40
1.0
 40
1.0
 10
62.07879324124951
 20
929.563882118049
 30
0.0
 10
62.06662850214434
 20
929.6785884497534
 30
0.0
 10
62.05129513557955
 20
929.8231730738972
 30
0.0
 10
62.10571027228246
 20
929.9542911385568
 30
0.0
 10
62.11695511506699
 20
929.9813865776686
 30
0.0
  0
LINE
  5
369
330
1F
100
AcDbEntity
  8
0
  6
Continuous
 62
     7
370
    15
100
AcDbLine
 10
63.0729838149
 20
930.709975129
 30
0.0
 11
63.4670301216
 21
930.7098000403
 31
0.0
  0
LWPOLYLINE
  5
36A
330
1F
100
AcDbEntity
  8
0
  6
Continuous
 62
     7
370
    15
100
AcDbPolyline
 90
        4
 70
   128
 43
0.0
 10
124.2624564903
 20
1110.8026935812
 10
124.2390914695
 20
1110.8286663051
 10
124.1456909912
 20
1110.9325273986
 10
124.122102453
 20
1110.9587385412
  0
SPLINE
  5
36B
330
1F
100
AcDbEntity
  8
0
  6
Continuous
 62
     7
370
    15
100
AcDbSpline
210
0.0
220
0.0
230
1.0
 70
     8
 71
     3
 72
    17
 73
    13
 74
     0
 42
0.00000001
 43
0.00000001
 12
1.0
 22
0.0
 32
0.0
 13
1.0
 23
0.0
 33
0.0
 40
0.0
 40
0.0
 40
0.0
 40
0.0
 40
0.0943338878034864
 40
0.20497178783565
 40
0.3157885337205877
 40
0.4267953463329811
 40
0.5378819376817964
 40
0.648916589449192
 40
0.7598193138889294
 40
0.8705522133387
 40
0.9811241007828251
 40
1.0
 40
1.0
 40
1.0
 40
1.0
 10
134.3082531230321
 20
1119.834525799337
 30
0.0
 10
134.2642837772886
 20
1119.78278531381
 30
0.0
 10
134.1687457302849
 20
1119.670361877556
 30
0.0
 10
133.3298546567381
 20
1118.915852076708
 30
0.0
 10
132.045889746936
 20
1117.776574347015
 30
0.0
 10
130.4393414480665
 20
1116.348125888734
 30
0.0
 10
128.7166348254514
 20
1114.801035225315
 30
0.0
 10
127.0681736100018
 20
1113.304897317892
 30
0.0
 10
125.6723398103439
 20
1112.030562038872
 30
0.0
 10
124.6926357002757
 20
1111.144324392721
 30
0.0
 10
124.3203478537636
 20
1110.825874777823
 30
0.0
 10
124.2840901175965
 20
1110.812445174815
 30
0.0
 10
124.278803064095
 20
1110.810486888471
 30
0.0
  0
LWPOLYLINE
  5
36C
330
1F
100
AcDbEntity
  8
0
  6
Continuous
 62
     7
370
    15
100
AcDbPolyline
 90
        4
 70
   128
 43
0.0
 10
134.2068209188
 20
1120.0308933015
 10
134.2301859395
 20
1120.0049354787
 10
134.3236311214
 20
1119.9011041876
 10
134.3472196596
 20
1119.874893045
  0
ARC
  5
36D
330
1F
100
AcDbEntity
  8
0
  6
Continuous
 62
     7
370
    15
100
AcDbCircle
 10
268.9406766431
 20
960.1178749557
 30
0.0
 40
209.106159563878
100
AcDbArc
 50
46.8927479154
 51
130.115631963
  0
ARC
  5
36E
330
1F
100
AcDbEntity
  8
0
  6
Continuous
 62
     7
370
    15
100
AcDbCircle
 10
268.9406766431
 20
960.1178749557
 30
0.0
 40
209.106159563878
100
AcDbArc
 50
133.8331007245
 51
171.5467575558
  0
ARC
  5
36F
330
1F
100
AcDbEntity
  8
0
  6
Continuous
 62
     7
370
    15
100
AcDbCircle
 10
268.9406766431
 20
960.1178749557
 30
0.0
 40
209.1061595638779
100
AcDbArc
 50
226.8927479154
 51
43.0559847721
  0
ARC
  5
370
330
1F
100
AcDbEntity
  8
0
  6
Continuous
 62
     7
370
    15
100
AcDbCircle
 10
268.9406766431
 20
960.1178749557
 30
0.0
 40
209.1061595638778
100
AcDbArc
 50
188.4019751316
 51
223.0559847721
  0
SPLINE
  5
371
330
1F
100
AcDbEntity
  8
0
  6
Continuous
 62
     7
370
    15
100
AcDbSpline
210
0.0
220
0.0
230
1.0
 70
     8
 71
     3
 72
     9
 73
     5
 74
     0
 42
0.00000001
 43
0.00000001
 12
1.0
 22
0.0
 32
0.0
 13
1.0
 23
0.0
 33
0.0
 40
0.0
 40
0.0
 40
0.0
 40
0.0
 40
0.87988854269904
 40
1.0
 40
1.0
 40
1.0
 40
1.0
 10
124.1221024529805
 20
1110.958738541189
 30
0.0
 10
124.2078431900653
 20
1111.036629117749
 30
0.0
 10
124.3052881878395
 20
1111.125152348569
 30
0.0
 10
124.4292962617152
 20
1111.155406124804
 30
0.0
 10
124.4441910521855
 20
1111.159039949956
 30
0.0
  0
LINE
  5
372
330
1F
100
AcDbEntity
  8
0
  6
Continuous
 62
     7
370
    15
100
AcDbLine
 10
291.6617697911
 20
1179.9949987884
 30
0.0
 11
293.0016747551
 21
1167.8117199894
 31
0.0
  0
ARC
  5
373
330
1F
100
AcDbEntity
  8
0
  6
Continuous
 62
     7
370
    15
100
AcDbCircle
 10
292.0516088517
 20
1142.3043865756
 30
0.0
 40
37.69262823772461
100
AcDbArc
 50
90.5925968057
 51
98.1543224773
  0
SPLINE
  5
374
330
1F
100
AcDbEntity
  8
0
  6
Continuous
 62
     7
370
    15
100
AcDbSpline
210
0.0
220
0.0
230
1.0
 70
     8
 71
     3
 72
    12
 73
     8
 74
     0
 42
0.00000001
 43
0.00000001
 12
1.0
 22
0.0
 32
0.0
 13
1.0
 23
0.0
 33
0.0
 40
0.0
 40
0.0
 40
0.0
 40
0.0
 40
0.0317964363885889
 40
0.2738174090004658
 40
0.5158999140440482
 40
0.7579861920952851
 40
1.0
 40
1.0
 40
1.0
 40
1.0
 10
254.1080272631516
 20
1180.063678240362
 30
0.0
 10
254.0977599021088
 20
1180.062841094909
 30
0.0
 10
254.0093417484621
 20
1180.055631953733
 30
0.0
 10
253.8448980776871
 20
1180.007778018977
 30
0.0
 10
253.6507112672148
 20
1179.869230104338
 30
0.0
 10
253.5075413355931
 20
1179.674017146645
 30
0.0
 10
253.4748818585365
 20
1179.519153704126
 30
0.0
 10
253.4585545645823
 20
1179.441733574453
 30
0.0
  0
ARC
  5
375
330
1F
100
AcDbEntity
  8
0
  6
Continuous
 62
     7
370
    15
100
AcDbCircle
 10
268.9406766431
 20
960.1178749557
 30
0.0
 40
220.4453769575804
100
AcDbArc
 50
93.1204526698
 51
93.8580566477
  0
LINE
  5
376
330
1F
100
AcDbEntity
  8
0
  6
Continuous
 62
     7
370
    15
100
AcDbLine
 10
256.9406765388
 20
1180.2363975998
 30
0.0
 11
256.9406765388
 21
1168.8229723926
 31
0.0
  0
LINE
  5
377
330
1F
100
AcDbEntity
  8
0
  6
Continuous
 62
     7
370
    15
100
AcDbLine
 10
280.9406767474
 20
1168.7450691219
 30
0.0
 11
280.9406767474
 21
1180.2363975998
 31
0.0
  0
ARC
  5
378
330
1F
100
AcDbEntity
  8
0
  6
Continuous
 62
     7
370
    15
100
AcDbCircle
 10
268.9406766431
 20
960.1178749557
 30
0.0
 40
220.445376957597
100
AcDbArc
 50
85.3869304564
 51
86.8795473302
  0
LINE
  5
379
330
1F
100
AcDbEntity
  8
0
  6
Continuous
 62
     7
370
    15
100
AcDbLine
 10
286.7052934008
 20
1179.6159281488
 30
0.0
 11
286.6702812599
 21
1179.8491313215
 31
0.0
  0
LINE
  5
37A
330
1F
100
AcDbEntity
  8
0
  6
Continuous
 62
     7
370
    15
100
AcDbLine
 10
244.8724998968
 20
1167.7464529033
 30
0.0
 11
246.2195834951
 21
1179.9949987884
 31
0.0
  0
ARC
  5
37B
330
1F
100
AcDbEntity
  8
0
  6
Continuous
 62
     7
370
    15
100
AcDbCircle
 10
245.6607752296
 20
1125.0491999727
 30
0.0
 40
54.94864033058462
100
AcDbArc
 50
81.8415964441
 51
89.4173121139
  0
LINE
  5
37C
330
1F
100
AcDbEntity
  8
0
  6
Continuous
 62
     7
370
    15
100
AcDbLine
 10
67.1609534757
 20
869.8563560005
 30
0.0
 11
77.1138115661
 21
877.1610691305
 31
0.0
  0
ARC
  5
37D
330
1F
100
AcDbEntity
  8
0
  6
Continuous
 62
     7
370
    15
100
AcDbCircle
 10
99.6059199301
 20
889.0385718544
 30
0.0
 40
37.69128882501557
100
AcDbArc
 50
210.5925630502
 51
218.1545558255
  0
LINE
  5
37E
330
1F
100
AcDbEntity
  8
0
  6
Continuous
 62
     7
370
    15
100
AcDbLine
 10
460.7762588994
 20
877.1546690818
 30
0.0
 11
470.7203998105
 21
869.8563560005
 31
0.0
  0
ARC
  5
37F
330
1F
100
AcDbEntity
  8
0
  6
Continuous
 62
     7
370
    15
100
AcDbCircle
 10
438.2754333562
 20
889.0385718544
 30
0.0
 40
37.69128882501557
100
AcDbArc
 50
321.8454441745
 51
329.4074369498
  0
SPLINE
  5
380
330
1F
100
AcDbEntity
  8
0
  6
Continuous
 62
     7
370
    15
100
AcDbSpline
210
0.0
220
0.0
230
1.0
 70
     8
 71
     3
 72
    12
 73
     8
 74
     0
 42
0.00000001
 43
0.00000001
 12
1.0
 22
0.0
 32
0.0
 13
1.0
 23
0.0
 33
0.0
 40
0.0
 40
0.0
 40
0.0
 40
0.0
 40
0.0317956867794626
 40
0.2737824077515374
 40
0.5158559939008137
 40
0.7579563641959326
 40
1.0
 40
1.0
 40
1.0
 40
1.0
 10
84.03258462117813
 20
836.061178063932
 30
0.0
 10
84.05768874563319
 20
836.0248734761154
 30
0.0
 10
84.27385226760633
 20
835.7122663752286
 30
0.0
 10
84.80369786332633
 20
835.2046081247705
 30
0.0
 10
85.73394376748527
 20
834.7811126176272
 30
0.0
 10
86.76512084239855
 20
834.668261215607
 30
0.0
 10
87.40979607010516
 20
834.8789228620952
 30
0.0
 10
87.73209591077469
 20
834.9842413421302
 30
0.0
  0
ARC
  5
381
330
1F
100
AcDbEntity
  8
0
  6
Continuous
 62
     7
370
    15
100
AcDbCircle
 10
268.9406766431
 20
960.1178749557
 30
0.0
 40
222.6680664093016
100
AcDbArc
 50
213.0892737031
 51
213.8580566477
  0
LINE
  5
382
330
1F
100
AcDbEntity
  8
0
  6
Continuous
 62
     7
370
    15
100
AcDbLine
 10
82.3847099082
 20
838.5533302184
 30
0.0
 11
94.1940142648
 21
845.371438479
 31
0.0
  0
LINE
  5
383
330
1F
100
AcDbEntity
  8
0
  6
Continuous
 62
     7
370
    15
100
AcDbLine
 10
82.2002037303
 20
866.1596163269
 30
0.0
 11
70.3847153919
 21
859.3379392381
 31
0.0
  0
ARC
  5
384
330
1F
100
AcDbEntity
  8
0
  6
Continuous
 62
     7
370
    15
100
AcDbCircle
 10
268.9406766431
 20
960.1178749557
 30
0.0
 40
222.6680664093235
100
AcDbArc
 50
206.1419433523
 51
206.9107262969
  0
SPLINE
  5
385
330
1F
100
AcDbEntity
  8
0
  6
Continuous
 62
     7
370
    15
100
AcDbSpline
210
0.0
220
0.0
230
1.0
 70
     8
 71
     3
 72
    12
 73
     8
 74
     0
 42
0.00000001
 43
0.00000001
 12
1.0
 22
0.0
 32
0.0
 13
1.0
 23
0.0
 33
0.0
 40
0.0
 40
0.0
 40
0.0
 40
0.0
 40
0.0324161242349592
 40
0.2743569539920051
 40
0.5162272276348487
 40
0.7580946739512963
 40
1.0
 40
1.0
 40
1.0
 40
1.0
 10
69.96748287843369
 20
865.7534628267912
 30
0.0
 10
69.93161429084954
 20
865.7263277942781
 30
0.0
 10
69.6280370845726
 20
865.4966678629173
 30
0.0
 10
69.14379497257828
 20
864.9450482973289
 30
0.0
 10
68.7616135119975
 20
863.9980009243508
 30
0.0
 10
68.69360526248849
 20
862.9635834733484
 30
0.0
 10
68.9314462208587
 20
862.3286231632841
 30
0.0
 10
69.05037601159711
 20
862.0111181493429
 30
0.0
  0
LINE
  5
386
330
1F
100
AcDbEntity
  8
0
  6
Continuous
 62
     7
370
    15
100
AcDbLine
 10
467.4966378944
 20
859.3379392381
 30
0.0
 11
455.6821926372
 21
866.1590128298
 31
0.0
  0
LINE
  5
387
330
1F
100
AcDbEntity
  8
0
  6
Continuous
 62
     7
370
    15
100
AcDbLine
 10
443.6099572914
 20
845.4161121603
 30
0.0
 11
455.496643378
 21
838.5533302184
 31
0.0
  0
ARC
  5
388
330
1F
100
AcDbEntity
  8
0
  6
Continuous
 62
     7
370
    15
100
AcDbCircle
 10
268.9406766431
 20
960.1178749557
 30
0.0
 40
222.6680664093017
100
AcDbArc
 50
326.1419433523
 51
326.9107262969
  0
SPLINE
  5
389
330
1F
100
AcDbEntity
  8
0
  6
Continuous
 62
     7
370
    15
100
AcDbSpline
210
0.0
220
0.0
230
1.0
 70
     8
 71
     3
 72
    12
 73
     8
 74
     0
 42
0.00000001
 43
0.00000001
 12
1.0
 22
0.0
 32
0.0
 13
1.0
 23
0.0
 33
0.0
 40
0.0
 40
0.0
 40
0.0
 40
0.0
 40
0.0324140069266394
 40
0.2743569868531746
 40
0.5162276064804782
 40
0.758093407512448
 40
1.0
 40
1.0
 40
1.0
 40
1.0
 10
450.1492573754658
 20
834.9842413421302
 30
0.0
 10
450.190688191197
 20
834.9667461678051
 30
0.0
 10
450.5413647919823
 20
834.8186644041663
 30
0.0
 10
451.2612042954775
 20
834.6751067928316
 30
0.0
 10
452.2724587420514
 20
834.8176670338313
 30
0.0
 10
453.2022920932149
 20
835.2759756299541
 30
0.0
 10
453.6332643613217
 20
835.7994292068214
 30
0.0
 10
453.8487686650624
 20
836.061178063932
 30
0.0
  0
SPLINE
  5
38A
330
1F
100
AcDbEntity
  8
0
  6
Continuous
 62
     7
370
    15
100
AcDbSpline
210
0.0
220
0.0
230
1.0
 70
     8
 71
     3
 72
    12
 73
     8
 74
     0
 42
0.00000001
 43
0.00000001
 12
1.0
 22
0.0
 32
0.0
 13
1.0
 23
0.0
 33
0.0
 40
0.0
 40
0.0
 40
0.0
 40
0.0
 40
0.0317949818155703
 40
0.2737813310843136
 40
0.5158557206460411
 40
0.7579558193504896
 40
1.0
 40
1.0
 40
1.0
 40
1.0
 10
468.8309772746434
 20
862.0111181493429
 30
0.0
 10
468.8498632456549
 20
862.0510113833827
 30
0.0
 10
469.0124872192226
 20
862.3945254253158
 30
0.0
 10
469.1872326328265
 20
863.1072035027712
 30
0.0
 10
469.0888532305784
 20
864.1245711387493
 30
0.0
 10
468.6710002556522
 20
865.0740215337868
 30
0.0
 10
468.1662275902194
 20
865.5269998352644
 30
0.0
 10
467.9138704078068
 20
865.7534628267912
 30
0.0
  0
ARC
  5
38B
330
1F
100
AcDbEntity
  8
0
  6
Continuous
 62
     7
370
    15
100
AcDbCircle
 10
268.9406766431
 20
960.1178749557
 30
0.0
 40
222.6680664093017
100
AcDbArc
 50
333.0892737031
 51
333.8580566477
  0
LINE
  5
38C
330
1F
100
AcDbEntity
  8
0
  6
Continuous
 62
     7
370
    15
100
AcDbLine
 10
101.1910184162
 20
835.472187316
 30
0.0
 11
89.882050349
 21
830.5022700782
 31
0.0
  0
ARC
  5
38D
330
1F
100
AcDbEntity
  8
0
  6
Continuous
 62
     7
370
    15
100
AcDbCircle
 10
122.7128703515
 20
849.0075097461
 30
0.0
 40
37.68695579643287
100
AcDbArc
 50
201.8451097768
 51
209.4079779731
  0
LINE
  5
38E
330
1F
100
AcDbEntity
  8
0
  6
Continuous
 62
     7
370
    15
100
AcDbLine
 10
447.9993029373
 20
830.5022700782
 30
0.0
 11
436.7944045799
 21
835.4264482017
 31
0.0
  0
ARC
  5
38F
330
1F
100
AcDbEntity
  8
0
  6
Continuous
 62
     7
370
    15
100
AcDbCircle
 10
415.1684829348
 20
849.0075097461
 30
0.0
 40
37.68695579643286
100
AcDbArc
 50
330.5920220269
 51
338.1548902232
  0
LINE
  5
390
330
1F
100
AcDbEntity
  8
0
  6
Continuous
 62
     7
370
    15
100
AcDbLine
 10
280.9406767474
 20
1180.2363975998
 30
0.0
 11
280.9406767474
 21
1182.3562665935
 31
0.0
  0
ARC
  5
391
330
1F
100
AcDbEntity
  8
0
  6
Continuous
 62
     7
370
    15
100
AcDbCircle
 10
268.9406766431
 20
960.1178749557
 30
0.0
 40
222.562132482968
100
AcDbArc
 50
86.9092544534
 51
93.0907455466
  0
LINE
  5
392
330
1F
100
AcDbEntity
  8
0
  6
Continuous
 62
     7
370
    15
100
AcDbLine
 10
256.9406765388
 20
1182.3562665935
 30
0.0
 11
256.9406765388
 21
1180.2363975998
 31
0.0
  0
LWPOLYLINE
  5
393
330
1F
100
AcDbEntity
  8
0
  6
Continuous
 62
     7
370
    15
100
AcDbPolyline
 90
        9
 70
   128
 43
0.0
 10
253.6333582239
 20
1187.1023162361
 10
253.6423976408
 20
1186.9682802911
 10
253.6691824781
 20
1186.5710898395
 10
253.7127283277
 20
1185.9253629203
 10
253.7714323835
 20
1185.0548817869
 10
253.8431321146
 20
1183.9916839357
 10
253.9251900153
 20
1182.7748849149
 10
254.0145848753
 20
1181.4492925163
 10
254.1080272632
 20
1180.0636782404
  0
ARC
  5
394
330
1F
100
AcDbEntity
  8
0
  6
Continuous
 62
     7
370
    15
100
AcDbCircle
 10
268.9406766431
 20
960.1178749557
 30
0.0
 40
227.5000000000003
100
AcDbArc
 50
86.1419433523
 51
93.8580566477
  0
SPLINE
  5
395
330
1F
100
AcDbEntity
  8
0
  6
Continuous
 62
     7
370
    15
100
AcDbSpline
210
0.0
220
0.0
230
1.0
 70
     8
 71
     3
 72
    14
 73
    10
 74
     0
 42
0.00000001
 43
0.00000001
 12
1.0
 22
0.0
 32
0.0
 13
1.0
 23
0.0
 33
0.0
 40
0.0
 40
0.0
 40
0.0
 40
0.0
 40
0.1931616509607312
 40
0.3690640709551331
 40
0.6208949800417662
 40
0.8025174951823886
 40
0.9342730343374408
 40
0.998488265131794
 40
1.0
 40
1.0
 40
1.0
 40
1.0
 10
286.6702812598814
 20
1179.849131321493
 30
0.0
 10
286.6474037025613
 20
1180.596809449113
 30
0.0
 10
286.6036927257911
 20
1182.025359744533
 30
0.0
 10
286.2701680216272
 20
1184.169462689207
 30
0.0
 10
285.7341009399299
 20
1185.817996737148
 30
0.0
 10
285.0834722874636
 20
1186.738560157459
 30
0.0
 10
284.6005437597362
 20
1187.04211933691
 30
0.0
 10
284.338138108422
 20
1187.096001686025
 30
0.0
 10
284.250021758048
 20
1187.10217426538
 30
0.0
 10
284.2479950623383
 20
1187.102316236082
 30
0.0
  0
ARC
  5
396
330
1F
100
AcDbEntity
  8
0
  6
Continuous
 62
     7
370
    15
100
AcDbCircle
 10
295.0302316064
 20
1142.5221194809
 30
0.0
 40
38.25172653287658
100
AcDbArc
 50
95.1922813459
 51
102.6239362994
  0
SPLINE
  5
397
330
1F
100
AcDbEntity
  8
0
  6
Continuous
 62
     7
370
    15
100
AcDbSpline
210
0.0
220
0.0
230
1.0
 70
     8
 71
     3
 72
    15
 73
    11
 74
     0
 42
0.00000001
 43
0.00000001
 12
1.0
 22
0.0
 32
0.0
 13
1.0
 23
0.0
 33
0.0
 40
0.0
 40
0.0
 40
0.0
 40
0.0
 40
0.0016885782554544
 40
0.0673827775362824
 40
0.1463937836107918
 40
0.2329744943628818
 40
0.3879456313946242
 40
0.6419676968227844
 40
0.8154237600220944
 40
1.0
 40
1.0
 40
1.0
 40
1.0
 10
284.2479950623383
 20
1187.102316236082
 30
0.0
 10
284.2537541758678
 20
1187.101920942846
 30
0.0
 10
284.4835718135775
 20
1187.0861467517
 30
0.0
 10
284.9815675475255
 20
1187.030380913081
 30
0.0
 10
285.7578556769269
 20
1186.869483683272
 30
0.0
 10
286.8064405169373
 20
1186.532537558126
 30
0.0
 10
288.3437844370123
 20
1185.76155165527
 30
0.0
 10
289.8804670112275
 20
1184.371175713909
 30
0.0
 10
291.0628709726043
 20
1182.511849470796
 30
0.0
 10
291.3965100586095
 20
1181.261484148821
 30
0.0
 10
291.5685108737816
 20
1180.616883849683
 30
0.0
  0
LWPOLYLINE
  5
398
330
1F
100
AcDbEntity
  8
0
  6
Continuous
 62
     7
370
    15
100
AcDbPolyline
 90
        9
 70
   128
 43
0.0
 10
457.8613086479
 20
833.3691342827
 10
457.7848954933
 20
833.4203942772
 10
457.5584723489
 20
833.5723116155
 10
457.1903540628
 20
833.81926856
 10
456.6941155927
 20
834.1522052045
 10
456.0880108611
 20
834.5588429924
 10
455.3943618076
 20
835.0242360588
 10
454.6386643188
 20
835.5312257167
 10
453.8487686651
 20
836.0611780639
  0
ARC
  5
399
330
1F
100
AcDbEntity
  8
0
  6
Continuous
 62
     7
370
    15
100
AcDbCircle
 10
268.9406766431
 20
960.1178749557
 30
0.0
 40
224.251145616576
100
AcDbArc
 50
326.932555659
 51
333.067444341
  0
LWPOLYLINE
  5
39A
330
1F
100
AcDbEntity
  8
0
  6
Continuous
 62
     7
370
    15
100
AcDbPolyline
 90
        9
 70
   128
 43
0.0
 10
473.1686307924
 20
859.882181799
 10
473.0860187547
 20
859.9227278586
 10
472.8412522809
 20
860.0428610202
 10
472.4433167713
 20
860.2381705399
 10
471.9068749683
 20
860.5014591571
 10
471.2516560094
 20
860.8230411168
 10
470.5017848747
 20
861.1910699959
 10
469.6848734157
 20
861.5920155402
 10
468.8309772746
 20
862.0111181493
  0
ARC
  5
39B
330
1F
100
AcDbEntity
  8
0
  6
Continuous
 62
     7
370
    15
100
AcDbCircle
 10
268.9406766431
 20
960.1178749557
 30
0.0
 40
227.5000000000001
100
AcDbArc
 50
326.1419433523
 51
333.8580566477
  0
LINE
  5
39C
330
1F
100
AcDbEntity
  8
0
  6
Continuous
 62
     7
370
    15
100
AcDbLine
 10
455.496643378
 20
838.5533302184
 30
0.0
 11
456.8696065681
 21
837.7606480475
 31
0.0
  0
LINE
  5
39D
330
1F
100
AcDbEntity
  8
0
  6
Continuous
 62
     7
370
    15
100
AcDbLine
 10
468.8696159856
 20
858.5452570673
 30
0.0
 11
467.4966378944
 21
859.3379392381
 31
0.0
  0
ARC
  5
39E
330
1F
100
AcDbEntity
  8
0
  6
Continuous
 62
     7
370
    15
100
AcDbCircle
 10
268.9406766431
 20
960.1178749557
 30
0.0
 40
224.2511456152345
100
AcDbArc
 50
206.932555659
 51
213.067444341
  0
LWPOLYLINE
  5
39F
330
1F
100
AcDbEntity
  8
0
  6
Continuous
 62
     7
370
    15
100
AcDbPolyline
 90
        9
 70
   128
 43
0.0
 10
80.0200446384
 20
833.3691342827
 10
80.096457793
 20
833.4203942772
 10
80.3228809373
 20
833.5723116155
 10
80.6909992235
 20
833.81926856
 10
81.1872376935
 20
834.1522052045
 10
81.7933424251
 20
834.5588429924
 10
82.4869914787
 20
835.0242360588
 10
83.2426889675
 20
835.5312257167
 10
84.0325846212
 20
836.0611780639
  0
ARC
  5
3A0
330
1F
100
AcDbEntity
  8
0
  6
Continuous
 62
     7
370
    15
100
AcDbCircle
 10
268.9406766431
 20
960.1178749557
 30
0.0
 40
227.5
100
AcDbArc
 50
206.1419433523
 51
213.8580566477
  0
LWPOLYLINE
  5
3A1
330
1F
100
AcDbEntity
  8
0
  6
Continuous
 62
     7
370
    15
100
AcDbPolyline
 90
        9
 70
   128
 43
0.0
 10
69.0503760116
 20
862.0111181493
 10
68.1964798705
 20
861.5920155402
 10
67.3795684116
 20
861.1910699959
 10
66.6296972768
 20
860.8230411168
 10
65.974478318
 20
860.5014591571
 10
65.438036515
 20
860.2381705399
 10
65.0401010053
 20
860.0428610202
 10
64.7953345315
 20
859.9227278586
 10
64.7127224939
 20
859.882181799
  0
LINE
  5
3A2
330
1F
100
AcDbEntity
  8
0
  6
Continuous
 62
     7
370
    15
100
AcDbLine
 10
81.0117467182
 20
837.7606480475
 30
0.0
 11
82.3847099082
 21
838.5533302184
 31
0.0
  0
LINE
  5
3A3
330
1F
100
AcDbEntity
  8
0
  6
Continuous
 62
     7
370
    15
100
AcDbLine
 10
70.3847153919
 20
859.3379392381
 30
0.0
 11
69.0117373006
 21
858.5452570673
 31
0.0
  0
SPLINE
  5
3A4
330
1F
100
AcDbEntity
  8
0
  6
Continuous
 62
     7
370
    15
100
AcDbSpline
210
0.0
220
0.0
230
1.0
 70
     8
 71
     3
 72
    12
 73
     8
 74
     0
 42
0.00000001
 43
0.00000001
 12
1.0
 22
0.0
 32
0.0
 13
1.0
 23
0.0
 33
0.0
 40
0.0
 40
0.0
 40
0.0
 40
0.0
 40
0.2420732971867223
 40
0.4841835451959555
 40
0.726247397754218
 40
0.9682071246486671
 40
1.0
 40
1.0
 40
1.0
 40
1.0
 10
470.7203998105397
 20
869.8563560004858
 30
0.0
 10
471.393434526388
 20
869.2526479297507
 30
0.0
 10
472.7396066922012
 20
868.0451396363989
 30
0.0
 10
473.8545305668385
 20
865.5145398917277
 30
0.0
 10
474.1176574082075
 20
862.8031025826679
 30
0.0
 10
473.6522744641096
 20
860.9038579052284
 30
0.0
 10
473.2189552910012
 20
859.9884901016117
 30
0.0
 10
473.1686307923665
 20
859.8821817989973
 30
0.0
  0
SPLINE
  5
3A5
330
1F
100
AcDbEntity
  8
0
  6
Continuous
 62
     7
370
    15
100
AcDbSpline
210
0.0
220
0.0
230
1.0
 70
     8
 71
     3
 72
    12
 73
     8
 74
     0
 42
0.00000001
 43
0.00000001
 12
1.0
 22
0.0
 32
0.0
 13
1.0
 23
0.0
 33
0.0
 40
0.0
 40
0.0
 40
0.0
 40
0.0
 40
0.2420731624135059
 40
0.484182973380739
 40
0.7262466282100539
 40
0.9682068535000521
 40
1.0
 40
1.0
 40
1.0
 40
1.0
 10
89.88205034898422
 20
830.5022700782447
 30
0.0
 10
89.02270658544542
 20
830.2212535104518
 30
0.0
 10
87.30388895841864
 20
829.6591778304936
 30
0.0
 10
84.55486304487744
 20
829.9589459240692
 30
0.0
 10
82.07512172062401
 20
831.0867733503571
 30
0.0
 10
80.6629985674981
 20
832.4394266760091
 30
0.0
 10
80.08694616478674
 20
833.2723950682578
 30
0.0
 10
80.02004463838242
 20
833.3691342826514
 30
0.0
  0
SPLINE
  5
3A6
330
1F
100
AcDbEntity
  8
0
  6
Continuous
 62
     7
370
    15
100
AcDbSpline
210
0.0
220
0.0
230
1.0
 70
     8
 71
     3
 72
    12
 73
     8
 74
     0
 42
0.00000001
 43
0.00000001
 12
1.0
 22
0.0
 32
0.0
 13
1.0
 23
0.0
 33
0.0
 40
0.0
 40
0.0
 40
0.0
 40
0.0
 40
0.2418802688482783
 40
0.4837350568555698
 40
0.72561195323234
 40
0.9675804811683694
 40
1.0
 40
1.0
 40
1.0
 40
1.0
 10
64.71272249387405
 20
859.8821817989973
 30
0.0
 10
64.39587342324957
 20
860.7282650508545
 30
0.0
 10
63.76220866041901
 20
862.4203424240541
 30
0.0
 10
63.94439364670789
 20
865.177200025984
 30
0.0
 10
64.96418586133929
 20
867.7013869517183
 30
0.0
 10
66.2557318381207
 20
869.1717289705364
 30
0.0
 10
67.06530117368217
 20
869.784013329122
 30
0.0
 10
67.16095347570084
 20
869.8563560004858
 30
0.0
  0
SPLINE
  5
3A7
330
1F
100
AcDbEntity
  8
0
  6
Continuous
 62
     7
370
    15
100
AcDbSpline
210
0.0
220
0.0
230
1.0
 70
     8
 71
     3
 72
    12
 73
     8
 74
     0
 42
0.00000001
 43
0.00000001
 12
1.0
 22
0.0
 32
0.0
 13
1.0
 23
0.0
 33
0.0
 40
0.0
 40
0.0
 40
0.0
 40
0.0
 40
0.2418804841559477
 40
0.4837344046621574
 40
0.7256118848609594
 40
0.9675798503321321
 40
1.0
 40
1.0
 40
1.0
 40
1.0
 10
457.8613086478581
 20
833.3691342826514
 30
0.0
 10
457.287001120551
 20
832.6716939023327
 30
0.0
 10
456.1384491371849
 20
831.2768897355634
 30
0.0
 10
453.659856283278
 20
830.0562253600355
 30
0.0
 10
450.9639485205303
 20
829.67728220897
 30
0.0
 10
449.0448241796375
 20
830.060644739885
 30
0.0
 10
448.1097822138829
 20
830.4556039313084
 30
0.0
 10
447.9993029372563
 20
830.5022700782447
 30
0.0
  0
SPLINE
  5
3A8
330
1F
100
AcDbEntity
  8
0
  6
Continuous
 62
     7
370
    15
100
AcDbSpline
210
0.0
220
0.0
230
1.0
 70
     8
 71
     3
 72
    12
 73
     8
 74
     0
 42
0.00000001
 43
0.00000001
 12
1.0
 22
0.0
 32
0.0
 13
1.0
 23
0.0
 33
0.0
 40
0.0
 40
0.0
 40
0.0
 40
0.0
 40
0.2420673970337941
 40
0.4841752326474794
 40
0.726243910153467
 40
0.9682108836405754
 40
1.0
 40
1.0
 40
1.0
 40
1.0
 10
246.2195834951272
 20
1179.994998788419
 30
0.0
 10
246.4058937757271
 20
1180.879731342971
 30
0.0
 10
246.7785454609994
 20
1182.64934425111
 30
0.0
 10
248.4127037540024
 20
1184.88018630848
 30
0.0
 10
250.6293133403912
 20
1186.46376412462
 30
0.0
 10
252.5067729680728
 20
1187.010363976173
 30
0.0
 10
253.5161475818795
 20
1187.092749464847
 30
0.0
 10
253.6333582239022
 20
1187.102316236082
 30
0.0
  0
LINE
  5
3A9
330
1F
100
AcDbEntity
  8
0
  6
Continuous
 62
     7
370
    15
100
AcDbLine
 10
291.5685108738
 20
1180.6168838497
 30
0.0
 11
291.6617697911
 21
1179.9949987884
 31
0.0
  0
ARC
  5
3AA
330
1F
100
AcDbEntity
  8
0
  6
Continuous
 62
     7
370
    15
100
AcDbCircle
 10
268.9406766431
 20
1167.6178749557
 30
0.0
 40
5.50000000000007
100
AcDbArc
 50
16.187264951
 51
163.812735049
  0
ARC
  5
3AB
330
1F
100
AcDbEntity
  8
0
  6
Continuous
 62
     7
370
    15
100
AcDbCircle
 10
89.2404053578
 20
856.3678749557
 30
0.0
 40
5.500000000000056
100
AcDbArc
 50
136.187264951
 51
283.812735049
  0
ARC
  5
3AC
330
1F
100
AcDbEntity
  8
0
  6
Continuous
 62
     7
370
    15
100
AcDbCircle
 10
448.6409479284
 20
856.3678749557
 30
0.0
 40
5.500000000000033
100
AcDbArc
 50
256.1872649511
 51
43.8127350489
  0
LINE
  5
3AD
330
1F
100
AcDbEntity
  8
0
  6
Continuous
 62
     7
370
    15
100
AcDbLine
 10
202.8778462546
 20
761.7215796466
 30
0.0
 11
200.5953236358
 21
755.4503961559
 31
0.0
  0
LINE
  5
3AE
330
1F
100
AcDbEntity
  8
0
  6
Continuous
 62
     7
370
    15
100
AcDbLine
 10
210.7331498401
 20
751.7605408188
 30
0.0
 11
213.213142647
 21
758.5742606874
 31
0.0
  0
LINE
  5
3AF
330
1F
100
AcDbEntity
  8
0
  6
Continuous
 62
     7
370
    15
100
AcDbLine
 10
199.7023193972
 20
755.775435185
 30
0.0
 11
201.9766016738
 21
762.0239689108
 31
0.0
  0
LINE
  5
3B0
330
1F
100
AcDbEntity
  8
0
  6
Continuous
 62
     7
370
    15
100
AcDbLine
 10
187.1900602119
 20
767.6543130632
 30
0.0
 11
184.8359226124
 21
761.1863597389
 31
0.0
  0
LWPOLYLINE
  5
3B1
330
1F
100
AcDbEntity
  8
0
  6
Continuous
 62
     7
370
    15
100
AcDbPolyline
 90
        8
 70
   128
 43
0.0
 10
198.8128988879
 20
759.2916919943
 10
198.6371992962
 20
759.3556328769
 10
198.4756781595
 20
759.4144179578
 10
198.3345418112
 20
759.4657971616
 10
198.2192142742
 20
759.5077737327
 10
198.1341211932
 20
759.5387383457
 10
198.0825408237
 20
759.5575138088
 10
198.0663954155
 20
759.5633848663
  0
LWPOLYLINE
  5
3B2
330
1F
100
AcDbEntity
  8
0
  6
Continuous
 62
     7
370
    15
100
AcDbPolyline
 90
        8
 70
   128
 43
0.0
 10
197.040331258
 20
756.7443086858
 10
197.0564766662
 20
756.7384376283
 10
197.1080644863
 20
756.7196621652
 10
197.1931501167
 20
756.6886975523
 10
197.3084851043
 20
756.6467209812
 10
197.4496214526
 20
756.5953417774
 10
197.6111425893
 20
756.5365566965
 10
197.786842181
 20
756.4726009126
  0
LINE
  5
3B3
330
1F
100
AcDbEntity
  8
0
  6
Continuous
 62
     7
370
    15
100
AcDbLine
 10
184.1360970275
 20
761.4410652872
 30
0.0
 11
186.5041076081
 21
767.9471208807
 31
0.0
  0
LINE
  5
3B4
330
1F
100
AcDbEntity
  8
0
  6
Continuous
 62
     7
370
    15
100
AcDbLine
 10
181.8931444423
 20
769.9913068767
 30
0.0
 11
179.407526447
 21
763.1621345039
 31
0.0
  0
LWPOLYLINE
  5
3B5
330
1F
100
AcDbEntity
  8
0
  6
Continuous
 62
     7
370
    15
100
AcDbPolyline
 90
        7
 70
   128
 43
0.0
 10
210.9730250077
 20
751.6732349153
 10
210.9702980952
 20
751.674218392
 10
210.9529494183
 20
751.6805364843
 10
210.9198688404
 20
751.6925766225
 10
210.8716151552
 20
751.7101450916
 10
210.8090191023
 20
751.7329289671
 10
210.7331498401
 20
751.7605408188
  0
LINE
  5
3B6
330
1F
100
AcDbEntity
  8
0
  6
Continuous
 62
     7
370
    15
100
AcDbLine
 10
193.7855898278
 20
761.1214800831
 30
0.0
 11
189.4041939514
 21
762.7161725517
 31
0.0
  0
LINE
  5
3B7
330
1F
100
AcDbEntity
  8
0
  6
Continuous
 62
     7
370
    15
100
AcDbLine
 10
188.3781372445
 20
759.8970963712
 30
0.0
 11
192.7595256703
 21
758.3024039026
 31
0.0
  0
LWPOLYLINE
  5
3B8
330
1F
100
AcDbEntity
  8
0
  6
Continuous
 62
     7
370
    15
100
AcDbPolyline
 90
        4
 70
   128
 43
0.0
 10
179.407526447
 20
763.1621345039
 10
179.3769865172
 20
763.1732507702
 10
179.3622492688
 20
763.1786151882
 10
179.360841109
 20
763.1791218277
  0
LWPOLYLINE
  5
3B9
330
1F
100
AcDbEntity
  8
0
  6
Continuous
 62
     7
370
    15
100
AcDbPolyline
 90
        3
 70
   128
 43
0.0
 10
194.2995159762
 20
760.9344258066
 10
194.3195356862
 20
760.9271391388
 10
194.3195878403
 20
760.9271242376
  0
LWPOLYLINE
  5
3BA
330
1F
100
AcDbEntity
  8
0
  6
Continuous
 62
     7
370
    15
100
AcDbPolyline
 90
        3
 70
   128
 43
0.0
 10
193.2734592693
 20
758.1153496261
 10
193.2934789793
 20
758.1080629583
 10
193.2935311334
 20
758.108033156
  0
LINE
  5
3BB
330
1F
100
AcDbEntity
  8
0
  6
Continuous
 62
     7
370
    15
100
AcDbLine
 10
64.3322511451
 20
985.8139476832
 30
0.0
 11
64.3347992437
 21
985.7908844109
 31
0.0
  0
LINE
  5
3BC
330
1F
100
AcDbEntity
  8
0
  6
Continuous
 62
     7
370
    15
100
AcDbLine
 10
64.3122537868
 20
934.6324357297
 30
0.0
 11
64.3093480604
 21
934.6048927959
 31
0.0
  0
ARC
  5
3BD
330
1F
100
AcDbEntity
  8
0
  6
Continuous
 62
     7
370
    15
100
AcDbCircle
 10
65.178863918
 20
990.6204368157
 30
0.0
 40
0.9596204334389012
100
AcDbArc
 50
168.362532192
 51
250.5987130516
  0
ARC
  5
3BE
330
1F
100
AcDbEntity
  8
0
  6
Continuous
 62
     7
370
    15
100
AcDbCircle
 10
65.1516694782
 20
929.7976355591
 30
0.0
 40
0.9596385169027307
100
AcDbArc
 50
109.3509338807
 51
191.5852046858
  0
LINE
  5
3BF
330
1F
100
AcDbEntity
  8
0
  6
Continuous
 62
     7
370
    15
100
AcDbLine
 10
134.3472196596
 20
1119.874893045
 30
0.0
 11
134.308253123
 21
1119.8345257993
 31
0.0
  0
LINE
  5
3C0
330
1F
100
AcDbEntity
  8
0
  6
Continuous
 62
     7
370
    15
100
AcDbLine
 10
124.2788030641
 20
1110.8104868885
 30
0.0
 11
124.2624564903
 21
1110.8026935812
 31
0.0
  0
LWPOLYLINE
  5
3C1
330
1F
100
AcDbEntity
  8
0
  6
Continuous
 62
     7
370
    15
100
AcDbPolyline
 90
        3
 70
   128
 43
0.0
 10
124.2624564903
 20
1110.8026935812
 10
124.4199021594
 20
1110.9261348005
 10
124.5931579606
 20
1111.0135897155
  0
LWPOLYLINE
  5
3C2
330
1F
100
AcDbEntity
  8
0
  6
Continuous
 62
     7
370
    15
100
AcDbPolyline
 90
        3
 70
   128
 43
0.0
 10
134.3472196596
 20
1119.874893045
 10
134.2078640001
 20
1119.7313203569
 10
134.1952427165
 20
1119.71506319
  0
LINE
  5
3C3
330
1F
100
AcDbEntity
  8
0
  6
Continuous
 62
     7
370
    15
100
AcDbLine
 10
287.9551413344
 20
1168.2676359172
 30
0.0
 11
286.7052934008
 21
1179.6159281488
 31
0.0
  0
LINE
  5
3C4
330
1F
100
AcDbEntity
  8
0
  6
Continuous
 62
     7
370
    15
100
AcDbLine
 10
253.4585545646
 20
1179.4417335745
 30
0.0
 11
252.2475427823
 21
1168.4517099615
 31
0.0
  0
LINE
  5
3C5
330
1F
100
AcDbEntity
  8
0
  6
Continuous
 62
     7
370
    15
100
AcDbLine
 10
79.1495933072
 20
872.4946810957
 30
0.0
 11
69.9674828784
 21
865.7534628268
 31
0.0
  0
LWPOLYLINE
  5
3C6
330
1F
100
AcDbEntity
  8
0
  6
Continuous
 62
     7
370
    15
100
AcDbPolyline
 90
        3
 70
   128
 43
0.0
 10
467.9138704078
 20
865.7534628268
 10
459.8573787944
 20
871.6682105418
 10
458.6413248317
 20
872.5610359665
  0
LWPOLYLINE
  5
3C7
330
1F
100
AcDbEntity
  8
0
  6
Continuous
 62
     7
370
    15
100
AcDbPolyline
 90
        3
 70
   128
 43
0.0
 10
87.7320959108
 20
834.9842413421
 10
96.8826605813
 20
839.0039934869
 10
98.1660528915
 20
839.567756569
  0
LINE
  5
3C8
330
1F
100
AcDbEntity
  8
0
  6
Continuous
 62
     7
370
    15
100
AcDbLine
 10
439.6465762393
 20
839.5978867169
 30
0.0
 11
450.1492573755
 21
834.9842413421
 31
0.0
  0
ENDSEC
  0
SECTION
  2
OBJECTS
  0
DICTIONARY
  5
C
330
0
100
AcDbDictionary
281
     1
  3
ACAD_GROUP
350
D
  3
ACAD_LAYOUT
350
1A
  3
ACAD_MLINESTYLE
350
17
  3
ACAD_PLOTSETTINGS
350
19
  3
ACAD_PLOTSTYLENAME
350
E
  0
DICTIONARY
  5
D
102
{ACAD_REACTORS
330
C
102
}
330
C
100
AcDbDictionary
281
     1
  0
DICTIONARY
  5
1A
102
{ACAD_REACTORS
330
C
102
}
330
C
100
AcDbDictionary
281
     1
  3
Layout1
350
1E
  3
Layout2
350
26
  3
Model
350
22
  0
DICTIONARY
  5
17
102
{ACAD_REACTORS
330
C
102
}
330
C
100
AcDbDictionary
281
     1
  3
Standard
350
18
  0
DICTIONARY
  5
19
102
{ACAD_REACTORS
330
C
102
}
330
C
100
AcDbDictionary
281
     1
  0
ACDBDICTIONARYWDFLT
  5
E
102
{ACAD_REACTORS
330
C
102
}
330
C
100
AcDbDictionary
281
     1
  3
Normal
350
F
100
AcDbDictionaryWithDefault
340
F
  0
LAYOUT
  5
1E
102
{ACAD_REACTORS
330
1A
102
}
330
1A
100
AcDbPlotSettings
  1

  2
none_device
  4

  6

 40
0.0
 41
0.0
 42
0.0
 43
0.0
 44
0.0
 45
0.0
 46
0.0
 47
0.0
 48
0.0
 49
0.0
140
0.0
141
0.0
142
1.0
143
1.0
 70
   688
 72
     0
 73
     0
 74
     5
  7

 75
    16
147
1.0
148
0.0
149
0.0
100
AcDbLayout
  1
Layout1
 70
     1
 71
     1
 10
0.0
 20
0.0
 11
420.0
 21
297.0
 12
0.0
 22
0.0
 32
0.0
 14
1.0000000000E+20
 24
1.0000000000E+20
 34
1.0000000000E+20
 15
-1.0000000000E+20
 25
-1.0000000000E+20
 35
-1.0000000000E+20
146
0.0
 13
0.0
 23
0.0
 33
0.0
 16
1.0
 26
0.0
 36
0.0
 17
0.0
 27
1.0
 37
0.0
 76
     0
330
1B
  0
LAYOUT
  5
26
102
{ACAD_REACTORS
330
1A
102
}
330
1A
100
AcDbPlotSettings
  1

  2
none_device
  4

  6

 40
0.0
 41
0.0
 42
0.0
 43
0.0
 44
0.0
 45
0.0
 46
0.0
 47
0.0
 48
0.0
 49
0.0
140
0.0
141
0.0
142
1.0
143
1.0
 70
   688
 72
     0
 73
     0
 74
     5
  7

 75
    16
147
1.0
148
0.0
149
0.0
100
AcDbLayout
  1
Layout2
 70
     1
 71
     2
 10
0.0
 20
0.0
 11
0.0
 21
0.0
 12
0.0
 22
0.0
 32
0.0
 14
0.0
 24
0.0
 34
0.0
 15
0.0
 25
0.0
 35
0.0
146
0.0
 13
0.0
 23
0.0
 33
0.0
 16
1.0
 26
0.0
 36
0.0
 17
0.0
 27
1.0
 37
0.0
 76
     0
330
23
  0
LAYOUT
  5
22
102
{ACAD_REACTORS
330
1A
102
}
330
1A
100
AcDbPlotSettings
  1

  2
none_device
  4

  6

 40
0.0
 41
0.0
 42
0.0
 43
0.0
 44
0.0
 45
0.0
 46
0.0
 47
0.0
 48
0.0
 49
0.0
140
0.0
141
0.0
142
1.0
143
1.0
 70
  1712
 72
     0
 73
     0
 74
     0
  7

 75
     0
147
1.0
148
0.0
149
0.0
100
AcDbLayout
  1
Model
 70
     1
 71
     0
 10
0.0
 20
0.0
 11
297.0
 21
210.0
 12
0.0
 22
0.0
 32
0.0
 14
0.0
 24
0.0
 34
0.0
 15
297.0
 25
210.0
 35
0.0
146
0.0
 13
0.0
 23
0.0
 33
0.0
 16
1.0
 26
0.0
 36
0.0
 17
0.0
 27
1.0
 37
0.0
 76
     0
330
1F
331
29
  0
MLINESTYLE
  5
18
102
{ACAD_REACTORS
330
17
102
}
330
17
100
AcDbMlineStyle
  2
Standard
 70
     0
  3

 62
   256
 51
90.0
 52
90.0
 71
     2
 49
0.5
 62
   256
  6
BYLAYER
 49
-0.5
 62
   256
  6
BYLAYER
  0
ACDBPLACEHOLDER
  5
F
102
{ACAD_REACTORS
330
E
102
}
330
E
  0
ENDSEC
  0
EOF
